  0
SECTION
  2
HEADER
  9
$ACADVER
  1
AC1004
  9
$INSBASE
 10
0.0
 20
0.0
  9
$EXTMIN
 10
0.0
 20
-307.4136363636363
  9
$EXTMAX
 10
744.2500000000001
 20
164.0727272728273
  9
$LIMMIN
 10
0.0
 20
0.0
  9
$LIMMAX
 10
12.0
 20
9.0
  9
$ORTHOMODE
 70
     0
  9
$REGENMODE
 70
     1
  9
$FILLMODE
 70
     1
  9
$QTEXTMODE
 70
     0
  9
$DRAGMODE
 70
     2
  9
$LTSCALE
 40
1.0
  9
$OSMODE
 70
    37
  9
$ATTMODE
 70
     1
  9
$TEXTSIZE
 40
0.2
  9
$TRACEWID
 40
0.05
  9
$TEXTSTYLE
  7
STANDARD
  9
$CLAYER
  8
0
  9
$CELTYPE
  6
BYLAYER
  9
$CECOLOR
 62
   256
  9
$DIMSCALE
 40
1.0
  9
$DIMASZ
 40
3.0
  9
$DIMEXO
 40
0.0625
  9
$DIMDLI
 40
0.38
  9
$DIMRND
 40
0.0
  9
$DIMDLE
 40
0.0
  9
$DIMEXE
 40
1.5
  9
$DIMTP
 40
0.0
  9
$DIMTM
 40
0.0
  9
$DIMTXT
 40
3.0
  9
$DIMCEN
 40
0.09
  9
$DIMTSZ
 40
0.0
  9
$DIMTOL
 70
     0
  9
$DIMLIM
 70
     0
  9
$DIMTIH
 70
     1
  9
$DIMTOH
 70
     1
  9
$DIMSE1
 70
     0
  9
$DIMSE2
 70
     0
  9
$DIMTAD
 70
     1
  9
$DIMZIN
 70
     0
  9
$DIMBLK
  1

  9
$DIMASO
 70
     1
  9
$DIMSHO
 70
     1
  9
$DIMPOST
  1

  9
$DIMAPOST
  1

  9
$DIMALT
 70
     0
  9
$DIMALTD
 70
     2
  9
$DIMALTF
 40
25.4
  9
$DIMLFAC
 40
1.0
  9
$DIMTOFL
 70
     0
  9
$DIMTVP
 40
0.0
  9
$DIMTIX
 70
     0
  9
$DIMSOXD
 70
     0
  9
$DIMSAH
 70
     0
  9
$DIMBLK1
  1

  9
$DIMBLK2
  1

  9
$LUNITS
 70
     2
  9
$LUPREC
 70
     4
  9
$SKETCHINC
 40
0.1
  9
$FILLETRAD
 40
0.5
  9
$AUNITS
 70
     0
  9
$AUPREC
 70
     0
  9
$MENU
  1
.
  9
$ELEVATION
 40
0.0
  9
$THICKNESS
 40
0.0
  9
$LIMCHECK
 70
     0
  9
$CHAMFERA
 40
0.0
  9
$CHAMFERB
 40
0.0
  9
$SKPOLY
 70
     0
  9
$TDCREATE
 40
2460061.702128056
  9
$TDUPDATE
 40
2460061.702133067
  9
$TDINDWG
 40
0.0000000116
  9
$TDUSRTIMER
 40
0.0000000116
  9
$USRTIMER
 70
     1
  9
$ANGBASE
 50
0.0
  9
$ANGDIR
 70
     0
  9
$PDMODE
 70
     0
  9
$PDSIZE
 40
0.0
  9
$PLINEWID
 40
0.0
  9
$COORDS
 70
     1
  9
$SPLFRAME
 70
     0
  9
$SPLINETYPE
 70
     6
  9
$SPLINESEGS
 70
     8
  9
$ATTDIA
 70
     0
  9
$ATTREQ
 70
     1
  9
$SURFTAB1
 70
     6
  9
$SURFTAB2
 70
     6
  9
$SURFTYPE
 70
     6
  9
$SURFU
 70
     6
  9
$SURFV
 70
     6
  9
$UCSNAME
  2

  9
$UCSORG
 10
0.0
 20
0.0
 30
0.0
  9
$UCSXDIR
 10
1.0
 20
0.0
 30
0.0
  9
$UCSYDIR
 10
0.0
 20
1.0
 30
0.0
  9
$USERI1
 70
     0
  9
$USERI2
 70
     0
  9
$USERI3
 70
     0
  9
$USERI4
 70
     0
  9
$USERI5
 70
     0
  9
$USERR1
 40
0.0
  9
$USERR2
 40
0.0
  9
$USERR3
 40
0.0
  9
$USERR4
 40
0.0
  9
$USERR5
 40
0.0
  9
$WORLDVIEW
 70
     1
  0
ENDSEC
  0
SECTION
  2
TABLES
  0
TABLE
  2
LTYPE
 70
     2
  0
LTYPE
  2
CONTINUOUS
 70
     0
  3
Solid line
 72
    65
 73
     0
 40
0.0
  0
LTYPE
  2
CENTER
 70
     0
  3

 72
    65
 73
     0
 40
0.0
  0
ENDTAB
  0
TABLE
  2
LAYER
 70
     2
  0
LAYER
  2
0
 70
     0
 62
     7
  6
CONTINUOUS
  0
LAYER
  2
1
 70
     0
 62
     7
  6
CONTINUOUS
  0
ENDTAB
  0
TABLE
  2
STYLE
 70
     2
  0
STYLE
  2
STANDARD
 70
     0
 40
0.0
 41
1.0
 50
0.0
 71
     0
 42
0.2
  3
txt
  4

  0
STYLE
  2
ＭＳ_ゴシック
 70
     0
 40
0.0
 41
1.0
 50
0.0
 71
     0
 42
0.2
  3
ＭＳ ゴシック.shx
  4

  0
ENDTAB
  0
TABLE
  2
VIEW
 70
     0
  0
ENDTAB
  0
ENDSEC
  0
SECTION
  2
BLOCKS
  0
BLOCK
  8
0
  2
D_FRAME_VIEW_9209
 70
     0
 10
0.0
 20
0.0
  0
ENDBLK
  8
0
  0
BLOCK
  8
0
  2
D_FRAME_VIEW_9623
 70
     0
 10
0.0
 20
0.0
  0
ENDBLK
  8
0
  0
BLOCK
  8
0
  2
D_FRAME_VIEW_9625
 70
     0
 10
0.0
 20
0.0
  0
ENDBLK
  8
0
  0
BLOCK
  8
0
  2
D_FRAME_VIEW_11827
 70
     0
 10
0.0
 20
0.0
  0
ENDBLK
  8
0
  0
BLOCK
  8
0
  2
D_FRAME_VIEW_11825
 70
     0
 10
0.0
 20
0.0
  0
ENDBLK
  8
0
  0
BLOCK
  8
0
  2
D_FRAME_VIEW_11219
 70
     0
 10
0.0
 20
0.0
  0
ENDBLK
  8
0
  0
BLOCK
  8
0
  2
D_FRAME_VIEW_14548
 70
     0
 10
0.0
 20
0.0
  0
ENDBLK
  8
0
  0
BLOCK
  8
0
  2
D_FRAME_VIEW_7953
 70
     0
 10
0.0
 20
0.0
  0
ENDBLK
  8
0
  0
BLOCK
  8
0
  2
D_FRAME_VIEW_13742
 70
     0
 10
0.0
 20
0.0
  0
ENDBLK
  8
0
  0
BLOCK
  8
0
  2
D_FRAME_DRAWING_17
 70
     0
 10
0.0
 20
0.0
  0
LINE
  8
0
  6
CONTINUOUS
 62
     7
 10
0.0
 20
0.0
 11
420.0
 21
0.0
  0
LINE
  8
0
  6
CONTINUOUS
 62
     7
 10
420.0
 20
0.0
 11
420.0
 21
297.0
  0
LINE
  8
0
  6
CONTINUOUS
 62
     7
 10
420.0
 20
297.0
 11
0.0
 21
297.0
  0
LINE
  8
0
  6
CONTINUOUS
 62
     7
 10
0.0
 20
297.0
 11
0.0
 21
0.0
  0
ENDBLK
  8
0
  0
ENDSEC
  0
SECTION
  2
ENTITIES
  0
LINE
  8
1
  6
CONTINUOUS
 62
     7
 10
493.75
 20
-213.0
 11
493.75
 21
-107.0
  0
LINE
  8
1
  6
CONTINUOUS
 62
     7
 10
464.25
 20
-196.75
 11
464.25
 21
-208.5
  0
LINE
  8
1
  6
CONTINUOUS
 62
     7
 10
453.25
 20
-123.25
 11
464.2500000000001
 21
-123.25
  0
LINE
  8
1
  6
CONTINUOUS
 62
     7
 10
485.9576499290095
 20
-208.5
 11
485.9576499290096
 21
-111.5
  0
LINE
  8
1
  6
CONTINUOUS
 62
     7
 10
485.9576499290095
 20
-208.5
 11
385.5423500709904
 21
-208.5
  0
LINE
  8
1
  6
CONTINUOUS
 62
     7
 10
453.25
 20
-111.5
 11
453.25
 21
-123.25
  0
LINE
  8
1
  6
CONTINUOUS
 62
     7
 10
453.25
 20
-196.75
 11
464.25
 21
-196.75
  0
LINE
  8
1
  6
CONTINUOUS
 62
     7
 10
418.25
 20
-123.25
 11
407.25
 21
-123.25
  0
LINE
  8
1
  6
CONTINUOUS
 62
     7
 10
453.25
 20
-208.5
 11
453.25
 21
-196.75
  0
LINE
  8
1
  6
CONTINUOUS
 62
     7
 10
407.25
 20
-123.25
 11
407.25
 21
-111.5
  0
LINE
  8
1
  6
CONTINUOUS
 62
     7
 10
385.5423500709904
 20
-111.5
 11
385.5423500709904
 21
-208.5
  0
LINE
  8
1
  6
CONTINUOUS
 62
     7
 10
314.85
 20
-107.0
 11
350.85
 21
-107.0
  0
LINE
  8
1
  6
CONTINUOUS
 62
     7
 10
407.25
 20
-196.75
 11
407.25
 21
-208.5
  0
LINE
  8
1
  6
CONTINUOUS
 62
     7
 10
377.75
 20
-107.0
 11
377.75
 21
-213.0
  0
LINE
  8
1
  6
CONTINUOUS
 62
     7
 10
377.75
 20
-213.0
 11
493.75
 21
-213.0
  0
LINE
  8
1
  6
CONTINUOUS
 62
     7
 10
464.25
 20
-123.25
 11
464.2499999999999
 21
-111.5
  0
LINE
  8
1
  6
CONTINUOUS
 62
     7
 10
485.9576499290096
 20
-111.5
 11
385.5423500709904
 21
-111.5
  0
LINE
  8
1
  6
CONTINUOUS
 62
     7
 10
418.25
 20
-208.5
 11
418.25
 21
-196.75
  0
LINE
  8
1
  6
CONTINUOUS
 62
     7
 10
350.85
 20
-107.0
 11
350.85
 21
-213.0
  0
LINE
  8
1
  6
CONTINUOUS
 62
     7
 10
418.25
 20
-111.5
 11
418.25
 21
-123.25
  0
LINE
  8
1
  6
CONTINUOUS
 62
     7
 10
418.25
 20
-196.75
 11
407.25
 21
-196.75
  0
LINE
  8
1
  6
CONTINUOUS
 62
     7
 10
493.75
 20
-107.0
 11
377.75
 21
-107.0
  0
LINE
  8
1
  6
CONTINUOUS
 62
     7
 10
473.7500000000001
 20
-279.65
 11
485.2500000000001
 21
-279.65
  0
LINE
  8
1
  6
CONTINUOUS
 62
     7
 10
350.85
 20
-213.0
 11
314.85
 21
-213.0
  0
ARC
  8
1
  6
CONTINUOUS
 62
     7
 10
435.75
 20
-265.65
 40
14.99999999999999
 50
50.05549481018521
 51
129.9445051898148
  0
LINE
  8
1
  6
CONTINUOUS
 62
     7
 10
377.75
 20
-282.65
 11
377.75
 21
-246.65
  0
LINE
  8
1
  6
CONTINUOUS
 62
     7
 10
314.85
 20
-213.0
 11
314.85
 21
-107.0
  0
LINE
  8
1
  6
CONTINUOUS
 62
     7
 10
473.75
 20
-251.65
 11
485.2500000000001
 21
-251.65
  0
LINE
  8
1
  6
CONTINUOUS
 62
     7
 10
493.75
 20
-282.65
 11
377.75
 21
-282.65
  0
LINE
  8
1
  6
CONTINUOUS
 62
     7
 10
386.25
 20
-279.65
 11
397.75
 21
-279.65
  0
LINE
  8
1
  6
CONTINUOUS
 62
     7
 10
377.75
 20
-246.65
 11
493.75
 21
-246.65
  0
LINE
  8
1
  6
CONTINUOUS
 62
     7
 10
485.2500000000001
 20
-279.65
 11
485.2500000000001
 21
-251.65
  0
LINE
  8
1
  6
CONTINUOUS
 62
     7
 10
386.25
 20
-279.65
 11
386.25
 21
-251.65
  0
LINE
  8
1
  6
CONTINUOUS
 62
     7
 10
493.75
 20
-246.65
 11
493.75
 21
-282.65
  0
LINE
  8
1
  6
CONTINUOUS
 62
     7
 10
386.2500000000001
 20
-251.65
 11
397.7500000000001
 21
-251.65
  0
ARC
  8
1
  6
CONTINUOUS
 62
     7
 10
424.75
 20
-265.65
 40
11.50000000000001
 50
90.00000000000001
 51
270.0
  0
ARC
  8
1
  6
CONTINUOUS
 62
     7
 10
446.75
 20
-265.65
 40
11.50000000000001
 50
270.0
 51
90.0
  0
ARC
  8
1
  6
CONTINUOUS
 62
     7
 10
435.75
 20
-265.65
 40
14.99999999999995
 50
284.5925506020334
 51
309.9445051898149
  0
INSERT
  8
1
  6
CONTINUOUS
 62
     7
  2
D_FRAME_VIEW_9209
 10
0.0
 20
0.0
 30
0.0
  0
INSERT
  8
1
  6
CONTINUOUS
 62
     7
  2
D_FRAME_VIEW_9623
 10
0.0
 20
0.0
 30
0.0
  0
INSERT
  8
1
  6
CONTINUOUS
 62
     7
  2
D_FRAME_VIEW_9625
 10
0.0
 20
0.0
 30
0.0
  0
INSERT
  8
1
  6
CONTINUOUS
 62
     7
  2
D_FRAME_VIEW_11827
 10
0.0
 20
0.0
 30
0.0
  0
INSERT
  8
1
  6
CONTINUOUS
 62
     7
  2
D_FRAME_VIEW_11825
 10
0.0
 20
0.0
 30
0.0
  0
INSERT
  8
1
  6
CONTINUOUS
 62
     7
  2
D_FRAME_VIEW_11219
 10
0.0
 20
0.0
 30
0.0
  0
INSERT
  8
1
  6
CONTINUOUS
 62
     7
  2
D_FRAME_VIEW_14548
 10
0.0
 20
0.0
 30
0.0
  0
INSERT
  8
1
  6
CONTINUOUS
 62
     7
  2
D_FRAME_VIEW_7953
 10
0.0
 20
0.0
 30
0.0
  0
INSERT
  8
1
  6
CONTINUOUS
 62
     7
  2
D_FRAME_VIEW_13742
 10
0.0
 20
0.0
 30
0.0
  0
LINE
  8
1
  6
CONTINUOUS
 62
     7
 10
493.75
 20
-160.0
 11
493.75
 21
-110.0
  0
CIRCLE
  8
1
  6
CONTINUOUS
 62
     7
 10
412.75
 20
-201.75
 40
2.100000000000001
  0
LINE
  8
1
  6
CONTINUOUS
 62
     7
 10
377.75
 20
-160.0
 11
377.75
 21
-210.0
  0
CIRCLE
  8
1
  6
CONTINUOUS
 62
     7
 10
458.75
 20
-201.75
 40
2.100000000000001
  0
CIRCLE
  8
1
  6
CONTINUOUS
 62
     7
 10
412.75
 20
-118.25
 40
2.100000000000001
  0
CIRCLE
  8
1
  6
CONTINUOUS
 62
     7
 10
458.75
 20
-118.25
 40
2.100000000000001
  0
TEXT
  8
1
  6
CONTINUOUS
 62
     7
 10
412.1581780667751
 20
-308.0409090909091
 40
6.0
  1
ＳＢ－ＫＧＰ２
  0
LINE
  8
1
  6
CENTER
 62
     1
 10
377.75
 20
-160.0
 11
493.75
 21
-160.0
  0
LINE
  8
1
  6
CENTER
 62
     1
 10
435.75
 20
-213.0
 11
435.75
 21
-107.0
  0
LINE
  8
1
  6
CENTER
 62
     1
 10
412.75
 20
-213.0
 11
412.75
 21
-107.0
  0
LINE
  8
1
  6
CENTER
 62
     1
 10
458.75
 20
-213.0
 11
458.75
 21
-107.0
  0
LINE
  8
1
  6
CENTER
 62
     1
 10
458.7500000000001
 20
-282.65
 11
458.7500000000001
 21
-246.65
  0
LINE
  8
1
  6
CENTER
 62
     1
 10
435.75
 20
-246.65
 11
435.75
 21
-282.65
  0
LINE
  8
1
  6
CENTER
 62
     1
 10
314.85
 20
-160.0
 11
350.85
 21
-160.0
  0
LINE
  8
1
  6
CENTER
 62
     1
 10
412.75
 20
-282.65
 11
412.75
 21
-246.65
  0
ARC
  8
1
  6
CONTINUOUS
 62
     7
 10
473.75
 20
-265.65
 40
14.00000000000001
 50
90.00000000000004
 51
270.0
  0
ARC
  8
1
  6
CONTINUOUS
 62
     7
 10
435.7499999999999
 20
-265.6499999999998
 40
15.00000000000019
 50
255.4074493979672
 51
284.5925506020334
  0
ARC
  8
1
  6
CONTINUOUS
 62
     7
 10
435.75
 20
-265.65
 40
14.99999999999999
 50
230.0554948101851
 51
255.4074493979669
  0
ARC
  8
1
  6
CONTINUOUS
 62
     7
 10
397.7500000000001
 20
-265.65
 40
14.00000000000001
 50
270.0
 51
89.99999999999994
  0
LINE
  8
1
  6
CONTINUOUS
 62
     7
 10
446.75
 20
-254.15
 11
445.3806801421291
 21
-254.15
  0
LINE
  8
1
  6
CONTINUOUS
 62
     7
 10
445.3806801421291
 20
-277.15
 11
446.75
 21
-277.15
  0
LINE
  8
1
  6
CONTINUOUS
 62
     7
 10
424.75
 20
-277.15
 11
426.1193198578709
 21
-277.15
  0
LINE
  8
1
  6
CONTINUOUS
 62
     7
 10
424.75
 20
-254.15
 11
426.1193198578709
 21
-254.15
  0
INSERT
  8
0
 62
     7
  2
D_FRAME_DRAWING_17
 10
0.0
 20
0.0
 30
0.0
  0
POLYLINE
  8
1
  6
CONTINUOUS
 62
     7
 66
     1
 70
     1
  0
VERTEX
  8
1
  6
CONTINUOUS
 62
     7
 10
389.3810194482077
 20
-288.85
  0
VERTEX
  8
1
  6
CONTINUOUS
 62
     7
 10
481.7940523202375
 20
-288.85
  0
VERTEX
  8
1
  6
CONTINUOUS
 62
     7
 10
481.7940523202375
 20
-282.65
  0
VERTEX
  8
1
  6
CONTINUOUS
 62
     7
 10
389.3810194482077
 20
-282.65
  0
SEQEND
  8
1
  6
CONTINUOUS
 62
     7
  0
POLYLINE
  8
1
  6
CONTINUOUS
 62
     7
 66
     1
 70
     1
  0
VERTEX
  8
1
  6
CONTINUOUS
 62
     7
 10
308.65
 20
-174.5440523202375
  0
VERTEX
  8
1
  6
CONTINUOUS
 62
     7
 10
314.85
 20
-174.5440523202375
  0
VERTEX
  8
1
  6
CONTINUOUS
 62
     7
 10
314.85
 20
-125.0
  0
VERTEX
  8
1
  6
CONTINUOUS
 62
     7
 10
308.65
 20
-125.0
  0
SEQEND
  8
1
  6
CONTINUOUS
 62
     7
  0
ENDSEC
  0
EOF
