  0
SECTION
  2
HEADER
  9
$ACADVER
  1
AC1004
  9
$INSBASE
 10
0.0
 20
0.0
  9
$EXTMIN
 10
0.0
 20
-307.4136363636363
  9
$EXTMAX
 10
744.2500000000001
 20
164.0727272728273
  9
$LIMMIN
 10
0.0
 20
0.0
  9
$LIMMAX
 10
12.0
 20
9.0
  9
$ORTHOMODE
 70
     0
  9
$REGENMODE
 70
     1
  9
$FILLMODE
 70
     1
  9
$QTEXTMODE
 70
     0
  9
$DRAGMODE
 70
     2
  9
$LTSCALE
 40
1.0
  9
$OSMODE
 70
    37
  9
$ATTMODE
 70
     1
  9
$TEXTSIZE
 40
0.2
  9
$TRACEWID
 40
0.05
  9
$TEXTSTYLE
  7
STANDARD
  9
$CLAYER
  8
0
  9
$CELTYPE
  6
BYLAYER
  9
$CECOLOR
 62
   256
  9
$DIMSCALE
 40
1.0
  9
$DIMASZ
 40
3.0
  9
$DIMEXO
 40
0.0625
  9
$DIMDLI
 40
0.38
  9
$DIMRND
 40
0.0
  9
$DIMDLE
 40
0.0
  9
$DIMEXE
 40
1.5
  9
$DIMTP
 40
0.0
  9
$DIMTM
 40
0.0
  9
$DIMTXT
 40
3.0
  9
$DIMCEN
 40
0.09
  9
$DIMTSZ
 40
0.0
  9
$DIMTOL
 70
     0
  9
$DIMLIM
 70
     0
  9
$DIMTIH
 70
     1
  9
$DIMTOH
 70
     1
  9
$DIMSE1
 70
     0
  9
$DIMSE2
 70
     0
  9
$DIMTAD
 70
     1
  9
$DIMZIN
 70
     0
  9
$DIMBLK
  1

  9
$DIMASO
 70
     1
  9
$DIMSHO
 70
     1
  9
$DIMPOST
  1

  9
$DIMAPOST
  1

  9
$DIMALT
 70
     0
  9
$DIMALTD
 70
     2
  9
$DIMALTF
 40
25.4
  9
$DIMLFAC
 40
1.0
  9
$DIMTOFL
 70
     0
  9
$DIMTVP
 40
0.0
  9
$DIMTIX
 70
     0
  9
$DIMSOXD
 70
     0
  9
$DIMSAH
 70
     0
  9
$DIMBLK1
  1

  9
$DIMBLK2
  1

  9
$LUNITS
 70
     2
  9
$LUPREC
 70
     4
  9
$SKETCHINC
 40
0.1
  9
$FILLETRAD
 40
0.5
  9
$AUNITS
 70
     0
  9
$AUPREC
 70
     0
  9
$MENU
  1
.
  9
$ELEVATION
 40
0.0
  9
$THICKNESS
 40
0.0
  9
$LIMCHECK
 70
     0
  9
$CHAMFERA
 40
0.0
  9
$CHAMFERB
 40
0.0
  9
$SKPOLY
 70
     0
  9
$TDCREATE
 40
2460061.701958495
  9
$TDUPDATE
 40
2460061.701963785
  9
$TDINDWG
 40
0.0000000116
  9
$TDUSRTIMER
 40
0.0000000116
  9
$USRTIMER
 70
     1
  9
$ANGBASE
 50
0.0
  9
$ANGDIR
 70
     0
  9
$PDMODE
 70
     0
  9
$PDSIZE
 40
0.0
  9
$PLINEWID
 40
0.0
  9
$COORDS
 70
     1
  9
$SPLFRAME
 70
     0
  9
$SPLINETYPE
 70
     6
  9
$SPLINESEGS
 70
     8
  9
$ATTDIA
 70
     0
  9
$ATTREQ
 70
     1
  9
$SURFTAB1
 70
     6
  9
$SURFTAB2
 70
     6
  9
$SURFTYPE
 70
     6
  9
$SURFU
 70
     6
  9
$SURFV
 70
     6
  9
$UCSNAME
  2

  9
$UCSORG
 10
0.0
 20
0.0
 30
0.0
  9
$UCSXDIR
 10
1.0
 20
0.0
 30
0.0
  9
$UCSYDIR
 10
0.0
 20
1.0
 30
0.0
  9
$USERI1
 70
     0
  9
$USERI2
 70
     0
  9
$USERI3
 70
     0
  9
$USERI4
 70
     0
  9
$USERI5
 70
     0
  9
$USERR1
 40
0.0
  9
$USERR2
 40
0.0
  9
$USERR3
 40
0.0
  9
$USERR4
 40
0.0
  9
$USERR5
 40
0.0
  9
$WORLDVIEW
 70
     1
  0
ENDSEC
  0
SECTION
  2
TABLES
  0
TABLE
  2
LTYPE
 70
     2
  0
LTYPE
  2
CONTINUOUS
 70
     0
  3
Solid line
 72
    65
 73
     0
 40
0.0
  0
LTYPE
  2
CENTER
 70
     0
  3

 72
    65
 73
     0
 40
0.0
  0
ENDTAB
  0
TABLE
  2
LAYER
 70
     2
  0
LAYER
  2
0
 70
     0
 62
     7
  6
CONTINUOUS
  0
LAYER
  2
1
 70
     0
 62
     7
  6
CONTINUOUS
  0
ENDTAB
  0
TABLE
  2
STYLE
 70
     2
  0
STYLE
  2
STANDARD
 70
     0
 40
0.0
 41
1.0
 50
0.0
 71
     0
 42
0.2
  3
txt
  4

  0
STYLE
  2
ＭＳ_ゴシック
 70
     0
 40
0.0
 41
1.0
 50
0.0
 71
     0
 42
0.2
  3
ＭＳ ゴシック.shx
  4

  0
ENDTAB
  0
TABLE
  2
VIEW
 70
     0
  0
ENDTAB
  0
ENDSEC
  0
SECTION
  2
BLOCKS
  0
BLOCK
  8
0
  2
D_FRAME_VIEW_7953
 70
     0
 10
0.0
 20
0.0
  0
ENDBLK
  8
0
  0
BLOCK
  8
0
  2
D_FRAME_VIEW_9209
 70
     0
 10
0.0
 20
0.0
  0
ENDBLK
  8
0
  0
BLOCK
  8
0
  2
D_FRAME_VIEW_9623
 70
     0
 10
0.0
 20
0.0
  0
ENDBLK
  8
0
  0
BLOCK
  8
0
  2
D_FRAME_VIEW_11219
 70
     0
 10
0.0
 20
0.0
  0
ENDBLK
  8
0
  0
BLOCK
  8
0
  2
D_FRAME_VIEW_11827
 70
     0
 10
0.0
 20
0.0
  0
ENDBLK
  8
0
  0
BLOCK
  8
0
  2
D_FRAME_VIEW_14548
 70
     0
 10
0.0
 20
0.0
  0
ENDBLK
  8
0
  0
BLOCK
  8
0
  2
D_FRAME_VIEW_9625
 70
     0
 10
0.0
 20
0.0
  0
ENDBLK
  8
0
  0
BLOCK
  8
0
  2
D_FRAME_VIEW_11825
 70
     0
 10
0.0
 20
0.0
  0
ENDBLK
  8
0
  0
BLOCK
  8
0
  2
D_FRAME_VIEW_13742
 70
     0
 10
0.0
 20
0.0
  0
ENDBLK
  8
0
  0
BLOCK
  8
0
  2
D_FRAME_DRAWING_17
 70
     0
 10
0.0
 20
0.0
  0
LINE
  8
0
  6
CONTINUOUS
 62
     7
 10
0.0
 20
0.0
 11
420.0
 21
0.0
  0
LINE
  8
0
  6
CONTINUOUS
 62
     7
 10
420.0
 20
0.0
 11
420.0
 21
297.0
  0
LINE
  8
0
  6
CONTINUOUS
 62
     7
 10
420.0
 20
297.0
 11
0.0
 21
297.0
  0
LINE
  8
0
  6
CONTINUOUS
 62
     7
 10
0.0
 20
297.0
 11
0.0
 21
0.0
  0
ENDBLK
  8
0
  0
ENDSEC
  0
SECTION
  2
ENTITIES
  0
LINE
  8
1
  6
CENTER
 62
     1
 10
709.2499999999999
 20
-215.5
 11
709.2499999999999
 21
-109.5
  0
LINE
  8
1
  6
CENTER
 62
     1
 10
663.25
 20
-280.15
 11
663.25
 21
-244.15
  0
LINE
  8
1
  6
CENTER
 62
     1
 10
582.2499999999999
 20
-162.5
 11
744.25
 21
-162.5
  0
LINE
  8
1
  6
CENTER
 62
     1
 10
617.2500000000001
 20
-244.15
 11
617.2500000000001
 21
-280.15
  0
LINE
  8
1
  6
CENTER
 62
     1
 10
709.2499999999999
 20
-244.15
 11
709.2499999999999
 21
-280.15
  0
LINE
  8
1
  6
CENTER
 62
     1
 10
617.25
 20
-215.5
 11
617.25
 21
-109.5
  0
LINE
  8
1
  6
CENTER
 62
     1
 10
663.25
 20
-215.5
 11
663.25
 21
-109.5
  0
LINE
  8
1
  6
CENTER
 62
     1
 10
558.35
 20
-162.5
 11
522.35
 21
-162.5
  0
TEXT
  8
1
  6
CONTINUOUS
 62
     7
 10
644.6990871576841
 20
-305.5545454545455
 40
6.0
  1
ＳＢ－ＫＧＰ３
  0
INSERT
  8
1
  6
CONTINUOUS
 62
     7
  2
D_FRAME_VIEW_7953
 10
0.0
 20
0.0
 30
0.0
  0
INSERT
  8
1
  6
CONTINUOUS
 62
     7
  2
D_FRAME_VIEW_9209
 10
0.0
 20
0.0
 30
0.0
  0
INSERT
  8
1
  6
CONTINUOUS
 62
     7
  2
D_FRAME_VIEW_9623
 10
0.0
 20
0.0
 30
0.0
  0
POLYLINE
  8
1
  6
CONTINUOUS
 62
     7
 66
     1
 70
     1
  0
VERTEX
  8
1
  6
CONTINUOUS
 62
     7
 10
516.15
 20
-177.0440523202375
  0
VERTEX
  8
1
  6
CONTINUOUS
 62
     7
 10
522.35
 20
-177.0440523202375
  0
VERTEX
  8
1
  6
CONTINUOUS
 62
     7
 10
522.35
 20
-127.5
  0
VERTEX
  8
1
  6
CONTINUOUS
 62
     7
 10
516.15
 20
-127.5
  0
SEQEND
  8
1
  6
CONTINUOUS
 62
     7
  0
POLYLINE
  8
1
  6
CONTINUOUS
 62
     7
 66
     1
 70
     1
  0
VERTEX
  8
1
  6
CONTINUOUS
 62
     7
 10
593.8810194482076
 20
-286.35
  0
VERTEX
  8
1
  6
CONTINUOUS
 62
     7
 10
732.2940523202375
 20
-286.35
  0
VERTEX
  8
1
  6
CONTINUOUS
 62
     7
 10
732.2940523202375
 20
-280.15
  0
VERTEX
  8
1
  6
CONTINUOUS
 62
     7
 10
593.8810194482076
 20
-280.15
  0
SEQEND
  8
1
  6
CONTINUOUS
 62
     7
  0
INSERT
  8
1
  6
CONTINUOUS
 62
     7
  2
D_FRAME_VIEW_11219
 10
0.0
 20
0.0
 30
0.0
  0
INSERT
  8
1
  6
CONTINUOUS
 62
     7
  2
D_FRAME_VIEW_11827
 10
0.0
 20
0.0
 30
0.0
  0
INSERT
  8
1
  6
CONTINUOUS
 62
     7
  2
D_FRAME_VIEW_14548
 10
0.0
 20
0.0
 30
0.0
  0
INSERT
  8
1
  6
CONTINUOUS
 62
     7
  2
D_FRAME_VIEW_9625
 10
0.0
 20
0.0
 30
0.0
  0
INSERT
  8
1
  6
CONTINUOUS
 62
     7
  2
D_FRAME_VIEW_11825
 10
0.0
 20
0.0
 30
0.0
  0
INSERT
  8
1
  6
CONTINUOUS
 62
     7
  2
D_FRAME_VIEW_13742
 10
0.0
 20
0.0
 30
0.0
  0
LINE
  8
1
  6
CONTINUOUS
 62
     7
 10
516.15
 20
-175.0467932507284
 11
516.15
 21
-129.5
  0
ARC
  8
1
  6
CONTINUOUS
 62
     7
 10
686.25
 20
-263.15
 40
15.00000000000001
 50
111.0394697813173
 51
129.9445051898149
  0
ARC
  8
1
  6
CONTINUOUS
 62
     7
 10
640.25
 20
-263.15
 40
14.99999999999997
 50
111.0394697813173
 51
129.9445051898149
  0
ARC
  8
1
  6
CONTINUOUS
 62
     7
 10
640.25
 20
-263.1499999999999
 40
15.00000000000008
 50
256.1375678835665
 51
283.8624321164339
  0
ARC
  8
1
  6
CONTINUOUS
 62
     7
 10
686.25
 20
-263.15
 40
14.99999999999997
 50
50.05549481018509
 51
68.96053021868273
  0
ARC
  8
1
  6
CONTINUOUS
 62
     7
 10
686.25
 20
-263.15
 40
15.00000000000001
 50
68.96053021868272
 51
111.0394697813173
  0
ARC
  8
1
  6
CONTINUOUS
 62
     7
 10
640.25
 20
-263.15
 40
14.99999999999997
 50
68.96053021868272
 51
111.0394697813173
  0
ARC
  8
1
  6
CONTINUOUS
 62
     7
 10
724.25
 20
-263.15
 40
13.99999999999998
 50
90.0
 51
270.0
  0
ARC
  8
1
  6
CONTINUOUS
 62
     7
 10
686.2499999999999
 20
-263.1498878740667
 40
15.00010886015344
 50
256.1376704973534
 51
283.8623295026474
  0
ARC
  8
1
  6
CONTINUOUS
 62
     7
 10
602.2499999999999
 20
-263.15
 40
14.00000000000001
 50
270.0
 51
90.0
  0
LINE
  8
1
  6
CONTINUOUS
 62
     7
 10
582.25
 20
-244.15
 11
744.25
 21
-244.15
  0
LINE
  8
1
  6
CONTINUOUS
 62
     7
 10
558.35
 20
-109.5
 11
558.35
 21
-215.5
  0
LINE
  8
1
  6
CONTINUOUS
 62
     7
 10
611.75
 20
-199.25
 11
611.75
 21
-211.0
  0
LINE
  8
1
  6
CONTINUOUS
 62
     7
 10
714.75
 20
-114.0
 11
714.75
 21
-125.75
  0
LINE
  8
1
  6
CONTINUOUS
 62
     7
 10
590.0423500709903
 20
-114.0
 11
590.0423500709903
 21
-211.0
  0
LINE
  8
1
  6
CONTINUOUS
 62
     7
 10
714.75
 20
-211.0
 11
714.75
 21
-199.25
  0
LINE
  8
1
  6
CONTINUOUS
 62
     7
 10
668.7499999999999
 20
-125.75
 11
657.7499999999999
 21
-125.75
  0
LINE
  8
1
  6
CONTINUOUS
 62
     7
 10
622.75
 20
-125.75
 11
611.75
 21
-125.75
  0
LINE
  8
1
  6
CONTINUOUS
 62
     7
 10
744.25
 20
-215.5
 11
744.25
 21
-109.5
  0
LINE
  8
1
  6
CONTINUOUS
 62
     7
 10
622.75
 20
-211.0
 11
622.75
 21
-199.25
  0
LINE
  8
1
  6
CONTINUOUS
 62
     7
 10
714.75
 20
-125.75
 11
703.75
 21
-125.75
  0
LINE
  8
1
  6
CONTINUOUS
 62
     7
 10
703.75
 20
-199.25
 11
703.75
 21
-211.0
  0
LINE
  8
1
  6
CONTINUOUS
 62
     7
 10
582.2499999999999
 20
-109.5
 11
582.2499999999999
 21
-215.5
  0
LINE
  8
1
  6
CONTINUOUS
 62
     7
 10
582.2499999999999
 20
-215.5
 11
744.25
 21
-215.5
  0
LINE
  8
1
  6
CONTINUOUS
 62
     7
 10
657.7499999999999
 20
-125.75
 11
657.7499999999999
 21
-114.0
  0
LINE
  8
1
  6
CONTINUOUS
 62
     7
 10
668.7499999999999
 20
-114.0
 11
668.7499999999999
 21
-125.75
  0
LINE
  8
1
  6
CONTINUOUS
 62
     7
 10
736.4576499290096
 20
-114.0
 11
590.0423500709903
 21
-114.0
  0
LINE
  8
1
  6
CONTINUOUS
 62
     7
 10
736.4576499290096
 20
-211.0
 11
736.4576499290096
 21
-114.0
  0
LINE
  8
1
  6
CONTINUOUS
 62
     7
 10
558.35
 20
-215.5
 11
522.35
 21
-215.5
  0
LINE
  8
1
  6
CONTINUOUS
 62
     7
 10
522.35
 20
-109.5
 11
558.35
 21
-109.5
  0
LINE
  8
1
  6
CONTINUOUS
 62
     7
 10
668.7499999999999
 20
-211.0
 11
668.7499999999999
 21
-199.25
  0
LINE
  8
1
  6
CONTINUOUS
 62
     7
 10
622.75
 20
-114.0
 11
622.75
 21
-125.75
  0
LINE
  8
1
  6
CONTINUOUS
 62
     7
 10
744.25
 20
-109.5
 11
582.2499999999999
 21
-109.5
  0
LINE
  8
1
  6
CONTINUOUS
 62
     7
 10
522.35
 20
-215.5
 11
522.35
 21
-109.5
  0
LINE
  8
1
  6
CONTINUOUS
 62
     7
 10
611.75
 20
-125.75
 11
611.75
 21
-114.0
  0
LINE
  8
1
  6
CONTINUOUS
 62
     7
 10
703.75
 20
-125.75
 11
703.75
 21
-114.0
  0
LINE
  8
1
  6
CONTINUOUS
 62
     7
 10
590.0423500709903
 20
-211.0
 11
736.4576499290096
 21
-211.0
  0
LINE
  8
1
  6
CONTINUOUS
 62
     7
 10
622.75
 20
-199.25
 11
611.75
 21
-199.25
  0
LINE
  8
1
  6
CONTINUOUS
 62
     7
 10
657.7499999999999
 20
-199.25
 11
657.7499999999999
 21
-211.0
  0
LINE
  8
1
  6
CONTINUOUS
 62
     7
 10
590.75
 20
-277.15
 11
602.2499999999999
 21
-277.15
  0
LINE
  8
1
  6
CONTINUOUS
 62
     7
 10
735.75
 20
-249.15
 11
724.25
 21
-249.15
  0
LINE
  8
1
  6
CONTINUOUS
 62
     7
 10
602.2499999999999
 20
-249.15
 11
590.75
 21
-249.15
  0
LINE
  8
1
  6
CONTINUOUS
 62
     7
 10
724.25
 20
-277.15
 11
735.75
 21
-277.15
  0
LINE
  8
1
  6
CONTINUOUS
 62
     7
 10
590.7499999999978
 20
-277.15
 11
590.75
 21
-249.15
  0
LINE
  8
1
  6
CONTINUOUS
 62
     7
 10
744.25
 20
-280.15
 11
744.25
 21
-244.15
  0
LINE
  8
1
  6
CONTINUOUS
 62
     7
 10
735.75
 20
-249.15
 11
735.75
 21
-277.15
  0
LINE
  8
1
  6
CONTINUOUS
 62
     7
 10
582.25
 20
-280.15
 11
582.25
 21
-244.15
  0
LINE
  8
1
  6
CONTINUOUS
 62
     7
 10
744.25
 20
-280.15
 11
582.25
 21
-280.15
  0
INSERT
  8
0
 62
     7
  2
D_FRAME_DRAWING_17
 10
0.0
 20
0.0
 30
0.0
  0
ARC
  8
1
  6
CONTINUOUS
 62
     7
 10
640.25
 20
-263.15
 40
14.99999999999997
 50
50.05549481018509
 51
68.96053021868273
  0
ARC
  8
1
  6
CONTINUOUS
 62
     7
 10
640.25
 20
-263.15
 40
14.99999999999999
 50
230.0554948101851
 51
256.1375678835662
  0
ARC
  8
1
  6
CONTINUOUS
 62
     7
 10
640.25
 20
-263.15
 40
15.0
 50
283.8624321164338
 51
309.9445051898149
  0
ARC
  8
1
  6
CONTINUOUS
 62
     7
 10
675.25
 20
-263.15
 40
11.49999999999998
 50
90.0
 51
270.0
  0
ARC
  8
1
  6
CONTINUOUS
 62
     7
 10
686.25
 20
-263.15
 40
14.99999999999999
 50
230.0554948101851
 51
256.1375678835667
  0
LINE
  8
1
  6
CONTINUOUS
 62
     7
 10
675.25
 20
-274.65
 11
676.6193198578709
 21
-274.65
  0
LINE
  8
1
  6
CONTINUOUS
 62
     7
 10
649.8806801421291
 20
-274.65
 11
651.25
 21
-274.65
  0
LINE
  8
1
  6
CONTINUOUS
 62
     7
 10
695.8806801421291
 20
-274.65
 11
697.25
 21
-274.65
  0
LINE
  8
1
  6
CONTINUOUS
 62
     7
 10
697.25
 20
-251.65
 11
695.8806801421291
 21
-251.65
  0
LINE
  8
1
  6
CONTINUOUS
 62
     7
 10
630.6193198578709
 20
-251.65
 11
629.25
 21
-251.65
  0
LINE
  8
1
  6
CONTINUOUS
 62
     7
 10
676.6193198578709
 20
-251.65
 11
675.25
 21
-251.65
  0
ARC
  8
1
  6
CONTINUOUS
 62
     7
 10
686.25
 20
-263.15
 40
14.99999999999998
 50
283.8624321164338
 51
309.9445051898149
  0
ARC
  8
1
  6
CONTINUOUS
 62
     7
 10
629.25
 20
-263.15
 40
11.49999999999998
 50
90.0
 51
270.0
  0
ARC
  8
1
  6
CONTINUOUS
 62
     7
 10
697.25
 20
-263.15
 40
11.50000000000001
 50
270.0
 51
90.0
  0
LINE
  8
1
  6
CONTINUOUS
 62
     7
 10
651.25
 20
-251.65
 11
649.8806801421291
 21
-251.65
  0
LINE
  8
1
  6
CONTINUOUS
 62
     7
 10
629.25
 20
-274.65
 11
630.6193198578709
 21
-274.65
  0
ARC
  8
1
  6
CONTINUOUS
 62
     7
 10
651.25
 20
-263.15
 40
11.50000000000001
 50
270.0
 51
90.0
  0
LINE
  8
1
  6
CONTINUOUS
 62
     7
 10
668.7499999999999
 20
-199.25
 11
657.7499999999999
 21
-199.25
  0
LINE
  8
1
  6
CONTINUOUS
 62
     7
 10
703.75
 20
-199.25
 11
714.75
 21
-199.25
  0
LINE
  8
1
  6
CONTINUOUS
 62
     7
 10
584.7586507124691
 20
-199.9913492875308
 11
584.7761806033722
 21
-199.9738193966277
  0
LINE
  8
1
  6
CONTINUOUS
 62
     7
 10
737.7237813196919
 20
-199.9738193966277
 11
737.7151306072227
 21
-199.9738568133409
  0
CIRCLE
  8
1
  6
CONTINUOUS
 62
     7
 10
617.25
 20
-120.75
 40
2.099999999999998
  0
CIRCLE
  8
1
  6
CONTINUOUS
 62
     7
 10
663.25
 20
-120.75
 40
2.099999999999998
  0
LINE
  8
1
  6
CONTINUOUS
 62
     7
 10
582.2499999999999
 20
-162.5
 11
582.2499999999999
 21
-212.5
  0
CIRCLE
  8
1
  6
CONTINUOUS
 62
     7
 10
617.25
 20
-204.25
 40
2.099999999999998
  0
LINE
  8
1
  6
CONTINUOUS
 62
     7
 10
590.0423500709903
 20
-195.5
 11
590.0423500709903
 21
-210.5
  0
CIRCLE
  8
1
  6
CONTINUOUS
 62
     7
 10
709.2499999999999
 20
-204.25
 40
2.099999999999998
  0
CIRCLE
  8
1
  6
CONTINUOUS
 62
     7
 10
663.25
 20
-204.25
 40
2.099999999999998
  0
CIRCLE
  8
1
  6
CONTINUOUS
 62
     7
 10
709.2499999999999
 20
-120.75
 40
2.099999999999998
  0
LINE
  8
1
  6
CONTINUOUS
 62
     7
 10
736.4576499290096
 20
-133.2425574001726
 11
736.4576499290096
 21
-114.5
  0
LINE
  8
1
  6
CONTINUOUS
 62
     7
 10
736.4576499290096
 20
-183.2425574001726
 11
736.4576499290096
 21
-141.7574425998274
  0
ENDSEC
  0
EOF
