  0
SECTION
  2
HEADER
  9
$ACADVER
  1
AC1006
  9
$DWGCODEPAGE
  3
ansi_932
  9
$INSBASE
 10
0.0
 20
0.0
 30
0.0
  9
$EXTMIN
 10
-615.1909660505619
 20
320.4886363636364
  9
$EXTMAX
 10
-538.8112044727253
 20
416.1229522634375
  9
$LIMMIN
 10
0.0
 20
0.0
  9
$LIMMAX
 10
12.0
 20
9.0
  9
$ORTHOMODE
 70
     0
  9
$REGENMODE
 70
     1
  9
$FILLMODE
 70
     1
  9
$QTEXTMODE
 70
     0
  9
$MIRRTEXT
 70
     1
  9
$DRAGMODE
 70
     2
  9
$LTSCALE
 40
1.0
  9
$OSMODE
 70
    37
  9
$ATTMODE
 70
     1
  9
$TEXTSIZE
 40
0.2
  9
$TRACEWID
 40
0.05
  9
$TEXTSTYLE
  7
STANDARD
  9
$CLAYER
  8
0
  9
$CELTYPE
  6
BYLAYER
  9
$CECOLOR
 62
   256
  9
$DIMSCALE
 40
1.0
  9
$DIMASZ
 40
3.0
  9
$DIMEXO
 40
0.0625
  9
$DIMDLI
 40
0.38
  9
$DIMRND
 40
0.0
  9
$DIMDLE
 40
0.0
  9
$DIMEXE
 40
1.5
  9
$DIMTP
 40
0.0
  9
$DIMTM
 40
0.0
  9
$DIMTXT
 40
3.0
  9
$DIMCEN
 40
0.09
  9
$DIMTSZ
 40
0.0
  9
$DIMTOL
 70
     0
  9
$DIMLIM
 70
     0
  9
$DIMTIH
 70
     1
  9
$DIMTOH
 70
     1
  9
$DIMSE1
 70
     0
  9
$DIMSE2
 70
     0
  9
$DIMTAD
 70
     1
  9
$DIMZIN
 70
     0
  9
$DIMBLK
  1

  9
$DIMASO
 70
     1
  9
$DIMSHO
 70
     1
  9
$DIMPOST
  1

  9
$DIMAPOST
  1

  9
$DIMALT
 70
     0
  9
$DIMALTD
 70
     2
  9
$DIMALTF
 40
25.4
  9
$DIMLFAC
 40
1.0
  9
$DIMTOFL
 70
     0
  9
$DIMTVP
 40
0.0
  9
$DIMTIX
 70
     0
  9
$DIMSOXD
 70
     0
  9
$DIMSAH
 70
     0
  9
$DIMBLK1
  1

  9
$DIMBLK2
  1

  9
$LUNITS
 70
     2
  9
$LUPREC
 70
     4
  9
$SKETCHINC
 40
0.1
  9
$FILLETRAD
 40
0.5
  9
$AUNITS
 70
     0
  9
$AUPREC
 70
     0
  9
$MENU
  1
.
  9
$ELEVATION
 40
0.0
  9
$THICKNESS
 40
0.0
  9
$LIMCHECK
 70
     0
  9
$CHAMFERA
 40
0.0
  9
$CHAMFERB
 40
0.0
  9
$SKPOLY
 70
     0
  9
$TDCREATE
 40
2459475.548944606
  9
$TDUPDATE
 40
2459475.548944792
  9
$TDINDWG
 40
0.0000000116
  9
$TDUSRTIMER
 40
0.0000000116
  9
$USRTIMER
 70
     1
  9
$ANGBASE
 50
0.0
  9
$ANGDIR
 70
     0
  9
$PDMODE
 70
     0
  9
$PDSIZE
 40
0.0
  9
$PLINEWID
 40
0.0
  9
$COORDS
 70
     1
  9
$SPLFRAME
 70
     0
  9
$SPLINETYPE
 70
     6
  9
$SPLINESEGS
 70
     8
  9
$ATTDIA
 70
     0
  9
$ATTREQ
 70
     1
  9
$HANDLING
 70
     1
  9
$HANDSEED
  5
8F2
  9
$SURFTAB1
 70
     6
  9
$SURFTAB2
 70
     6
  9
$SURFTYPE
 70
     6
  9
$SURFU
 70
     6
  9
$SURFV
 70
     6
  9
$UCSNAME
  2

  9
$UCSORG
 10
0.0
 20
0.0
 30
0.0
  9
$UCSXDIR
 10
1.0
 20
0.0
 30
0.0
  9
$UCSYDIR
 10
0.0
 20
1.0
 30
0.0
  9
$USERI1
 70
     0
  9
$USERI2
 70
     0
  9
$USERI3
 70
     0
  9
$USERI4
 70
     0
  9
$USERI5
 70
     0
  9
$USERR1
 40
0.0
  9
$USERR2
 40
0.0
  9
$USERR3
 40
0.0
  9
$USERR4
 40
0.0
  9
$USERR5
 40
0.0
  9
$WORLDVIEW
 70
     1
  0
ENDSEC
  0
SECTION
  2
TABLES
  0
TABLE
  2
VPORT
 70
     1
  0
VPORT
  2
*ACTIVE
 70
     0
 10
0.0
 20
0.0
 11
1.0
 21
1.0
 12
-577.0010852616435
 22
368.3057943135369
 13
0.0
 23
0.0
 14
0.5
 24
0.5
 15
0.5
 25
0.5
 16
0.0
 26
0.0
 36
1.0
 17
0.0
 27
0.0
 37
0.0
 40
95.63431589980115
 41
1.6
 42
50.0
 43
0.0
 44
0.0
 50
0.0
 51
0.0
 71
     0
 72
   100
 73
     1
 74
     3
 75
     0
 76
     0
 77
     0
 78
     0
  0
ENDTAB
  0
TABLE
  2
LTYPE
 70
     1
  0
LTYPE
  2
CONTINUOUS
 70
     0
  3
Solid line
 72
    65
 73
     0
 40
0.0
  0
ENDTAB
  0
TABLE
  2
LAYER
 70
     2
  0
LAYER
  2
0
 70
     0
 62
     7
  6
CONTINUOUS
  0
LAYER
  2
1
 70
     0
 62
     7
  6
CONTINUOUS
  0
ENDTAB
  0
TABLE
  2
STYLE
 70
     2
  0
STYLE
  2
STANDARD
 70
     0
 40
0.0
 41
1.0
 50
0.0
 71
     0
 42
0.2
  3
txt
  4

  0
STYLE
  2
ＭＳ_ゴシック
 70
     0
 40
0.0
 41
1.0
 50
0.0
 71
     0
 42
0.2
  3
ＭＳ ゴシック.shx
  4

  0
ENDTAB
  0
TABLE
  2
VIEW
 70
     0
  0
ENDTAB
  0
TABLE
  2
UCS
 70
     0
  0
ENDTAB
  0
ENDSEC
  0
SECTION
  2
BLOCKS
  0
BLOCK
  8
0
  2
D_FRAME_VIEW_3376
 70
     0
 10
0.0
 20
0.0
 30
0.0
  0
LINE
  5
71
  8
1
  6
CONTINUOUS
 62
     7
 10
-543.6111316607522
 20
403.2794532822605
 30
0.0
 11
-540.8303393599105
 21
415.8227967605857
 31
0.0
  0
LINE
  5
72
  8
1
  6
CONTINUOUS
 62
     7
 10
-538.8823806613661
 20
415.3690179962008
 30
0.0
 11
-541.617418960743
 21
403.0320574813608
 31
0.0
  0
LINE
  5
73
  8
1
  6
CONTINUOUS
 62
     7
 10
-541.617418960743
 20
403.0320574813608
 30
0.0
 11
-540.3047904989689
 21
402.3487463545447
 31
0.0
  0
POLYLINE
  5
74
  8
1
  6
CONTINUOUS
 62
     7
 66
     1
 10
0.0
 20
0.0
 30
0.0
  0
VERTEX
  5
1F0
  8
1
  6
CONTINUOUS
 62
     7
 10
-540.0475168020247
 20
401.7970211309871
 30
0.0
  0
VERTEX
  5
1F1
  8
1
  6
CONTINUOUS
 62
     7
 10
-540.0432666769775
 20
401.8183853205032
 30
0.0
  0
VERTEX
  5
1F2
  8
1
  6
CONTINUOUS
 62
     7
 10
-540.0399531459211
 20
401.8398960799064
 30
0.0
  0
VERTEX
  5
1F3
  8
1
  6
CONTINUOUS
 62
     7
 10
-540.0375672946885
 20
401.8616670582732
 30
0.0
  0
VERTEX
  5
1F4
  8
1
  6
CONTINUOUS
 62
     7
 10
-540.0361372342245
 20
401.883510649167
 30
0.0
  0
VERTEX
  5
1F5
  8
1
  6
CONTINUOUS
 62
     7
 10
-540.0356653960944
 20
401.9058645551642
 30
0.0
  0
VERTEX
  5
1F6
  8
1
  6
CONTINUOUS
 62
     7
 10
-540.0361928549562
 20
401.9282141949086
 30
0.0
  0
VERTEX
  5
1F7
  8
1
  6
CONTINUOUS
 62
     7
 10
-540.0377342036998
 20
401.9506821981362
 30
0.0
  0
VERTEX
  5
1F8
  8
1
  6
CONTINUOUS
 62
     7
 10
-540.040286095296
 20
401.9730637467466
 30
0.0
  0
VERTEX
  5
1F9
  8
1
  6
CONTINUOUS
 62
     7
 10
-540.0437036860284
 20
401.9945386158844
 30
0.0
  0
VERTEX
  5
1FA
  8
1
  6
CONTINUOUS
 62
     7
 10
-540.0480543799164
 20
402.0158577213984
 30
0.0
  0
VERTEX
  5
1FB
  8
1
  6
CONTINUOUS
 62
     7
 10
-540.053373477201
 20
402.0371306059898
 30
0.0
  0
VERTEX
  5
1FC
  8
1
  6
CONTINUOUS
 62
     7
 10
-540.059626351553
 20
402.0581703016592
 30
0.0
  0
VERTEX
  5
1FD
  8
1
  6
CONTINUOUS
 62
     7
 10
-540.0669747729997
 20
402.0793944344315
 30
0.0
  0
VERTEX
  5
1FE
  8
1
  6
CONTINUOUS
 62
     7
 10
-540.0752803195032
 20
402.100295097037
 30
0.0
  0
VERTEX
  5
1FF
  8
1
  6
CONTINUOUS
 62
     7
 10
-540.0846063420476
 20
402.1209862390162
 30
0.0
  0
VERTEX
  5
200
  8
1
  6
CONTINUOUS
 62
     7
 10
-540.0948792600409
 20
402.1412665781711
 30
0.0
  0
VERTEX
  5
201
  8
1
  6
CONTINUOUS
 62
     7
 10
-540.1055603471231
 20
402.1602114408873
 30
0.0
  0
VERTEX
  5
202
  8
1
  6
CONTINUOUS
 62
     7
 10
-540.1170769601736
 20
402.1787079664498
 30
0.0
  0
VERTEX
  5
203
  8
1
  6
CONTINUOUS
 62
     7
 10
-540.1295074138346
 20
402.1968501967928
 30
0.0
  0
VERTEX
  5
204
  8
1
  6
CONTINUOUS
 62
     7
 10
-540.1427515664681
 20
402.2144644599047
 30
0.0
  0
VERTEX
  5
205
  8
1
  6
CONTINUOUS
 62
     7
 10
-540.157130868033
 20
402.2319086760334
 30
0.0
  0
VERTEX
  5
206
  8
1
  6
CONTINUOUS
 62
     7
 10
-540.1723190411568
 20
402.2487228959557
 30
0.0
  0
VERTEX
  5
207
  8
1
  6
CONTINUOUS
 62
     7
 10
-540.1884266134623
 20
402.2649983109752
 30
0.0
  0
VERTEX
  5
208
  8
1
  6
CONTINUOUS
 62
     7
 10
-540.2053030490983
 20
402.2805556190573
 30
0.0
  0
VERTEX
  5
209
  8
1
  6
CONTINUOUS
 62
     7
 10
-540.2204945201105
 20
402.2933994654296
 30
0.0
  0
VERTEX
  5
20A
  8
1
  6
CONTINUOUS
 62
     7
 10
-540.2362238092969
 20
402.3056587726182
 30
0.0
  0
VERTEX
  5
20B
  8
1
  6
CONTINUOUS
 62
     7
 10
-540.2524559092379
 20
402.3173000611762
 30
0.0
  0
VERTEX
  5
20C
  8
1
  6
CONTINUOUS
 62
     7
 10
-540.2694330558214
 20
402.3284665420764
 30
0.0
  0
VERTEX
  5
20D
  8
1
  6
CONTINUOUS
 62
     7
 10
-540.2868921495276
 20
402.3389590762071
 30
0.0
  0
VERTEX
  5
20E
  8
1
  6
CONTINUOUS
 62
     7
 10
-540.3047904989689
 20
402.3487463545447
 30
0.0
  0
SEQEND
  5
8B6
  8
1
  6
CONTINUOUS
 62
     7
  0
LINE
  5
75
  8
1
  6
CONTINUOUS
 62
     7
 10
-540.0475168020247
 20
401.7970211309871
 30
0.0
 11
-544.2901855659991
 21
382.6595790591068
 31
0.0
  0
LINE
  5
76
  8
1
  6
CONTINUOUS
 62
     7
 10
-538.8823806613661
 20
344.6309820037992
 30
0.0
 11
-541.617418960743
 21
356.9679425186392
 31
0.0
  0
LINE
  5
77
  8
1
  6
CONTINUOUS
 62
     7
 10
-543.6111316607522
 20
356.7205467177395
 30
0.0
 11
-540.8303393599105
 21
344.1772032394143
 31
0.0
  0
POLYLINE
  5
78
  8
1
  6
CONTINUOUS
 62
     7
 66
     1
 10
0.0
 20
0.0
 30
0.0
  0
VERTEX
  5
20F
  8
1
  6
CONTINUOUS
 62
     7
 10
-540.3047904989671
 20
357.6512536454561
 30
0.0
  0
VERTEX
  5
210
  8
1
  6
CONTINUOUS
 62
     7
 10
-540.2864221317827
 20
357.6613121089255
 30
0.0
  0
VERTEX
  5
211
  8
1
  6
CONTINUOUS
 62
     7
 10
-540.2685096109299
 20
357.6721187372874
 30
0.0
  0
VERTEX
  5
212
  8
1
  6
CONTINUOUS
 62
     7
 10
-540.2510979346456
 20
357.6836388109306
 30
0.0
  0
VERTEX
  5
213
  8
1
  6
CONTINUOUS
 62
     7
 10
-540.234232101167
 20
357.6958376102438
 30
0.0
  0
VERTEX
  5
214
  8
1
  6
CONTINUOUS
 62
     7
 10
-540.2174441306258
 20
357.7090989076316
 30
0.0
  0
VERTEX
  5
215
  8
1
  6
CONTINUOUS
 62
     7
 10
-540.2012592179605
 20
357.7230473323604
 30
0.0
  0
VERTEX
  5
216
  8
1
  6
CONTINUOUS
 62
     7
 10
-540.1857165144258
 20
357.737639561117
 30
0.0
  0
VERTEX
  5
217
  8
1
  6
CONTINUOUS
 62
     7
 10
-540.1708551712768
 20
357.7528322705883
 30
0.0
  0
VERTEX
  5
218
  8
1
  6
CONTINUOUS
 62
     7
 10
-540.1570958074359
 20
357.768133833034
 30
0.0
  0
VERTEX
  5
219
  8
1
  6
CONTINUOUS
 62
     7
 10
-540.1439934741328
 20
357.7839682293346
 30
0.0
  0
VERTEX
  5
21A
  8
1
  6
CONTINUOUS
 62
     7
 10
-540.1315752489261
 20
357.8002931894065
 30
0.0
  0
VERTEX
  5
21B
  8
1
  6
CONTINUOUS
 62
     7
 10
-540.1198682093743
 20
357.8170664431665
 30
0.0
  0
VERTEX
  5
21C
  8
1
  6
CONTINUOUS
 62
     7
 10
-540.108593371399
 20
357.834742727954
 30
0.0
  0
VERTEX
  5
21D
  8
1
  6
CONTINUOUS
 62
     7
 10
-540.098079261128
 20
357.8528577912621
 30
0.0
  0
VERTEX
  5
21E
  8
1
  6
CONTINUOUS
 62
     7
 10
-540.0883468219088
 20
357.8713645251117
 30
0.0
  0
VERTEX
  5
21F
  8
1
  6
CONTINUOUS
 62
     7
 10
-540.0794169970894
 20
357.8902158215236
 30
0.0
  0
VERTEX
  5
220
  8
1
  6
CONTINUOUS
 62
     7
 10
-540.071206954772
 20
357.9096173788387
 30
0.0
  0
VERTEX
  5
221
  8
1
  6
CONTINUOUS
 62
     7
 10
-540.0638248464923
 20
357.9293370297536
 30
0.0
  0
VERTEX
  5
222
  8
1
  6
CONTINUOUS
 62
     7
 10
-540.0572846096819
 20
357.9493254975857
 30
0.0
  0
VERTEX
  5
223
  8
1
  6
CONTINUOUS
 62
     7
 10
-540.051600181773
 20
357.9695335056526
 30
0.0
  0
VERTEX
  5
224
  8
1
  6
CONTINUOUS
 62
     7
 10
-540.0466572825277
 20
357.9904993945154
 30
0.0
  0
VERTEX
  5
225
  8
1
  6
CONTINUOUS
 62
     7
 10
-540.0426212776828
 20
358.0116609541345
 30
0.0
  0
VERTEX
  5
226
  8
1
  6
CONTINUOUS
 62
     7
 10
-540.0394996403995
 20
358.0329645446458
 30
0.0
  0
VERTEX
  5
227
  8
1
  6
CONTINUOUS
 62
     7
 10
-540.0372998438389
 20
358.0543565261849
 30
0.0
  0
VERTEX
  5
228
  8
1
  6
CONTINUOUS
 62
     7
 10
-540.0359156844748
 20
358.0791698996891
 30
0.0
  0
VERTEX
  5
229
  8
1
  6
CONTINUOUS
 62
     7
 10
-540.0357716298049
 20
358.1040776246297
 30
0.0
  0
VERTEX
  5
22A
  8
1
  6
CONTINUOUS
 62
     7
 10
-540.036863697027
 20
358.1289960425197
 30
0.0
  0
VERTEX
  5
22B
  8
1
  6
CONTINUOUS
 62
     7
 10
-540.0391879033391
 20
358.1538414948718
 30
0.0
  0
VERTEX
  5
22C
  8
1
  6
CONTINUOUS
 62
     7
 10
-540.0427402659391
 20
358.178530323199
 30
0.0
  0
VERTEX
  5
22D
  8
1
  6
CONTINUOUS
 62
     7
 10
-540.047516802025
 20
358.2029788690141
 30
0.0
  0
SEQEND
  5
8B7
  8
1
  6
CONTINUOUS
 62
     7
  0
LINE
  5
79
  8
1
  6
CONTINUOUS
 62
     7
 10
-541.617418960743
 20
356.9679425186392
 30
0.0
 11
-540.3047904989671
 21
357.6512536454561
 31
0.0
  0
LINE
  5
7A
  8
1
  6
CONTINUOUS
 62
     7
 10
-540.047516802025
 20
358.2029788690141
 30
0.0
 11
-544.2901855659959
 21
377.3404209408796
 31
0.0
  0
LINE
  5
7B
  8
1
  6
CONTINUOUS
 62
     7
 10
-544.3515576166585
 20
382.1215430480085
 30
0.0
 11
-544.3567653753302
 21
382.3592569469845
 31
0.0
  0
ARC
  5
7C
  8
1
  6
CONTINUOUS
 62
     7
 10
-552.263721818358
 20
379.9999999999993
 30
0.0
 40
8.191659615682962
 50
359.9975795462652
 51
15.01003304135821
  0
LINE
  5
7D
  8
1
  6
CONTINUOUS
 62
     7
 10
-544.2901855659991
 20
382.6595790591068
 30
0.0
 11
-544.3567653753302
 21
382.3592569469845
 31
0.0
  0
ARC
  5
7E
  8
1
  6
CONTINUOUS
 62
     7
 10
-552.2637218183461
 20
379.9999999999991
 30
0.0
 40
8.191659615670984
 50
344.9899669586305
 51
359.9975795453566
  0
LINE
  5
7F
  8
1
  6
CONTINUOUS
 62
     7
 10
-544.3567653753311
 20
377.6407430530197
 30
0.0
 11
-544.3515576166585
 21
377.8784569519915
 31
0.0
  0
LINE
  5
80
  8
1
  6
CONTINUOUS
 62
     7
 10
-544.3567653753311
 20
377.6407430530197
 30
0.0
 11
-544.2901855659959
 21
377.3404209408796
 31
0.0
  0
ARC
  5
81
  8
1
  6
CONTINUOUS
 62
     7
 10
-549.0466600644278
 20
379.9970433212418
 30
0.0
 40
4.108347625490135
 50
0.0412343950134289
 51
19.01120331539138
  0
ARC
  5
82
  8
1
  6
CONTINUOUS
 62
     7
 10
-549.0466600644278
 20
380.0029566787582
 30
0.0
 40
4.108347625490135
 50
340.9887966846086
 51
359.9587656049866
  0
LINE
  5
83
  8
1
  6
CONTINUOUS
 62
     7
 10
-544.1347621265721
 20
370.1632611423559
 30
0.0
 11
-544.6447927609128
 21
370.1677121122709
 31
0.0
  0
LINE
  5
84
  8
1
  6
CONTINUOUS
 62
     7
 10
-544.644792760913
 20
389.832287887729
 30
0.0
 11
-544.1347621265721
 21
389.8367388576441
 31
0.0
  0
ARC
  5
85
  8
1
  6
CONTINUOUS
 62
     7
 10
-544.1245955958035
 20
390.3368466188069
 30
0.0
 40
0.5000000000000018
 50
270.5000000000001
 51
347.4999999999994
  0
ARC
  5
86
  8
1
  6
CONTINUOUS
 62
     7
 10
-544.1245955958035
 20
369.6631533811931
 30
0.0
 40
0.500000000000031
 50
12.49999999999459
 51
89.49999999999886
  0
LINE
  5
87
  8
1
  6
CONTINUOUS
 62
     7
 10
-543.6364475922435
 20
390.2286268118379
 30
0.0
 11
-541.4139675429947
 21
400.2535864692039
 31
0.0
  0
LINE
  5
88
  8
1
  6
CONTINUOUS
 62
     7
 10
-543.6364475922435
 20
369.7713731881621
 30
0.0
 11
-541.4139675429947
 21
359.7464135307961
 31
0.0
  0
ARC
  5
89
  8
1
  6
CONTINUOUS
 62
     7
 10
-552.2637218183509
 20
379.9999999999998
 30
0.0
 40
7.191659615675789
 50
13.57275466756256
 51
32.81445294634021
  0
LINE
  5
8A
  8
1
  6
CONTINUOUS
 62
     7
 10
-545.1620187147786
 20
381.3354453487531
 30
0.0
 11
-545.2729057976989
 21
381.6877379515602
 31
0.0
  0
ARC
  5
8B
  8
1
  6
CONTINUOUS
 62
     7
 10
-552.2637218183509
 20
380.0000000000002
 30
0.0
 40
7.191659615675789
 50
327.1855470536597
 51
346.4272453324375
  0
LINE
  5
8C
  8
1
  6
CONTINUOUS
 62
     9
 10
-546.2196358306379
 20
376.1026941868936
 30
0.0
 11
-546.2192914511536
 21
376.098788645763
 31
0.0
  0
LINE
  5
8D
  8
1
  6
CONTINUOUS
 62
     7
 10
-545.1620187147786
 20
378.6645546512469
 30
0.0
 11
-545.2729057976989
 21
378.3122620484398
 31
0.0
  0
LINE
  5
8E
  8
1
  6
CONTINUOUS
 62
     7
 10
-546.2872026622543
 20
384.2781375863636
 30
0.0
 11
-546.2760040077503
 21
384.3286514524642
 31
0.0
  0
LINE
  5
8F
  8
1
  6
CONTINUOUS
 62
     7
 10
-546.2760040077503
 20
384.3286514524642
 30
0.0
 11
-545.1427559730206
 21
389.4404029994779
 31
0.0
  0
LINE
  5
90
  8
1
  6
CONTINUOUS
 62
     7
 10
-546.2872026622543
 20
375.7218624136364
 30
0.0
 11
-546.2760040077503
 21
375.6713485475357
 31
0.0
  0
LINE
  5
91
  8
1
  6
CONTINUOUS
 62
     7
 10
-546.2760040077503
 20
375.6713485475357
 30
0.0
 11
-545.1427559730206
 21
370.5595970005221
 31
0.0
  0
LINE
  5
92
  8
1
  6
CONTINUOUS
 62
     7
 10
-543.9021708890677
 20
358.0333398398014
 30
0.0
 11
-543.6111316607522
 21
356.7205467177395
 31
0.0
  0
LINE
  5
93
  8
1
  6
CONTINUOUS
 62
     7
 10
-541.6529854203908
 20
359.2041916853746
 30
0.0
 11
-543.9021708890677
 21
358.0333398398014
 31
0.0
  0
LINE
  5
94
  8
1
  6
CONTINUOUS
 62
     7
 10
-541.6529854203908
 20
400.7958083146254
 30
0.0
 11
-543.9021708890677
 21
401.9666601601986
 31
0.0
  0
LINE
  5
95
  8
1
  6
CONTINUOUS
 62
     7
 10
-543.9021708890677
 20
401.9666601601986
 30
0.0
 11
-543.6111316607522
 21
403.2794532822605
 31
0.0
  0
ARC
  5
96
  8
1
  6
CONTINUOUS
 62
     7
 10
-545.7994208656152
 20
384.1682659267228
 30
0.0
 40
0.500000000000031
 50
167.5000000000042
 51
212.8144529463402
  0
ARC
  5
97
  8
1
  6
CONTINUOUS
 62
     7
 10
-545.7994208656152
 20
375.8317340732773
 30
0.0
 40
0.5000000000000198
 50
147.1855470536597
 51
192.5000000000018
  0
ARC
  5
98
  8
1
  6
CONTINUOUS
 62
     7
 10
-544.6546079694606
 20
370.6678168074911
 30
0.0
 40
0.5000000000000431
 50
192.4999999999999
 51
269.5000000000001
  0
LINE
  5
99
  8
1
  6
CONTINUOUS
 62
     7
 10
-544.6447927609128
 20
370.1677121122709
 30
0.0
 11
-544.6589712372098
 21
370.1678358459591
 31
0.0
  0
ARC
  5
9A
  8
1
  6
CONTINUOUS
 62
     7
 10
-544.6546079694606
 20
389.3321831925088
 30
0.0
 40
0.5000000000000018
 50
90.5000000000001
 51
167.5000000000001
  0
LINE
  5
9B
  8
1
  6
CONTINUOUS
 62
     7
 10
-544.6589712372098
 20
389.8321641540409
 30
0.0
 11
-544.644792760913
 21
389.832287887729
 31
0.0
  0
ARC
  5
9C
  8
1
  6
CONTINUOUS
 62
     7
 10
-541.9021155465538
 20
400.3618062761769
 30
0.0
 40
0.500000000000029
 50
347.4999999995359
 51
62.49999999988006
  0
ARC
  5
9D
  8
1
  6
CONTINUOUS
 62
     7
 10
-541.9021155465546
 20
359.638193723827
 30
0.0
 40
0.4999999999999895
 50
297.5
 51
12.49999999999841
  0
LINE
  5
9E
  8
1
  6
CONTINUOUS
 62
     7
 10
-543.4567138568925
 20
413.2164396139381
 30
0.0
 11
-543.5046973640871
 21
413.0
 31
0.0
  0
LINE
  5
9F
  8
1
  6
CONTINUOUS
 62
     7
 10
-543.1034049382513
 20
413.4999999999999
 30
0.0
 11
-543.4567138568925
 21
413.2164396139381
 31
0.0
  0
LINE
  5
A0
  8
1
  6
CONTINUOUS
 62
     7
 10
-541.5669856667795
 20
412.4999999999999
 30
0.0
 11
-543.6155446954085
 21
412.4999999999999
 31
0.0
  0
LINE
  5
A1
  8
1
  6
CONTINUOUS
 62
     7
 10
-543.6155446954085
 20
412.4999999999999
 30
0.0
 11
-543.5046973640871
 21
413.0
 31
0.0
  0
LINE
  5
A2
  8
1
  6
CONTINUOUS
 62
     7
 10
-543.1034049382513
 20
413.4999999999999
 30
0.0
 11
-542.4804178497725
 21
414.0
 31
0.0
  0
LINE
  5
A3
  8
1
  6
CONTINUOUS
 62
     7
 10
-542.4804178497725
 20
414.0
 30
0.0
 11
-541.2344436728151
 21
414.0
 31
0.0
  0
LINE
  5
A4
  8
1
  6
CONTINUOUS
 62
     7
 10
-543.1034049382513
 20
346.5
 30
0.0
 11
-543.4567138568925
 21
346.7835603860619
 31
0.0
  0
LINE
  5
A5
  8
1
  6
CONTINUOUS
 62
     7
 10
-543.4567138568925
 20
346.7835603860619
 30
0.0
 11
-543.5046973640871
 21
346.9999999999999
 31
0.0
  0
LINE
  5
A6
  8
1
  6
CONTINUOUS
 62
     7
 10
-543.6155446954085
 20
347.5
 30
0.0
 11
-543.5046973640871
 21
346.9999999999999
 31
0.0
  0
LINE
  5
A7
  8
1
  6
CONTINUOUS
 62
     7
 10
-541.5669856667795
 20
347.5
 30
0.0
 11
-543.6155446954085
 21
347.5
 31
0.0
  0
LINE
  5
A8
  8
1
  6
CONTINUOUS
 62
     7
 10
-542.4804178497725
 20
345.9999999999999
 30
0.0
 11
-541.2344436728151
 21
345.9999999999999
 31
0.0
  0
LINE
  5
A9
  8
1
  6
CONTINUOUS
 62
     7
 10
-543.1034049382513
 20
346.5
 30
0.0
 11
-542.4804178497725
 21
345.9999999999999
 31
0.0
  0
LINE
  5
AA
  8
1
  6
CONTINUOUS
 62
     7
 10
-540.7637964869652
 20
416.1229522634375
 30
0.0
 11
-538.8112044727253
 21
415.6900730355614
 31
0.0
  0
LINE
  5
AB
  8
1
  6
CONTINUOUS
 62
     7
 10
-538.8112044727253
 20
415.6900730355613
 30
0.0
 11
-538.8529729684415
 21
415.5016675267496
 31
0.0
  0
LINE
  5
AC
  8
1
  6
CONTINUOUS
 62
     7
 10
-538.8529729684415
 20
415.5016675267496
 30
0.0
 11
-538.8823806613661
 21
415.3690179962008
 31
0.0
  0
LINE
  5
AD
  8
1
  6
CONTINUOUS
 62
     7
 10
-540.8303393599105
 20
415.8227967605857
 30
0.0
 11
-540.8060389136165
 21
415.9324089903268
 31
0.0
  0
LINE
  5
AE
  8
1
  6
CONTINUOUS
 62
     7
 10
-540.8060389136165
 20
415.9324089903268
 30
0.0
 11
-540.7637964869652
 21
416.1229522634375
 31
0.0
  0
LINE
  5
AF
  8
1
  6
CONTINUOUS
 62
     7
 10
-540.7637964869652
 20
343.8770477365625
 30
0.0
 11
-538.8112044727253
 21
344.3099269644386
 31
0.0
  0
LINE
  5
B0
  8
1
  6
CONTINUOUS
 62
     7
 10
-538.8112044727253
 20
344.3099269644387
 30
0.0
 11
-538.8529729684415
 21
344.4983324732505
 31
0.0
  0
LINE
  5
B1
  8
1
  6
CONTINUOUS
 62
     7
 10
-538.8529729684415
 20
344.4983324732505
 30
0.0
 11
-538.8823806613661
 21
344.6309820037992
 31
0.0
  0
LINE
  5
B2
  8
1
  6
CONTINUOUS
 62
     7
 10
-540.8303393599105
 20
344.1772032394143
 30
0.0
 11
-540.8060389136165
 21
344.0675910096732
 31
0.0
  0
LINE
  5
B3
  8
1
  6
CONTINUOUS
 62
     7
 10
-540.8060389136165
 20
344.0675910096732
 30
0.0
 11
-540.7637964869652
 21
343.8770477365625
 31
0.0
  0
LINE
  5
B4
  8
1
  6
CONTINUOUS
 62
     7
 10
-542.3199347435981
 20
409.1036661963701
 30
0.0
 11
-545.1879173836786
 21
409.1036661963701
 31
0.0
  0
LINE
  5
B5
  8
1
  6
CONTINUOUS
 62
     7
 10
-545.1879173836786
 20
409.1036661963701
 30
0.0
 11
-545.3106510395025
 21
408.5500504513599
 31
0.0
  0
LINE
  5
B6
  8
1
  6
CONTINUOUS
 62
     7
 10
-545.3106510395025
 20
408.5500504513599
 30
0.0
 11
-545.8640452500816
 21
408.5500504513599
 31
0.0
  0
LINE
  5
B7
  8
1
  6
CONTINUOUS
 62
     7
 10
-545.3106510395025
 20
351.4499495486401
 30
0.0
 11
-545.8640452500816
 21
351.4499495486401
 31
0.0
  0
LINE
  5
B8
  8
1
  6
CONTINUOUS
 62
     7
 10
-545.1879173836786
 20
350.8963338036299
 30
0.0
 11
-545.3106510395025
 21
351.4499495486401
 31
0.0
  0
LINE
  5
B9
  8
1
  6
CONTINUOUS
 62
     7
 10
-542.3199347435981
 20
350.8963338036299
 30
0.0
 11
-545.1879173836786
 21
350.8963338036299
 31
0.0
  0
LINE
  5
BA
  8
1
  6
CONTINUOUS
 62
     7
 10
-547.0192093520716
 20
410.0836945725426
 30
0.0
 11
-546.4714205793588
 21
412.5546100478288
 31
0.0
  0
LINE
  5
BB
  8
1
  6
CONTINUOUS
 62
     7
 10
-546.1314408463228
 20
412.7820778167049
 30
0.0
 11
-546.4713980268798
 21
412.5545935078999
 31
0.0
  0
LINE
  5
BC
  8
1
  6
CONTINUOUS
 62
     7
 10
-543.5494793449185
 20
412.7980015382529
 30
0.0
 11
-546.1314288848027
 21
412.7820687583945
 31
0.0
  0
LINE
  5
BD
  8
1
  6
CONTINUOUS
 62
     7
 10
-547.0354200638164
 20
410.0105727772245
 30
0.0
 11
-547.0192093520716
 21
410.0836945725427
 31
0.0
  0
LINE
  5
BE
  8
1
  6
CONTINUOUS
 62
     7
 10
-545.8635574165107
 20
408.5500502684431
 30
0.0
 11
-545.8631116015754
 21
408.5523533812755
 31
0.0
  0
LINE
  5
BF
  8
1
  6
CONTINUOUS
 62
     7
 10
-545.8631116015754
 20
408.5523533812755
 30
0.0
 11
-545.86266622069
 21
408.5550922646755
 31
0.0
  0
LINE
  5
C0
  8
1
  6
CONTINUOUS
 62
     7
 10
-547.0354200638164
 20
349.9894272227755
 30
0.0
 11
-547.0192093520716
 21
349.9163054274573
 31
0.0
  0
LINE
  5
C1
  8
1
  6
CONTINUOUS
 62
     7
 10
-546.1314408463228
 20
347.2179221832951
 30
0.0
 11
-546.4713980268798
 21
347.4454064921001
 31
0.0
  0
LINE
  5
C2
  8
1
  6
CONTINUOUS
 62
     7
 10
-543.5494793449185
 20
347.2019984617471
 30
0.0
 11
-546.1314288848027
 21
347.2179312416055
 31
0.0
  0
LINE
  5
C3
  8
1
  6
CONTINUOUS
 62
     7
 10
-547.0192093520716
 20
349.9163054274574
 30
0.0
 11
-546.4714205793588
 21
347.4453899521712
 31
0.0
  0
ARC
  5
C4
  8
1
  6
CONTINUOUS
 62
     7
 10
-552.2637218183505
 20
380.0
 30
0.0
 40
8.19165961567549
 50
357.2888363801698
 51
0.0047386368252091
  0
LINE
  5
C5
  8
1
  6
CONTINUOUS
 62
     7
 10
-547.0342432082587
 20
410.0158812295969
 30
0.0
 11
-545.8545781193382
 21
408.5499511965082
 31
0.0
  0
LINE
  5
C6
  8
1
  6
CONTINUOUS
 62
     7
 10
-546.0357501106569
 20
351.2249203172606
 30
0.0
 11
-547.0342432082587
 21
349.9841187704031
 31
0.0
  0
LINE
  5
C7
  8
1
  6
CONTINUOUS
 62
     7
 10
-547.0342432082274
 20
410.0158812297382
 30
0.0
 11
-545.8626663433164
 21
408.5600022057143
 31
0.0
  0
LINE
  5
C8
  8
1
  6
CONTINUOUS
 62
     7
 10
-546.0357504861569
 20
351.2249194802154
 30
0.0
 11
-547.0342432082274
 21
349.9841187702618
 31
0.0
  0
ENDBLK
  8
0
  0
BLOCK
  8
0
  2
D_FRAME_VIEW_2402
 70
     0
 10
0.0
 20
0.0
 30
0.0
  0
LINE
  5
CD
  8
1
  6
CONTINUOUS
 62
     7
 10
-603.2606235748898
 20
350.3978325022328
 30
0.0
 11
-602.7712297585197
 21
349.9162880333558
 31
0.0
  0
LINE
  5
CE
  8
1
  6
CONTINUOUS
 62
     7
 10
-602.2105998424505
 20
351.447743674477
 30
0.0
 11
-603.2605678390939
 21
350.3977756778335
 31
0.0
  0
ARC
  5
CF
  8
1
  6
CONTINUOUS
 62
     7
 10
-602.226363001588
 20
348.25
 30
0.0
 40
3.200000000000002
 50
0.3211871879790328
 51
89.67884778114905
  0
LINE
  5
D0
  8
1
  6
CONTINUOUS
 62
     7
 10
-600.0764512446431
 20
347.2179312416055
 30
0.0
 11
-599.0288205833339
 21
348.2655619029147
 31
0.0
  0
LINE
  5
D1
  8
1
  6
CONTINUOUS
 62
     7
 10
-600.3003475224097
 20
347.4454057988053
 30
0.0
 11
-600.076442013687
 21
347.2179221832951
 31
0.0
  0
LINE
  5
D2
  8
1
  6
CONTINUOUS
 62
     7
 10
-602.7712455751275
 20
349.9163041862486
 30
0.0
 11
-600.3003301019672
 21
347.4453887130883
 31
0.0
  0
LINE
  5
D3
  8
1
  6
CONTINUOUS
 62
     7
 10
-600.3003475224097
 20
412.5545942011947
 30
0.0
 11
-600.076442013687
 21
412.7820778167049
 31
0.0
  0
LINE
  5
D4
  8
1
  6
CONTINUOUS
 62
     7
 10
-600.0764512446431
 20
412.7820687583945
 30
0.0
 11
-599.0288205833339
 21
411.7344380970853
 31
0.0
  0
ARC
  5
D5
  8
1
  6
CONTINUOUS
 62
     7
 10
-602.226363001588
 20
411.75
 30
0.0
 40
3.200000000000001
 50
270.3211522188509
 51
359.678812812021
  0
LINE
  5
D6
  8
1
  6
CONTINUOUS
 62
     7
 10
-602.2105998424505
 20
408.552256325523
 30
0.0
 11
-603.2605678390939
 21
409.6022243221665
 31
0.0
  0
LINE
  5
D7
  8
1
  6
CONTINUOUS
 62
     7
 10
-603.2606235748898
 20
409.6021674977671
 30
0.0
 11
-602.7712297585197
 21
410.0837119666442
 31
0.0
  0
LINE
  5
D8
  8
1
  6
CONTINUOUS
 62
     7
 10
-602.7712455751274
 20
410.0836958137514
 30
0.0
 11
-600.3003301019671
 21
412.5546112869117
 31
0.0
  0
LINE
  5
D9
  8
1
  6
CONTINUOUS
 62
     7
 10
-587.681495525396
 20
410.0837112584814
 30
0.0
 11
-587.1921022960443
 21
409.6021673676937
 31
0.0
  0
LINE
  5
DA
  8
1
  6
CONTINUOUS
 62
     7
 10
-587.1921581617293
 20
409.6022243245191
 30
0.0
 11
-588.2421261607253
 21
408.552256325523
 31
0.0
  0
ARC
  5
DB
  8
1
  6
CONTINUOUS
 62
     7
 10
-588.226363001588
 20
411.75
 30
0.0
 40
3.200000000000002
 50
180.3211871879789
 51
269.678847781149
  0
LINE
  5
DC
  8
1
  6
CONTINUOUS
 62
     7
 10
-591.4239054198421
 20
411.7344380970853
 30
0.0
 11
-590.3762747585329
 21
412.7820687583945
 31
0.0
  0
LINE
  5
DD
  8
1
  6
CONTINUOUS
 62
     7
 10
-590.3762839894888
 20
412.7820778167049
 30
0.0
 11
-590.152377798164
 21
412.5545935078999
 31
0.0
  0
LINE
  5
DE
  8
1
  6
CONTINUOUS
 62
     7
 10
-590.3762839894889
 20
347.2179221832951
 30
0.0
 11
-590.1523777981641
 21
347.4454064921
 31
0.0
  0
LINE
  5
DF
  8
1
  6
CONTINUOUS
 62
     7
 10
-591.4239054198421
 20
348.2655619029147
 30
0.0
 11
-590.3762747585329
 21
347.2179312416055
 31
0.0
  0
ARC
  5
E0
  8
1
  6
CONTINUOUS
 62
     7
 10
-588.226363001588
 20
348.25
 30
0.0
 40
3.200000000000002
 50
90.32115221885098
 51
179.6788128120211
  0
LINE
  5
E1
  8
1
  6
CONTINUOUS
 62
     7
 10
-587.1921581617293
 20
350.3977756754808
 30
0.0
 11
-588.2421261607253
 21
351.447743674477
 31
0.0
  0
LINE
  5
E2
  8
1
  6
CONTINUOUS
 62
     7
 10
-587.681495525396
 20
349.9162887415186
 30
0.0
 11
-587.1921022960443
 21
350.3978326323063
 31
0.0
  0
LINE
  5
E3
  8
1
  6
CONTINUOUS
 62
     7
 10
-587.6814791868396
 20
410.0836945725426
 30
0.0
 11
-590.1523946621259
 21
412.5546100478288
 31
0.0
  0
LINE
  5
E4
  8
1
  6
CONTINUOUS
 62
     7
 10
-587.6814791868396
 20
349.9163054274574
 30
0.0
 11
-590.1523946621259
 21
347.4453899521712
 31
0.0
  0
LINE
  5
E5
  8
1
  6
CONTINUOUS
 62
     7
 10
-587.168355544585
 20
409.6260269416635
 30
0.0
 11
-590.3503360599245
 21
412.808007457003
 31
0.0
  0
LINE
  5
E6
  8
1
  6
CONTINUOUS
 62
     7
 10
-587.168355544585
 20
350.3739730583365
 30
0.0
 11
-590.3503360599245
 21
347.191992542997
 31
0.0
  0
LINE
  5
E7
  8
1
  6
CONTINUOUS
 62
     7
 10
-600.1023899432515
 20
347.191992542997
 30
0.0
 11
-603.284370458591
 21
350.3739730583365
 31
0.0
  0
LINE
  5
E8
  8
1
  6
CONTINUOUS
 62
     7
 10
-600.1023899432515
 20
412.808007457003
 30
0.0
 11
-603.284370458591
 21
409.6260269416635
 31
0.0
  0
LINE
  5
E9
  8
1
  6
CONTINUOUS
 62
     7
 10
-582.6521889527801
 20
381.5410742823859
 30
0.0
 11
-587.800537050396
 21
381.5410742823859
 31
0.0
  0
LINE
  5
EA
  8
1
  6
CONTINUOUS
 62
     7
 10
-607.800537050396
 20
378.4589257176141
 30
0.0
 11
-602.65218895278
 21
378.4589257176141
 31
0.0
  0
LINE
  5
EB
  8
1
  6
CONTINUOUS
 62
     7
 10
-580.226363001588
 20
375.7235142663082
 30
0.0
 11
-580.226363001588
 21
376.1026941868936
 31
0.0
  0
LINE
  5
EC
  8
1
  6
CONTINUOUS
 62
     7
 10
-589.726363001588
 20
376.1026941868936
 30
0.0
 11
-589.726363001588
 21
375.7235142663082
 31
0.0
  0
LINE
  5
ED
  8
1
  6
CONTINUOUS
 62
     7
 10
-600.726363001588
 20
383.8973058131064
 30
0.0
 11
-600.726363001588
 21
384.2764857336917
 31
0.0
  0
LINE
  5
EE
  8
1
  6
CONTINUOUS
 62
     7
 10
-610.226363001588
 20
384.2764857336917
 30
0.0
 11
-610.226363001588
 21
383.8973058131064
 31
0.0
  0
LINE
  5
EF
  8
1
  6
CONTINUOUS
 62
     9
 10
-611.9909196118898
 20
384.2782307061864
 30
0.0
 11
-611.9553097337953
 21
384.2764857336918
 31
0.0
  0
LINE
  5
F0
  8
1
  6
CONTINUOUS
 62
     7
 10
-581.226363001588
 20
371.5
 30
0.0
 11
-583.226363001588
 21
371.5
 31
0.0
  0
ARC
  5
F1
  8
1
  6
CONTINUOUS
 62
     7
 10
-581.2263630015879
 20
372.5
 30
0.0
 40
1.0
 50
269.9999999999991
 51
0.0
  0
ARC
  5
F2
  8
1
  6
CONTINUOUS
 62
     7
 10
-588.726363001588
 20
372.5
 30
0.0
 40
1.0
 50
180.0
 51
269.9999999999995
  0
LINE
  5
F3
  8
1
  6
CONTINUOUS
 62
     7
 10
-587.226363001588
 20
371.5
 30
0.0
 11
-588.726363001588
 21
371.5
 31
0.0
  0
LINE
  5
F4
  8
1
  6
CONTINUOUS
 62
     7
 10
-589.726363001588
 20
372.5
 30
0.0
 11
-589.726363001588
 21
375.7235142663082
 31
0.0
  0
LINE
  5
F5
  8
1
  6
CONTINUOUS
 62
     7
 10
-580.226363001588
 20
375.7235142663082
 30
0.0
 11
-580.226363001588
 21
372.5
 31
0.0
  0
LINE
  5
F6
  8
1
  6
CONTINUOUS
 62
     7
 10
-609.226363001588
 20
388.5
 30
0.0
 11
-607.226363001588
 21
388.5
 31
0.0
  0
ARC
  5
F7
  8
1
  6
CONTINUOUS
 62
     7
 10
-609.226363001588
 20
387.5
 30
0.0
 40
1.0
 50
90.00000000000011
 51
180.0
  0
ARC
  5
F8
  8
1
  6
CONTINUOUS
 62
     7
 10
-601.726363001588
 20
387.5
 30
0.0
 40
1.0
 50
0.0
 51
90.00000000000016
  0
LINE
  5
F9
  8
1
  6
CONTINUOUS
 62
     7
 10
-603.226363001588
 20
388.5
 30
0.0
 11
-601.7263630015879
 21
388.5
 31
0.0
  0
LINE
  5
FA
  8
1
  6
CONTINUOUS
 62
     7
 10
-610.226363001588
 20
384.2764857336917
 30
0.0
 11
-610.226363001588
 21
387.4999999999999
 31
0.0
  0
LINE
  5
FB
  8
1
  6
CONTINUOUS
 62
     7
 10
-600.726363001588
 20
387.5
 30
0.0
 11
-600.726363001588
 21
384.2764857336918
 31
0.0
  0
LINE
  5
FC
  8
1
  6
CONTINUOUS
 62
     7
 10
-578.112933154043
 20
381.3354453487531
 30
0.0
 11
-578.3820364017517
 21
381.6877379515602
 31
0.0
  0
LINE
  5
FD
  8
1
  6
CONTINUOUS
 62
     7
 10
-578.112933154043
 20
378.6645546512469
 30
0.0
 11
-578.3820364017517
 21
378.3122620484398
 31
0.0
  0
LINE
  5
FE
  8
1
  6
CONTINUOUS
 62
     7
 10
-612.071231099129
 20
378.3128539770741
 30
0.0
 11
-612.33984967292
 21
378.6646445828537
 31
0.0
  0
LINE
  5
FF
  8
1
  6
CONTINUOUS
 62
     7
 10
-612.071231099129
 20
381.6871460229259
 30
0.0
 11
-612.33984967292
 21
381.3353554171462
 31
0.0
  0
LINE
  5
100
  8
1
  6
CONTINUOUS
 62
     7
 10
-611.8237906675338
 20
378.0769230769231
 30
0.0
 11
-612.0712310991291
 21
378.3128539770741
 31
0.0
  0
LINE
  5
101
  8
1
  6
CONTINUOUS
 62
     7
 10
-611.8237906675338
 20
378.0769230769231
 30
0.0
 11
-610.5041765087091
 21
376.9807692307692
 31
0.0
  0
POLYLINE
  5
102
  8
1
  6
CONTINUOUS
 62
     7
 66
     1
 10
0.0
 20
0.0
 30
0.0
  0
VERTEX
  5
230
  8
1
  6
CONTINUOUS
 62
     7
 10
-609.8652054423306
 20
376.75
 30
0.0
  0
VERTEX
  5
231
  8
1
  6
CONTINUOUS
 62
     7
 10
-609.9037163280415
 20
376.7507455113517
 30
0.0
  0
VERTEX
  5
232
  8
1
  6
CONTINUOUS
 62
     7
 10
-609.9421910394135
 20
376.752974378282
 30
0.0
  0
VERTEX
  5
233
  8
1
  6
CONTINUOUS
 62
     7
 10
-609.9805235203607
 20
376.7566751001044
 30
0.0
  0
VERTEX
  5
234
  8
1
  6
CONTINUOUS
 62
     7
 10
-610.0186077147973
 20
376.7618361761317
 30
0.0
  0
VERTEX
  5
235
  8
1
  6
CONTINUOUS
 62
     7
 10
-610.0575657153794
 20
376.7686794527584
 30
0.0
  0
VERTEX
  5
236
  8
1
  6
CONTINUOUS
 62
     7
 10
-610.0961883349503
 20
376.7770490597525
 30
0.0
  0
VERTEX
  5
237
  8
1
  6
CONTINUOUS
 62
     7
 10
-610.1343712125613
 20
376.7869100454685
 30
0.0
  0
VERTEX
  5
238
  8
1
  6
CONTINUOUS
 62
     7
 10
-610.1720099872638
 20
376.798227458261
 30
0.0
  0
VERTEX
  5
239
  8
1
  6
CONTINUOUS
 62
     7
 10
-610.2079577969103
 20
376.8105771446745
 30
0.0
  0
VERTEX
  5
23A
  8
1
  6
CONTINUOUS
 62
     7
 10
-610.2433422170271
 20
376.8242555767214
 30
0.0
  0
VERTEX
  5
23B
  8
1
  6
CONTINUOUS
 62
     7
 10
-610.2780849834415
 20
376.8392174034075
 30
0.0
  0
VERTEX
  5
23C
  8
1
  6
CONTINUOUS
 62
     7
 10
-610.3121078319812
 20
376.855417273739
 30
0.0
  0
VERTEX
  5
23D
  8
1
  6
CONTINUOUS
 62
     7
 10
-610.3462569004794
 20
376.873310432653
 30
0.0
  0
VERTEX
  5
23E
  8
1
  6
CONTINUOUS
 62
     7
 10
-610.3796109794879
 20
376.8924580438511
 30
0.0
  0
VERTEX
  5
23F
  8
1
  6
CONTINUOUS
 62
     7
 10
-610.4121041504742
 20
376.9128041597082
 30
0.0
  0
VERTEX
  5
240
  8
1
  6
CONTINUOUS
 62
     7
 10
-610.4436704949056
 20
376.934292832599
 30
0.0
  0
VERTEX
  5
241
  8
1
  6
CONTINUOUS
 62
     7
 10
-610.4743904396031
 20
376.9569718547882
 30
0.0
  0
VERTEX
  5
242
  8
1
  6
CONTINUOUS
 62
     7
 10
-610.5041765087091
 20
376.9807692307692
 30
0.0
  0
SEQEND
  5
8B8
  8
1
  6
CONTINUOUS
 62
     7
  0
LINE
  5
103
  8
1
  6
CONTINUOUS
 62
     7
 10
-601.726363001588
 20
376.75
 30
0.0
 11
-609.8652054423306
 21
376.75
 31
0.0
  0
ARC
  5
104
  8
1
  6
CONTINUOUS
 62
     7
 10
-601.7268249003968
 20
377.7502928503367
 30
0.0
 40
1.000461941669628
 50
301.2780100658334
 51
359.9832286588213
  0
POLYLINE
  5
105
  8
1
  6
CONTINUOUS
 62
     7
 66
     1
 10
0.0
 20
0.0
 30
0.0
  0
VERTEX
  5
243
  8
1
  6
CONTINUOUS
 62
     7
 10
-601.2073939292769
 20
376.8952398911751
 30
0.0
  0
VERTEX
  5
244
  8
1
  6
CONTINUOUS
 62
     7
 10
-601.3306324106303
 20
376.8317239469699
 30
0.0
  0
VERTEX
  5
245
  8
1
  6
CONTINUOUS
 62
     7
 10
-601.4540702937747
 20
376.7879200669987
 30
0.0
  0
VERTEX
  5
246
  8
1
  6
CONTINUOUS
 62
     7
 10
-601.5826934525359
 20
376.7603742825314
 30
0.0
  0
VERTEX
  5
247
  8
1
  6
CONTINUOUS
 62
     7
 10
-601.6903140023522
 20
376.7506528159876
 30
0.0
  0
VERTEX
  5
248
  8
1
  6
CONTINUOUS
 62
     7
 10
-601.726363001588
 20
376.75
 30
0.0
  0
SEQEND
  5
8B9
  8
1
  6
CONTINUOUS
 62
     7
  0
LINE
  5
106
  8
1
  6
CONTINUOUS
 62
     7
 10
-578.6289353356422
 20
381.9230769230769
 30
0.0
 11
-578.3820364017517
 21
381.6877379515602
 31
0.0
  0
LINE
  5
107
  8
1
  6
CONTINUOUS
 62
     7
 10
-578.6289353356422
 20
381.9230769230769
 30
0.0
 11
-579.948549494467
 21
383.0192307692308
 31
0.0
  0
POLYLINE
  5
108
  8
1
  6
CONTINUOUS
 62
     7
 66
     1
 10
0.0
 20
0.0
 30
0.0
  0
VERTEX
  5
249
  8
1
  6
CONTINUOUS
 62
     7
 10
-580.5875205608453
 20
383.25
 30
0.0
  0
VERTEX
  5
24A
  8
1
  6
CONTINUOUS
 62
     7
 10
-580.5490096751345
 20
383.2492544886483
 30
0.0
  0
VERTEX
  5
24B
  8
1
  6
CONTINUOUS
 62
     7
 10
-580.5105349637624
 20
383.247025621718
 30
0.0
  0
VERTEX
  5
24C
  8
1
  6
CONTINUOUS
 62
     7
 10
-580.4722024828152
 20
383.2433248998956
 30
0.0
  0
VERTEX
  5
24D
  8
1
  6
CONTINUOUS
 62
     7
 10
-580.4341182883786
 20
383.2381638238683
 30
0.0
  0
VERTEX
  5
24E
  8
1
  6
CONTINUOUS
 62
     7
 10
-580.3951602877966
 20
383.2313205472416
 30
0.0
  0
VERTEX
  5
24F
  8
1
  6
CONTINUOUS
 62
     7
 10
-580.3565376682257
 20
383.2229509402475
 30
0.0
  0
VERTEX
  5
250
  8
1
  6
CONTINUOUS
 62
     7
 10
-580.3183547906146
 20
383.2130899545314
 30
0.0
  0
VERTEX
  5
251
  8
1
  6
CONTINUOUS
 62
     7
 10
-580.280716015912
 20
383.201772541739
 30
0.0
  0
VERTEX
  5
252
  8
1
  6
CONTINUOUS
 62
     7
 10
-580.2447682062656
 20
383.1894228553255
 30
0.0
  0
VERTEX
  5
253
  8
1
  6
CONTINUOUS
 62
     7
 10
-580.2093837861488
 20
383.1757444232786
 30
0.0
  0
VERTEX
  5
254
  8
1
  6
CONTINUOUS
 62
     7
 10
-580.1746410197344
 20
383.1607825965925
 30
0.0
  0
VERTEX
  5
255
  8
1
  6
CONTINUOUS
 62
     7
 10
-580.1406181711948
 20
383.144582726261
 30
0.0
  0
VERTEX
  5
256
  8
1
  6
CONTINUOUS
 62
     7
 10
-580.1064691026966
 20
383.126689567347
 30
0.0
  0
VERTEX
  5
257
  8
1
  6
CONTINUOUS
 62
     7
 10
-580.073115023688
 20
383.1075419561489
 30
0.0
  0
VERTEX
  5
258
  8
1
  6
CONTINUOUS
 62
     7
 10
-580.0406218527017
 20
383.0871958402918
 30
0.0
  0
VERTEX
  5
259
  8
1
  6
CONTINUOUS
 62
     7
 10
-580.0090555082703
 20
383.065707167401
 30
0.0
  0
VERTEX
  5
25A
  8
1
  6
CONTINUOUS
 62
     7
 10
-579.9783355635728
 20
383.0430281452118
 30
0.0
  0
VERTEX
  5
25B
  8
1
  6
CONTINUOUS
 62
     7
 10
-579.948549494467
 20
383.0192307692308
 30
0.0
  0
SEQEND
  5
8BA
  8
1
  6
CONTINUOUS
 62
     7
  0
LINE
  5
109
  8
1
  6
CONTINUOUS
 62
     7
 10
-588.726363001588
 20
383.25
 30
0.0
 11
-580.5875205608453
 21
383.25
 31
0.0
  0
ARC
  5
10A
  8
1
  6
CONTINUOUS
 62
     7
 10
-588.7259011027792
 20
382.2497071496633
 30
0.0
 40
1.000461941669623
 50
121.2780100658334
 51
179.9832286588216
  0
POLYLINE
  5
10B
  8
1
  6
CONTINUOUS
 62
     7
 66
     1
 10
0.0
 20
0.0
 30
0.0
  0
VERTEX
  5
25C
  8
1
  6
CONTINUOUS
 62
     7
 10
-589.245332073899
 20
383.1047601088248
 30
0.0
  0
VERTEX
  5
25D
  8
1
  6
CONTINUOUS
 62
     7
 10
-589.1220935925456
 20
383.1682760530301
 30
0.0
  0
VERTEX
  5
25E
  8
1
  6
CONTINUOUS
 62
     7
 10
-588.9986557094011
 20
383.2120799330013
 30
0.0
  0
VERTEX
  5
25F
  8
1
  6
CONTINUOUS
 62
     7
 10
-588.8700325506401
 20
383.2396257174685
 30
0.0
  0
VERTEX
  5
260
  8
1
  6
CONTINUOUS
 62
     7
 10
-588.7624120008237
 20
383.2493471840124
 30
0.0
  0
VERTEX
  5
261
  8
1
  6
CONTINUOUS
 62
     7
 10
-588.726363001588
 20
383.25
 30
0.0
  0
SEQEND
  5
8BB
  8
1
  6
CONTINUOUS
 62
     7
  0
LINE
  5
10C
  8
1
  6
CONTINUOUS
 62
     7
 10
-600.726363001588
 20
377.75
 30
0.0
 11
-600.726363001588
 21
383.8973058131065
 31
0.0
  0
LINE
  5
10D
  8
1
  6
CONTINUOUS
 62
     7
 10
-589.726363001588
 20
382.2499999999999
 30
0.0
 11
-589.726363001588
 21
376.1026941868936
 31
0.0
  0
POLYLINE
  5
10E
  8
1
  6
CONTINUOUS
 62
     7
 66
     1
 10
0.0
 20
0.0
 30
0.0
  0
VERTEX
  5
262
  8
1
  6
CONTINUOUS
 62
     7
 10
-579.5120772873022
 20
377.6042128812502
 30
0.0
  0
VERTEX
  5
263
  8
1
  6
CONTINUOUS
 62
     7
 10
-579.5566153130859
 20
377.5897635644529
 30
0.0
  0
VERTEX
  5
264
  8
1
  6
CONTINUOUS
 62
     7
 10
-579.6004634865146
 20
377.5732091053017
 30
0.0
  0
VERTEX
  5
265
  8
1
  6
CONTINUOUS
 62
     7
 10
-579.6434782064562
 20
377.5546380215967
 30
0.0
  0
VERTEX
  5
266
  8
1
  6
CONTINUOUS
 62
     7
 10
-579.6855158717784
 20
377.5341388311384
 30
0.0
  0
VERTEX
  5
267
  8
1
  6
CONTINUOUS
 62
     7
 10
-579.726432881349
 20
377.511800051727
 30
0.0
  0
VERTEX
  5
268
  8
1
  6
CONTINUOUS
 62
     7
 10
-579.7660856340356
 20
377.4877102011629
 30
0.0
  0
VERTEX
  5
269
  8
1
  6
CONTINUOUS
 62
     7
 10
-579.8043305287059
 20
377.4619577972463
 30
0.0
  0
VERTEX
  5
26A
  8
1
  6
CONTINUOUS
 62
     7
 10
-579.8411315240559
 20
377.4345784371864
 30
0.0
  0
VERTEX
  5
26B
  8
1
  6
CONTINUOUS
 62
     7
 10
-579.8765871342102
 20
377.4055616302916
 30
0.0
  0
VERTEX
  5
26C
  8
1
  6
CONTINUOUS
 62
     7
 10
-579.9106085404336
 20
377.3750309099771
 30
0.0
  0
VERTEX
  5
26D
  8
1
  6
CONTINUOUS
 62
     7
 10
-579.9431069239907
 20
377.3431098096578
 30
0.0
  0
VERTEX
  5
26E
  8
1
  6
CONTINUOUS
 62
     7
 10
-579.9739934661466
 20
377.309921862749
 30
0.0
  0
VERTEX
  5
26F
  8
1
  6
CONTINUOUS
 62
     7
 10
-580.0031793481654
 20
377.2755906026657
 30
0.0
  0
VERTEX
  5
270
  8
1
  6
CONTINUOUS
 62
     7
 10
-580.0305757513125
 20
377.240239562823
 30
0.0
  0
VERTEX
  5
271
  8
1
  6
CONTINUOUS
 62
     7
 10
-580.0613285015369
 20
377.1961580762003
 30
0.0
  0
VERTEX
  5
272
  8
1
  6
CONTINUOUS
 62
     7
 10
-580.0895634487597
 20
377.1506404401071
 30
0.0
  0
VERTEX
  5
273
  8
1
  6
CONTINUOUS
 62
     7
 10
-580.1152253877407
 20
377.1039052005509
 30
0.0
  0
VERTEX
  5
274
  8
1
  6
CONTINUOUS
 62
     7
 10
-580.1382591132393
 20
377.0561709035394
 30
0.0
  0
VERTEX
  5
275
  8
1
  6
CONTINUOUS
 62
     7
 10
-580.1586094200153
 20
377.00765609508
 30
0.0
  0
VERTEX
  5
276
  8
1
  6
CONTINUOUS
 62
     7
 10
-580.176221102828
 20
376.9585793211803
 30
0.0
  0
VERTEX
  5
277
  8
1
  6
CONTINUOUS
 62
     7
 10
-580.1916042646708
 20
376.9071919790656
 30
0.0
  0
VERTEX
  5
278
  8
1
  6
CONTINUOUS
 62
     7
 10
-580.2041571066717
 20
376.8552510078659
 30
0.0
  0
VERTEX
  5
279
  8
1
  6
CONTINUOUS
 62
     7
 10
-580.2138945150974
 20
376.8029537676578
 30
0.0
  0
VERTEX
  5
27A
  8
1
  6
CONTINUOUS
 62
     7
 10
-580.2208313762143
 20
376.7504976185181
 30
0.0
  0
VERTEX
  5
27B
  8
1
  6
CONTINUOUS
 62
     7
 10
-580.224982576289
 20
376.6980799205234
 30
0.0
  0
VERTEX
  5
27C
  8
1
  6
CONTINUOUS
 62
     7
 10
-580.226363001588
 20
376.6458980337503
 30
0.0
  0
SEQEND
  5
8BC
  8
1
  6
CONTINUOUS
 62
     7
  0
ARC
  5
10F
  8
1
  6
CONTINUOUS
 62
     7
 10
-580.2264625934507
 20
380.0001589478273
 30
0.0
 40
2.500180777381277
 50
286.6026960435324
 51
317.5373115933351
  0
LINE
  5
110
  8
1
  6
CONTINUOUS
 62
     7
 10
-580.226363001588
 20
376.1026941868936
 30
0.0
 11
-580.226363001588
 21
376.6458980337503
 31
0.0
  0
POLYLINE
  5
111
  8
1
  6
CONTINUOUS
 62
     7
 66
     1
 10
0.0
 20
0.0
 30
0.0
  0
VERTEX
  5
27D
  8
1
  6
CONTINUOUS
 62
     7
 10
-610.9406487158737
 20
382.3957871187498
 30
0.0
  0
VERTEX
  5
27E
  8
1
  6
CONTINUOUS
 62
     7
 10
-610.89611069009
 20
382.4102364355471
 30
0.0
  0
VERTEX
  5
27F
  8
1
  6
CONTINUOUS
 62
     7
 10
-610.8522625166613
 20
382.4267908946983
 30
0.0
  0
VERTEX
  5
280
  8
1
  6
CONTINUOUS
 62
     7
 10
-610.8092477967198
 20
382.4453619784033
 30
0.0
  0
VERTEX
  5
281
  8
1
  6
CONTINUOUS
 62
     7
 10
-610.7672101313974
 20
382.4658611688616
 30
0.0
  0
VERTEX
  5
282
  8
1
  6
CONTINUOUS
 62
     7
 10
-610.726293121827
 20
382.488199948273
 30
0.0
  0
VERTEX
  5
283
  8
1
  6
CONTINUOUS
 62
     7
 10
-610.6866403691403
 20
382.5122897988371
 30
0.0
  0
VERTEX
  5
284
  8
1
  6
CONTINUOUS
 62
     7
 10
-610.64839547447
 20
382.5380422027537
 30
0.0
  0
VERTEX
  5
285
  8
1
  6
CONTINUOUS
 62
     7
 10
-610.6115944791201
 20
382.5654215628136
 30
0.0
  0
VERTEX
  5
286
  8
1
  6
CONTINUOUS
 62
     7
 10
-610.5761388689657
 20
382.5944383697084
 30
0.0
  0
VERTEX
  5
287
  8
1
  6
CONTINUOUS
 62
     7
 10
-610.5421174627423
 20
382.6249690900229
 30
0.0
  0
VERTEX
  5
288
  8
1
  6
CONTINUOUS
 62
     7
 10
-610.5096190791852
 20
382.6568901903422
 30
0.0
  0
VERTEX
  5
289
  8
1
  6
CONTINUOUS
 62
     7
 10
-610.4787325370295
 20
382.690078137251
 30
0.0
  0
VERTEX
  5
28A
  8
1
  6
CONTINUOUS
 62
     7
 10
-610.4495466550105
 20
382.7244093973343
 30
0.0
  0
VERTEX
  5
28B
  8
1
  6
CONTINUOUS
 62
     7
 10
-610.4221502518634
 20
382.759760437177
 30
0.0
  0
VERTEX
  5
28C
  8
1
  6
CONTINUOUS
 62
     7
 10
-610.3913975016391
 20
382.8038419237997
 30
0.0
  0
VERTEX
  5
28D
  8
1
  6
CONTINUOUS
 62
     7
 10
-610.3631625544162
 20
382.8493595598929
 30
0.0
  0
VERTEX
  5
28E
  8
1
  6
CONTINUOUS
 62
     7
 10
-610.3375006154353
 20
382.8960947994491
 30
0.0
  0
VERTEX
  5
28F
  8
1
  6
CONTINUOUS
 62
     7
 10
-610.3144668899365
 20
382.9438290964606
 30
0.0
  0
VERTEX
  5
290
  8
1
  6
CONTINUOUS
 62
     7
 10
-610.2941165831606
 20
382.99234390492
 30
0.0
  0
VERTEX
  5
291
  8
1
  6
CONTINUOUS
 62
     7
 10
-610.276504900348
 20
383.0414206788197
 30
0.0
  0
VERTEX
  5
292
  8
1
  6
CONTINUOUS
 62
     7
 10
-610.2611217385052
 20
383.0928080209343
 30
0.0
  0
VERTEX
  5
293
  8
1
  6
CONTINUOUS
 62
     7
 10
-610.2485688965043
 20
383.1447489921341
 30
0.0
  0
VERTEX
  5
294
  8
1
  6
CONTINUOUS
 62
     7
 10
-610.2388314880785
 20
383.1970462323422
 30
0.0
  0
VERTEX
  5
295
  8
1
  6
CONTINUOUS
 62
     7
 10
-610.2318946269615
 20
383.2495023814819
 30
0.0
  0
VERTEX
  5
296
  8
1
  6
CONTINUOUS
 62
     7
 10
-610.227743426887
 20
383.3019200794766
 30
0.0
  0
VERTEX
  5
297
  8
1
  6
CONTINUOUS
 62
     7
 10
-610.226363001588
 20
383.3541019662497
 30
0.0
  0
SEQEND
  5
8BD
  8
1
  6
CONTINUOUS
 62
     7
  0
ARC
  5
112
  8
1
  6
CONTINUOUS
 62
     7
 10
-610.2262634940731
 20
379.999841243411
 30
0.0
 40
2.500180570014917
 50
106.6026954433862
 51
137.5556983265043
  0
LINE
  5
113
  8
1
  6
CONTINUOUS
 62
     7
 10
-610.226363001588
 20
383.8973058131064
 30
0.0
 11
-610.226363001588
 21
383.3541019662497
 31
0.0
  0
ARC
  5
114
  8
1
  6
CONTINUOUS
 62
     7
 10
-610.226363001588
 20
380.0
 30
0.0
 40
2.500000000000034
 50
147.7168655454435
 51
179.9999999999997
  0
ARC
  5
115
  8
1
  6
CONTINUOUS
 62
     7
 10
-610.226363001588
 20
380.0
 30
0.0
 40
2.499999999999988
 50
180.0
 51
212.2831344545568
  0
ARC
  5
116
  8
1
  6
CONTINUOUS
 62
     7
 10
-580.2263630015879
 20
380.0
 30
0.0
 40
2.499999999999968
 50
327.7143926596885
 51
0.0000000000001137
  0
ARC
  5
117
  8
1
  6
CONTINUOUS
 62
     7
 10
-580.2263630015879
 20
380.0
 30
0.0
 40
2.49999999999996
 50
359.9999999999998
 51
32.28560734031156
  0
LINE
  5
118
  8
1
  6
CONTINUOUS
 62
     7
 10
-582.2263630015879
 20
381.3508798294388
 30
0.0
 11
-582.2263630015879
 21
380.9919495420656
 31
0.0
  0
POLYLINE
  5
119
  8
1
  6
CONTINUOUS
 62
     7
 66
     1
 10
0.0
 20
0.0
 30
0.0
  0
VERTEX
  5
298
  8
1
  6
CONTINUOUS
 62
     7
 10
-582.6521889527801
 20
381.5410742823859
 30
0.0
  0
VERTEX
  5
299
  8
1
  6
CONTINUOUS
 62
     7
 10
-582.6284796905749
 20
381.540599458265
 30
0.0
  0
VERTEX
  5
29A
  8
1
  6
CONTINUOUS
 62
     7
 10
-582.6047902690945
 20
381.5391770830443
 30
0.0
  0
VERTEX
  5
29B
  8
1
  6
CONTINUOUS
 62
     7
 10
-582.5811803300928
 20
381.5368103024369
 30
0.0
  0
VERTEX
  5
29C
  8
1
  6
CONTINUOUS
 62
     7
 10
-582.5577095153242
 20
381.533502262156
 30
0.0
  0
VERTEX
  5
29D
  8
1
  6
CONTINUOUS
 62
     7
 10
-582.5337373916318
 20
381.5291158309564
 30
0.0
  0
VERTEX
  5
29E
  8
1
  6
CONTINUOUS
 62
     7
 10
-582.5099561204705
 20
381.5237335789911
 30
0.0
  0
VERTEX
  5
29F
  8
1
  6
CONTINUOUS
 62
     7
 10
-582.486431687372
 20
381.517366277164
 30
0.0
  0
VERTEX
  5
2A0
  8
1
  6
CONTINUOUS
 62
     7
 10
-582.4632300778683
 20
381.5100246963787
 30
0.0
  0
VERTEX
  5
2A1
  8
1
  6
CONTINUOUS
 62
     7
 10
-582.4409961944591
 20
381.5019472378684
 30
0.0
  0
VERTEX
  5
2A2
  8
1
  6
CONTINUOUS
 62
     7
 10
-582.4191122644767
 20
381.4929487648981
 30
0.0
  0
VERTEX
  5
2A3
  8
1
  6
CONTINUOUS
 62
     7
 10
-582.3976407461452
 20
381.4830474195032
 30
0.0
  0
VERTEX
  5
2A4
  8
1
  6
CONTINUOUS
 62
     7
 10
-582.3766440976897
 20
381.4722613437193
 30
0.0
  0
VERTEX
  5
2A5
  8
1
  6
CONTINUOUS
 62
     7
 10
-582.3555082359538
 20
381.460206164428
 30
0.0
  0
VERTEX
  5
2A6
  8
1
  6
CONTINUOUS
 62
     7
 10
-582.3349302442799
 20
381.4472134161707
 30
0.0
  0
VERTEX
  5
2A7
  8
1
  6
CONTINUOUS
 62
     7
 10
-582.3149803145049
 20
381.4333149986816
 30
0.0
  0
VERTEX
  5
2A8
  8
1
  6
CONTINUOUS
 62
     7
 10
-582.2957286384658
 20
381.4185428116951
 30
0.0
  0
VERTEX
  5
2A9
  8
1
  6
CONTINUOUS
 62
     7
 10
-582.277251034202
 20
381.4029420190472
 30
0.0
  0
VERTEX
  5
2AA
  8
1
  6
CONTINUOUS
 62
     7
 10
-582.2595456644251
 20
381.3865031540378
 30
0.0
  0
VERTEX
  5
2AB
  8
1
  6
CONTINUOUS
 62
     7
 10
-582.2425109086632
 20
381.3690893069789
 30
0.0
  0
VERTEX
  5
2AC
  8
1
  6
CONTINUOUS
 62
     7
 10
-582.226363001588
 20
381.3508798294382
 30
0.0
  0
SEQEND
  5
8BE
  8
1
  6
CONTINUOUS
 62
     7
  0
POLYLINE
  5
11A
  8
1
  6
CONTINUOUS
 62
     7
 66
     1
 10
0.0
 20
0.0
 30
0.0
  0
VERTEX
  5
2AD
  8
1
  6
CONTINUOUS
 62
     7
 10
-588.226363001588
 20
381.3508798294947
 30
0.0
  0
VERTEX
  5
2AE
  8
1
  6
CONTINUOUS
 62
     7
 10
-588.2119779970985
 20
381.3671848635952
 30
0.0
  0
VERTEX
  5
2AF
  8
1
  6
CONTINUOUS
 62
     7
 10
-588.1968664097631
 20
381.3828717023047
 30
0.0
  0
VERTEX
  5
2B0
  8
1
  6
CONTINUOUS
 62
     7
 10
-588.1810785209544
 20
381.397904824252
 30
0.0
  0
VERTEX
  5
2B1
  8
1
  6
CONTINUOUS
 62
     7
 10
-588.1646646120457
 20
381.4122487080658
 30
0.0
  0
VERTEX
  5
2B2
  8
1
  6
CONTINUOUS
 62
     7
 10
-588.1471171284653
 20
381.4263002554438
 30
0.0
  0
VERTEX
  5
2B3
  8
1
  6
CONTINUOUS
 62
     7
 10
-588.1289508226004
 20
381.4396095061384
 30
0.0
  0
VERTEX
  5
2B4
  8
1
  6
CONTINUOUS
 62
     7
 10
-588.1102216461645
 20
381.4521494995777
 30
0.0
  0
VERTEX
  5
2B5
  8
1
  6
CONTINUOUS
 62
     7
 10
-588.0909855508714
 20
381.4638932751897
 30
0.0
  0
VERTEX
  5
2B6
  8
1
  6
CONTINUOUS
 62
     7
 10
-588.0718661985051
 20
381.4745174932081
 30
0.0
  0
VERTEX
  5
2B7
  8
1
  6
CONTINUOUS
 62
     7
 10
-588.0523101182446
 20
381.4843891458313
 30
0.0
  0
VERTEX
  5
2B8
  8
1
  6
CONTINUOUS
 62
     7
 10
-588.0323674017427
 20
381.4934921272322
 30
0.0
  0
VERTEX
  5
2B9
  8
1
  6
CONTINUOUS
 62
     7
 10
-588.0120881406519
 20
381.5018103315837
 30
0.0
  0
VERTEX
  5
2BA
  8
1
  6
CONTINUOUS
 62
     7
 10
-587.990949797988
 20
381.5095268897143
 30
0.0
  0
VERTEX
  5
2BB
  8
1
  6
CONTINUOUS
 62
     7
 10
-587.9694954167868
 20
381.5164163086151
 30
0.0
  0
VERTEX
  5
2BC
  8
1
  6
CONTINUOUS
 62
     7
 10
-587.9477776537503
 20
381.5224681943688
 30
0.0
  0
VERTEX
  5
2BD
  8
1
  6
CONTINUOUS
 62
     7
 10
-587.9258491655812
 20
381.5276721530583
 30
0.0
  0
VERTEX
  5
2BE
  8
1
  6
CONTINUOUS
 62
     7
 10
-587.9053454469516
 20
381.5317385554986
 30
0.0
  0
VERTEX
  5
2BF
  8
1
  6
CONTINUOUS
 62
     7
 10
-587.8846970476836
 20
381.5350754599142
 30
0.0
  0
VERTEX
  5
2C0
  8
1
  6
CONTINUOUS
 62
     7
 10
-587.8639451596844
 20
381.5376785010129
 30
0.0
  0
VERTEX
  5
2C1
  8
1
  6
CONTINUOUS
 62
     7
 10
-587.8428585619765
 20
381.5395640490192
 30
0.0
  0
VERTEX
  5
2C2
  8
1
  6
CONTINUOUS
 62
     7
 10
-587.8217083975136
 20
381.540696474744
 30
0.0
  0
VERTEX
  5
2C3
  8
1
  6
CONTINUOUS
 62
     7
 10
-587.8005370503959
 20
381.5410742823859
 30
0.0
  0
SEQEND
  5
8BF
  8
1
  6
CONTINUOUS
 62
     7
  0
LINE
  5
11B
  8
1
  6
CONTINUOUS
 62
     7
 10
-588.226363001588
 20
380.9919495420656
 30
0.0
 11
-588.226363001588
 21
381.3508798294906
 31
0.0
  0
POLYLINE
  5
11C
  8
1
  6
CONTINUOUS
 62
     7
 66
     1
 10
0.0
 20
0.0
 30
0.0
  0
VERTEX
  5
2C4
  8
1
  6
CONTINUOUS
 62
     7
 10
-602.226363001588
 20
378.6491201704812
 30
0.0
  0
VERTEX
  5
2C5
  8
1
  6
CONTINUOUS
 62
     7
 10
-602.2407480060801
 20
378.6328151363825
 30
0.0
  0
VERTEX
  5
2C6
  8
1
  6
CONTINUOUS
 62
     7
 10
-602.2558595934205
 20
378.6171282976768
 30
0.0
  0
VERTEX
  5
2C7
  8
1
  6
CONTINUOUS
 62
     7
 10
-602.2716474822339
 20
378.6020951757333
 30
0.0
  0
VERTEX
  5
2C8
  8
1
  6
CONTINUOUS
 62
     7
 10
-602.2880613911454
 20
378.5877512919214
 30
0.0
  0
VERTEX
  5
2C9
  8
1
  6
CONTINUOUS
 62
     7
 10
-602.3056088747267
 20
378.5736997445439
 30
0.0
  0
VERTEX
  5
2CA
  8
1
  6
CONTINUOUS
 62
     7
 10
-602.3237751805923
 20
378.5603904938498
 30
0.0
  0
VERTEX
  5
2CB
  8
1
  6
CONTINUOUS
 62
     7
 10
-602.3425043570289
 20
378.547850500411
 30
0.0
  0
VERTEX
  5
2CC
  8
1
  6
CONTINUOUS
 62
     7
 10
-602.3617404523228
 20
378.5361067247997
 30
0.0
  0
VERTEX
  5
2CD
  8
1
  6
CONTINUOUS
 62
     7
 10
-602.3808598046899
 20
378.5254825067818
 30
0.0
  0
VERTEX
  5
2CE
  8
1
  6
CONTINUOUS
 62
     7
 10
-602.4004158849509
 20
378.5156108541593
 30
0.0
  0
VERTEX
  5
2CF
  8
1
  6
CONTINUOUS
 62
     7
 10
-602.4203586014535
 20
378.506507872759
 30
0.0
  0
VERTEX
  5
2D0
  8
1
  6
CONTINUOUS
 62
     7
 10
-602.4406378625447
 20
378.4981896684082
 30
0.0
  0
VERTEX
  5
2D1
  8
1
  6
CONTINUOUS
 62
     7
 10
-602.4617762052094
 20
378.4904731102783
 30
0.0
  0
VERTEX
  5
2D2
  8
1
  6
CONTINUOUS
 62
     7
 10
-602.4832305864113
 20
378.4835836913783
 30
0.0
  0
VERTEX
  5
2D3
  8
1
  6
CONTINUOUS
 62
     7
 10
-602.5049483494482
 20
378.4775318056253
 30
0.0
  0
VERTEX
  5
2D4
  8
1
  6
CONTINUOUS
 62
     7
 10
-602.5268768376179
 20
378.4723278469367
 30
0.0
  0
VERTEX
  5
2D5
  8
1
  6
CONTINUOUS
 62
     7
 10
-602.5473805562439
 20
378.4682614444978
 30
0.0
  0
VERTEX
  5
2D6
  8
1
  6
CONTINUOUS
 62
     7
 10
-602.5680289555081
 20
378.4649245400835
 30
0.0
  0
VERTEX
  5
2D7
  8
1
  6
CONTINUOUS
 62
     7
 10
-602.5887808435035
 20
378.4623214989858
 30
0.0
  0
VERTEX
  5
2D8
  8
1
  6
CONTINUOUS
 62
     7
 10
-602.6098674412075
 20
378.4604359509802
 30
0.0
  0
VERTEX
  5
2D9
  8
1
  6
CONTINUOUS
 62
     7
 10
-602.6310176056663
 20
378.4593035252559
 30
0.0
  0
VERTEX
  5
2DA
  8
1
  6
CONTINUOUS
 62
     7
 10
-602.6521889527801
 20
378.4589257176141
 30
0.0
  0
SEQEND
  5
8C0
  8
1
  6
CONTINUOUS
 62
     7
  0
LINE
  5
11D
  8
1
  6
CONTINUOUS
 62
     7
 10
-602.226363001588
 20
379.0080504579344
 30
0.0
 11
-602.226363001588
 21
378.6491201704873
 31
0.0
  0
LINE
  5
11E
  8
1
  6
CONTINUOUS
 62
     7
 10
-608.226363001588
 20
378.6491201705612
 30
0.0
 11
-608.226363001588
 21
379.0080504579344
 31
0.0
  0
POLYLINE
  5
11F
  8
1
  6
CONTINUOUS
 62
     7
 66
     1
 10
0.0
 20
0.0
 30
0.0
  0
VERTEX
  5
2DB
  8
1
  6
CONTINUOUS
 62
     7
 10
-607.800537050396
 20
378.4589257176141
 30
0.0
  0
VERTEX
  5
2DC
  8
1
  6
CONTINUOUS
 62
     7
 10
-607.824246312601
 20
378.459400541735
 30
0.0
  0
VERTEX
  5
2DD
  8
1
  6
CONTINUOUS
 62
     7
 10
-607.8479357340815
 20
378.4608229169557
 30
0.0
  0
VERTEX
  5
2DE
  8
1
  6
CONTINUOUS
 62
     7
 10
-607.8715456730831
 20
378.4631896975631
 30
0.0
  0
VERTEX
  5
2DF
  8
1
  6
CONTINUOUS
 62
     7
 10
-607.8950164878518
 20
378.466497737844
 30
0.0
  0
VERTEX
  5
2E0
  8
1
  6
CONTINUOUS
 62
     7
 10
-607.9189886115441
 20
378.4708841690436
 30
0.0
  0
VERTEX
  5
2E1
  8
1
  6
CONTINUOUS
 62
     7
 10
-607.9427698827054
 20
378.4762664210089
 30
0.0
  0
VERTEX
  5
2E2
  8
1
  6
CONTINUOUS
 62
     7
 10
-607.9662943158039
 20
378.482633722836
 30
0.0
  0
VERTEX
  5
2E3
  8
1
  6
CONTINUOUS
 62
     7
 10
-607.9894959253077
 20
378.4899753036213
 30
0.0
  0
VERTEX
  5
2E4
  8
1
  6
CONTINUOUS
 62
     7
 10
-608.0117298087168
 20
378.4980527621316
 30
0.0
  0
VERTEX
  5
2E5
  8
1
  6
CONTINUOUS
 62
     7
 10
-608.0336137386994
 20
378.5070512351019
 30
0.0
  0
VERTEX
  5
2E6
  8
1
  6
CONTINUOUS
 62
     7
 10
-608.0550852570307
 20
378.5169525804968
 30
0.0
  0
VERTEX
  5
2E7
  8
1
  6
CONTINUOUS
 62
     7
 10
-608.0760819054863
 20
378.5277386562807
 30
0.0
  0
VERTEX
  5
2E8
  8
1
  6
CONTINUOUS
 62
     7
 10
-608.0972177672221
 20
378.539793835572
 30
0.0
  0
VERTEX
  5
2E9
  8
1
  6
CONTINUOUS
 62
     7
 10
-608.117795758896
 20
378.5527865838293
 30
0.0
  0
VERTEX
  5
2EA
  8
1
  6
CONTINUOUS
 62
     7
 10
-608.1377456886711
 20
378.5666850013184
 30
0.0
  0
VERTEX
  5
2EB
  8
1
  6
CONTINUOUS
 62
     7
 10
-608.1569973647102
 20
378.5814571883048
 30
0.0
  0
VERTEX
  5
2EC
  8
1
  6
CONTINUOUS
 62
     7
 10
-608.1754749689763
 20
378.597057980955
 30
0.0
  0
VERTEX
  5
2ED
  8
1
  6
CONTINUOUS
 62
     7
 10
-608.1931803387556
 20
378.6134968459668
 30
0.0
  0
VERTEX
  5
2EE
  8
1
  6
CONTINUOUS
 62
     7
 10
-608.2102150945194
 20
378.6309106930284
 30
0.0
  0
VERTEX
  5
2EF
  8
1
  6
CONTINUOUS
 62
     7
 10
-608.226363001588
 20
378.6491201705618
 30
0.0
  0
SEQEND
  5
8C1
  8
1
  6
CONTINUOUS
 62
     7
  0
LINE
  5
120
  8
1
  6
CONTINUOUS
 62
     7
 10
-582.826363001588
 20
372.4774615963548
 30
0.0
 11
-582.77381846895
 21
372.8356814033238
 31
0.0
  0
LINE
  5
121
  8
1
  6
CONTINUOUS
 62
     7
 10
-582.826363001588
 20
372.4774615963548
 30
0.0
 11
-582.826363001588
 21
371.8917801930309
 31
0.0
  0
POLYLINE
  5
122
  8
1
  6
CONTINUOUS
 62
     7
 66
     1
 10
0.0
 20
0.0
 30
0.0
  0
VERTEX
  5
2F0
  8
1
  6
CONTINUOUS
 62
     7
 10
-582.6696509243756
 20
371.5
 30
0.0
  0
VERTEX
  5
2F1
  8
1
  6
CONTINUOUS
 62
     7
 10
-582.6790293801929
 20
371.5005833075875
 30
0.0
  0
VERTEX
  5
2F2
  8
1
  6
CONTINUOUS
 62
     7
 10
-582.6882849532171
 20
371.5023318693592
 30
0.0
  0
VERTEX
  5
2F3
  8
1
  6
CONTINUOUS
 62
     7
 10
-582.6973960480644
 20
371.5052416055178
 30
0.0
  0
VERTEX
  5
2F4
  8
1
  6
CONTINUOUS
 62
     7
 10
-582.7063414064519
 20
371.5093057269783
 30
0.0
  0
VERTEX
  5
2F5
  8
1
  6
CONTINUOUS
 62
     7
 10
-582.7151001567978
 20
371.5145147512093
 30
0.0
  0
VERTEX
  5
2F6
  8
1
  6
CONTINUOUS
 62
     7
 10
-582.72365186292
 20
371.5208565243574
 30
0.0
  0
VERTEX
  5
2F7
  8
1
  6
CONTINUOUS
 62
     7
 10
-582.7319765717181
 20
371.5283162496051
 30
0.0
  0
VERTEX
  5
2F8
  8
1
  6
CONTINUOUS
 62
     7
 10
-582.7400548597288
 20
371.5368765216949
 30
0.0
  0
VERTEX
  5
2F9
  8
1
  6
CONTINUOUS
 62
     7
 10
-582.7478678784458
 20
371.5465173675401
 30
0.0
  0
VERTEX
  5
2FA
  8
1
  6
CONTINUOUS
 62
     7
 10
-582.7553973982964
 20
371.5572162928267
 30
0.0
  0
VERTEX
  5
2FB
  8
1
  6
CONTINUOUS
 62
     7
 10
-582.7626258511763
 20
371.5689483344975
 30
0.0
  0
VERTEX
  5
2FC
  8
1
  6
CONTINUOUS
 62
     7
 10
-582.7695363714399
 20
371.5816861189968
 30
0.0
  0
VERTEX
  5
2FD
  8
1
  6
CONTINUOUS
 62
     7
 10
-582.7761128352516
 20
371.5953999261391
 30
0.0
  0
VERTEX
  5
2FE
  8
1
  6
CONTINUOUS
 62
     7
 10
-582.7823398982066
 20
371.6100577584535
 30
0.0
  0
VERTEX
  5
2FF
  8
1
  6
CONTINUOUS
 62
     7
 10
-582.7882030311323
 20
371.6256254158408
 30
0.0
  0
VERTEX
  5
300
  8
1
  6
CONTINUOUS
 62
     7
 10
-582.7936885539892
 20
371.6420665753701
 30
0.0
  0
VERTEX
  5
301
  8
1
  6
CONTINUOUS
 62
     7
 10
-582.7987836677889
 20
371.6593428760292
 30
0.0
  0
VERTEX
  5
302
  8
1
  6
CONTINUOUS
 62
     7
 10
-582.8034764844573
 20
371.6774140082289
 30
0.0
  0
VERTEX
  5
303
  8
1
  6
CONTINUOUS
 62
     7
 10
-582.8077560545719
 20
371.6962378078553
 30
0.0
  0
VERTEX
  5
304
  8
1
  6
CONTINUOUS
 62
     7
 10
-582.81161239291
 20
371.7157703546475
 30
0.0
  0
VERTEX
  5
305
  8
1
  6
CONTINUOUS
 62
     7
 10
-582.8150365017459
 20
371.7359660746748
 30
0.0
  0
VERTEX
  5
306
  8
1
  6
CONTINUOUS
 62
     7
 10
-582.8180203918449
 20
371.7567778466702
 30
0.0
  0
VERTEX
  5
307
  8
1
  6
CONTINUOUS
 62
     7
 10
-582.8205571011042
 20
371.7781571119755
 30
0.0
  0
VERTEX
  5
308
  8
1
  6
CONTINUOUS
 62
     7
 10
-582.8226407107967
 20
371.8000539878401
 30
0.0
  0
VERTEX
  5
309
  8
1
  6
CONTINUOUS
 62
     7
 10
-582.8242663593809
 20
371.8224173838088
 30
0.0
  0
VERTEX
  5
30A
  8
1
  6
CONTINUOUS
 62
     7
 10
-582.8254302538443
 20
371.8451951209271
 30
0.0
  0
VERTEX
  5
30B
  8
1
  6
CONTINUOUS
 62
     7
 10
-582.826129678553
 20
371.8683340534878
 30
0.0
  0
VERTEX
  5
30C
  8
1
  6
CONTINUOUS
 62
     7
 10
-582.826363001588
 20
371.8917801930309
 30
0.0
  0
SEQEND
  5
8C2
  8
1
  6
CONTINUOUS
 62
     7
  0
LINE
  5
123
  8
1
  6
CONTINUOUS
 62
     7
 10
-582.226363001588
 20
380.9919495420656
 30
0.0
 11
-582.226363001588
 21
378.6603753039769
 31
0.0
  0
LINE
  5
124
  8
1
  6
CONTINUOUS
 62
     7
 10
-582.3001251689099
 20
377.8245021024775
 30
0.0
 11
-582.226363001588
 21
378.6603753039769
 31
0.0
  0
LINE
  5
125
  8
1
  6
CONTINUOUS
 62
     7
 10
-582.306363001588
 20
377.7001630299566
 30
0.0
 11
-582.3001251689099
 21
377.8245021024775
 31
0.0
  0
LINE
  5
126
  8
1
  6
CONTINUOUS
 62
     7
 10
-582.306363001588
 20
377.7001630299566
 30
0.0
 11
-582.306363001588
 21
374.5235660194052
 31
0.0
  0
LINE
  5
127
  8
1
  6
CONTINUOUS
 62
     7
 10
-582.3589075342259
 20
374.1653462124361
 30
0.0
 11
-582.306363001588
 21
374.5235660194052
 31
0.0
  0
LINE
  5
128
  8
1
  6
CONTINUOUS
 62
     7
 10
-582.3589075342259
 20
374.1653462124361
 30
0.0
 11
-582.7738184689499
 21
372.8356814033238
 31
0.0
  0
LINE
  5
129
  8
1
  6
CONTINUOUS
 62
     7
 10
-588.1526008342661
 20
377.8245021024775
 30
0.0
 11
-588.1463630015879
 21
377.7001630299567
 31
0.0
  0
LINE
  5
12A
  8
1
  6
CONTINUOUS
 62
     7
 10
-588.226363001588
 20
378.6603753039769
 30
0.0
 11
-588.1526008342661
 21
377.8245021024775
 31
0.0
  0
LINE
  5
12B
  8
1
  6
CONTINUOUS
 62
     7
 10
-588.226363001588
 20
378.6603753039769
 30
0.0
 11
-588.226363001588
 21
380.9919495420656
 31
0.0
  0
POLYLINE
  5
12C
  8
1
  6
CONTINUOUS
 62
     7
 66
     1
 10
0.0
 20
0.0
 30
0.0
  0
VERTEX
  5
30D
  8
1
  6
CONTINUOUS
 62
     7
 10
-587.626363001588
 20
371.8917801930309
 30
0.0
  0
VERTEX
  5
30E
  8
1
  6
CONTINUOUS
 62
     7
 10
-587.6265963246229
 20
371.8683340534878
 30
0.0
  0
VERTEX
  5
30F
  8
1
  6
CONTINUOUS
 62
     7
 10
-587.6272957493317
 20
371.8451951209271
 30
0.0
  0
VERTEX
  5
310
  8
1
  6
CONTINUOUS
 62
     7
 10
-587.628459643795
 20
371.8224173838088
 30
0.0
  0
VERTEX
  5
311
  8
1
  6
CONTINUOUS
 62
     7
 10
-587.6300852923792
 20
371.8000539878401
 30
0.0
  0
VERTEX
  5
312
  8
1
  6
CONTINUOUS
 62
     7
 10
-587.6321689020717
 20
371.7781571119755
 30
0.0
  0
VERTEX
  5
313
  8
1
  6
CONTINUOUS
 62
     7
 10
-587.6347056113309
 20
371.7567778466702
 30
0.0
  0
VERTEX
  5
314
  8
1
  6
CONTINUOUS
 62
     7
 10
-587.63768950143
 20
371.7359660746748
 30
0.0
  0
VERTEX
  5
315
  8
1
  6
CONTINUOUS
 62
     7
 10
-587.641113610266
 20
371.7157703546475
 30
0.0
  0
VERTEX
  5
316
  8
1
  6
CONTINUOUS
 62
     7
 10
-587.6449699486041
 20
371.6962378078553
 30
0.0
  0
VERTEX
  5
317
  8
1
  6
CONTINUOUS
 62
     7
 10
-587.6492495187186
 20
371.6774140082289
 30
0.0
  0
VERTEX
  5
318
  8
1
  6
CONTINUOUS
 62
     7
 10
-587.653942335387
 20
371.6593428760292
 30
0.0
  0
VERTEX
  5
319
  8
1
  6
CONTINUOUS
 62
     7
 10
-587.6590374491867
 20
371.6420665753701
 30
0.0
  0
VERTEX
  5
31A
  8
1
  6
CONTINUOUS
 62
     7
 10
-587.6645229720436
 20
371.6256254158408
 30
0.0
  0
VERTEX
  5
31B
  8
1
  6
CONTINUOUS
 62
     7
 10
-587.6703861049693
 20
371.6100577584535
 30
0.0
  0
VERTEX
  5
31C
  8
1
  6
CONTINUOUS
 62
     7
 10
-587.6766131679243
 20
371.5953999261391
 30
0.0
  0
VERTEX
  5
31D
  8
1
  6
CONTINUOUS
 62
     7
 10
-587.683189631736
 20
371.5816861189968
 30
0.0
  0
VERTEX
  5
31E
  8
1
  6
CONTINUOUS
 62
     7
 10
-587.6901001519997
 20
371.5689483344975
 30
0.0
  0
VERTEX
  5
31F
  8
1
  6
CONTINUOUS
 62
     7
 10
-587.6973286048795
 20
371.5572162928267
 30
0.0
  0
VERTEX
  5
320
  8
1
  6
CONTINUOUS
 62
     7
 10
-587.7048581247301
 20
371.5465173675401
 30
0.0
  0
VERTEX
  5
321
  8
1
  6
CONTINUOUS
 62
     7
 10
-587.7126711434471
 20
371.5368765216949
 30
0.0
  0
VERTEX
  5
322
  8
1
  6
CONTINUOUS
 62
     7
 10
-587.7207494314579
 20
371.5283162496051
 30
0.0
  0
VERTEX
  5
323
  8
1
  6
CONTINUOUS
 62
     7
 10
-587.729074140256
 20
371.5208565243574
 30
0.0
  0
VERTEX
  5
324
  8
1
  6
CONTINUOUS
 62
     7
 10
-587.7376258463781
 20
371.5145147512093
 30
0.0
  0
VERTEX
  5
325
  8
1
  6
CONTINUOUS
 62
     7
 10
-587.746384596724
 20
371.5093057269783
 30
0.0
  0
VERTEX
  5
326
  8
1
  6
CONTINUOUS
 62
     7
 10
-587.7553299551115
 20
371.5052416055178
 30
0.0
  0
VERTEX
  5
327
  8
1
  6
CONTINUOUS
 62
     7
 10
-587.7644410499588
 20
371.5023318693592
 30
0.0
  0
VERTEX
  5
328
  8
1
  6
CONTINUOUS
 62
     7
 10
-587.773696622983
 20
371.5005833075875
 30
0.0
  0
VERTEX
  5
329
  8
1
  6
CONTINUOUS
 62
     7
 10
-587.7830750788004
 20
371.5
 30
0.0
  0
SEQEND
  5
8C3
  8
1
  6
CONTINUOUS
 62
     7
  0
LINE
  5
12D
  8
1
  6
CONTINUOUS
 62
     7
 10
-587.626363001588
 20
371.8917801930309
 30
0.0
 11
-587.626363001588
 21
372.4774615963548
 31
0.0
  0
LINE
  5
12E
  8
1
  6
CONTINUOUS
 62
     7
 10
-587.6789075342259
 20
372.8356814033238
 30
0.0
 11
-587.626363001588
 21
372.4774615963548
 31
0.0
  0
LINE
  5
12F
  8
1
  6
CONTINUOUS
 62
     7
 10
-587.6789075342259
 20
372.8356814033238
 30
0.0
 11
-588.09381846895
 21
374.1653462124361
 31
0.0
  0
LINE
  5
130
  8
1
  6
CONTINUOUS
 62
     7
 10
-588.1463630015879
 20
374.5235660194052
 30
0.0
 11
-588.0938184689501
 21
374.1653462124361
 31
0.0
  0
LINE
  5
131
  8
1
  6
CONTINUOUS
 62
     7
 10
-588.1463630015879
 20
374.5235660194052
 30
0.0
 11
-588.1463630015879
 21
377.7001630299566
 31
0.0
  0
LINE
  5
132
  8
1
  6
CONTINUOUS
 62
     7
 10
-602.3001251689099
 20
382.1754978975225
 30
0.0
 11
-602.306363001588
 21
382.2998369700433
 31
0.0
  0
LINE
  5
133
  8
1
  6
CONTINUOUS
 62
     7
 10
-602.226363001588
 20
381.3396246960231
 30
0.0
 11
-602.3001251689099
 21
382.1754978975225
 31
0.0
  0
LINE
  5
134
  8
1
  6
CONTINUOUS
 62
     7
 10
-602.226363001588
 20
381.3396246960231
 30
0.0
 11
-602.226363001588
 21
379.0080504579344
 31
0.0
  0
POLYLINE
  5
135
  8
1
  6
CONTINUOUS
 62
     7
 66
     1
 10
0.0
 20
0.0
 30
0.0
  0
VERTEX
  5
32A
  8
1
  6
CONTINUOUS
 62
     7
 10
-602.826363001588
 20
388.1082198069691
 30
0.0
  0
VERTEX
  5
32B
  8
1
  6
CONTINUOUS
 62
     7
 10
-602.826129678553
 20
388.1316659465122
 30
0.0
  0
VERTEX
  5
32C
  8
1
  6
CONTINUOUS
 62
     7
 10
-602.8254302538443
 20
388.1548048790728
 30
0.0
  0
VERTEX
  5
32D
  8
1
  6
CONTINUOUS
 62
     7
 10
-602.8242663593809
 20
388.1775826161912
 30
0.0
  0
VERTEX
  5
32E
  8
1
  6
CONTINUOUS
 62
     7
 10
-602.8226407107966
 20
388.1999460121599
 30
0.0
  0
VERTEX
  5
32F
  8
1
  6
CONTINUOUS
 62
     7
 10
-602.8205571011042
 20
388.2218428880245
 30
0.0
  0
VERTEX
  5
330
  8
1
  6
CONTINUOUS
 62
     7
 10
-602.8180203918449
 20
388.2432221533298
 30
0.0
  0
VERTEX
  5
331
  8
1
  6
CONTINUOUS
 62
     7
 10
-602.8150365017459
 20
388.2640339253252
 30
0.0
  0
VERTEX
  5
332
  8
1
  6
CONTINUOUS
 62
     7
 10
-602.81161239291
 20
388.2842296453525
 30
0.0
  0
VERTEX
  5
333
  8
1
  6
CONTINUOUS
 62
     7
 10
-602.8077560545719
 20
388.3037621921447
 30
0.0
  0
VERTEX
  5
334
  8
1
  6
CONTINUOUS
 62
     7
 10
-602.8034764844573
 20
388.3225859917711
 30
0.0
  0
VERTEX
  5
335
  8
1
  6
CONTINUOUS
 62
     7
 10
-602.7987836677889
 20
388.3406571239708
 30
0.0
  0
VERTEX
  5
336
  8
1
  6
CONTINUOUS
 62
     7
 10
-602.7936885539892
 20
388.3579334246299
 30
0.0
  0
VERTEX
  5
337
  8
1
  6
CONTINUOUS
 62
     7
 10
-602.7882030311323
 20
388.3743745841592
 30
0.0
  0
VERTEX
  5
338
  8
1
  6
CONTINUOUS
 62
     7
 10
-602.7823398982065
 20
388.3899422415464
 30
0.0
  0
VERTEX
  5
339
  8
1
  6
CONTINUOUS
 62
     7
 10
-602.7761128352516
 20
388.4046000738608
 30
0.0
  0
VERTEX
  5
33A
  8
1
  6
CONTINUOUS
 62
     7
 10
-602.7695363714399
 20
388.4183138810032
 30
0.0
  0
VERTEX
  5
33B
  8
1
  6
CONTINUOUS
 62
     7
 10
-602.7626258511763
 20
388.4310516655025
 30
0.0
  0
VERTEX
  5
33C
  8
1
  6
CONTINUOUS
 62
     7
 10
-602.7553973982964
 20
388.4427837071732
 30
0.0
  0
VERTEX
  5
33D
  8
1
  6
CONTINUOUS
 62
     7
 10
-602.747867878446
 20
388.4534826324599
 30
0.0
  0
VERTEX
  5
33E
  8
1
  6
CONTINUOUS
 62
     7
 10
-602.740054859729
 20
388.4631234783051
 30
0.0
  0
VERTEX
  5
33F
  8
1
  6
CONTINUOUS
 62
     7
 10
-602.7319765717181
 20
388.4716837503949
 30
0.0
  0
VERTEX
  5
340
  8
1
  6
CONTINUOUS
 62
     7
 10
-602.7236518629198
 20
388.4791434756426
 30
0.0
  0
VERTEX
  5
341
  8
1
  6
CONTINUOUS
 62
     7
 10
-602.7151001567977
 20
388.4854852487907
 30
0.0
  0
VERTEX
  5
342
  8
1
  6
CONTINUOUS
 62
     7
 10
-602.706341406452
 20
388.4906942730217
 30
0.0
  0
VERTEX
  5
343
  8
1
  6
CONTINUOUS
 62
     7
 10
-602.6973960480644
 20
388.4947583944822
 30
0.0
  0
VERTEX
  5
344
  8
1
  6
CONTINUOUS
 62
     7
 10
-602.6882849532171
 20
388.4976681306407
 30
0.0
  0
VERTEX
  5
345
  8
1
  6
CONTINUOUS
 62
     7
 10
-602.6790293801928
 20
388.4994166924125
 30
0.0
  0
VERTEX
  5
346
  8
1
  6
CONTINUOUS
 62
     7
 10
-602.6696509243757
 20
388.5
 30
0.0
  0
SEQEND
  5
8C4
  8
1
  6
CONTINUOUS
 62
     7
  0
LINE
  5
136
  8
1
  6
CONTINUOUS
 62
     7
 10
-602.826363001588
 20
388.1082198069691
 30
0.0
 11
-602.826363001588
 21
387.5225384036452
 31
0.0
  0
LINE
  5
137
  8
1
  6
CONTINUOUS
 62
     7
 10
-602.7738184689499
 20
387.1643185966762
 30
0.0
 11
-602.8263630015879
 21
387.5225384036452
 31
0.0
  0
LINE
  5
138
  8
1
  6
CONTINUOUS
 62
     7
 10
-602.7738184689499
 20
387.1643185966762
 30
0.0
 11
-602.358907534226
 21
385.8346537875639
 31
0.0
  0
LINE
  5
139
  8
1
  6
CONTINUOUS
 62
     7
 10
-602.306363001588
 20
385.4764339805948
 30
0.0
 11
-602.358907534226
 21
385.8346537875639
 31
0.0
  0
LINE
  5
13A
  8
1
  6
CONTINUOUS
 62
     7
 10
-602.306363001588
 20
385.4764339805948
 30
0.0
 11
-602.306363001588
 21
382.2998369700434
 31
0.0
  0
LINE
  5
13B
  8
1
  6
CONTINUOUS
 62
     7
 10
-607.626363001588
 20
387.5225384036452
 30
0.0
 11
-607.6789075342259
 21
387.1643185966762
 31
0.0
  0
LINE
  5
13C
  8
1
  6
CONTINUOUS
 62
     7
 10
-607.626363001588
 20
387.5225384036452
 30
0.0
 11
-607.626363001588
 21
388.1082198069691
 31
0.0
  0
POLYLINE
  5
13D
  8
1
  6
CONTINUOUS
 62
     7
 66
     1
 10
0.0
 20
0.0
 30
0.0
  0
VERTEX
  5
347
  8
1
  6
CONTINUOUS
 62
     7
 10
-607.7830750788004
 20
388.5
 30
0.0
  0
VERTEX
  5
348
  8
1
  6
CONTINUOUS
 62
     7
 10
-607.773696622983
 20
388.4994166924125
 30
0.0
  0
VERTEX
  5
349
  8
1
  6
CONTINUOUS
 62
     7
 10
-607.7644410499588
 20
388.4976681306407
 30
0.0
  0
VERTEX
  5
34A
  8
1
  6
CONTINUOUS
 62
     7
 10
-607.7553299551115
 20
388.4947583944822
 30
0.0
  0
VERTEX
  5
34B
  8
1
  6
CONTINUOUS
 62
     7
 10
-607.746384596724
 20
388.4906942730217
 30
0.0
  0
VERTEX
  5
34C
  8
1
  6
CONTINUOUS
 62
     7
 10
-607.7376258463781
 20
388.4854852487907
 30
0.0
  0
VERTEX
  5
34D
  8
1
  6
CONTINUOUS
 62
     7
 10
-607.729074140256
 20
388.4791434756426
 30
0.0
  0
VERTEX
  5
34E
  8
1
  6
CONTINUOUS
 62
     7
 10
-607.7207494314579
 20
388.4716837503949
 30
0.0
  0
VERTEX
  5
34F
  8
1
  6
CONTINUOUS
 62
     7
 10
-607.712671143447
 20
388.4631234783051
 30
0.0
  0
VERTEX
  5
350
  8
1
  6
CONTINUOUS
 62
     7
 10
-607.7048581247301
 20
388.45348263246
 30
0.0
  0
VERTEX
  5
351
  8
1
  6
CONTINUOUS
 62
     7
 10
-607.6973286048795
 20
388.4427837071732
 30
0.0
  0
VERTEX
  5
352
  8
1
  6
CONTINUOUS
 62
     7
 10
-607.6901001519997
 20
388.4310516655025
 30
0.0
  0
VERTEX
  5
353
  8
1
  6
CONTINUOUS
 62
     7
 10
-607.683189631736
 20
388.4183138810032
 30
0.0
  0
VERTEX
  5
354
  8
1
  6
CONTINUOUS
 62
     7
 10
-607.6766131679243
 20
388.4046000738608
 30
0.0
  0
VERTEX
  5
355
  8
1
  6
CONTINUOUS
 62
     7
 10
-607.6703861049693
 20
388.3899422415464
 30
0.0
  0
VERTEX
  5
356
  8
1
  6
CONTINUOUS
 62
     7
 10
-607.6645229720436
 20
388.3743745841592
 30
0.0
  0
VERTEX
  5
357
  8
1
  6
CONTINUOUS
 62
     7
 10
-607.6590374491867
 20
388.3579334246299
 30
0.0
  0
VERTEX
  5
358
  8
1
  6
CONTINUOUS
 62
     7
 10
-607.6539423353869
 20
388.3406571239708
 30
0.0
  0
VERTEX
  5
359
  8
1
  6
CONTINUOUS
 62
     7
 10
-607.6492495187186
 20
388.3225859917711
 30
0.0
  0
VERTEX
  5
35A
  8
1
  6
CONTINUOUS
 62
     7
 10
-607.6449699486041
 20
388.3037621921447
 30
0.0
  0
VERTEX
  5
35B
  8
1
  6
CONTINUOUS
 62
     7
 10
-607.641113610266
 20
388.2842296453525
 30
0.0
  0
VERTEX
  5
35C
  8
1
  6
CONTINUOUS
 62
     7
 10
-607.63768950143
 20
388.2640339253252
 30
0.0
  0
VERTEX
  5
35D
  8
1
  6
CONTINUOUS
 62
     7
 10
-607.6347056113309
 20
388.2432221533298
 30
0.0
  0
VERTEX
  5
35E
  8
1
  6
CONTINUOUS
 62
     7
 10
-607.6321689020717
 20
388.2218428880245
 30
0.0
  0
VERTEX
  5
35F
  8
1
  6
CONTINUOUS
 62
     7
 10
-607.6300852923792
 20
388.1999460121599
 30
0.0
  0
VERTEX
  5
360
  8
1
  6
CONTINUOUS
 62
     7
 10
-607.628459643795
 20
388.1775826161912
 30
0.0
  0
VERTEX
  5
361
  8
1
  6
CONTINUOUS
 62
     7
 10
-607.6272957493317
 20
388.1548048790728
 30
0.0
  0
VERTEX
  5
362
  8
1
  6
CONTINUOUS
 62
     7
 10
-607.626596324623
 20
388.1316659465122
 30
0.0
  0
VERTEX
  5
363
  8
1
  6
CONTINUOUS
 62
     7
 10
-607.626363001588
 20
388.1082198069691
 30
0.0
  0
SEQEND
  5
8C5
  8
1
  6
CONTINUOUS
 62
     7
  0
LINE
  5
13E
  8
1
  6
CONTINUOUS
 62
     7
 10
-608.226363001588
 20
379.0080504579344
 30
0.0
 11
-608.226363001588
 21
381.3396246960231
 31
0.0
  0
LINE
  5
13F
  8
1
  6
CONTINUOUS
 62
     7
 10
-608.1526008342661
 20
382.1754978975225
 30
0.0
 11
-608.226363001588
 21
381.3396246960231
 31
0.0
  0
LINE
  5
140
  8
1
  6
CONTINUOUS
 62
     7
 10
-608.1463630015879
 20
382.2998369700434
 30
0.0
 11
-608.1526008342661
 21
382.1754978975225
 31
0.0
  0
LINE
  5
141
  8
1
  6
CONTINUOUS
 62
     7
 10
-608.1463630015879
 20
382.2998369700434
 30
0.0
 11
-608.1463630015879
 21
385.4764339805948
 31
0.0
  0
LINE
  5
142
  8
1
  6
CONTINUOUS
 62
     7
 10
-608.0938184689501
 20
385.8346537875639
 30
0.0
 11
-608.1463630015879
 21
385.4764339805948
 31
0.0
  0
LINE
  5
143
  8
1
  6
CONTINUOUS
 62
     7
 10
-608.0938184689501
 20
385.8346537875639
 30
0.0
 11
-607.678907534226
 21
387.1643185966762
 31
0.0
  0
LINE
  5
144
  8
1
  6
CONTINUOUS
 62
     7
 10
-575.2706204745085
 20
382.6595790591068
 30
0.0
 11
-575.2836739971663
 21
382.3592569469845
 31
0.0
  0
LINE
  5
145
  8
1
  6
CONTINUOUS
 62
     7
 10
-575.2978534197781
 20
382.1215430480085
 30
0.0
 11
-575.2836739971661
 21
382.3592569469845
 31
0.0
  0
LINE
  5
146
  8
1
  6
CONTINUOUS
 62
     7
 10
-575.2978534197781
 20
382.1215430480085
 30
0.0
 11
-575.2616839870853
 21
379.999653944264
 31
0.0
  0
LINE
  5
147
  8
1
  6
CONTINUOUS
 62
     7
 10
-575.3509696610217
 20
384.4581339404617
 30
0.0
 11
-575.2706204745085
 21
382.6595790591068
 31
0.0
  0
LINE
  5
148
  8
1
  6
CONTINUOUS
 62
     7
 10
-615.1821229184063
 20
377.3409429172681
 30
0.0
 11
-615.1691253251689
 21
377.6407430530155
 31
0.0
  0
LINE
  5
149
  8
1
  6
CONTINUOUS
 62
     7
 10
-615.1549575486774
 20
377.8784569519915
 30
0.0
 11
-615.1691253251688
 21
377.6407430530155
 31
0.0
  0
LINE
  5
14A
  8
1
  6
CONTINUOUS
 62
     7
 10
-615.1549575486774
 20
377.8784569519915
 30
0.0
 11
-615.1909660505614
 21
380.0004902062436
 31
0.0
  0
LINE
  5
14B
  8
1
  6
CONTINUOUS
 62
     7
 10
-615.1017379316675
 20
375.5415377589268
 30
0.0
 11
-615.1821229184063
 21
377.3409429172681
 31
0.0
  0
LINE
  5
14C
  8
1
  6
CONTINUOUS
 62
     7
 10
-575.2616842888665
 20
379.999653944134
 30
0.0
 11
-575.2978534197782
 21
377.8784569519915
 31
0.0
  0
LINE
  5
14D
  8
1
  6
CONTINUOUS
 62
     7
 10
-575.2836739971667
 20
377.6407430530197
 30
0.0
 11
-575.2978534197781
 21
377.8784569519915
 31
0.0
  0
LINE
  5
14E
  8
1
  6
CONTINUOUS
 62
     7
 10
-575.2836739971667
 20
377.6407430530197
 30
0.0
 11
-575.2706204745089
 21
377.3404209408796
 31
0.0
  0
LINE
  5
14F
  8
1
  6
CONTINUOUS
 62
     7
 10
-575.270620474509
 20
377.3404209408796
 30
0.0
 11
-575.3509696610217
 21
375.5418660595384
 31
0.0
  0
LINE
  5
150
  8
1
  6
CONTINUOUS
 62
     7
 10
-615.1909654430386
 20
380.0004902066158
 30
0.0
 11
-615.1549575486774
 21
382.1215430480085
 31
0.0
  0
LINE
  5
151
  8
1
  6
CONTINUOUS
 62
     7
 10
-615.1691253251685
 20
382.359256946981
 30
0.0
 11
-615.1549575486774
 21
382.1215430480085
 31
0.0
  0
LINE
  5
152
  8
1
  6
CONTINUOUS
 62
     7
 10
-615.1691253251685
 20
382.359256946981
 30
0.0
 11
-615.1821229184055
 21
382.6590570827544
 31
0.0
  0
LINE
  5
153
  8
1
  6
CONTINUOUS
 62
     7
 10
-615.1821229184055
 20
382.6590570827544
 30
0.0
 11
-615.1017379316675
 21
384.4584622410732
 31
0.0
  0
LINE
  5
154
  8
1
  6
CONTINUOUS
 62
     7
 10
-575.7335367913527
 20
388.9509164530928
 30
0.0
 11
-575.3509696610217
 21
384.4581339404617
 31
0.0
  0
LINE
  5
155
  8
1
  6
CONTINUOUS
 62
     7
 10
-575.3509696610217
 20
375.5418660595383
 30
0.0
 11
-575.7335367913527
 21
371.0490835469072
 31
0.0
  0
LINE
  5
156
  8
1
  6
CONTINUOUS
 62
     7
 10
-614.7191892085074
 20
371.0490835180225
 30
0.0
 11
-615.1017379316675
 21
375.5415377589268
 31
0.0
  0
LINE
  5
157
  8
1
  6
CONTINUOUS
 62
     7
 10
-615.1017379316675
 20
384.4584622410732
 30
0.0
 11
-614.7191892085074
 21
388.9509164819774
 31
0.0
  0
POLYLINE
  5
158
  8
1
  6
CONTINUOUS
 62
     7
 66
     1
 10
0.0
 20
0.0
 30
0.0
  0
VERTEX
  5
364
  8
1
  6
CONTINUOUS
 62
     7
 10
-611.4903343407094
 20
403.2794532822605
 30
0.0
  0
VERTEX
  5
365
  8
1
  6
CONTINUOUS
 62
     7
 10
-611.5060541214053
 20
403.2318996946157
 30
0.0
  0
VERTEX
  5
366
  8
1
  6
CONTINUOUS
 62
     7
 10
-611.5194834576923
 20
403.1835329391166
 30
0.0
  0
VERTEX
  5
367
  8
1
  6
CONTINUOUS
 62
     7
 10
-611.5305809540275
 20
403.1345187992681
 30
0.0
  0
VERTEX
  5
368
  8
1
  6
CONTINUOUS
 62
     7
 10
-611.539305214868
 20
403.0850230585751
 30
0.0
  0
VERTEX
  5
369
  8
1
  6
CONTINUOUS
 62
     7
 10
-611.5456148446708
 20
403.0352115005427
 30
0.0
  0
VERTEX
  5
36A
  8
1
  6
CONTINUOUS
 62
     7
 10
-611.549468447893
 20
402.9852499086755
 30
0.0
  0
VERTEX
  5
36B
  8
1
  6
CONTINUOUS
 62
     7
 10
-611.5508246289917
 20
402.9353040664787
 30
0.0
  0
VERTEX
  5
36C
  8
1
  6
CONTINUOUS
 62
     7
 10
-611.5496420290411
 20
402.8852771046501
 30
0.0
  0
VERTEX
  5
36D
  8
1
  6
CONTINUOUS
 62
     7
 10
-611.5459167040262
 20
402.8352106443309
 30
0.0
  0
VERTEX
  5
36E
  8
1
  6
CONTINUOUS
 62
     7
 10
-611.5396637314227
 20
402.7852914720874
 30
0.0
  0
VERTEX
  5
36F
  8
1
  6
CONTINUOUS
 62
     7
 10
-611.5308981887066
 20
402.735706374486
 30
0.0
  0
VERTEX
  5
370
  8
1
  6
CONTINUOUS
 62
     7
 10
-611.5196351533539
 20
402.6866421380931
 30
0.0
  0
VERTEX
  5
371
  8
1
  6
CONTINUOUS
 62
     7
 10
-611.5058897028402
 20
402.6382855494752
 30
0.0
  0
VERTEX
  5
372
  8
1
  6
CONTINUOUS
 62
     7
 10
-611.4896769146418
 20
402.5908233951986
 30
0.0
  0
VERTEX
  5
373
  8
1
  6
CONTINUOUS
 62
     7
 10
-611.4716146686942
 20
402.5457924422842
 30
0.0
  0
VERTEX
  5
374
  8
1
  6
CONTINUOUS
 62
     7
 10
-611.4511938578721
 20
402.501561405693
 30
0.0
  0
VERTEX
  5
375
  8
1
  6
CONTINUOUS
 62
     7
 10
-611.4284969140982
 20
402.458297120303
 30
0.0
  0
VERTEX
  5
376
  8
1
  6
CONTINUOUS
 62
     7
 10
-611.4036062692954
 20
402.4161664209921
 30
0.0
  0
VERTEX
  5
377
  8
1
  6
CONTINUOUS
 62
     7
 10
-611.3766043553866
 20
402.3753361426382
 30
0.0
  0
VERTEX
  5
378
  8
1
  6
CONTINUOUS
 62
     7
 10
-611.3475736042943
 20
402.335973120119
 30
0.0
  0
VERTEX
  5
379
  8
1
  6
CONTINUOUS
 62
     7
 10
-611.3165964479416
 20
402.2982441883124
 30
0.0
  0
VERTEX
  5
37A
  8
1
  6
CONTINUOUS
 62
     7
 10
-611.2851794494334
 20
402.2637667838391
 30
0.0
  0
VERTEX
  5
37B
  8
1
  6
CONTINUOUS
 62
     7
 10
-611.2519452646168
 20
402.2307548337068
 30
0.0
  0
VERTEX
  5
37C
  8
1
  6
CONTINUOUS
 62
     7
 10
-611.2170244602185
 20
402.199319865609
 30
0.0
  0
VERTEX
  5
37D
  8
1
  6
CONTINUOUS
 62
     7
 10
-611.1805476029642
 20
402.1695734072389
 30
0.0
  0
VERTEX
  5
37E
  8
1
  6
CONTINUOUS
 62
     7
 10
-611.1426452595807
 20
402.1416269862896
 30
0.0
  0
VERTEX
  5
37F
  8
1
  6
CONTINUOUS
 62
     7
 10
-611.1034479967942
 20
402.1155921304545
 30
0.0
  0
VERTEX
  5
380
  8
1
  6
CONTINUOUS
 62
     7
 10
-611.0630863813311
 20
402.0915803674268
 30
0.0
  0
VERTEX
  5
381
  8
1
  6
CONTINUOUS
 62
     7
 10
-611.0226860910617
 20
402.0701734724036
 30
0.0
  0
VERTEX
  5
382
  8
1
  6
CONTINUOUS
 62
     7
 10
-610.9811492623122
 20
402.0506550709819
 30
0.0
  0
VERTEX
  5
383
  8
1
  6
CONTINUOUS
 62
     7
 10
-610.9386265202367
 20
402.0330733052633
 30
0.0
  0
VERTEX
  5
384
  8
1
  6
CONTINUOUS
 62
     7
 10
-610.8952684899886
 20
402.017476317349
 30
0.0
  0
VERTEX
  5
385
  8
1
  6
CONTINUOUS
 62
     7
 10
-610.8512257967218
 20
402.0039122493404
 30
0.0
  0
VERTEX
  5
386
  8
1
  6
CONTINUOUS
 62
     7
 10
-610.80664906559
 20
401.9924292433389
 30
0.0
  0
VERTEX
  5
387
  8
1
  6
CONTINUOUS
 62
     7
 10
-610.7616889217471
 20
401.9830754414457
 30
0.0
  0
VERTEX
  5
388
  8
1
  6
CONTINUOUS
 62
     7
 10
-610.7167602295075
 20
401.9758975137107
 30
0.0
  0
VERTEX
  5
389
  8
1
  6
CONTINUOUS
 62
     7
 10
-610.671488573827
 20
401.9707673207864
 30
0.0
  0
VERTEX
  5
38A
  8
1
  6
CONTINUOUS
 62
     7
 10
-610.6260213458635
 20
401.9676873678799
 30
0.0
  0
VERTEX
  5
38B
  8
1
  6
CONTINUOUS
 62
     7
 10
-610.5805059367747
 20
401.9666601601986
 30
0.0
  0
SEQEND
  5
8C6
  8
1
  6
CONTINUOUS
 62
     7
  0
POLYLINE
  5
159
  8
1
  6
CONTINUOUS
 62
     7
 66
     1
 10
0.0
 20
0.0
 30
0.0
  0
VERTEX
  5
38C
  8
1
  6
CONTINUOUS
 62
     7
 10
-603.3864165413099
 20
416.1229522634375
 30
0.0
  0
VERTEX
  5
38D
  8
1
  6
CONTINUOUS
 62
     7
 10
-603.4355329184283
 20
416.1218225118408
 30
0.0
  0
VERTEX
  5
38E
  8
1
  6
CONTINUOUS
 62
     7
 10
-603.4845951216128
 20
416.1184421571681
 30
0.0
  0
VERTEX
  5
38F
  8
1
  6
CONTINUOUS
 62
     7
 10
-603.5334414788332
 20
416.1128245495953
 30
0.0
  0
VERTEX
  5
390
  8
1
  6
CONTINUOUS
 62
     7
 10
-603.5819103180593
 20
416.1049830392985
 30
0.0
  0
VERTEX
  5
391
  8
1
  6
CONTINUOUS
 62
     7
 10
-603.6317487103557
 20
416.0944920486052
 30
0.0
  0
VERTEX
  5
392
  8
1
  6
CONTINUOUS
 62
     7
 10
-603.6810618820961
 20
416.0816216049681
 30
0.0
  0
VERTEX
  5
393
  8
1
  6
CONTINUOUS
 62
     7
 10
-603.7296727160053
 20
416.0664176431621
 30
0.0
  0
VERTEX
  5
394
  8
1
  6
CONTINUOUS
 62
     7
 10
-603.7774040948087
 20
416.0489260979622
 30
0.0
  0
VERTEX
  5
395
  8
1
  6
CONTINUOUS
 62
     7
 10
-603.8172859652565
 20
416.0322439464391
 30
0.0
  0
VERTEX
  5
396
  8
1
  6
CONTINUOUS
 62
     7
 10
-603.8564511160515
 20
416.0139281777307
 30
0.0
  0
VERTEX
  5
397
  8
1
  6
CONTINUOUS
 62
     7
 10
-603.8947949880423
 20
415.9940255676594
 30
0.0
  0
VERTEX
  5
398
  8
1
  6
CONTINUOUS
 62
     7
 10
-603.9322130220768
 20
415.9725828920477
 30
0.0
  0
VERTEX
  5
399
  8
1
  6
CONTINUOUS
 62
     7
 10
-603.9697444464067
 20
415.9488979510889
 30
0.0
  0
VERTEX
  5
39A
  8
1
  6
CONTINUOUS
 62
     7
 10
-604.006216883196
 20
415.9236131264163
 30
0.0
  0
VERTEX
  5
39B
  8
1
  6
CONTINUOUS
 62
     7
 10
-604.0415239444521
 20
415.8967986803267
 30
0.0
  0
VERTEX
  5
39C
  8
1
  6
CONTINUOUS
 62
     7
 10
-604.0755592421824
 20
415.8685248751168
 30
0.0
  0
VERTEX
  5
39D
  8
1
  6
CONTINUOUS
 62
     7
 10
-604.1005481490351
 20
415.8460767162582
 30
0.0
  0
VERTEX
  5
39E
  8
1
  6
CONTINUOUS
 62
     7
 10
-604.124779043921
 20
415.8227967605853
 30
0.0
  0
SEQEND
  5
8C7
  8
1
  6
CONTINUOUS
 62
     7
  0
LINE
  5
15A
  8
1
  6
CONTINUOUS
 62
     7
 10
-603.3864165413099
 20
416.1229522634375
 30
0.0
 11
-600.6396508913218
 21
416.1229522634375
 31
0.0
  0
POLYLINE
  5
15B
  8
1
  6
CONTINUOUS
 62
     7
 66
     1
 10
0.0
 20
0.0
 30
0.0
  0
VERTEX
  5
39F
  8
1
  6
CONTINUOUS
 62
     7
 10
-599.9637325238565
 20
415.8855928926948
 30
0.0
  0
VERTEX
  5
3A0
  8
1
  6
CONTINUOUS
 62
     7
 10
-599.9979280393394
 20
415.9122643881652
 30
0.0
  0
VERTEX
  5
3A1
  8
1
  6
CONTINUOUS
 62
     7
 10
-600.0332844770253
 20
415.9375169449264
 30
0.0
  0
VERTEX
  5
3A2
  8
1
  6
CONTINUOUS
 62
     7
 10
-600.0697013337531
 20
415.9612907894337
 30
0.0
  0
VERTEX
  5
3A3
  8
1
  6
CONTINUOUS
 62
     7
 10
-600.1070781063612
 20
415.9835261481432
 30
0.0
  0
VERTEX
  5
3A4
  8
1
  6
CONTINUOUS
 62
     7
 10
-600.1465360924757
 20
416.0047966802218
 30
0.0
  0
VERTEX
  5
3A5
  8
1
  6
CONTINUOUS
 62
     7
 10
-600.1869327981333
 20
416.0244071592364
 30
0.0
  0
VERTEX
  5
3A6
  8
1
  6
CONTINUOUS
 62
     7
 10
-600.2281528495164
 20
416.0423114438839
 30
0.0
  0
VERTEX
  5
3A7
  8
1
  6
CONTINUOUS
 62
     7
 10
-600.2700808728075
 20
416.0584633928612
 30
0.0
  0
VERTEX
  5
3A8
  8
1
  6
CONTINUOUS
 62
     7
 10
-600.3139426231073
 20
416.0732446680723
 30
0.0
  0
VERTEX
  5
3A9
  8
1
  6
CONTINUOUS
 62
     7
 10
-600.3584678182161
 20
416.0861492830144
 30
0.0
  0
VERTEX
  5
3AA
  8
1
  6
CONTINUOUS
 62
     7
 10
-600.4035271355983
 20
416.0971471177549
 30
0.0
  0
VERTEX
  5
3AB
  8
1
  6
CONTINUOUS
 62
     7
 10
-600.4489912527182
 20
416.1062080523605
 30
0.0
  0
VERTEX
  5
3AC
  8
1
  6
CONTINUOUS
 62
     7
 10
-600.4962957993416
 20
416.1135166985582
 30
0.0
  0
VERTEX
  5
3AD
  8
1
  6
CONTINUOUS
 62
     7
 10
-600.5439365958167
 20
416.1187511474251
 30
0.0
  0
VERTEX
  5
3AE
  8
1
  6
CONTINUOUS
 62
     7
 10
-600.5917696303935
 20
416.121900101529
 30
0.0
  0
VERTEX
  5
3AF
  8
1
  6
CONTINUOUS
 62
     7
 10
-600.6396508913217
 20
416.1229522634375
 30
0.0
  0
SEQEND
  5
8C8
  8
1
  6
CONTINUOUS
 62
     7
  0
ARC
  5
15C
  8
1
  6
CONTINUOUS
 62
     7
 10
-595.226363001588
 20
421.7
 30
0.0
 40
7.500000000000001
 50
230.8280922532389
 51
309.171907746761
  0
POLYLINE
  5
15D
  8
1
  6
CONTINUOUS
 62
     7
 66
     1
 10
0.0
 20
0.0
 30
0.0
  0
VERTEX
  5
3B0
  8
1
  6
CONTINUOUS
 62
     7
 10
-589.8130751118542
 20
416.1229522634375
 30
0.0
  0
VERTEX
  5
3B1
  8
1
  6
CONTINUOUS
 62
     7
 10
-589.8571987216571
 20
416.1220594032013
 30
0.0
  0
VERTEX
  5
3B2
  8
1
  6
CONTINUOUS
 62
     7
 10
-589.9012846112662
 20
416.119386266767
 30
0.0
  0
VERTEX
  5
3B3
  8
1
  6
CONTINUOUS
 62
     7
 10
-589.9452200710165
 20
416.1149410205457
 30
0.0
  0
VERTEX
  5
3B4
  8
1
  6
CONTINUOUS
 62
     7
 10
-589.9888923912432
 20
416.1087318309486
 30
0.0
  0
VERTEX
  5
3B5
  8
1
  6
CONTINUOUS
 62
     7
 10
-590.0335074351284
 20
416.1005013353553
 30
0.0
  0
VERTEX
  5
3B6
  8
1
  6
CONTINUOUS
 62
     7
 10
-590.077762905651
 20
416.0904121390255
 30
0.0
  0
VERTEX
  5
3B7
  8
1
  6
CONTINUOUS
 62
     7
 10
-590.1215374388169
 20
416.0784907482259
 30
0.0
  0
VERTEX
  5
3B8
  8
1
  6
CONTINUOUS
 62
     7
 10
-590.1647096706322
 20
416.0647636692228
 30
0.0
  0
VERTEX
  5
3B9
  8
1
  6
CONTINUOUS
 62
     7
 10
-590.2078311053125
 20
416.0490018360459
 30
0.0
  0
VERTEX
  5
3BA
  8
1
  6
CONTINUOUS
 62
     7
 10
-590.2502476319605
 20
416.0314011339719
 30
0.0
  0
VERTEX
  5
3BB
  8
1
  6
CONTINUOUS
 62
     7
 10
-590.2918358463861
 20
416.0120088514912
 30
0.0
  0
VERTEX
  5
3BC
  8
1
  6
CONTINUOUS
 62
     7
 10
-590.3324723443986
 20
415.9908722770945
 30
0.0
  0
VERTEX
  5
3BD
  8
1
  6
CONTINUOUS
 62
     7
 10
-590.3733945164106
 20
415.9672196006749
 30
0.0
  0
VERTEX
  5
3BE
  8
1
  6
CONTINUOUS
 62
     7
 10
-590.413208272711
 20
415.9417383484093
 30
0.0
  0
VERTEX
  5
3BF
  8
1
  6
CONTINUOUS
 62
     7
 10
-590.4517843485854
 20
415.9145042143863
 30
0.0
  0
VERTEX
  5
3C0
  8
1
  6
CONTINUOUS
 62
     7
 10
-590.4889934793194
 20
415.8855928926948
 30
0.0
  0
SEQEND
  5
8C9
  8
1
  6
CONTINUOUS
 62
     7
  0
LINE
  5
15E
  8
1
  6
CONTINUOUS
 62
     7
 10
-589.8130751118542
 20
416.1229522634375
 30
0.0
 11
-587.0663094618661
 21
416.1229522634375
 31
0.0
  0
POLYLINE
  5
15F
  8
1
  6
CONTINUOUS
 62
     7
 66
     1
 10
0.0
 20
0.0
 30
0.0
  0
VERTEX
  5
3C1
  8
1
  6
CONTINUOUS
 62
     7
 10
-586.3279469592554
 20
415.8227967605857
 30
0.0
  0
VERTEX
  5
3C2
  8
1
  6
CONTINUOUS
 62
     7
 10
-586.3633389463528
 20
415.8562814514116
 30
0.0
  0
VERTEX
  5
3C3
  8
1
  6
CONTINUOUS
 62
     7
 10
-586.4003993990067
 20
415.8880850371996
 30
0.0
  0
VERTEX
  5
3C4
  8
1
  6
CONTINUOUS
 62
     7
 10
-586.4389902391408
 20
415.9181047329009
 30
0.0
  0
VERTEX
  5
3C5
  8
1
  6
CONTINUOUS
 62
     7
 10
-586.4789733886789
 20
415.9462377534663
 30
0.0
  0
VERTEX
  5
3C6
  8
1
  6
CONTINUOUS
 62
     7
 10
-586.5219764101817
 20
415.9734531672732
 30
0.0
  0
VERTEX
  5
3C7
  8
1
  6
CONTINUOUS
 62
     7
 10
-586.5663712535867
 20
415.9985721521411
 30
0.0
  0
VERTEX
  5
3C8
  8
1
  6
CONTINUOUS
 62
     7
 10
-586.611987504916
 20
416.0215120900291
 30
0.0
  0
VERTEX
  5
3C9
  8
1
  6
CONTINUOUS
 62
     7
 10
-586.6586547501918
 20
416.0421903628963
 30
0.0
  0
VERTEX
  5
3CA
  8
1
  6
CONTINUOUS
 62
     7
 10
-586.6981394170928
 20
416.0576135554089
 30
0.0
  0
VERTEX
  5
3CB
  8
1
  6
CONTINUOUS
 62
     7
 10
-586.7382715057847
 20
416.0714568370875
 30
0.0
  0
VERTEX
  5
3CC
  8
1
  6
CONTINUOUS
 62
     7
 10
-586.7789488257628
 20
416.0836903669789
 30
0.0
  0
VERTEX
  5
3CD
  8
1
  6
CONTINUOUS
 62
     7
 10
-586.8200691865226
 20
416.09428430413
 30
0.0
  0
VERTEX
  5
3CE
  8
1
  6
CONTINUOUS
 62
     7
 10
-586.8627649916451
 20
416.1034537332081
 30
0.0
  0
VERTEX
  5
3CF
  8
1
  6
CONTINUOUS
 62
     7
 10
-586.9058540214269
 20
416.1108779658336
 30
0.0
  0
VERTEX
  5
3D0
  8
1
  6
CONTINUOUS
 62
     7
 10
-586.9492228114547
 20
416.1165415201239
 30
0.0
  0
VERTEX
  5
3D1
  8
1
  6
CONTINUOUS
 62
     7
 10
-586.9927578973154
 20
416.1204289141962
 30
0.0
  0
VERTEX
  5
3D2
  8
1
  6
CONTINUOUS
 62
     7
 10
-587.0294882759823
 20
416.1223204874884
 30
0.0
  0
VERTEX
  5
3D3
  8
1
  6
CONTINUOUS
 62
     7
 10
-587.066309461866
 20
416.1229522634375
 30
0.0
  0
SEQEND
  5
8CA
  8
1
  6
CONTINUOUS
 62
     7
  0
POLYLINE
  5
160
  8
1
  6
CONTINUOUS
 62
     7
 66
     1
 10
0.0
 20
0.0
 30
0.0
  0
VERTEX
  5
3D4
  8
1
  6
CONTINUOUS
 62
     7
 10
-579.8722200664013
 20
401.9666601601986
 30
0.0
  0
VERTEX
  5
3D5
  8
1
  6
CONTINUOUS
 62
     7
 10
-579.8257611072255
 20
401.9677486087796
 30
0.0
  0
VERTEX
  5
3D6
  8
1
  6
CONTINUOUS
 62
     7
 10
-579.7792742616949
 20
401.9710034392849
 30
0.0
  0
VERTEX
  5
3D7
  8
1
  6
CONTINUOUS
 62
     7
 10
-579.7329180081908
 20
401.9764088788573
 30
0.0
  0
VERTEX
  5
3D8
  8
1
  6
CONTINUOUS
 62
     7
 10
-579.6868508250946
 20
401.9839491546397
 30
0.0
  0
VERTEX
  5
3D9
  8
1
  6
CONTINUOUS
 62
     7
 10
-579.6412311907877
 20
401.9936084937751
 30
0.0
  0
VERTEX
  5
3DA
  8
1
  6
CONTINUOUS
 62
     7
 10
-579.5962175836515
 20
402.0053711234065
 30
0.0
  0
VERTEX
  5
3DB
  8
1
  6
CONTINUOUS
 62
     7
 10
-579.5519684820674
 20
402.0192212706766
 30
0.0
  0
VERTEX
  5
3DC
  8
1
  6
CONTINUOUS
 62
     7
 10
-579.5084383705514
 20
402.0352064290312
 30
0.0
  0
VERTEX
  5
3DD
  8
1
  6
CONTINUOUS
 62
     7
 10
-579.465637409846
 20
402.05331154367
 30
0.0
  0
VERTEX
  5
3DE
  8
1
  6
CONTINUOUS
 62
     7
 10
-579.4237115070439
 20
402.0734596706752
 30
0.0
  0
VERTEX
  5
3DF
  8
1
  6
CONTINUOUS
 62
     7
 10
-579.382806569238
 20
402.095573866129
 30
0.0
  0
VERTEX
  5
3E0
  8
1
  6
CONTINUOUS
 62
     7
 10
-579.3430685035214
 20
402.1195771861138
 30
0.0
  0
VERTEX
  5
3E1
  8
1
  6
CONTINUOUS
 62
     7
 10
-579.304643216987
 20
402.1453926867116
 30
0.0
  0
VERTEX
  5
3E2
  8
1
  6
CONTINUOUS
 62
     7
 10
-579.2676766167274
 20
402.1729434240049
 30
0.0
  0
VERTEX
  5
3E3
  8
1
  6
CONTINUOUS
 62
     7
 10
-579.2326355945697
 20
402.2018451908458
 30
0.0
  0
VERTEX
  5
3E4
  8
1
  6
CONTINUOUS
 62
     7
 10
-579.1989748953572
 20
402.2324549977945
 30
0.0
  0
VERTEX
  5
3E5
  8
1
  6
CONTINUOUS
 62
     7
 10
-579.1667925870064
 20
402.2646541022743
 30
0.0
  0
VERTEX
  5
3E6
  8
1
  6
CONTINUOUS
 62
     7
 10
-579.136186737434
 20
402.2983237617085
 30
0.0
  0
VERTEX
  5
3E7
  8
1
  6
CONTINUOUS
 62
     7
 10
-579.1072554145564
 20
402.3333452335203
 30
0.0
  0
VERTEX
  5
3E8
  8
1
  6
CONTINUOUS
 62
     7
 10
-579.0800966862905
 20
402.3695997751328
 30
0.0
  0
VERTEX
  5
3E9
  8
1
  6
CONTINUOUS
 62
     7
 10
-579.0548086205526
 20
402.4069686439694
 30
0.0
  0
VERTEX
  5
3EA
  8
1
  6
CONTINUOUS
 62
     7
 10
-579.0311839494069
 20
402.445820899784
 30
0.0
  0
VERTEX
  5
3EB
  8
1
  6
CONTINUOUS
 62
     7
 10
-579.0094181053101
 20
402.4858300369924
 30
0.0
  0
VERTEX
  5
3EC
  8
1
  6
CONTINUOUS
 62
     7
 10
-578.989556872374
 20
402.5268564212234
 30
0.0
  0
VERTEX
  5
3ED
  8
1
  6
CONTINUOUS
 62
     7
 10
-578.9716460347103
 20
402.5687604181057
 30
0.0
  0
VERTEX
  5
3EE
  8
1
  6
CONTINUOUS
 62
     7
 10
-578.9557313764307
 20
402.6114023932682
 30
0.0
  0
VERTEX
  5
3EF
  8
1
  6
CONTINUOUS
 62
     7
 10
-578.9418586816467
 20
402.6546427123397
 30
0.0
  0
VERTEX
  5
3F0
  8
1
  6
CONTINUOUS
 62
     7
 10
-578.9300737344703
 20
402.6983417409488
 30
0.0
  0
VERTEX
  5
3F1
  8
1
  6
CONTINUOUS
 62
     7
 10
-578.9200736700493
 20
402.7440543638854
 30
0.0
  0
VERTEX
  5
3F2
  8
1
  6
CONTINUOUS
 62
     7
 10
-578.9122650298274
 20
402.7902946201373
 30
0.0
  0
VERTEX
  5
3F3
  8
1
  6
CONTINUOUS
 62
     7
 10
-578.9066449852494
 20
402.8369140164622
 30
0.0
  0
VERTEX
  5
3F4
  8
1
  6
CONTINUOUS
 62
     7
 10
-578.9032107077602
 20
402.883764059618
 30
0.0
  0
VERTEX
  5
3F5
  8
1
  6
CONTINUOUS
 62
     7
 10
-578.9019593688047
 20
402.9306962563625
 30
0.0
  0
VERTEX
  5
3F6
  8
1
  6
CONTINUOUS
 62
     7
 10
-578.9028881398277
 20
402.9775621134535
 30
0.0
  0
VERTEX
  5
3F7
  8
1
  6
CONTINUOUS
 62
     7
 10
-578.9059941922742
 20
403.0242131376489
 30
0.0
  0
VERTEX
  5
3F8
  8
1
  6
CONTINUOUS
 62
     7
 10
-578.9120399387307
 20
403.0761634830737
 30
0.0
  0
VERTEX
  5
3F9
  8
1
  6
CONTINUOUS
 62
     7
 10
-578.9207566044993
 20
403.1278486058922
 30
0.0
  0
VERTEX
  5
3FA
  8
1
  6
CONTINUOUS
 62
     7
 10
-578.9320901440586
 20
403.1790825704596
 30
0.0
  0
VERTEX
  5
3FB
  8
1
  6
CONTINUOUS
 62
     7
 10
-578.945986511888
 20
403.2296794411308
 30
0.0
  0
VERTEX
  5
3FC
  8
1
  6
CONTINUOUS
 62
     7
 10
-578.9623916624665
 20
403.2794532822605
 30
0.0
  0
SEQEND
  5
8CB
  8
1
  6
CONTINUOUS
 62
     7
  0
LINE
  5
161
  8
1
  6
CONTINUOUS
 62
     7
 10
-610.5805059367747
 20
401.9666601601986
 30
0.0
 11
-579.8722200664013
 21
401.9666601601986
 31
0.0
  0
POLYLINE
  5
162
  8
1
  6
CONTINUOUS
 62
     7
 66
     1
 10
0.0
 20
0.0
 30
0.0
  0
VERTEX
  5
3FD
  8
1
  6
CONTINUOUS
 62
     7
 10
-591.2315668216308
 20
412.9874368670765
 30
0.0
  0
VERTEX
  5
3FE
  8
1
  6
CONTINUOUS
 62
     7
 10
-591.213792908461
 20
413.0043590391606
 30
0.0
  0
VERTEX
  5
3FF
  8
1
  6
CONTINUOUS
 62
     7
 10
-591.1952100731194
 20
413.0203887031646
 30
0.0
  0
VERTEX
  5
400
  8
1
  6
CONTINUOUS
 62
     7
 10
-591.1758630832837
 20
413.0354872422236
 30
0.0
  0
VERTEX
  5
401
  8
1
  6
CONTINUOUS
 62
     7
 10
-591.1557985475473
 20
413.0496182826345
 30
0.0
  0
VERTEX
  5
402
  8
1
  6
CONTINUOUS
 62
     7
 10
-591.1350648031341
 20
413.0627477814833
 30
0.0
  0
VERTEX
  5
403
  8
1
  6
CONTINUOUS
 62
     7
 10
-591.1137117994505
 20
413.0748441086574
 30
0.0
  0
VERTEX
  5
404
  8
1
  6
CONTINUOUS
 62
     7
 10
-591.0917909777527
 20
413.0858781230449
 30
0.0
  0
VERTEX
  5
405
  8
1
  6
CONTINUOUS
 62
     7
 10
-591.06935514722
 20
413.0958232427388
 30
0.0
  0
VERTEX
  5
406
  8
1
  6
CONTINUOUS
 62
     7
 10
-591.0464583577336
 20
413.1046555090747
 30
0.0
  0
VERTEX
  5
407
  8
1
  6
CONTINUOUS
 62
     7
 10
-591.0231557696646
 20
413.1123536443493
 30
0.0
  0
VERTEX
  5
408
  8
1
  6
CONTINUOUS
 62
     7
 10
-590.9995035209892
 20
413.1188991030805
 30
0.0
  0
VERTEX
  5
409
  8
1
  6
CONTINUOUS
 62
     7
 10
-590.9755585920456
 20
413.1242761166848
 30
0.0
  0
VERTEX
  5
40A
  8
1
  6
CONTINUOUS
 62
     7
 10
-590.9513786682652
 20
413.1284717314656
 30
0.0
  0
VERTEX
  5
40B
  8
1
  6
CONTINUOUS
 62
     7
 10
-590.9270220012023
 20
413.1314758398193
 30
0.0
  0
VERTEX
  5
40C
  8
1
  6
CONTINUOUS
 62
     7
 10
-590.9025472682013
 20
413.1332812045858
 30
0.0
  0
VERTEX
  5
40D
  8
1
  6
CONTINUOUS
 62
     7
 10
-590.8780134310375
 20
413.1338834764832
 30
0.0
  0
VERTEX
  5
40E
  8
1
  6
CONTINUOUS
 62
     7
 10
-590.8534795938738
 20
413.1332812045858
 30
0.0
  0
VERTEX
  5
40F
  8
1
  6
CONTINUOUS
 62
     7
 10
-590.8290048608727
 20
413.1314758398193
 30
0.0
  0
VERTEX
  5
410
  8
1
  6
CONTINUOUS
 62
     7
 10
-590.8046481938098
 20
413.1284717314656
 30
0.0
  0
VERTEX
  5
411
  8
1
  6
CONTINUOUS
 62
     7
 10
-590.7804682700295
 20
413.1242761166848
 30
0.0
  0
VERTEX
  5
412
  8
1
  6
CONTINUOUS
 62
     7
 10
-590.7565233410859
 20
413.1188991030805
 30
0.0
  0
VERTEX
  5
413
  8
1
  6
CONTINUOUS
 62
     7
 10
-590.7328710924103
 20
413.1123536443493
 30
0.0
  0
VERTEX
  5
414
  8
1
  6
CONTINUOUS
 62
     7
 10
-590.7095685043414
 20
413.1046555090747
 30
0.0
  0
VERTEX
  5
415
  8
1
  6
CONTINUOUS
 62
     7
 10
-590.686671714855
 20
413.0958232427388
 30
0.0
  0
VERTEX
  5
416
  8
1
  6
CONTINUOUS
 62
     7
 10
-590.6642358843224
 20
413.0858781230449
 30
0.0
  0
VERTEX
  5
417
  8
1
  6
CONTINUOUS
 62
     7
 10
-590.6423150626246
 20
413.0748441086574
 30
0.0
  0
VERTEX
  5
418
  8
1
  6
CONTINUOUS
 62
     7
 10
-590.6209620589409
 20
413.0627477814833
 30
0.0
  0
VERTEX
  5
419
  8
1
  6
CONTINUOUS
 62
     7
 10
-590.6002283145277
 20
413.0496182826345
 30
0.0
  0
VERTEX
  5
41A
  8
1
  6
CONTINUOUS
 62
     7
 10
-590.5801637787913
 20
413.0354872422235
 30
0.0
  0
VERTEX
  5
41B
  8
1
  6
CONTINUOUS
 62
     7
 10
-590.5608167889557
 20
413.0203887031646
 30
0.0
  0
VERTEX
  5
41C
  8
1
  6
CONTINUOUS
 62
     7
 10
-590.5422339536141
 20
413.0043590391606
 30
0.0
  0
VERTEX
  5
41D
  8
1
  6
CONTINUOUS
 62
     7
 10
-590.5244600404442
 20
412.9874368670764
 30
0.0
  0
SEQEND
  5
8CC
  8
1
  6
CONTINUOUS
 62
     7
  0
LINE
  5
163
  8
1
  6
CONTINUOUS
 62
     7
 10
-593.2468211480124
 20
410.9721825406949
 30
0.0
 11
-591.2315668216308
 21
412.9874368670765
 31
0.0
  0
POLYLINE
  5
164
  8
1
  6
CONTINUOUS
 62
     7
 66
     1
 10
0.0
 20
0.0
 30
0.0
  0
VERTEX
  5
41E
  8
1
  6
CONTINUOUS
 62
     7
 10
-593.2468211480124
 20
410.2650757595082
 30
0.0
  0
VERTEX
  5
41F
  8
1
  6
CONTINUOUS
 62
     7
 10
-593.2637433200966
 20
410.282849672678
 30
0.0
  0
VERTEX
  5
420
  8
1
  6
CONTINUOUS
 62
     7
 10
-593.2797729841005
 20
410.3014325080197
 30
0.0
  0
VERTEX
  5
421
  8
1
  6
CONTINUOUS
 62
     7
 10
-593.2948715231595
 20
410.3207794978553
 30
0.0
  0
VERTEX
  5
422
  8
1
  6
CONTINUOUS
 62
     7
 10
-593.3090025635704
 20
410.3408440335917
 30
0.0
  0
VERTEX
  5
423
  8
1
  6
CONTINUOUS
 62
     7
 10
-593.3221320624193
 20
410.3615777780049
 30
0.0
  0
VERTEX
  5
424
  8
1
  6
CONTINUOUS
 62
     7
 10
-593.3342283895934
 20
410.3829307816885
 30
0.0
  0
VERTEX
  5
425
  8
1
  6
CONTINUOUS
 62
     7
 10
-593.3452624039809
 20
410.4048516033864
 30
0.0
  0
VERTEX
  5
426
  8
1
  6
CONTINUOUS
 62
     7
 10
-593.3552075236748
 20
410.427287433919
 30
0.0
  0
VERTEX
  5
427
  8
1
  6
CONTINUOUS
 62
     7
 10
-593.3640397900107
 20
410.4501842234054
 30
0.0
  0
VERTEX
  5
428
  8
1
  6
CONTINUOUS
 62
     7
 10
-593.3717379252853
 20
410.4734868114743
 30
0.0
  0
VERTEX
  5
429
  8
1
  6
CONTINUOUS
 62
     7
 10
-593.3782833840164
 20
410.4971390601499
 30
0.0
  0
VERTEX
  5
42A
  8
1
  6
CONTINUOUS
 62
     7
 10
-593.3836603976208
 20
410.5210839890935
 30
0.0
  0
VERTEX
  5
42B
  8
1
  6
CONTINUOUS
 62
     7
 10
-593.3878560124016
 20
410.5452639128738
 30
0.0
  0
VERTEX
  5
42C
  8
1
  6
CONTINUOUS
 62
     7
 10
-593.3908601207553
 20
410.5696205799367
 30
0.0
  0
VERTEX
  5
42D
  8
1
  6
CONTINUOUS
 62
     7
 10
-593.3926654855217
 20
410.5940953129378
 30
0.0
  0
VERTEX
  5
42E
  8
1
  6
CONTINUOUS
 62
     7
 10
-593.3932677574192
 20
410.6186291501015
 30
0.0
  0
VERTEX
  5
42F
  8
1
  6
CONTINUOUS
 62
     7
 10
-593.3926654855217
 20
410.6431629872653
 30
0.0
  0
VERTEX
  5
430
  8
1
  6
CONTINUOUS
 62
     7
 10
-593.3908601207553
 20
410.6676377202663
 30
0.0
  0
VERTEX
  5
431
  8
1
  6
CONTINUOUS
 62
     7
 10
-593.3878560124016
 20
410.6919943873292
 30
0.0
  0
VERTEX
  5
432
  8
1
  6
CONTINUOUS
 62
     7
 10
-593.3836603976208
 20
410.7161743111096
 30
0.0
  0
VERTEX
  5
433
  8
1
  6
CONTINUOUS
 62
     7
 10
-593.3782833840164
 20
410.7401192400532
 30
0.0
  0
VERTEX
  5
434
  8
1
  6
CONTINUOUS
 62
     7
 10
-593.3717379252853
 20
410.7637714887288
 30
0.0
  0
VERTEX
  5
435
  8
1
  6
CONTINUOUS
 62
     7
 10
-593.3640397900107
 20
410.7870740767976
 30
0.0
  0
VERTEX
  5
436
  8
1
  6
CONTINUOUS
 62
     7
 10
-593.3552075236748
 20
410.8099708662841
 30
0.0
  0
VERTEX
  5
437
  8
1
  6
CONTINUOUS
 62
     7
 10
-593.3452624039809
 20
410.8324066968167
 30
0.0
  0
VERTEX
  5
438
  8
1
  6
CONTINUOUS
 62
     7
 10
-593.3342283895934
 20
410.8543275185145
 30
0.0
  0
VERTEX
  5
439
  8
1
  6
CONTINUOUS
 62
     7
 10
-593.3221320624193
 20
410.8756805221981
 30
0.0
  0
VERTEX
  5
43A
  8
1
  6
CONTINUOUS
 62
     7
 10
-593.3090025635704
 20
410.8964142666113
 30
0.0
  0
VERTEX
  5
43B
  8
1
  6
CONTINUOUS
 62
     7
 10
-593.2948715231595
 20
410.9164788023477
 30
0.0
  0
VERTEX
  5
43C
  8
1
  6
CONTINUOUS
 62
     7
 10
-593.2797729841005
 20
410.9358257921833
 30
0.0
  0
VERTEX
  5
43D
  8
1
  6
CONTINUOUS
 62
     7
 10
-593.2637433200966
 20
410.9544086275251
 30
0.0
  0
VERTEX
  5
43E
  8
1
  6
CONTINUOUS
 62
     7
 10
-593.2468211480124
 20
410.9721825406949
 30
0.0
  0
SEQEND
  5
8CD
  8
1
  6
CONTINUOUS
 62
     7
  0
LINE
  5
165
  8
1
  6
CONTINUOUS
 62
     7
 10
-589.7112872420796
 20
406.7295418535755
 30
0.0
 11
-593.2468211480124
 21
410.2650757595082
 31
0.0
  0
POLYLINE
  5
166
  8
1
  6
CONTINUOUS
 62
     7
 66
     1
 10
0.0
 20
0.0
 30
0.0
  0
VERTEX
  5
43F
  8
1
  6
CONTINUOUS
 62
     7
 10
-589.0041804608932
 20
406.7295418535755
 30
0.0
  0
VERTEX
  5
440
  8
1
  6
CONTINUOUS
 62
     7
 10
-589.021954374063
 20
406.7126196814913
 30
0.0
  0
VERTEX
  5
441
  8
1
  6
CONTINUOUS
 62
     7
 10
-589.0405372094046
 20
406.6965900174874
 30
0.0
  0
VERTEX
  5
442
  8
1
  6
CONTINUOUS
 62
     7
 10
-589.0598841992403
 20
406.6814914784285
 30
0.0
  0
VERTEX
  5
443
  8
1
  6
CONTINUOUS
 62
     7
 10
-589.0799487349766
 20
406.6673604380175
 30
0.0
  0
VERTEX
  5
444
  8
1
  6
CONTINUOUS
 62
     7
 10
-589.1006824793899
 20
406.6542309391687
 30
0.0
  0
VERTEX
  5
445
  8
1
  6
CONTINUOUS
 62
     7
 10
-589.1220354830734
 20
406.6421346119946
 30
0.0
  0
VERTEX
  5
446
  8
1
  6
CONTINUOUS
 62
     7
 10
-589.1439563047713
 20
406.6311005976071
 30
0.0
  0
VERTEX
  5
447
  8
1
  6
CONTINUOUS
 62
     7
 10
-589.1663921353038
 20
406.6211554779131
 30
0.0
  0
VERTEX
  5
448
  8
1
  6
CONTINUOUS
 62
     7
 10
-589.1892889247903
 20
406.6123232115773
 30
0.0
  0
VERTEX
  5
449
  8
1
  6
CONTINUOUS
 62
     7
 10
-589.2125915128591
 20
406.6046250763027
 30
0.0
  0
VERTEX
  5
44A
  8
1
  6
CONTINUOUS
 62
     7
 10
-589.2362437615349
 20
406.5980796175716
 30
0.0
  0
VERTEX
  5
44B
  8
1
  6
CONTINUOUS
 62
     7
 10
-589.2601886904783
 20
406.5927026039672
 30
0.0
  0
VERTEX
  5
44C
  8
1
  6
CONTINUOUS
 62
     7
 10
-589.2843686142587
 20
406.5885069891864
 30
0.0
  0
VERTEX
  5
44D
  8
1
  6
CONTINUOUS
 62
     7
 10
-589.3087252813216
 20
406.5855028808327
 30
0.0
  0
VERTEX
  5
44E
  8
1
  6
CONTINUOUS
 62
     7
 10
-589.3332000143228
 20
406.5836975160662
 30
0.0
  0
VERTEX
  5
44F
  8
1
  6
CONTINUOUS
 62
     7
 10
-589.3577338514865
 20
406.5830952441688
 30
0.0
  0
VERTEX
  5
450
  8
1
  6
CONTINUOUS
 62
     7
 10
-589.3822676886501
 20
406.5836975160662
 30
0.0
  0
VERTEX
  5
451
  8
1
  6
CONTINUOUS
 62
     7
 10
-589.4067424216512
 20
406.5855028808327
 30
0.0
  0
VERTEX
  5
452
  8
1
  6
CONTINUOUS
 62
     7
 10
-589.4310990887142
 20
406.5885069891864
 30
0.0
  0
VERTEX
  5
453
  8
1
  6
CONTINUOUS
 62
     7
 10
-589.4552790124945
 20
406.5927026039672
 30
0.0
  0
VERTEX
  5
454
  8
1
  6
CONTINUOUS
 62
     7
 10
-589.479223941438
 20
406.5980796175716
 30
0.0
  0
VERTEX
  5
455
  8
1
  6
CONTINUOUS
 62
     7
 10
-589.5028761901136
 20
406.6046250763027
 30
0.0
  0
VERTEX
  5
456
  8
1
  6
CONTINUOUS
 62
     7
 10
-589.5261787781826
 20
406.6123232115773
 30
0.0
  0
VERTEX
  5
457
  8
1
  6
CONTINUOUS
 62
     7
 10
-589.549075567669
 20
406.6211554779131
 30
0.0
  0
VERTEX
  5
458
  8
1
  6
CONTINUOUS
 62
     7
 10
-589.5715113982017
 20
406.6311005976071
 30
0.0
  0
VERTEX
  5
459
  8
1
  6
CONTINUOUS
 62
     7
 10
-589.5934322198995
 20
406.6421346119946
 30
0.0
  0
VERTEX
  5
45A
  8
1
  6
CONTINUOUS
 62
     7
 10
-589.614785223583
 20
406.6542309391687
 30
0.0
  0
VERTEX
  5
45B
  8
1
  6
CONTINUOUS
 62
     7
 10
-589.6355189679963
 20
406.6673604380175
 30
0.0
  0
VERTEX
  5
45C
  8
1
  6
CONTINUOUS
 62
     7
 10
-589.6555835037327
 20
406.6814914784285
 30
0.0
  0
VERTEX
  5
45D
  8
1
  6
CONTINUOUS
 62
     7
 10
-589.6749304935682
 20
406.6965900174874
 30
0.0
  0
VERTEX
  5
45E
  8
1
  6
CONTINUOUS
 62
     7
 10
-589.69351332891
 20
406.7126196814913
 30
0.0
  0
VERTEX
  5
45F
  8
1
  6
CONTINUOUS
 62
     7
 10
-589.7112872420796
 20
406.7295418535755
 30
0.0
  0
SEQEND
  5
8CE
  8
1
  6
CONTINUOUS
 62
     7
  0
LINE
  5
167
  8
1
  6
CONTINUOUS
 62
     7
 10
-586.9889261345114
 20
408.7447961799572
 30
0.0
 11
-589.004180460893
 21
406.7295418535755
 31
0.0
  0
POLYLINE
  5
168
  8
1
  6
CONTINUOUS
 62
     7
 66
     1
 10
0.0
 20
0.0
 30
0.0
  0
VERTEX
  5
460
  8
1
  6
CONTINUOUS
 62
     7
 10
-586.9889261345114
 20
409.4519029611437
 30
0.0
  0
VERTEX
  5
461
  8
1
  6
CONTINUOUS
 62
     7
 10
-586.9720039624273
 20
409.434129047974
 30
0.0
  0
VERTEX
  5
462
  8
1
  6
CONTINUOUS
 62
     7
 10
-586.9559742984234
 20
409.4155462126323
 30
0.0
  0
VERTEX
  5
463
  8
1
  6
CONTINUOUS
 62
     7
 10
-586.9408757593645
 20
409.3961992227967
 30
0.0
  0
VERTEX
  5
464
  8
1
  6
CONTINUOUS
 62
     7
 10
-586.9267447189534
 20
409.3761346870602
 30
0.0
  0
VERTEX
  5
465
  8
1
  6
CONTINUOUS
 62
     7
 10
-586.9136152201046
 20
409.3554009426471
 30
0.0
  0
VERTEX
  5
466
  8
1
  6
CONTINUOUS
 62
     7
 10
-586.9015188929307
 20
409.3340479389634
 30
0.0
  0
VERTEX
  5
467
  8
1
  6
CONTINUOUS
 62
     7
 10
-586.890484878543
 20
409.3121271172656
 30
0.0
  0
VERTEX
  5
468
  8
1
  6
CONTINUOUS
 62
     7
 10
-586.8805397588491
 20
409.289691286733
 30
0.0
  0
VERTEX
  5
469
  8
1
  6
CONTINUOUS
 62
     7
 10
-586.8717074925132
 20
409.2667944972466
 30
0.0
  0
VERTEX
  5
46A
  8
1
  6
CONTINUOUS
 62
     7
 10
-586.8640093572387
 20
409.2434919091777
 30
0.0
  0
VERTEX
  5
46B
  8
1
  6
CONTINUOUS
 62
     7
 10
-586.8574638985075
 20
409.2198396605021
 30
0.0
  0
VERTEX
  5
46C
  8
1
  6
CONTINUOUS
 62
     7
 10
-586.8520868849032
 20
409.1958947315586
 30
0.0
  0
VERTEX
  5
46D
  8
1
  6
CONTINUOUS
 62
     7
 10
-586.8478912701223
 20
409.1717148077781
 30
0.0
  0
VERTEX
  5
46E
  8
1
  6
CONTINUOUS
 62
     7
 10
-586.8448871617686
 20
409.1473581407152
 30
0.0
  0
VERTEX
  5
46F
  8
1
  6
CONTINUOUS
 62
     7
 10
-586.8430817970021
 20
409.1228834077142
 30
0.0
  0
VERTEX
  5
470
  8
1
  6
CONTINUOUS
 62
     7
 10
-586.8424795251049
 20
409.0983495705505
 30
0.0
  0
VERTEX
  5
471
  8
1
  6
CONTINUOUS
 62
     7
 10
-586.8430817970021
 20
409.0738157333868
 30
0.0
  0
VERTEX
  5
472
  8
1
  6
CONTINUOUS
 62
     7
 10
-586.8448871617686
 20
409.0493410003857
 30
0.0
  0
VERTEX
  5
473
  8
1
  6
CONTINUOUS
 62
     7
 10
-586.8478912701223
 20
409.0249843333228
 30
0.0
  0
VERTEX
  5
474
  8
1
  6
CONTINUOUS
 62
     7
 10
-586.8520868849032
 20
409.0008044095424
 30
0.0
  0
VERTEX
  5
475
  8
1
  6
CONTINUOUS
 62
     7
 10
-586.8574638985075
 20
408.9768594805988
 30
0.0
  0
VERTEX
  5
476
  8
1
  6
CONTINUOUS
 62
     7
 10
-586.8640093572387
 20
408.9532072319232
 30
0.0
  0
VERTEX
  5
477
  8
1
  6
CONTINUOUS
 62
     7
 10
-586.8717074925132
 20
408.9299046438543
 30
0.0
  0
VERTEX
  5
478
  8
1
  6
CONTINUOUS
 62
     7
 10
-586.8805397588491
 20
408.9070078543679
 30
0.0
  0
VERTEX
  5
479
  8
1
  6
CONTINUOUS
 62
     7
 10
-586.890484878543
 20
408.8845720238353
 30
0.0
  0
VERTEX
  5
47A
  8
1
  6
CONTINUOUS
 62
     7
 10
-586.9015188929307
 20
408.8626512021375
 30
0.0
  0
VERTEX
  5
47B
  8
1
  6
CONTINUOUS
 62
     7
 10
-586.9136152201046
 20
408.8412981984539
 30
0.0
  0
VERTEX
  5
47C
  8
1
  6
CONTINUOUS
 62
     7
 10
-586.9267447189534
 20
408.8205644540407
 30
0.0
  0
VERTEX
  5
47D
  8
1
  6
CONTINUOUS
 62
     7
 10
-586.9408757593645
 20
408.8004999183042
 30
0.0
  0
VERTEX
  5
47E
  8
1
  6
CONTINUOUS
 62
     7
 10
-586.9559742984234
 20
408.7811529284687
 30
0.0
  0
VERTEX
  5
47F
  8
1
  6
CONTINUOUS
 62
     7
 10
-586.9720039624273
 20
408.762570093127
 30
0.0
  0
VERTEX
  5
480
  8
1
  6
CONTINUOUS
 62
     7
 10
-586.9889261345114
 20
408.7447961799572
 30
0.0
  0
SEQEND
  5
8CF
  8
1
  6
CONTINUOUS
 62
     7
  0
LINE
  5
169
  8
1
  6
CONTINUOUS
 62
     7
 10
-587.1657028298082
 20
409.6286796564404
 30
0.0
 11
-586.9889261345114
 21
409.4519029611437
 31
0.0
  0
LINE
  5
16A
  8
1
  6
CONTINUOUS
 62
     7
 10
-590.5244600404442
 20
412.9874368670764
 30
0.0
 11
-590.3476833451475
 21
412.8106601717798
 31
0.0
  0
POLYLINE
  5
16B
  8
1
  6
CONTINUOUS
 62
     7
 66
     1
 10
0.0
 20
0.0
 30
0.0
  0
VERTEX
  5
481
  8
1
  6
CONTINUOUS
 62
     7
 10
-603.4637998686645
 20
408.7447961799572
 30
0.0
  0
VERTEX
  5
482
  8
1
  6
CONTINUOUS
 62
     7
 10
-603.4807220407487
 20
408.762570093127
 30
0.0
  0
VERTEX
  5
483
  8
1
  6
CONTINUOUS
 62
     7
 10
-603.4967517047526
 20
408.7811529284686
 30
0.0
  0
VERTEX
  5
484
  8
1
  6
CONTINUOUS
 62
     7
 10
-603.5118502438115
 20
408.8004999183042
 30
0.0
  0
VERTEX
  5
485
  8
1
  6
CONTINUOUS
 62
     7
 10
-603.5259812842224
 20
408.8205644540407
 30
0.0
  0
VERTEX
  5
486
  8
1
  6
CONTINUOUS
 62
     7
 10
-603.5391107830714
 20
408.8412981984538
 30
0.0
  0
VERTEX
  5
487
  8
1
  6
CONTINUOUS
 62
     7
 10
-603.5512071102453
 20
408.8626512021374
 30
0.0
  0
VERTEX
  5
488
  8
1
  6
CONTINUOUS
 62
     7
 10
-603.5622411246328
 20
408.8845720238353
 30
0.0
  0
VERTEX
  5
489
  8
1
  6
CONTINUOUS
 62
     7
 10
-603.5721862443269
 20
408.9070078543679
 30
0.0
  0
VERTEX
  5
48A
  8
1
  6
CONTINUOUS
 62
     7
 10
-603.5810185106627
 20
408.9299046438543
 30
0.0
  0
VERTEX
  5
48B
  8
1
  6
CONTINUOUS
 62
     7
 10
-603.5887166459372
 20
408.9532072319232
 30
0.0
  0
VERTEX
  5
48C
  8
1
  6
CONTINUOUS
 62
     7
 10
-603.5952621046684
 20
408.9768594805988
 30
0.0
  0
VERTEX
  5
48D
  8
1
  6
CONTINUOUS
 62
     7
 10
-603.6006391182727
 20
409.0008044095424
 30
0.0
  0
VERTEX
  5
48E
  8
1
  6
CONTINUOUS
 62
     7
 10
-603.6048347330536
 20
409.0249843333228
 30
0.0
  0
VERTEX
  5
48F
  8
1
  6
CONTINUOUS
 62
     7
 10
-603.6078388414072
 20
409.0493410003857
 30
0.0
  0
VERTEX
  5
490
  8
1
  6
CONTINUOUS
 62
     7
 10
-603.6096442061738
 20
409.0738157333868
 30
0.0
  0
VERTEX
  5
491
  8
1
  6
CONTINUOUS
 62
     7
 10
-603.6102464780712
 20
409.0983495705505
 30
0.0
  0
VERTEX
  5
492
  8
1
  6
CONTINUOUS
 62
     7
 10
-603.6096442061738
 20
409.1228834077142
 30
0.0
  0
VERTEX
  5
493
  8
1
  6
CONTINUOUS
 62
     7
 10
-603.6078388414072
 20
409.1473581407152
 30
0.0
  0
VERTEX
  5
494
  8
1
  6
CONTINUOUS
 62
     7
 10
-603.6048347330536
 20
409.1717148077781
 30
0.0
  0
VERTEX
  5
495
  8
1
  6
CONTINUOUS
 62
     7
 10
-603.6006391182727
 20
409.1958947315586
 30
0.0
  0
VERTEX
  5
496
  8
1
  6
CONTINUOUS
 62
     7
 10
-603.5952621046684
 20
409.2198396605021
 30
0.0
  0
VERTEX
  5
497
  8
1
  6
CONTINUOUS
 62
     7
 10
-603.5887166459372
 20
409.2434919091777
 30
0.0
  0
VERTEX
  5
498
  8
1
  6
CONTINUOUS
 62
     7
 10
-603.5810185106627
 20
409.2667944972466
 30
0.0
  0
VERTEX
  5
499
  8
1
  6
CONTINUOUS
 62
     7
 10
-603.5721862443269
 20
409.289691286733
 30
0.0
  0
VERTEX
  5
49A
  8
1
  6
CONTINUOUS
 62
     7
 10
-603.5622411246328
 20
409.3121271172656
 30
0.0
  0
VERTEX
  5
49B
  8
1
  6
CONTINUOUS
 62
     7
 10
-603.5512071102453
 20
409.3340479389634
 30
0.0
  0
VERTEX
  5
49C
  8
1
  6
CONTINUOUS
 62
     7
 10
-603.5391107830714
 20
409.3554009426471
 30
0.0
  0
VERTEX
  5
49D
  8
1
  6
CONTINUOUS
 62
     7
 10
-603.5259812842224
 20
409.3761346870602
 30
0.0
  0
VERTEX
  5
49E
  8
1
  6
CONTINUOUS
 62
     7
 10
-603.5118502438115
 20
409.3961992227967
 30
0.0
  0
VERTEX
  5
49F
  8
1
  6
CONTINUOUS
 62
     7
 10
-603.4967517047526
 20
409.4155462126323
 30
0.0
  0
VERTEX
  5
4A0
  8
1
  6
CONTINUOUS
 62
     7
 10
-603.4807220407487
 20
409.434129047974
 30
0.0
  0
VERTEX
  5
4A1
  8
1
  6
CONTINUOUS
 62
     7
 10
-603.4637998686645
 20
409.4519029611437
 30
0.0
  0
SEQEND
  5
8D0
  8
1
  6
CONTINUOUS
 62
     7
  0
LINE
  5
16C
  8
1
  6
CONTINUOUS
 62
     7
 10
-601.4485455422828
 20
406.7295418535755
 30
0.0
 11
-603.4637998686645
 21
408.7447961799572
 31
0.0
  0
POLYLINE
  5
16D
  8
1
  6
CONTINUOUS
 62
     7
 66
     1
 10
0.0
 20
0.0
 30
0.0
  0
VERTEX
  5
4A2
  8
1
  6
CONTINUOUS
 62
     7
 10
-600.7414387610962
 20
406.7295418535755
 30
0.0
  0
VERTEX
  5
4A3
  8
1
  6
CONTINUOUS
 62
     7
 10
-600.759212674266
 20
406.7126196814913
 30
0.0
  0
VERTEX
  5
4A4
  8
1
  6
CONTINUOUS
 62
     7
 10
-600.7777955096076
 20
406.6965900174874
 30
0.0
  0
VERTEX
  5
4A5
  8
1
  6
CONTINUOUS
 62
     7
 10
-600.7971424994432
 20
406.6814914784285
 30
0.0
  0
VERTEX
  5
4A6
  8
1
  6
CONTINUOUS
 62
     7
 10
-600.8172070351796
 20
406.6673604380175
 30
0.0
  0
VERTEX
  5
4A7
  8
1
  6
CONTINUOUS
 62
     7
 10
-600.8379407795928
 20
406.6542309391687
 30
0.0
  0
VERTEX
  5
4A8
  8
1
  6
CONTINUOUS
 62
     7
 10
-600.8592937832765
 20
406.6421346119946
 30
0.0
  0
VERTEX
  5
4A9
  8
1
  6
CONTINUOUS
 62
     7
 10
-600.8812146049744
 20
406.6311005976071
 30
0.0
  0
VERTEX
  5
4AA
  8
1
  6
CONTINUOUS
 62
     7
 10
-600.903650435507
 20
406.6211554779131
 30
0.0
  0
VERTEX
  5
4AB
  8
1
  6
CONTINUOUS
 62
     7
 10
-600.9265472249933
 20
406.6123232115773
 30
0.0
  0
VERTEX
  5
4AC
  8
1
  6
CONTINUOUS
 62
     7
 10
-600.9498498130623
 20
406.6046250763027
 30
0.0
  0
VERTEX
  5
4AD
  8
1
  6
CONTINUOUS
 62
     7
 10
-600.9735020617378
 20
406.5980796175716
 30
0.0
  0
VERTEX
  5
4AE
  8
1
  6
CONTINUOUS
 62
     7
 10
-600.9974469906815
 20
406.5927026039672
 30
0.0
  0
VERTEX
  5
4AF
  8
1
  6
CONTINUOUS
 62
     7
 10
-601.0216269144618
 20
406.5885069891864
 30
0.0
  0
VERTEX
  5
4B0
  8
1
  6
CONTINUOUS
 62
     7
 10
-601.0459835815248
 20
406.5855028808327
 30
0.0
  0
VERTEX
  5
4B1
  8
1
  6
CONTINUOUS
 62
     7
 10
-601.0704583145258
 20
406.5836975160662
 30
0.0
  0
VERTEX
  5
4B2
  8
1
  6
CONTINUOUS
 62
     7
 10
-601.0949921516894
 20
406.5830952441688
 30
0.0
  0
VERTEX
  5
4B3
  8
1
  6
CONTINUOUS
 62
     7
 10
-601.1195259888532
 20
406.5836975160662
 30
0.0
  0
VERTEX
  5
4B4
  8
1
  6
CONTINUOUS
 62
     7
 10
-601.1440007218542
 20
406.5855028808327
 30
0.0
  0
VERTEX
  5
4B5
  8
1
  6
CONTINUOUS
 62
     7
 10
-601.1683573889171
 20
406.5885069891864
 30
0.0
  0
VERTEX
  5
4B6
  8
1
  6
CONTINUOUS
 62
     7
 10
-601.1925373126976
 20
406.5927026039672
 30
0.0
  0
VERTEX
  5
4B7
  8
1
  6
CONTINUOUS
 62
     7
 10
-601.2164822416412
 20
406.5980796175716
 30
0.0
  0
VERTEX
  5
4B8
  8
1
  6
CONTINUOUS
 62
     7
 10
-601.2401344903168
 20
406.6046250763027
 30
0.0
  0
VERTEX
  5
4B9
  8
1
  6
CONTINUOUS
 62
     7
 10
-601.2634370783856
 20
406.6123232115773
 30
0.0
  0
VERTEX
  5
4BA
  8
1
  6
CONTINUOUS
 62
     7
 10
-601.286333867872
 20
406.6211554779131
 30
0.0
  0
VERTEX
  5
4BB
  8
1
  6
CONTINUOUS
 62
     7
 10
-601.3087696984046
 20
406.6311005976071
 30
0.0
  0
VERTEX
  5
4BC
  8
1
  6
CONTINUOUS
 62
     7
 10
-601.3306905201024
 20
406.6421346119946
 30
0.0
  0
VERTEX
  5
4BD
  8
1
  6
CONTINUOUS
 62
     7
 10
-601.3520435237862
 20
406.6542309391687
 30
0.0
  0
VERTEX
  5
4BE
  8
1
  6
CONTINUOUS
 62
     7
 10
-601.3727772681992
 20
406.6673604380175
 30
0.0
  0
VERTEX
  5
4BF
  8
1
  6
CONTINUOUS
 62
     7
 10
-601.3928418039357
 20
406.6814914784285
 30
0.0
  0
VERTEX
  5
4C0
  8
1
  6
CONTINUOUS
 62
     7
 10
-601.4121887937713
 20
406.6965900174874
 30
0.0
  0
VERTEX
  5
4C1
  8
1
  6
CONTINUOUS
 62
     7
 10
-601.430771629113
 20
406.7126196814913
 30
0.0
  0
VERTEX
  5
4C2
  8
1
  6
CONTINUOUS
 62
     7
 10
-601.4485455422828
 20
406.7295418535755
 30
0.0
  0
SEQEND
  5
8D1
  8
1
  6
CONTINUOUS
 62
     7
  0
LINE
  5
16E
  8
1
  6
CONTINUOUS
 62
     7
 10
-597.2059048551635
 20
410.2650757595082
 30
0.0
 11
-600.7414387610962
 21
406.7295418535755
 31
0.0
  0
POLYLINE
  5
16F
  8
1
  6
CONTINUOUS
 62
     7
 66
     1
 10
0.0
 20
0.0
 30
0.0
  0
VERTEX
  5
4C3
  8
1
  6
CONTINUOUS
 62
     7
 10
-597.2059048551635
 20
410.9721825406948
 30
0.0
  0
VERTEX
  5
4C4
  8
1
  6
CONTINUOUS
 62
     7
 10
-597.1889826830793
 20
410.954408627525
 30
0.0
  0
VERTEX
  5
4C5
  8
1
  6
CONTINUOUS
 62
     7
 10
-597.1729530190753
 20
410.9358257921833
 30
0.0
  0
VERTEX
  5
4C6
  8
1
  6
CONTINUOUS
 62
     7
 10
-597.1578544800165
 20
410.9164788023477
 30
0.0
  0
VERTEX
  5
4C7
  8
1
  6
CONTINUOUS
 62
     7
 10
-597.1437234396055
 20
410.8964142666113
 30
0.0
  0
VERTEX
  5
4C8
  8
1
  6
CONTINUOUS
 62
     7
 10
-597.1305939407566
 20
410.8756805221981
 30
0.0
  0
VERTEX
  5
4C9
  8
1
  6
CONTINUOUS
 62
     7
 10
-597.1184976135826
 20
410.8543275185145
 30
0.0
  0
VERTEX
  5
4CA
  8
1
  6
CONTINUOUS
 62
     7
 10
-597.1074635991951
 20
410.8324066968167
 30
0.0
  0
VERTEX
  5
4CB
  8
1
  6
CONTINUOUS
 62
     7
 10
-597.0975184795011
 20
410.8099708662841
 30
0.0
  0
VERTEX
  5
4CC
  8
1
  6
CONTINUOUS
 62
     7
 10
-597.0886862131653
 20
410.7870740767976
 30
0.0
  0
VERTEX
  5
4CD
  8
1
  6
CONTINUOUS
 62
     7
 10
-597.0809880778907
 20
410.7637714887288
 30
0.0
  0
VERTEX
  5
4CE
  8
1
  6
CONTINUOUS
 62
     7
 10
-597.0744426191595
 20
410.7401192400532
 30
0.0
  0
VERTEX
  5
4CF
  8
1
  6
CONTINUOUS
 62
     7
 10
-597.0690656055551
 20
410.7161743111096
 30
0.0
  0
VERTEX
  5
4D0
  8
1
  6
CONTINUOUS
 62
     7
 10
-597.0648699907744
 20
410.6919943873292
 30
0.0
  0
VERTEX
  5
4D1
  8
1
  6
CONTINUOUS
 62
     7
 10
-597.0618658824208
 20
410.6676377202663
 30
0.0
  0
VERTEX
  5
4D2
  8
1
  6
CONTINUOUS
 62
     7
 10
-597.0600605176542
 20
410.6431629872652
 30
0.0
  0
VERTEX
  5
4D3
  8
1
  6
CONTINUOUS
 62
     7
 10
-597.0594582457568
 20
410.6186291501015
 30
0.0
  0
VERTEX
  5
4D4
  8
1
  6
CONTINUOUS
 62
     7
 10
-597.0600605176542
 20
410.5940953129378
 30
0.0
  0
VERTEX
  5
4D5
  8
1
  6
CONTINUOUS
 62
     7
 10
-597.0618658824208
 20
410.5696205799367
 30
0.0
  0
VERTEX
  5
4D6
  8
1
  6
CONTINUOUS
 62
     7
 10
-597.0648699907744
 20
410.5452639128738
 30
0.0
  0
VERTEX
  5
4D7
  8
1
  6
CONTINUOUS
 62
     7
 10
-597.0690656055551
 20
410.5210839890935
 30
0.0
  0
VERTEX
  5
4D8
  8
1
  6
CONTINUOUS
 62
     7
 10
-597.0744426191595
 20
410.4971390601499
 30
0.0
  0
VERTEX
  5
4D9
  8
1
  6
CONTINUOUS
 62
     7
 10
-597.0809880778907
 20
410.4734868114743
 30
0.0
  0
VERTEX
  5
4DA
  8
1
  6
CONTINUOUS
 62
     7
 10
-597.0886862131653
 20
410.4501842234055
 30
0.0
  0
VERTEX
  5
4DB
  8
1
  6
CONTINUOUS
 62
     7
 10
-597.0975184795011
 20
410.427287433919
 30
0.0
  0
VERTEX
  5
4DC
  8
1
  6
CONTINUOUS
 62
     7
 10
-597.1074635991951
 20
410.4048516033864
 30
0.0
  0
VERTEX
  5
4DD
  8
1
  6
CONTINUOUS
 62
     7
 10
-597.1184976135826
 20
410.3829307816885
 30
0.0
  0
VERTEX
  5
4DE
  8
1
  6
CONTINUOUS
 62
     7
 10
-597.1305939407566
 20
410.3615777780049
 30
0.0
  0
VERTEX
  5
4DF
  8
1
  6
CONTINUOUS
 62
     7
 10
-597.1437234396055
 20
410.3408440335917
 30
0.0
  0
VERTEX
  5
4E0
  8
1
  6
CONTINUOUS
 62
     7
 10
-597.1578544800165
 20
410.3207794978553
 30
0.0
  0
VERTEX
  5
4E1
  8
1
  6
CONTINUOUS
 62
     7
 10
-597.1729530190753
 20
410.3014325080197
 30
0.0
  0
VERTEX
  5
4E2
  8
1
  6
CONTINUOUS
 62
     7
 10
-597.1889826830793
 20
410.282849672678
 30
0.0
  0
VERTEX
  5
4E3
  8
1
  6
CONTINUOUS
 62
     7
 10
-597.2059048551635
 20
410.2650757595082
 30
0.0
  0
SEQEND
  5
8D2
  8
1
  6
CONTINUOUS
 62
     7
  0
LINE
  5
170
  8
1
  6
CONTINUOUS
 62
     7
 10
-599.2211591815452
 20
412.9874368670765
 30
0.0
 11
-597.2059048551635
 21
410.9721825406949
 31
0.0
  0
POLYLINE
  5
171
  8
1
  6
CONTINUOUS
 62
     7
 66
     1
 10
0.0
 20
0.0
 30
0.0
  0
VERTEX
  5
4E4
  8
1
  6
CONTINUOUS
 62
     7
 10
-599.9282659627318
 20
412.9874368670765
 30
0.0
  0
VERTEX
  5
4E5
  8
1
  6
CONTINUOUS
 62
     7
 10
-599.9104920495619
 20
413.0043590391606
 30
0.0
  0
VERTEX
  5
4E6
  8
1
  6
CONTINUOUS
 62
     7
 10
-599.8919092142202
 20
413.0203887031646
 30
0.0
  0
VERTEX
  5
4E7
  8
1
  6
CONTINUOUS
 62
     7
 10
-599.8725622243846
 20
413.0354872422236
 30
0.0
  0
VERTEX
  5
4E8
  8
1
  6
CONTINUOUS
 62
     7
 10
-599.8524976886482
 20
413.0496182826345
 30
0.0
  0
VERTEX
  5
4E9
  8
1
  6
CONTINUOUS
 62
     7
 10
-599.8317639442349
 20
413.0627477814833
 30
0.0
  0
VERTEX
  5
4EA
  8
1
  6
CONTINUOUS
 62
     7
 10
-599.8104109405514
 20
413.0748441086574
 30
0.0
  0
VERTEX
  5
4EB
  8
1
  6
CONTINUOUS
 62
     7
 10
-599.7884901188536
 20
413.0858781230449
 30
0.0
  0
VERTEX
  5
4EC
  8
1
  6
CONTINUOUS
 62
     7
 10
-599.7660542883209
 20
413.0958232427388
 30
0.0
  0
VERTEX
  5
4ED
  8
1
  6
CONTINUOUS
 62
     7
 10
-599.7431574988345
 20
413.1046555090747
 30
0.0
  0
VERTEX
  5
4EE
  8
1
  6
CONTINUOUS
 62
     7
 10
-599.7198549107657
 20
413.1123536443493
 30
0.0
  0
VERTEX
  5
4EF
  8
1
  6
CONTINUOUS
 62
     7
 10
-599.69620266209
 20
413.1188991030805
 30
0.0
  0
VERTEX
  5
4F0
  8
1
  6
CONTINUOUS
 62
     7
 10
-599.6722577331465
 20
413.1242761166848
 30
0.0
  0
VERTEX
  5
4F1
  8
1
  6
CONTINUOUS
 62
     7
 10
-599.6480778093661
 20
413.1284717314656
 30
0.0
  0
VERTEX
  5
4F2
  8
1
  6
CONTINUOUS
 62
     7
 10
-599.6237211423032
 20
413.1314758398193
 30
0.0
  0
VERTEX
  5
4F3
  8
1
  6
CONTINUOUS
 62
     7
 10
-599.5992464093022
 20
413.1332812045858
 30
0.0
  0
VERTEX
  5
4F4
  8
1
  6
CONTINUOUS
 62
     7
 10
-599.5747125721384
 20
413.1338834764832
 30
0.0
  0
VERTEX
  5
4F5
  8
1
  6
CONTINUOUS
 62
     7
 10
-599.5501787349747
 20
413.1332812045858
 30
0.0
  0
VERTEX
  5
4F6
  8
1
  6
CONTINUOUS
 62
     7
 10
-599.5257040019736
 20
413.1314758398193
 30
0.0
  0
VERTEX
  5
4F7
  8
1
  6
CONTINUOUS
 62
     7
 10
-599.5013473349107
 20
413.1284717314656
 30
0.0
  0
VERTEX
  5
4F8
  8
1
  6
CONTINUOUS
 62
     7
 10
-599.4771674111303
 20
413.1242761166848
 30
0.0
  0
VERTEX
  5
4F9
  8
1
  6
CONTINUOUS
 62
     7
 10
-599.4532224821868
 20
413.1188991030805
 30
0.0
  0
VERTEX
  5
4FA
  8
1
  6
CONTINUOUS
 62
     7
 10
-599.4295702335112
 20
413.1123536443493
 30
0.0
  0
VERTEX
  5
4FB
  8
1
  6
CONTINUOUS
 62
     7
 10
-599.4062676454423
 20
413.1046555090747
 30
0.0
  0
VERTEX
  5
4FC
  8
1
  6
CONTINUOUS
 62
     7
 10
-599.3833708559558
 20
413.0958232427388
 30
0.0
  0
VERTEX
  5
4FD
  8
1
  6
CONTINUOUS
 62
     7
 10
-599.3609350254233
 20
413.0858781230449
 30
0.0
  0
VERTEX
  5
4FE
  8
1
  6
CONTINUOUS
 62
     7
 10
-599.3390142037254
 20
413.0748441086574
 30
0.0
  0
VERTEX
  5
4FF
  8
1
  6
CONTINUOUS
 62
     7
 10
-599.3176612000418
 20
413.0627477814833
 30
0.0
  0
VERTEX
  5
500
  8
1
  6
CONTINUOUS
 62
     7
 10
-599.2969274556285
 20
413.0496182826345
 30
0.0
  0
VERTEX
  5
501
  8
1
  6
CONTINUOUS
 62
     7
 10
-599.2768629198922
 20
413.0354872422235
 30
0.0
  0
VERTEX
  5
502
  8
1
  6
CONTINUOUS
 62
     7
 10
-599.2575159300566
 20
413.0203887031646
 30
0.0
  0
VERTEX
  5
503
  8
1
  6
CONTINUOUS
 62
     7
 10
-599.2389330947149
 20
413.0043590391606
 30
0.0
  0
VERTEX
  5
504
  8
1
  6
CONTINUOUS
 62
     7
 10
-599.2211591815452
 20
412.9874368670764
 30
0.0
  0
SEQEND
  5
8D3
  8
1
  6
CONTINUOUS
 62
     7
  0
LINE
  5
172
  8
1
  6
CONTINUOUS
 62
     7
 10
-600.1050426580283
 20
412.8106601717798
 30
0.0
 11
-599.9282659627318
 21
412.9874368670764
 31
0.0
  0
LINE
  5
173
  8
1
  6
CONTINUOUS
 62
     7
 10
-603.4637998686645
 20
409.4519029611437
 30
0.0
 11
-603.2870231733677
 21
409.6286796564404
 31
0.0
  0
ARC
  5
174
  8
1
  6
CONTINUOUS
 62
     7
 10
-580.5682886176756
 20
393.5560009466897
 30
0.0
 40
32.41478732028811
 50
136.612161894682
 51
162.5442198907606
  0
ARC
  5
175
  8
1
  6
CONTINUOUS
 62
     7
 10
-610.7828462535109
 20
393.0284478100087
 30
0.0
 40
33.43089055907516
 50
17.85642027221439
 51
42.98719794234408
  0
POLYLINE
  5
176
  8
1
  6
CONTINUOUS
 62
     7
 66
     1
 10
0.0
 20
0.0
 30
0.0
  0
VERTEX
  5
505
  8
1
  6
CONTINUOUS
 62
     7
 10
-579.8722200664013
 20
358.0333398398014
 30
0.0
  0
VERTEX
  5
506
  8
1
  6
CONTINUOUS
 62
     7
 10
-579.8257611072255
 20
358.0322513912204
 30
0.0
  0
VERTEX
  5
507
  8
1
  6
CONTINUOUS
 62
     7
 10
-579.7792742616949
 20
358.0289965607151
 30
0.0
  0
VERTEX
  5
508
  8
1
  6
CONTINUOUS
 62
     7
 10
-579.7329180081908
 20
358.0235911211427
 30
0.0
  0
VERTEX
  5
509
  8
1
  6
CONTINUOUS
 62
     7
 10
-579.6868508250947
 20
358.0160508453603
 30
0.0
  0
VERTEX
  5
50A
  8
1
  6
CONTINUOUS
 62
     7
 10
-579.6412311907877
 20
358.0063915062249
 30
0.0
  0
VERTEX
  5
50B
  8
1
  6
CONTINUOUS
 62
     7
 10
-579.5962175836515
 20
357.9946288765935
 30
0.0
  0
VERTEX
  5
50C
  8
1
  6
CONTINUOUS
 62
     7
 10
-579.5519684820674
 20
357.9807787293234
 30
0.0
  0
VERTEX
  5
50D
  8
1
  6
CONTINUOUS
 62
     7
 10
-579.5084383705514
 20
357.9647935709688
 30
0.0
  0
VERTEX
  5
50E
  8
1
  6
CONTINUOUS
 62
     7
 10
-579.465637409846
 20
357.94668845633
 30
0.0
  0
VERTEX
  5
50F
  8
1
  6
CONTINUOUS
 62
     7
 10
-579.4237115070439
 20
357.9265403293248
 30
0.0
  0
VERTEX
  5
510
  8
1
  6
CONTINUOUS
 62
     7
 10
-579.382806569238
 20
357.904426133871
 30
0.0
  0
VERTEX
  5
511
  8
1
  6
CONTINUOUS
 62
     7
 10
-579.3430685035214
 20
357.8804228138862
 30
0.0
  0
VERTEX
  5
512
  8
1
  6
CONTINUOUS
 62
     7
 10
-579.304643216987
 20
357.8546073132884
 30
0.0
  0
VERTEX
  5
513
  8
1
  6
CONTINUOUS
 62
     7
 10
-579.2676766167274
 20
357.8270565759951
 30
0.0
  0
VERTEX
  5
514
  8
1
  6
CONTINUOUS
 62
     7
 10
-579.2326355945697
 20
357.7981548091542
 30
0.0
  0
VERTEX
  5
515
  8
1
  6
CONTINUOUS
 62
     7
 10
-579.1989748953572
 20
357.7675450022055
 30
0.0
  0
VERTEX
  5
516
  8
1
  6
CONTINUOUS
 62
     7
 10
-579.1667925870064
 20
357.7353458977257
 30
0.0
  0
VERTEX
  5
517
  8
1
  6
CONTINUOUS
 62
     7
 10
-579.136186737434
 20
357.7016762382915
 30
0.0
  0
VERTEX
  5
518
  8
1
  6
CONTINUOUS
 62
     7
 10
-579.1072554145564
 20
357.6666547664797
 30
0.0
  0
VERTEX
  5
519
  8
1
  6
CONTINUOUS
 62
     7
 10
-579.0800966862905
 20
357.6304002248672
 30
0.0
  0
VERTEX
  5
51A
  8
1
  6
CONTINUOUS
 62
     7
 10
-579.0548086205526
 20
357.5930313560306
 30
0.0
  0
VERTEX
  5
51B
  8
1
  6
CONTINUOUS
 62
     7
 10
-579.0311839494069
 20
357.554179100216
 30
0.0
  0
VERTEX
  5
51C
  8
1
  6
CONTINUOUS
 62
     7
 10
-579.0094181053101
 20
357.5141699630076
 30
0.0
  0
VERTEX
  5
51D
  8
1
  6
CONTINUOUS
 62
     7
 10
-578.989556872374
 20
357.4731435787766
 30
0.0
  0
VERTEX
  5
51E
  8
1
  6
CONTINUOUS
 62
     7
 10
-578.9716460347103
 20
357.4312395818943
 30
0.0
  0
VERTEX
  5
51F
  8
1
  6
CONTINUOUS
 62
     7
 10
-578.9557313764307
 20
357.3885976067318
 30
0.0
  0
VERTEX
  5
520
  8
1
  6
CONTINUOUS
 62
     7
 10
-578.9418586816467
 20
357.3453572876603
 30
0.0
  0
VERTEX
  5
521
  8
1
  6
CONTINUOUS
 62
     7
 10
-578.9300737344703
 20
357.3016582590512
 30
0.0
  0
VERTEX
  5
522
  8
1
  6
CONTINUOUS
 62
     7
 10
-578.9200736700493
 20
357.2559456361146
 30
0.0
  0
VERTEX
  5
523
  8
1
  6
CONTINUOUS
 62
     7
 10
-578.9122650298274
 20
357.2097053798627
 30
0.0
  0
VERTEX
  5
524
  8
1
  6
CONTINUOUS
 62
     7
 10
-578.9066449852494
 20
357.1630859835378
 30
0.0
  0
VERTEX
  5
525
  8
1
  6
CONTINUOUS
 62
     7
 10
-578.9032107077602
 20
357.116235940382
 30
0.0
  0
VERTEX
  5
526
  8
1
  6
CONTINUOUS
 62
     7
 10
-578.9019593688047
 20
357.0693037436375
 30
0.0
  0
VERTEX
  5
527
  8
1
  6
CONTINUOUS
 62
     7
 10
-578.9028881398277
 20
357.0224378865465
 30
0.0
  0
VERTEX
  5
528
  8
1
  6
CONTINUOUS
 62
     7
 10
-578.9059941922742
 20
356.9757868623511
 30
0.0
  0
VERTEX
  5
529
  8
1
  6
CONTINUOUS
 62
     7
 10
-578.9120399387307
 20
356.9238365169263
 30
0.0
  0
VERTEX
  5
52A
  8
1
  6
CONTINUOUS
 62
     7
 10
-578.9207566044993
 20
356.8721513941078
 30
0.0
  0
VERTEX
  5
52B
  8
1
  6
CONTINUOUS
 62
     7
 10
-578.9320901440586
 20
356.8209174295404
 30
0.0
  0
VERTEX
  5
52C
  8
1
  6
CONTINUOUS
 62
     7
 10
-578.945986511888
 20
356.7703205588692
 30
0.0
  0
VERTEX
  5
52D
  8
1
  6
CONTINUOUS
 62
     7
 10
-578.9623916624665
 20
356.7205467177395
 30
0.0
  0
SEQEND
  5
8D4
  8
1
  6
CONTINUOUS
 62
     7
  0
POLYLINE
  5
177
  8
1
  6
CONTINUOUS
 62
     7
 66
     1
 10
0.0
 20
0.0
 30
0.0
  0
VERTEX
  5
52E
  8
1
  6
CONTINUOUS
 62
     7
 10
-586.3279469592554
 20
344.1772032394143
 30
0.0
  0
VERTEX
  5
52F
  8
1
  6
CONTINUOUS
 62
     7
 10
-586.3633389463528
 20
344.1437185485884
 30
0.0
  0
VERTEX
  5
530
  8
1
  6
CONTINUOUS
 62
     7
 10
-586.4003993990067
 20
344.1119149628004
 30
0.0
  0
VERTEX
  5
531
  8
1
  6
CONTINUOUS
 62
     7
 10
-586.4389902391408
 20
344.0818952670991
 30
0.0
  0
VERTEX
  5
532
  8
1
  6
CONTINUOUS
 62
     7
 10
-586.4789733886789
 20
344.0537622465337
 30
0.0
  0
VERTEX
  5
533
  8
1
  6
CONTINUOUS
 62
     7
 10
-586.5219764101817
 20
344.0265468327268
 30
0.0
  0
VERTEX
  5
534
  8
1
  6
CONTINUOUS
 62
     7
 10
-586.5663712535867
 20
344.0014278478589
 30
0.0
  0
VERTEX
  5
535
  8
1
  6
CONTINUOUS
 62
     7
 10
-586.611987504916
 20
343.9784879099709
 30
0.0
  0
VERTEX
  5
536
  8
1
  6
CONTINUOUS
 62
     7
 10
-586.6586547501918
 20
343.9578096371037
 30
0.0
  0
VERTEX
  5
537
  8
1
  6
CONTINUOUS
 62
     7
 10
-586.6981394170928
 20
343.9423864445911
 30
0.0
  0
VERTEX
  5
538
  8
1
  6
CONTINUOUS
 62
     7
 10
-586.7382715057847
 20
343.9285431629125
 30
0.0
  0
VERTEX
  5
539
  8
1
  6
CONTINUOUS
 62
     7
 10
-586.7789488257628
 20
343.9163096330211
 30
0.0
  0
VERTEX
  5
53A
  8
1
  6
CONTINUOUS
 62
     7
 10
-586.8200691865226
 20
343.90571569587
 30
0.0
  0
VERTEX
  5
53B
  8
1
  6
CONTINUOUS
 62
     7
 10
-586.8627649916451
 20
343.8965462667919
 30
0.0
  0
VERTEX
  5
53C
  8
1
  6
CONTINUOUS
 62
     7
 10
-586.9058540214269
 20
343.8891220341663
 30
0.0
  0
VERTEX
  5
53D
  8
1
  6
CONTINUOUS
 62
     7
 10
-586.9492228114547
 20
343.8834584798761
 30
0.0
  0
VERTEX
  5
53E
  8
1
  6
CONTINUOUS
 62
     7
 10
-586.9927578973154
 20
343.8795710858038
 30
0.0
  0
VERTEX
  5
53F
  8
1
  6
CONTINUOUS
 62
     7
 10
-587.0294882759823
 20
343.8776795125116
 30
0.0
  0
VERTEX
  5
540
  8
1
  6
CONTINUOUS
 62
     7
 10
-587.066309461866
 20
343.8770477365625
 30
0.0
  0
SEQEND
  5
8D5
  8
1
  6
CONTINUOUS
 62
     7
  0
LINE
  5
178
  8
1
  6
CONTINUOUS
 62
     7
 10
-589.8130751118542
 20
343.8770477365625
 30
0.0
 11
-587.0663094618661
 21
343.8770477365625
 31
0.0
  0
POLYLINE
  5
179
  8
1
  6
CONTINUOUS
 62
     7
 66
     1
 10
0.0
 20
0.0
 30
0.0
  0
VERTEX
  5
541
  8
1
  6
CONTINUOUS
 62
     7
 10
-589.8130751118542
 20
343.8770477365625
 30
0.0
  0
VERTEX
  5
542
  8
1
  6
CONTINUOUS
 62
     7
 10
-589.8571987216571
 20
343.8779405967986
 30
0.0
  0
VERTEX
  5
543
  8
1
  6
CONTINUOUS
 62
     7
 10
-589.9012846112662
 20
343.880613733233
 30
0.0
  0
VERTEX
  5
544
  8
1
  6
CONTINUOUS
 62
     7
 10
-589.9452200710165
 20
343.8850589794543
 30
0.0
  0
VERTEX
  5
545
  8
1
  6
CONTINUOUS
 62
     7
 10
-589.9888923912432
 20
343.8912681690514
 30
0.0
  0
VERTEX
  5
546
  8
1
  6
CONTINUOUS
 62
     7
 10
-590.0335074351284
 20
343.8994986646447
 30
0.0
  0
VERTEX
  5
547
  8
1
  6
CONTINUOUS
 62
     7
 10
-590.077762905651
 20
343.9095878609745
 30
0.0
  0
VERTEX
  5
548
  8
1
  6
CONTINUOUS
 62
     7
 10
-590.1215374388169
 20
343.9215092517741
 30
0.0
  0
VERTEX
  5
549
  8
1
  6
CONTINUOUS
 62
     7
 10
-590.1647096706322
 20
343.9352363307772
 30
0.0
  0
VERTEX
  5
54A
  8
1
  6
CONTINUOUS
 62
     7
 10
-590.2078311053125
 20
343.9509981639541
 30
0.0
  0
VERTEX
  5
54B
  8
1
  6
CONTINUOUS
 62
     7
 10
-590.2502476319605
 20
343.9685988660281
 30
0.0
  0
VERTEX
  5
54C
  8
1
  6
CONTINUOUS
 62
     7
 10
-590.2918358463861
 20
343.9879911485088
 30
0.0
  0
VERTEX
  5
54D
  8
1
  6
CONTINUOUS
 62
     7
 10
-590.3324723443986
 20
344.0091277229055
 30
0.0
  0
VERTEX
  5
54E
  8
1
  6
CONTINUOUS
 62
     7
 10
-590.3733945164106
 20
344.032780399325
 30
0.0
  0
VERTEX
  5
54F
  8
1
  6
CONTINUOUS
 62
     7
 10
-590.413208272711
 20
344.0582616515907
 30
0.0
  0
VERTEX
  5
550
  8
1
  6
CONTINUOUS
 62
     7
 10
-590.4517843485854
 20
344.0854957856137
 30
0.0
  0
VERTEX
  5
551
  8
1
  6
CONTINUOUS
 62
     7
 10
-590.4889934793194
 20
344.1144071073052
 30
0.0
  0
SEQEND
  5
8D6
  8
1
  6
CONTINUOUS
 62
     7
  0
ARC
  5
17A
  8
1
  6
CONTINUOUS
 62
     7
 10
-595.226363001588
 20
338.3
 30
0.0
 40
7.5
 50
50.828092253239
 51
129.171907746761
  0
POLYLINE
  5
17B
  8
1
  6
CONTINUOUS
 62
     7
 66
     1
 10
0.0
 20
0.0
 30
0.0
  0
VERTEX
  5
552
  8
1
  6
CONTINUOUS
 62
     7
 10
-599.9637325238565
 20
344.1144071073052
 30
0.0
  0
VERTEX
  5
553
  8
1
  6
CONTINUOUS
 62
     7
 10
-599.9979280393394
 20
344.0877356118348
 30
0.0
  0
VERTEX
  5
554
  8
1
  6
CONTINUOUS
 62
     7
 10
-600.0332844770253
 20
344.0624830550736
 30
0.0
  0
VERTEX
  5
555
  8
1
  6
CONTINUOUS
 62
     7
 10
-600.0697013337531
 20
344.0387092105663
 30
0.0
  0
VERTEX
  5
556
  8
1
  6
CONTINUOUS
 62
     7
 10
-600.1070781063612
 20
344.0164738518568
 30
0.0
  0
VERTEX
  5
557
  8
1
  6
CONTINUOUS
 62
     7
 10
-600.1465360924757
 20
343.9952033197782
 30
0.0
  0
VERTEX
  5
558
  8
1
  6
CONTINUOUS
 62
     7
 10
-600.1869327981333
 20
343.9755928407636
 30
0.0
  0
VERTEX
  5
559
  8
1
  6
CONTINUOUS
 62
     7
 10
-600.2281528495164
 20
343.9576885561161
 30
0.0
  0
VERTEX
  5
55A
  8
1
  6
CONTINUOUS
 62
     7
 10
-600.2700808728075
 20
343.9415366071387
 30
0.0
  0
VERTEX
  5
55B
  8
1
  6
CONTINUOUS
 62
     7
 10
-600.3139426231073
 20
343.9267553319277
 30
0.0
  0
VERTEX
  5
55C
  8
1
  6
CONTINUOUS
 62
     7
 10
-600.3584678182161
 20
343.9138507169856
 30
0.0
  0
VERTEX
  5
55D
  8
1
  6
CONTINUOUS
 62
     7
 10
-600.4035271355983
 20
343.9028528822451
 30
0.0
  0
VERTEX
  5
55E
  8
1
  6
CONTINUOUS
 62
     7
 10
-600.4489912527182
 20
343.8937919476395
 30
0.0
  0
VERTEX
  5
55F
  8
1
  6
CONTINUOUS
 62
     7
 10
-600.4962957993416
 20
343.8864833014418
 30
0.0
  0
VERTEX
  5
560
  8
1
  6
CONTINUOUS
 62
     7
 10
-600.5439365958167
 20
343.8812488525749
 30
0.0
  0
VERTEX
  5
561
  8
1
  6
CONTINUOUS
 62
     7
 10
-600.5917696303935
 20
343.878099898471
 30
0.0
  0
VERTEX
  5
562
  8
1
  6
CONTINUOUS
 62
     7
 10
-600.6396508913217
 20
343.8770477365625
 30
0.0
  0
SEQEND
  5
8D7
  8
1
  6
CONTINUOUS
 62
     7
  0
LINE
  5
17C
  8
1
  6
CONTINUOUS
 62
     7
 10
-603.3864165413099
 20
343.8770477365625
 30
0.0
 11
-600.6396508913218
 21
343.8770477365625
 31
0.0
  0
POLYLINE
  5
17D
  8
1
  6
CONTINUOUS
 62
     7
 66
     1
 10
0.0
 20
0.0
 30
0.0
  0
VERTEX
  5
563
  8
1
  6
CONTINUOUS
 62
     7
 10
-603.3864165413099
 20
343.8770477365625
 30
0.0
  0
VERTEX
  5
564
  8
1
  6
CONTINUOUS
 62
     7
 10
-603.4355329184283
 20
343.8781774881592
 30
0.0
  0
VERTEX
  5
565
  8
1
  6
CONTINUOUS
 62
     7
 10
-603.4845951216128
 20
343.8815578428319
 30
0.0
  0
VERTEX
  5
566
  8
1
  6
CONTINUOUS
 62
     7
 10
-603.5334414788332
 20
343.8871754504047
 30
0.0
  0
VERTEX
  5
567
  8
1
  6
CONTINUOUS
 62
     7
 10
-603.5819103180593
 20
343.8950169607015
 30
0.0
  0
VERTEX
  5
568
  8
1
  6
CONTINUOUS
 62
     7
 10
-603.6317487103557
 20
343.9055079513948
 30
0.0
  0
VERTEX
  5
569
  8
1
  6
CONTINUOUS
 62
     7
 10
-603.6810618820961
 20
343.9183783950319
 30
0.0
  0
VERTEX
  5
56A
  8
1
  6
CONTINUOUS
 62
     7
 10
-603.7296727160053
 20
343.9335823568379
 30
0.0
  0
VERTEX
  5
56B
  8
1
  6
CONTINUOUS
 62
     7
 10
-603.7774040948087
 20
343.9510739020378
 30
0.0
  0
VERTEX
  5
56C
  8
1
  6
CONTINUOUS
 62
     7
 10
-603.8172859652565
 20
343.9677560535609
 30
0.0
  0
VERTEX
  5
56D
  8
1
  6
CONTINUOUS
 62
     7
 10
-603.8564511160515
 20
343.9860718222693
 30
0.0
  0
VERTEX
  5
56E
  8
1
  6
CONTINUOUS
 62
     7
 10
-603.8947949880423
 20
344.0059744323406
 30
0.0
  0
VERTEX
  5
56F
  8
1
  6
CONTINUOUS
 62
     7
 10
-603.9322130220768
 20
344.0274171079523
 30
0.0
  0
VERTEX
  5
570
  8
1
  6
CONTINUOUS
 62
     7
 10
-603.9697444464067
 20
344.0511020489111
 30
0.0
  0
VERTEX
  5
571
  8
1
  6
CONTINUOUS
 62
     7
 10
-604.006216883196
 20
344.0763868735837
 30
0.0
  0
VERTEX
  5
572
  8
1
  6
CONTINUOUS
 62
     7
 10
-604.0415239444521
 20
344.1032013196733
 30
0.0
  0
VERTEX
  5
573
  8
1
  6
CONTINUOUS
 62
     7
 10
-604.0755592421824
 20
344.1314751248832
 30
0.0
  0
VERTEX
  5
574
  8
1
  6
CONTINUOUS
 62
     7
 10
-604.1005481490351
 20
344.1539232837418
 30
0.0
  0
VERTEX
  5
575
  8
1
  6
CONTINUOUS
 62
     7
 10
-604.124779043921
 20
344.1772032394146
 30
0.0
  0
SEQEND
  5
8D8
  8
1
  6
CONTINUOUS
 62
     7
  0
POLYLINE
  5
17E
  8
1
  6
CONTINUOUS
 62
     7
 66
     1
 10
0.0
 20
0.0
 30
0.0
  0
VERTEX
  5
576
  8
1
  6
CONTINUOUS
 62
     7
 10
-611.4903343407094
 20
356.7205467177395
 30
0.0
  0
VERTEX
  5
577
  8
1
  6
CONTINUOUS
 62
     7
 10
-611.5060541214053
 20
356.7681003053843
 30
0.0
  0
VERTEX
  5
578
  8
1
  6
CONTINUOUS
 62
     7
 10
-611.5194834576923
 20
356.8164670608834
 30
0.0
  0
VERTEX
  5
579
  8
1
  6
CONTINUOUS
 62
     7
 10
-611.5305809540275
 20
356.8654812007319
 30
0.0
  0
VERTEX
  5
57A
  8
1
  6
CONTINUOUS
 62
     7
 10
-611.539305214868
 20
356.9149769414249
 30
0.0
  0
VERTEX
  5
57B
  8
1
  6
CONTINUOUS
 62
     7
 10
-611.5456148446708
 20
356.9647884994573
 30
0.0
  0
VERTEX
  5
57C
  8
1
  6
CONTINUOUS
 62
     7
 10
-611.549468447893
 20
357.0147500913245
 30
0.0
  0
VERTEX
  5
57D
  8
1
  6
CONTINUOUS
 62
     7
 10
-611.5508246289917
 20
357.0646959335213
 30
0.0
  0
VERTEX
  5
57E
  8
1
  6
CONTINUOUS
 62
     7
 10
-611.5496420290411
 20
357.1147228953498
 30
0.0
  0
VERTEX
  5
57F
  8
1
  6
CONTINUOUS
 62
     7
 10
-611.5459167040262
 20
357.1647893556691
 30
0.0
  0
VERTEX
  5
580
  8
1
  6
CONTINUOUS
 62
     7
 10
-611.5396637314227
 20
357.2147085279126
 30
0.0
  0
VERTEX
  5
581
  8
1
  6
CONTINUOUS
 62
     7
 10
-611.5308981887066
 20
357.264293625514
 30
0.0
  0
VERTEX
  5
582
  8
1
  6
CONTINUOUS
 62
     7
 10
-611.5196351533539
 20
357.3133578619069
 30
0.0
  0
VERTEX
  5
583
  8
1
  6
CONTINUOUS
 62
     7
 10
-611.5058897028402
 20
357.3617144505248
 30
0.0
  0
VERTEX
  5
584
  8
1
  6
CONTINUOUS
 62
     7
 10
-611.4896769146418
 20
357.4091766048014
 30
0.0
  0
VERTEX
  5
585
  8
1
  6
CONTINUOUS
 62
     7
 10
-611.4716146686942
 20
357.4542075577158
 30
0.0
  0
VERTEX
  5
586
  8
1
  6
CONTINUOUS
 62
     7
 10
-611.4511938578721
 20
357.498438594307
 30
0.0
  0
VERTEX
  5
587
  8
1
  6
CONTINUOUS
 62
     7
 10
-611.4284969140982
 20
357.541702879697
 30
0.0
  0
VERTEX
  5
588
  8
1
  6
CONTINUOUS
 62
     7
 10
-611.4036062692954
 20
357.5838335790079
 30
0.0
  0
VERTEX
  5
589
  8
1
  6
CONTINUOUS
 62
     7
 10
-611.3766043553866
 20
357.6246638573618
 30
0.0
  0
VERTEX
  5
58A
  8
1
  6
CONTINUOUS
 62
     7
 10
-611.3475736042943
 20
357.664026879881
 30
0.0
  0
VERTEX
  5
58B
  8
1
  6
CONTINUOUS
 62
     7
 10
-611.3165964479416
 20
357.7017558116876
 30
0.0
  0
VERTEX
  5
58C
  8
1
  6
CONTINUOUS
 62
     7
 10
-611.2851794494334
 20
357.7362332161609
 30
0.0
  0
VERTEX
  5
58D
  8
1
  6
CONTINUOUS
 62
     7
 10
-611.2519452646169
 20
357.7692451662932
 30
0.0
  0
VERTEX
  5
58E
  8
1
  6
CONTINUOUS
 62
     7
 10
-611.2170244602185
 20
357.800680134391
 30
0.0
  0
VERTEX
  5
58F
  8
1
  6
CONTINUOUS
 62
     7
 10
-611.1805476029642
 20
357.8304265927611
 30
0.0
  0
VERTEX
  5
590
  8
1
  6
CONTINUOUS
 62
     7
 10
-611.1426452595807
 20
357.8583730137104
 30
0.0
  0
VERTEX
  5
591
  8
1
  6
CONTINUOUS
 62
     7
 10
-611.1034479967942
 20
357.8844078695455
 30
0.0
  0
VERTEX
  5
592
  8
1
  6
CONTINUOUS
 62
     7
 10
-611.0630863813311
 20
357.9084196325732
 30
0.0
  0
VERTEX
  5
593
  8
1
  6
CONTINUOUS
 62
     7
 10
-611.0226860910618
 20
357.9298265275964
 30
0.0
  0
VERTEX
  5
594
  8
1
  6
CONTINUOUS
 62
     7
 10
-610.9811492623122
 20
357.9493449290181
 30
0.0
  0
VERTEX
  5
595
  8
1
  6
CONTINUOUS
 62
     7
 10
-610.9386265202367
 20
357.9669266947367
 30
0.0
  0
VERTEX
  5
596
  8
1
  6
CONTINUOUS
 62
     7
 10
-610.8952684899886
 20
357.982523682651
 30
0.0
  0
VERTEX
  5
597
  8
1
  6
CONTINUOUS
 62
     7
 10
-610.8512257967218
 20
357.9960877506596
 30
0.0
  0
VERTEX
  5
598
  8
1
  6
CONTINUOUS
 62
     7
 10
-610.80664906559
 20
358.0075707566611
 30
0.0
  0
VERTEX
  5
599
  8
1
  6
CONTINUOUS
 62
     7
 10
-610.7616889217471
 20
358.0169245585543
 30
0.0
  0
VERTEX
  5
59A
  8
1
  6
CONTINUOUS
 62
     7
 10
-610.7167602295075
 20
358.0241024862893
 30
0.0
  0
VERTEX
  5
59B
  8
1
  6
CONTINUOUS
 62
     7
 10
-610.671488573827
 20
358.0292326792136
 30
0.0
  0
VERTEX
  5
59C
  8
1
  6
CONTINUOUS
 62
     7
 10
-610.6260213458635
 20
358.03231263212
 30
0.0
  0
VERTEX
  5
59D
  8
1
  6
CONTINUOUS
 62
     7
 10
-610.5805059367747
 20
358.0333398398014
 30
0.0
  0
SEQEND
  5
8D9
  8
1
  6
CONTINUOUS
 62
     7
  0
LINE
  5
17F
  8
1
  6
CONTINUOUS
 62
     7
 10
-610.5805059367747
 20
358.0333398398014
 30
0.0
 11
-579.8722200664013
 21
358.0333398398014
 31
0.0
  0
LINE
  5
180
  8
1
  6
CONTINUOUS
 62
     7
 10
-587.1657028298082
 20
350.3713203435596
 30
0.0
 11
-586.9889261345114
 21
350.5480970388563
 31
0.0
  0
POLYLINE
  5
181
  8
1
  6
CONTINUOUS
 62
     7
 66
     1
 10
0.0
 20
0.0
 30
0.0
  0
VERTEX
  5
59E
  8
1
  6
CONTINUOUS
 62
     7
 10
-586.9889261345114
 20
350.5480970388563
 30
0.0
  0
VERTEX
  5
59F
  8
1
  6
CONTINUOUS
 62
     7
 10
-586.9720039624273
 20
350.565870952026
 30
0.0
  0
VERTEX
  5
5A0
  8
1
  6
CONTINUOUS
 62
     7
 10
-586.9559742984234
 20
350.5844537873677
 30
0.0
  0
VERTEX
  5
5A1
  8
1
  6
CONTINUOUS
 62
     7
 10
-586.9408757593645
 20
350.6038007772033
 30
0.0
  0
VERTEX
  5
5A2
  8
1
  6
CONTINUOUS
 62
     7
 10
-586.9267447189534
 20
350.6238653129398
 30
0.0
  0
VERTEX
  5
5A3
  8
1
  6
CONTINUOUS
 62
     7
 10
-586.9136152201046
 20
350.6445990573529
 30
0.0
  0
VERTEX
  5
5A4
  8
1
  6
CONTINUOUS
 62
     7
 10
-586.9015188929307
 20
350.6659520610365
 30
0.0
  0
VERTEX
  5
5A5
  8
1
  6
CONTINUOUS
 62
     7
 10
-586.890484878543
 20
350.6878728827344
 30
0.0
  0
VERTEX
  5
5A6
  8
1
  6
CONTINUOUS
 62
     7
 10
-586.8805397588491
 20
350.710308713267
 30
0.0
  0
VERTEX
  5
5A7
  8
1
  6
CONTINUOUS
 62
     7
 10
-586.8717074925132
 20
350.7332055027534
 30
0.0
  0
VERTEX
  5
5A8
  8
1
  6
CONTINUOUS
 62
     7
 10
-586.8640093572387
 20
350.7565080908223
 30
0.0
  0
VERTEX
  5
5A9
  8
1
  6
CONTINUOUS
 62
     7
 10
-586.8574638985075
 20
350.7801603394979
 30
0.0
  0
VERTEX
  5
5AA
  8
1
  6
CONTINUOUS
 62
     7
 10
-586.8520868849032
 20
350.8041052684414
 30
0.0
  0
VERTEX
  5
5AB
  8
1
  6
CONTINUOUS
 62
     7
 10
-586.8478912701223
 20
350.8282851922219
 30
0.0
  0
VERTEX
  5
5AC
  8
1
  6
CONTINUOUS
 62
     7
 10
-586.8448871617686
 20
350.8526418592847
 30
0.0
  0
VERTEX
  5
5AD
  8
1
  6
CONTINUOUS
 62
     7
 10
-586.8430817970021
 20
350.8771165922858
 30
0.0
  0
VERTEX
  5
5AE
  8
1
  6
CONTINUOUS
 62
     7
 10
-586.8424795251049
 20
350.9016504294495
 30
0.0
  0
VERTEX
  5
5AF
  8
1
  6
CONTINUOUS
 62
     7
 10
-586.8430817970021
 20
350.9261842666132
 30
0.0
  0
VERTEX
  5
5B0
  8
1
  6
CONTINUOUS
 62
     7
 10
-586.8448871617686
 20
350.9506589996143
 30
0.0
  0
VERTEX
  5
5B1
  8
1
  6
CONTINUOUS
 62
     7
 10
-586.8478912701223
 20
350.9750156666772
 30
0.0
  0
VERTEX
  5
5B2
  8
1
  6
CONTINUOUS
 62
     7
 10
-586.8520868849032
 20
350.9991955904576
 30
0.0
  0
VERTEX
  5
5B3
  8
1
  6
CONTINUOUS
 62
     7
 10
-586.8574638985075
 20
351.0231405194012
 30
0.0
  0
VERTEX
  5
5B4
  8
1
  6
CONTINUOUS
 62
     7
 10
-586.8640093572387
 20
351.0467927680768
 30
0.0
  0
VERTEX
  5
5B5
  8
1
  6
CONTINUOUS
 62
     7
 10
-586.8717074925132
 20
351.0700953561457
 30
0.0
  0
VERTEX
  5
5B6
  8
1
  6
CONTINUOUS
 62
     7
 10
-586.8805397588491
 20
351.0929921456321
 30
0.0
  0
VERTEX
  5
5B7
  8
1
  6
CONTINUOUS
 62
     7
 10
-586.890484878543
 20
351.1154279761647
 30
0.0
  0
VERTEX
  5
5B8
  8
1
  6
CONTINUOUS
 62
     7
 10
-586.9015188929307
 20
351.1373487978625
 30
0.0
  0
VERTEX
  5
5B9
  8
1
  6
CONTINUOUS
 62
     7
 10
-586.9136152201046
 20
351.1587018015461
 30
0.0
  0
VERTEX
  5
5BA
  8
1
  6
CONTINUOUS
 62
     7
 10
-586.9267447189534
 20
351.1794355459593
 30
0.0
  0
VERTEX
  5
5BB
  8
1
  6
CONTINUOUS
 62
     7
 10
-586.9408757593645
 20
351.1995000816958
 30
0.0
  0
VERTEX
  5
5BC
  8
1
  6
CONTINUOUS
 62
     7
 10
-586.9559742984234
 20
351.2188470715313
 30
0.0
  0
VERTEX
  5
5BD
  8
1
  6
CONTINUOUS
 62
     7
 10
-586.9720039624273
 20
351.237429906873
 30
0.0
  0
VERTEX
  5
5BE
  8
1
  6
CONTINUOUS
 62
     7
 10
-586.9889261345114
 20
351.2552038200428
 30
0.0
  0
SEQEND
  5
8DA
  8
1
  6
CONTINUOUS
 62
     7
  0
LINE
  5
182
  8
1
  6
CONTINUOUS
 62
     7
 10
-586.9889261345114
 20
351.2552038200428
 30
0.0
 11
-589.004180460893
 21
353.2704581464245
 31
0.0
  0
POLYLINE
  5
183
  8
1
  6
CONTINUOUS
 62
     7
 66
     1
 10
0.0
 20
0.0
 30
0.0
  0
VERTEX
  5
5BF
  8
1
  6
CONTINUOUS
 62
     7
 10
-589.0041804608932
 20
353.2704581464245
 30
0.0
  0
VERTEX
  5
5C0
  8
1
  6
CONTINUOUS
 62
     7
 10
-589.021954374063
 20
353.2873803185087
 30
0.0
  0
VERTEX
  5
5C1
  8
1
  6
CONTINUOUS
 62
     7
 10
-589.0405372094046
 20
353.3034099825126
 30
0.0
  0
VERTEX
  5
5C2
  8
1
  6
CONTINUOUS
 62
     7
 10
-589.0598841992403
 20
353.3185085215715
 30
0.0
  0
VERTEX
  5
5C3
  8
1
  6
CONTINUOUS
 62
     7
 10
-589.0799487349766
 20
353.3326395619824
 30
0.0
  0
VERTEX
  5
5C4
  8
1
  6
CONTINUOUS
 62
     7
 10
-589.1006824793899
 20
353.3457690608313
 30
0.0
  0
VERTEX
  5
5C5
  8
1
  6
CONTINUOUS
 62
     7
 10
-589.1220354830734
 20
353.3578653880054
 30
0.0
  0
VERTEX
  5
5C6
  8
1
  6
CONTINUOUS
 62
     7
 10
-589.1439563047713
 20
353.3688994023929
 30
0.0
  0
VERTEX
  5
5C7
  8
1
  6
CONTINUOUS
 62
     7
 10
-589.1663921353038
 20
353.3788445220868
 30
0.0
  0
VERTEX
  5
5C8
  8
1
  6
CONTINUOUS
 62
     7
 10
-589.1892889247903
 20
353.3876767884227
 30
0.0
  0
VERTEX
  5
5C9
  8
1
  6
CONTINUOUS
 62
     7
 10
-589.2125915128591
 20
353.3953749236973
 30
0.0
  0
VERTEX
  5
5CA
  8
1
  6
CONTINUOUS
 62
     7
 10
-589.2362437615349
 20
353.4019203824284
 30
0.0
  0
VERTEX
  5
5CB
  8
1
  6
CONTINUOUS
 62
     7
 10
-589.2601886904783
 20
353.4072973960328
 30
0.0
  0
VERTEX
  5
5CC
  8
1
  6
CONTINUOUS
 62
     7
 10
-589.2843686142587
 20
353.4114930108136
 30
0.0
  0
VERTEX
  5
5CD
  8
1
  6
CONTINUOUS
 62
     7
 10
-589.3087252813216
 20
353.4144971191673
 30
0.0
  0
VERTEX
  5
5CE
  8
1
  6
CONTINUOUS
 62
     7
 10
-589.3332000143228
 20
353.4163024839338
 30
0.0
  0
VERTEX
  5
5CF
  8
1
  6
CONTINUOUS
 62
     7
 10
-589.3577338514865
 20
353.4169047558312
 30
0.0
  0
VERTEX
  5
5D0
  8
1
  6
CONTINUOUS
 62
     7
 10
-589.3822676886501
 20
353.4163024839338
 30
0.0
  0
VERTEX
  5
5D1
  8
1
  6
CONTINUOUS
 62
     7
 10
-589.4067424216512
 20
353.4144971191673
 30
0.0
  0
VERTEX
  5
5D2
  8
1
  6
CONTINUOUS
 62
     7
 10
-589.4310990887142
 20
353.4114930108136
 30
0.0
  0
VERTEX
  5
5D3
  8
1
  6
CONTINUOUS
 62
     7
 10
-589.4552790124945
 20
353.4072973960328
 30
0.0
  0
VERTEX
  5
5D4
  8
1
  6
CONTINUOUS
 62
     7
 10
-589.479223941438
 20
353.4019203824284
 30
0.0
  0
VERTEX
  5
5D5
  8
1
  6
CONTINUOUS
 62
     7
 10
-589.5028761901136
 20
353.3953749236973
 30
0.0
  0
VERTEX
  5
5D6
  8
1
  6
CONTINUOUS
 62
     7
 10
-589.5261787781826
 20
353.3876767884227
 30
0.0
  0
VERTEX
  5
5D7
  8
1
  6
CONTINUOUS
 62
     7
 10
-589.549075567669
 20
353.3788445220868
 30
0.0
  0
VERTEX
  5
5D8
  8
1
  6
CONTINUOUS
 62
     7
 10
-589.5715113982017
 20
353.3688994023929
 30
0.0
  0
VERTEX
  5
5D9
  8
1
  6
CONTINUOUS
 62
     7
 10
-589.5934322198995
 20
353.3578653880054
 30
0.0
  0
VERTEX
  5
5DA
  8
1
  6
CONTINUOUS
 62
     7
 10
-589.614785223583
 20
353.3457690608313
 30
0.0
  0
VERTEX
  5
5DB
  8
1
  6
CONTINUOUS
 62
     7
 10
-589.6355189679963
 20
353.3326395619824
 30
0.0
  0
VERTEX
  5
5DC
  8
1
  6
CONTINUOUS
 62
     7
 10
-589.6555835037327
 20
353.3185085215715
 30
0.0
  0
VERTEX
  5
5DD
  8
1
  6
CONTINUOUS
 62
     7
 10
-589.6749304935682
 20
353.3034099825126
 30
0.0
  0
VERTEX
  5
5DE
  8
1
  6
CONTINUOUS
 62
     7
 10
-589.69351332891
 20
353.2873803185087
 30
0.0
  0
VERTEX
  5
5DF
  8
1
  6
CONTINUOUS
 62
     7
 10
-589.7112872420796
 20
353.2704581464245
 30
0.0
  0
SEQEND
  5
8DB
  8
1
  6
CONTINUOUS
 62
     7
  0
LINE
  5
184
  8
1
  6
CONTINUOUS
 62
     7
 10
-589.7112872420796
 20
353.2704581464245
 30
0.0
 11
-593.2468211480124
 21
349.7349242404918
 31
0.0
  0
POLYLINE
  5
185
  8
1
  6
CONTINUOUS
 62
     7
 66
     1
 10
0.0
 20
0.0
 30
0.0
  0
VERTEX
  5
5E0
  8
1
  6
CONTINUOUS
 62
     7
 10
-593.2468211480124
 20
349.7349242404918
 30
0.0
  0
VERTEX
  5
5E1
  8
1
  6
CONTINUOUS
 62
     7
 10
-593.2637433200966
 20
349.717150327322
 30
0.0
  0
VERTEX
  5
5E2
  8
1
  6
CONTINUOUS
 62
     7
 10
-593.2797729841005
 20
349.6985674919803
 30
0.0
  0
VERTEX
  5
5E3
  8
1
  6
CONTINUOUS
 62
     7
 10
-593.2948715231595
 20
349.6792205021447
 30
0.0
  0
VERTEX
  5
5E4
  8
1
  6
CONTINUOUS
 62
     7
 10
-593.3090025635704
 20
349.6591559664083
 30
0.0
  0
VERTEX
  5
5E5
  8
1
  6
CONTINUOUS
 62
     7
 10
-593.3221320624193
 20
349.6384222219951
 30
0.0
  0
VERTEX
  5
5E6
  8
1
  6
CONTINUOUS
 62
     7
 10
-593.3342283895934
 20
349.6170692183115
 30
0.0
  0
VERTEX
  5
5E7
  8
1
  6
CONTINUOUS
 62
     7
 10
-593.3452624039809
 20
349.5951483966136
 30
0.0
  0
VERTEX
  5
5E8
  8
1
  6
CONTINUOUS
 62
     7
 10
-593.3552075236748
 20
349.572712566081
 30
0.0
  0
VERTEX
  5
5E9
  8
1
  6
CONTINUOUS
 62
     7
 10
-593.3640397900107
 20
349.5498157765946
 30
0.0
  0
VERTEX
  5
5EA
  8
1
  6
CONTINUOUS
 62
     7
 10
-593.3717379252853
 20
349.5265131885257
 30
0.0
  0
VERTEX
  5
5EB
  8
1
  6
CONTINUOUS
 62
     7
 10
-593.3782833840164
 20
349.5028609398501
 30
0.0
  0
VERTEX
  5
5EC
  8
1
  6
CONTINUOUS
 62
     7
 10
-593.3836603976208
 20
349.4789160109065
 30
0.0
  0
VERTEX
  5
5ED
  8
1
  6
CONTINUOUS
 62
     7
 10
-593.3878560124016
 20
349.4547360871261
 30
0.0
  0
VERTEX
  5
5EE
  8
1
  6
CONTINUOUS
 62
     7
 10
-593.3908601207553
 20
349.4303794200633
 30
0.0
  0
VERTEX
  5
5EF
  8
1
  6
CONTINUOUS
 62
     7
 10
-593.3926654855217
 20
349.4059046870622
 30
0.0
  0
VERTEX
  5
5F0
  8
1
  6
CONTINUOUS
 62
     7
 10
-593.3932677574192
 20
349.3813708498985
 30
0.0
  0
VERTEX
  5
5F1
  8
1
  6
CONTINUOUS
 62
     7
 10
-593.3926654855217
 20
349.3568370127347
 30
0.0
  0
VERTEX
  5
5F2
  8
1
  6
CONTINUOUS
 62
     7
 10
-593.3908601207553
 20
349.3323622797337
 30
0.0
  0
VERTEX
  5
5F3
  8
1
  6
CONTINUOUS
 62
     7
 10
-593.3878560124016
 20
349.3080056126708
 30
0.0
  0
VERTEX
  5
5F4
  8
1
  6
CONTINUOUS
 62
     7
 10
-593.3836603976208
 20
349.2838256888904
 30
0.0
  0
VERTEX
  5
5F5
  8
1
  6
CONTINUOUS
 62
     7
 10
-593.3782833840164
 20
349.2598807599468
 30
0.0
  0
VERTEX
  5
5F6
  8
1
  6
CONTINUOUS
 62
     7
 10
-593.3717379252853
 20
349.2362285112712
 30
0.0
  0
VERTEX
  5
5F7
  8
1
  6
CONTINUOUS
 62
     7
 10
-593.3640397900107
 20
349.2129259232024
 30
0.0
  0
VERTEX
  5
5F8
  8
1
  6
CONTINUOUS
 62
     7
 10
-593.3552075236748
 20
349.1900291337159
 30
0.0
  0
VERTEX
  5
5F9
  8
1
  6
CONTINUOUS
 62
     7
 10
-593.3452624039809
 20
349.1675933031833
 30
0.0
  0
VERTEX
  5
5FA
  8
1
  6
CONTINUOUS
 62
     7
 10
-593.3342283895934
 20
349.1456724814855
 30
0.0
  0
VERTEX
  5
5FB
  8
1
  6
CONTINUOUS
 62
     7
 10
-593.3221320624193
 20
349.1243194778019
 30
0.0
  0
VERTEX
  5
5FC
  8
1
  6
CONTINUOUS
 62
     7
 10
-593.3090025635704
 20
349.1035857333887
 30
0.0
  0
VERTEX
  5
5FD
  8
1
  6
CONTINUOUS
 62
     7
 10
-593.2948715231595
 20
349.0835211976522
 30
0.0
  0
VERTEX
  5
5FE
  8
1
  6
CONTINUOUS
 62
     7
 10
-593.2797729841005
 20
349.0641742078167
 30
0.0
  0
VERTEX
  5
5FF
  8
1
  6
CONTINUOUS
 62
     7
 10
-593.2637433200966
 20
349.0455913724749
 30
0.0
  0
VERTEX
  5
600
  8
1
  6
CONTINUOUS
 62
     7
 10
-593.2468211480124
 20
349.0278174593051
 30
0.0
  0
SEQEND
  5
8DC
  8
1
  6
CONTINUOUS
 62
     7
  0
LINE
  5
186
  8
1
  6
CONTINUOUS
 62
     7
 10
-593.2468211480124
 20
349.0278174593051
 30
0.0
 11
-591.2315668216308
 21
347.0125631329235
 31
0.0
  0
POLYLINE
  5
187
  8
1
  6
CONTINUOUS
 62
     7
 66
     1
 10
0.0
 20
0.0
 30
0.0
  0
VERTEX
  5
601
  8
1
  6
CONTINUOUS
 62
     7
 10
-591.2315668216308
 20
347.0125631329235
 30
0.0
  0
VERTEX
  5
602
  8
1
  6
CONTINUOUS
 62
     7
 10
-591.213792908461
 20
346.9956409608394
 30
0.0
  0
VERTEX
  5
603
  8
1
  6
CONTINUOUS
 62
     7
 10
-591.1952100731194
 20
346.9796112968354
 30
0.0
  0
VERTEX
  5
604
  8
1
  6
CONTINUOUS
 62
     7
 10
-591.1758630832837
 20
346.9645127577764
 30
0.0
  0
VERTEX
  5
605
  8
1
  6
CONTINUOUS
 62
     7
 10
-591.1557985475473
 20
346.9503817173655
 30
0.0
  0
VERTEX
  5
606
  8
1
  6
CONTINUOUS
 62
     7
 10
-591.1350648031341
 20
346.9372522185167
 30
0.0
  0
VERTEX
  5
607
  8
1
  6
CONTINUOUS
 62
     7
 10
-591.1137117994505
 20
346.9251558913426
 30
0.0
  0
VERTEX
  5
608
  8
1
  6
CONTINUOUS
 62
     7
 10
-591.0917909777527
 20
346.9141218769551
 30
0.0
  0
VERTEX
  5
609
  8
1
  6
CONTINUOUS
 62
     7
 10
-591.06935514722
 20
346.9041767572612
 30
0.0
  0
VERTEX
  5
60A
  8
1
  6
CONTINUOUS
 62
     7
 10
-591.0464583577336
 20
346.8953444909253
 30
0.0
  0
VERTEX
  5
60B
  8
1
  6
CONTINUOUS
 62
     7
 10
-591.0231557696648
 20
346.8876463556507
 30
0.0
  0
VERTEX
  5
60C
  8
1
  6
CONTINUOUS
 62
     7
 10
-590.9995035209892
 20
346.8811008969195
 30
0.0
  0
VERTEX
  5
60D
  8
1
  6
CONTINUOUS
 62
     7
 10
-590.9755585920456
 20
346.8757238833152
 30
0.0
  0
VERTEX
  5
60E
  8
1
  6
CONTINUOUS
 62
     7
 10
-590.9513786682652
 20
346.8715282685344
 30
0.0
  0
VERTEX
  5
60F
  8
1
  6
CONTINUOUS
 62
     7
 10
-590.9270220012023
 20
346.8685241601807
 30
0.0
  0
VERTEX
  5
610
  8
1
  6
CONTINUOUS
 62
     7
 10
-590.9025472682013
 20
346.8667187954142
 30
0.0
  0
VERTEX
  5
611
  8
1
  6
CONTINUOUS
 62
     7
 10
-590.8780134310375
 20
346.8661165235168
 30
0.0
  0
VERTEX
  5
612
  8
1
  6
CONTINUOUS
 62
     7
 10
-590.8534795938738
 20
346.8667187954142
 30
0.0
  0
VERTEX
  5
613
  8
1
  6
CONTINUOUS
 62
     7
 10
-590.8290048608727
 20
346.8685241601807
 30
0.0
  0
VERTEX
  5
614
  8
1
  6
CONTINUOUS
 62
     7
 10
-590.8046481938098
 20
346.8715282685344
 30
0.0
  0
VERTEX
  5
615
  8
1
  6
CONTINUOUS
 62
     7
 10
-590.7804682700295
 20
346.8757238833152
 30
0.0
  0
VERTEX
  5
616
  8
1
  6
CONTINUOUS
 62
     7
 10
-590.7565233410859
 20
346.8811008969195
 30
0.0
  0
VERTEX
  5
617
  8
1
  6
CONTINUOUS
 62
     7
 10
-590.7328710924103
 20
346.8876463556507
 30
0.0
  0
VERTEX
  5
618
  8
1
  6
CONTINUOUS
 62
     7
 10
-590.7095685043414
 20
346.8953444909253
 30
0.0
  0
VERTEX
  5
619
  8
1
  6
CONTINUOUS
 62
     7
 10
-590.686671714855
 20
346.9041767572612
 30
0.0
  0
VERTEX
  5
61A
  8
1
  6
CONTINUOUS
 62
     7
 10
-590.6642358843224
 20
346.9141218769551
 30
0.0
  0
VERTEX
  5
61B
  8
1
  6
CONTINUOUS
 62
     7
 10
-590.6423150626246
 20
346.9251558913426
 30
0.0
  0
VERTEX
  5
61C
  8
1
  6
CONTINUOUS
 62
     7
 10
-590.6209620589409
 20
346.9372522185167
 30
0.0
  0
VERTEX
  5
61D
  8
1
  6
CONTINUOUS
 62
     7
 10
-590.6002283145277
 20
346.9503817173655
 30
0.0
  0
VERTEX
  5
61E
  8
1
  6
CONTINUOUS
 62
     7
 10
-590.5801637787913
 20
346.9645127577765
 30
0.0
  0
VERTEX
  5
61F
  8
1
  6
CONTINUOUS
 62
     7
 10
-590.5608167889557
 20
346.9796112968354
 30
0.0
  0
VERTEX
  5
620
  8
1
  6
CONTINUOUS
 62
     7
 10
-590.5422339536141
 20
346.9956409608394
 30
0.0
  0
VERTEX
  5
621
  8
1
  6
CONTINUOUS
 62
     7
 10
-590.5244600404442
 20
347.0125631329236
 30
0.0
  0
SEQEND
  5
8DD
  8
1
  6
CONTINUOUS
 62
     7
  0
LINE
  5
188
  8
1
  6
CONTINUOUS
 62
     7
 10
-590.5244600404442
 20
347.0125631329236
 30
0.0
 11
-590.3476833451475
 21
347.1893398282202
 31
0.0
  0
LINE
  5
189
  8
1
  6
CONTINUOUS
 62
     7
 10
-600.1050426580283
 20
347.1893398282201
 30
0.0
 11
-599.9282659627318
 21
347.0125631329236
 31
0.0
  0
POLYLINE
  5
18A
  8
1
  6
CONTINUOUS
 62
     7
 66
     1
 10
0.0
 20
0.0
 30
0.0
  0
VERTEX
  5
622
  8
1
  6
CONTINUOUS
 62
     7
 10
-599.9282659627318
 20
347.0125631329235
 30
0.0
  0
VERTEX
  5
623
  8
1
  6
CONTINUOUS
 62
     7
 10
-599.9104920495619
 20
346.9956409608394
 30
0.0
  0
VERTEX
  5
624
  8
1
  6
CONTINUOUS
 62
     7
 10
-599.8919092142202
 20
346.9796112968354
 30
0.0
  0
VERTEX
  5
625
  8
1
  6
CONTINUOUS
 62
     7
 10
-599.8725622243846
 20
346.9645127577764
 30
0.0
  0
VERTEX
  5
626
  8
1
  6
CONTINUOUS
 62
     7
 10
-599.8524976886482
 20
346.9503817173655
 30
0.0
  0
VERTEX
  5
627
  8
1
  6
CONTINUOUS
 62
     7
 10
-599.8317639442349
 20
346.9372522185167
 30
0.0
  0
VERTEX
  5
628
  8
1
  6
CONTINUOUS
 62
     7
 10
-599.8104109405514
 20
346.9251558913426
 30
0.0
  0
VERTEX
  5
629
  8
1
  6
CONTINUOUS
 62
     7
 10
-599.7884901188536
 20
346.9141218769551
 30
0.0
  0
VERTEX
  5
62A
  8
1
  6
CONTINUOUS
 62
     7
 10
-599.7660542883209
 20
346.9041767572612
 30
0.0
  0
VERTEX
  5
62B
  8
1
  6
CONTINUOUS
 62
     7
 10
-599.7431574988345
 20
346.8953444909253
 30
0.0
  0
VERTEX
  5
62C
  8
1
  6
CONTINUOUS
 62
     7
 10
-599.7198549107657
 20
346.8876463556507
 30
0.0
  0
VERTEX
  5
62D
  8
1
  6
CONTINUOUS
 62
     7
 10
-599.69620266209
 20
346.8811008969195
 30
0.0
  0
VERTEX
  5
62E
  8
1
  6
CONTINUOUS
 62
     7
 10
-599.6722577331465
 20
346.8757238833152
 30
0.0
  0
VERTEX
  5
62F
  8
1
  6
CONTINUOUS
 62
     7
 10
-599.6480778093661
 20
346.8715282685344
 30
0.0
  0
VERTEX
  5
630
  8
1
  6
CONTINUOUS
 62
     7
 10
-599.6237211423032
 20
346.8685241601807
 30
0.0
  0
VERTEX
  5
631
  8
1
  6
CONTINUOUS
 62
     7
 10
-599.5992464093022
 20
346.8667187954142
 30
0.0
  0
VERTEX
  5
632
  8
1
  6
CONTINUOUS
 62
     7
 10
-599.5747125721384
 20
346.8661165235168
 30
0.0
  0
VERTEX
  5
633
  8
1
  6
CONTINUOUS
 62
     7
 10
-599.5501787349747
 20
346.8667187954142
 30
0.0
  0
VERTEX
  5
634
  8
1
  6
CONTINUOUS
 62
     7
 10
-599.5257040019736
 20
346.8685241601807
 30
0.0
  0
VERTEX
  5
635
  8
1
  6
CONTINUOUS
 62
     7
 10
-599.5013473349107
 20
346.8715282685344
 30
0.0
  0
VERTEX
  5
636
  8
1
  6
CONTINUOUS
 62
     7
 10
-599.4771674111303
 20
346.8757238833152
 30
0.0
  0
VERTEX
  5
637
  8
1
  6
CONTINUOUS
 62
     7
 10
-599.4532224821868
 20
346.8811008969195
 30
0.0
  0
VERTEX
  5
638
  8
1
  6
CONTINUOUS
 62
     7
 10
-599.4295702335112
 20
346.8876463556507
 30
0.0
  0
VERTEX
  5
639
  8
1
  6
CONTINUOUS
 62
     7
 10
-599.4062676454423
 20
346.8953444909253
 30
0.0
  0
VERTEX
  5
63A
  8
1
  6
CONTINUOUS
 62
     7
 10
-599.3833708559558
 20
346.9041767572612
 30
0.0
  0
VERTEX
  5
63B
  8
1
  6
CONTINUOUS
 62
     7
 10
-599.3609350254233
 20
346.9141218769551
 30
0.0
  0
VERTEX
  5
63C
  8
1
  6
CONTINUOUS
 62
     7
 10
-599.3390142037254
 20
346.9251558913426
 30
0.0
  0
VERTEX
  5
63D
  8
1
  6
CONTINUOUS
 62
     7
 10
-599.3176612000418
 20
346.9372522185167
 30
0.0
  0
VERTEX
  5
63E
  8
1
  6
CONTINUOUS
 62
     7
 10
-599.2969274556285
 20
346.9503817173655
 30
0.0
  0
VERTEX
  5
63F
  8
1
  6
CONTINUOUS
 62
     7
 10
-599.2768629198922
 20
346.9645127577765
 30
0.0
  0
VERTEX
  5
640
  8
1
  6
CONTINUOUS
 62
     7
 10
-599.2575159300566
 20
346.9796112968354
 30
0.0
  0
VERTEX
  5
641
  8
1
  6
CONTINUOUS
 62
     7
 10
-599.2389330947149
 20
346.9956409608394
 30
0.0
  0
VERTEX
  5
642
  8
1
  6
CONTINUOUS
 62
     7
 10
-599.2211591815452
 20
347.0125631329236
 30
0.0
  0
SEQEND
  5
8DE
  8
1
  6
CONTINUOUS
 62
     7
  0
LINE
  5
18B
  8
1
  6
CONTINUOUS
 62
     7
 10
-599.2211591815452
 20
347.0125631329235
 30
0.0
 11
-597.2059048551635
 21
349.0278174593051
 31
0.0
  0
POLYLINE
  5
18C
  8
1
  6
CONTINUOUS
 62
     7
 66
     1
 10
0.0
 20
0.0
 30
0.0
  0
VERTEX
  5
643
  8
1
  6
CONTINUOUS
 62
     7
 10
-597.2059048551635
 20
349.0278174593052
 30
0.0
  0
VERTEX
  5
644
  8
1
  6
CONTINUOUS
 62
     7
 10
-597.1889826830793
 20
349.045591372475
 30
0.0
  0
VERTEX
  5
645
  8
1
  6
CONTINUOUS
 62
     7
 10
-597.1729530190753
 20
349.0641742078167
 30
0.0
  0
VERTEX
  5
646
  8
1
  6
CONTINUOUS
 62
     7
 10
-597.1578544800165
 20
349.0835211976522
 30
0.0
  0
VERTEX
  5
647
  8
1
  6
CONTINUOUS
 62
     7
 10
-597.1437234396055
 20
349.1035857333887
 30
0.0
  0
VERTEX
  5
648
  8
1
  6
CONTINUOUS
 62
     7
 10
-597.1305939407566
 20
349.1243194778019
 30
0.0
  0
VERTEX
  5
649
  8
1
  6
CONTINUOUS
 62
     7
 10
-597.1184976135826
 20
349.1456724814855
 30
0.0
  0
VERTEX
  5
64A
  8
1
  6
CONTINUOUS
 62
     7
 10
-597.1074635991951
 20
349.1675933031833
 30
0.0
  0
VERTEX
  5
64B
  8
1
  6
CONTINUOUS
 62
     7
 10
-597.0975184795011
 20
349.1900291337159
 30
0.0
  0
VERTEX
  5
64C
  8
1
  6
CONTINUOUS
 62
     7
 10
-597.0886862131653
 20
349.2129259232024
 30
0.0
  0
VERTEX
  5
64D
  8
1
  6
CONTINUOUS
 62
     7
 10
-597.0809880778907
 20
349.2362285112712
 30
0.0
  0
VERTEX
  5
64E
  8
1
  6
CONTINUOUS
 62
     7
 10
-597.0744426191595
 20
349.2598807599468
 30
0.0
  0
VERTEX
  5
64F
  8
1
  6
CONTINUOUS
 62
     7
 10
-597.0690656055551
 20
349.2838256888904
 30
0.0
  0
VERTEX
  5
650
  8
1
  6
CONTINUOUS
 62
     7
 10
-597.0648699907744
 20
349.3080056126708
 30
0.0
  0
VERTEX
  5
651
  8
1
  6
CONTINUOUS
 62
     7
 10
-597.0618658824208
 20
349.3323622797337
 30
0.0
  0
VERTEX
  5
652
  8
1
  6
CONTINUOUS
 62
     7
 10
-597.0600605176542
 20
349.3568370127348
 30
0.0
  0
VERTEX
  5
653
  8
1
  6
CONTINUOUS
 62
     7
 10
-597.0594582457568
 20
349.3813708498985
 30
0.0
  0
VERTEX
  5
654
  8
1
  6
CONTINUOUS
 62
     7
 10
-597.0600605176542
 20
349.4059046870622
 30
0.0
  0
VERTEX
  5
655
  8
1
  6
CONTINUOUS
 62
     7
 10
-597.0618658824208
 20
349.4303794200633
 30
0.0
  0
VERTEX
  5
656
  8
1
  6
CONTINUOUS
 62
     7
 10
-597.0648699907744
 20
349.4547360871261
 30
0.0
  0
VERTEX
  5
657
  8
1
  6
CONTINUOUS
 62
     7
 10
-597.0690656055551
 20
349.4789160109065
 30
0.0
  0
VERTEX
  5
658
  8
1
  6
CONTINUOUS
 62
     7
 10
-597.0744426191595
 20
349.5028609398501
 30
0.0
  0
VERTEX
  5
659
  8
1
  6
CONTINUOUS
 62
     7
 10
-597.0809880778907
 20
349.5265131885257
 30
0.0
  0
VERTEX
  5
65A
  8
1
  6
CONTINUOUS
 62
     7
 10
-597.0886862131653
 20
349.5498157765945
 30
0.0
  0
VERTEX
  5
65B
  8
1
  6
CONTINUOUS
 62
     7
 10
-597.0975184795011
 20
349.572712566081
 30
0.0
  0
VERTEX
  5
65C
  8
1
  6
CONTINUOUS
 62
     7
 10
-597.1074635991951
 20
349.5951483966136
 30
0.0
  0
VERTEX
  5
65D
  8
1
  6
CONTINUOUS
 62
     7
 10
-597.1184976135826
 20
349.6170692183115
 30
0.0
  0
VERTEX
  5
65E
  8
1
  6
CONTINUOUS
 62
     7
 10
-597.1305939407566
 20
349.6384222219951
 30
0.0
  0
VERTEX
  5
65F
  8
1
  6
CONTINUOUS
 62
     7
 10
-597.1437234396055
 20
349.6591559664083
 30
0.0
  0
VERTEX
  5
660
  8
1
  6
CONTINUOUS
 62
     7
 10
-597.1578544800165
 20
349.6792205021447
 30
0.0
  0
VERTEX
  5
661
  8
1
  6
CONTINUOUS
 62
     7
 10
-597.1729530190753
 20
349.6985674919803
 30
0.0
  0
VERTEX
  5
662
  8
1
  6
CONTINUOUS
 62
     7
 10
-597.1889826830793
 20
349.717150327322
 30
0.0
  0
VERTEX
  5
663
  8
1
  6
CONTINUOUS
 62
     7
 10
-597.2059048551635
 20
349.7349242404918
 30
0.0
  0
SEQEND
  5
8DF
  8
1
  6
CONTINUOUS
 62
     7
  0
LINE
  5
18D
  8
1
  6
CONTINUOUS
 62
     7
 10
-597.2059048551635
 20
349.7349242404918
 30
0.0
 11
-600.7414387610962
 21
353.2704581464245
 31
0.0
  0
POLYLINE
  5
18E
  8
1
  6
CONTINUOUS
 62
     7
 66
     1
 10
0.0
 20
0.0
 30
0.0
  0
VERTEX
  5
664
  8
1
  6
CONTINUOUS
 62
     7
 10
-600.7414387610962
 20
353.2704581464245
 30
0.0
  0
VERTEX
  5
665
  8
1
  6
CONTINUOUS
 62
     7
 10
-600.759212674266
 20
353.2873803185087
 30
0.0
  0
VERTEX
  5
666
  8
1
  6
CONTINUOUS
 62
     7
 10
-600.7777955096076
 20
353.3034099825126
 30
0.0
  0
VERTEX
  5
667
  8
1
  6
CONTINUOUS
 62
     7
 10
-600.7971424994432
 20
353.3185085215715
 30
0.0
  0
VERTEX
  5
668
  8
1
  6
CONTINUOUS
 62
     7
 10
-600.8172070351796
 20
353.3326395619824
 30
0.0
  0
VERTEX
  5
669
  8
1
  6
CONTINUOUS
 62
     7
 10
-600.8379407795928
 20
353.3457690608313
 30
0.0
  0
VERTEX
  5
66A
  8
1
  6
CONTINUOUS
 62
     7
 10
-600.8592937832765
 20
353.3578653880054
 30
0.0
  0
VERTEX
  5
66B
  8
1
  6
CONTINUOUS
 62
     7
 10
-600.8812146049744
 20
353.3688994023929
 30
0.0
  0
VERTEX
  5
66C
  8
1
  6
CONTINUOUS
 62
     7
 10
-600.903650435507
 20
353.3788445220868
 30
0.0
  0
VERTEX
  5
66D
  8
1
  6
CONTINUOUS
 62
     7
 10
-600.9265472249933
 20
353.3876767884227
 30
0.0
  0
VERTEX
  5
66E
  8
1
  6
CONTINUOUS
 62
     7
 10
-600.9498498130623
 20
353.3953749236973
 30
0.0
  0
VERTEX
  5
66F
  8
1
  6
CONTINUOUS
 62
     7
 10
-600.9735020617378
 20
353.4019203824284
 30
0.0
  0
VERTEX
  5
670
  8
1
  6
CONTINUOUS
 62
     7
 10
-600.9974469906815
 20
353.4072973960328
 30
0.0
  0
VERTEX
  5
671
  8
1
  6
CONTINUOUS
 62
     7
 10
-601.0216269144618
 20
353.4114930108136
 30
0.0
  0
VERTEX
  5
672
  8
1
  6
CONTINUOUS
 62
     7
 10
-601.0459835815248
 20
353.4144971191673
 30
0.0
  0
VERTEX
  5
673
  8
1
  6
CONTINUOUS
 62
     7
 10
-601.0704583145258
 20
353.4163024839338
 30
0.0
  0
VERTEX
  5
674
  8
1
  6
CONTINUOUS
 62
     7
 10
-601.0949921516894
 20
353.4169047558312
 30
0.0
  0
VERTEX
  5
675
  8
1
  6
CONTINUOUS
 62
     7
 10
-601.1195259888532
 20
353.4163024839338
 30
0.0
  0
VERTEX
  5
676
  8
1
  6
CONTINUOUS
 62
     7
 10
-601.1440007218542
 20
353.4144971191673
 30
0.0
  0
VERTEX
  5
677
  8
1
  6
CONTINUOUS
 62
     7
 10
-601.1683573889171
 20
353.4114930108136
 30
0.0
  0
VERTEX
  5
678
  8
1
  6
CONTINUOUS
 62
     7
 10
-601.1925373126976
 20
353.4072973960328
 30
0.0
  0
VERTEX
  5
679
  8
1
  6
CONTINUOUS
 62
     7
 10
-601.2164822416412
 20
353.4019203824284
 30
0.0
  0
VERTEX
  5
67A
  8
1
  6
CONTINUOUS
 62
     7
 10
-601.2401344903168
 20
353.3953749236973
 30
0.0
  0
VERTEX
  5
67B
  8
1
  6
CONTINUOUS
 62
     7
 10
-601.2634370783856
 20
353.3876767884227
 30
0.0
  0
VERTEX
  5
67C
  8
1
  6
CONTINUOUS
 62
     7
 10
-601.286333867872
 20
353.3788445220868
 30
0.0
  0
VERTEX
  5
67D
  8
1
  6
CONTINUOUS
 62
     7
 10
-601.3087696984046
 20
353.3688994023929
 30
0.0
  0
VERTEX
  5
67E
  8
1
  6
CONTINUOUS
 62
     7
 10
-601.3306905201024
 20
353.3578653880054
 30
0.0
  0
VERTEX
  5
67F
  8
1
  6
CONTINUOUS
 62
     7
 10
-601.3520435237862
 20
353.3457690608313
 30
0.0
  0
VERTEX
  5
680
  8
1
  6
CONTINUOUS
 62
     7
 10
-601.3727772681992
 20
353.3326395619824
 30
0.0
  0
VERTEX
  5
681
  8
1
  6
CONTINUOUS
 62
     7
 10
-601.3928418039357
 20
353.3185085215715
 30
0.0
  0
VERTEX
  5
682
  8
1
  6
CONTINUOUS
 62
     7
 10
-601.4121887937713
 20
353.3034099825126
 30
0.0
  0
VERTEX
  5
683
  8
1
  6
CONTINUOUS
 62
     7
 10
-601.430771629113
 20
353.2873803185087
 30
0.0
  0
VERTEX
  5
684
  8
1
  6
CONTINUOUS
 62
     7
 10
-601.4485455422828
 20
353.2704581464245
 30
0.0
  0
SEQEND
  5
8E0
  8
1
  6
CONTINUOUS
 62
     7
  0
LINE
  5
18F
  8
1
  6
CONTINUOUS
 62
     7
 10
-601.4485455422828
 20
353.2704581464245
 30
0.0
 11
-603.4637998686645
 21
351.2552038200428
 31
0.0
  0
POLYLINE
  5
190
  8
1
  6
CONTINUOUS
 62
     7
 66
     1
 10
0.0
 20
0.0
 30
0.0
  0
VERTEX
  5
685
  8
1
  6
CONTINUOUS
 62
     7
 10
-603.4637998686645
 20
351.2552038200428
 30
0.0
  0
VERTEX
  5
686
  8
1
  6
CONTINUOUS
 62
     7
 10
-603.4807220407487
 20
351.237429906873
 30
0.0
  0
VERTEX
  5
687
  8
1
  6
CONTINUOUS
 62
     7
 10
-603.4967517047526
 20
351.2188470715314
 30
0.0
  0
VERTEX
  5
688
  8
1
  6
CONTINUOUS
 62
     7
 10
-603.5118502438115
 20
351.1995000816958
 30
0.0
  0
VERTEX
  5
689
  8
1
  6
CONTINUOUS
 62
     7
 10
-603.5259812842224
 20
351.1794355459593
 30
0.0
  0
VERTEX
  5
68A
  8
1
  6
CONTINUOUS
 62
     7
 10
-603.5391107830714
 20
351.1587018015462
 30
0.0
  0
VERTEX
  5
68B
  8
1
  6
CONTINUOUS
 62
     7
 10
-603.5512071102453
 20
351.1373487978626
 30
0.0
  0
VERTEX
  5
68C
  8
1
  6
CONTINUOUS
 62
     7
 10
-603.5622411246328
 20
351.1154279761647
 30
0.0
  0
VERTEX
  5
68D
  8
1
  6
CONTINUOUS
 62
     7
 10
-603.5721862443269
 20
351.0929921456321
 30
0.0
  0
VERTEX
  5
68E
  8
1
  6
CONTINUOUS
 62
     7
 10
-603.5810185106627
 20
351.0700953561457
 30
0.0
  0
VERTEX
  5
68F
  8
1
  6
CONTINUOUS
 62
     7
 10
-603.5887166459372
 20
351.0467927680768
 30
0.0
  0
VERTEX
  5
690
  8
1
  6
CONTINUOUS
 62
     7
 10
-603.5952621046684
 20
351.0231405194012
 30
0.0
  0
VERTEX
  5
691
  8
1
  6
CONTINUOUS
 62
     7
 10
-603.6006391182727
 20
350.9991955904576
 30
0.0
  0
VERTEX
  5
692
  8
1
  6
CONTINUOUS
 62
     7
 10
-603.6048347330536
 20
350.9750156666772
 30
0.0
  0
VERTEX
  5
693
  8
1
  6
CONTINUOUS
 62
     7
 10
-603.6078388414072
 20
350.9506589996143
 30
0.0
  0
VERTEX
  5
694
  8
1
  6
CONTINUOUS
 62
     7
 10
-603.6096442061738
 20
350.9261842666132
 30
0.0
  0
VERTEX
  5
695
  8
1
  6
CONTINUOUS
 62
     7
 10
-603.6102464780712
 20
350.9016504294495
 30
0.0
  0
VERTEX
  5
696
  8
1
  6
CONTINUOUS
 62
     7
 10
-603.6096442061738
 20
350.8771165922858
 30
0.0
  0
VERTEX
  5
697
  8
1
  6
CONTINUOUS
 62
     7
 10
-603.6078388414072
 20
350.8526418592847
 30
0.0
  0
VERTEX
  5
698
  8
1
  6
CONTINUOUS
 62
     7
 10
-603.6048347330536
 20
350.8282851922219
 30
0.0
  0
VERTEX
  5
699
  8
1
  6
CONTINUOUS
 62
     7
 10
-603.6006391182727
 20
350.8041052684414
 30
0.0
  0
VERTEX
  5
69A
  8
1
  6
CONTINUOUS
 62
     7
 10
-603.5952621046684
 20
350.7801603394979
 30
0.0
  0
VERTEX
  5
69B
  8
1
  6
CONTINUOUS
 62
     7
 10
-603.5887166459372
 20
350.7565080908223
 30
0.0
  0
VERTEX
  5
69C
  8
1
  6
CONTINUOUS
 62
     7
 10
-603.5810185106627
 20
350.7332055027534
 30
0.0
  0
VERTEX
  5
69D
  8
1
  6
CONTINUOUS
 62
     7
 10
-603.5721862443269
 20
350.710308713267
 30
0.0
  0
VERTEX
  5
69E
  8
1
  6
CONTINUOUS
 62
     7
 10
-603.5622411246328
 20
350.6878728827344
 30
0.0
  0
VERTEX
  5
69F
  8
1
  6
CONTINUOUS
 62
     7
 10
-603.5512071102453
 20
350.6659520610365
 30
0.0
  0
VERTEX
  5
6A0
  8
1
  6
CONTINUOUS
 62
     7
 10
-603.5391107830714
 20
350.6445990573529
 30
0.0
  0
VERTEX
  5
6A1
  8
1
  6
CONTINUOUS
 62
     7
 10
-603.5259812842224
 20
350.6238653129398
 30
0.0
  0
VERTEX
  5
6A2
  8
1
  6
CONTINUOUS
 62
     7
 10
-603.5118502438115
 20
350.6038007772033
 30
0.0
  0
VERTEX
  5
6A3
  8
1
  6
CONTINUOUS
 62
     7
 10
-603.4967517047526
 20
350.5844537873677
 30
0.0
  0
VERTEX
  5
6A4
  8
1
  6
CONTINUOUS
 62
     7
 10
-603.4807220407487
 20
350.565870952026
 30
0.0
  0
VERTEX
  5
6A5
  8
1
  6
CONTINUOUS
 62
     7
 10
-603.4637998686645
 20
350.5480970388563
 30
0.0
  0
SEQEND
  5
8E1
  8
1
  6
CONTINUOUS
 62
     7
  0
LINE
  5
191
  8
1
  6
CONTINUOUS
 62
     7
 10
-603.4637998686645
 20
350.5480970388563
 30
0.0
 11
-603.2870231733677
 21
350.3713203435596
 31
0.0
  0
ARC
  5
192
  8
1
  6
CONTINUOUS
 62
     7
 10
-580.5682886176756
 20
366.4439990533103
 30
0.0
 40
32.41478732028811
 50
197.4557801092394
 51
223.387838105318
  0
ARC
  5
193
  8
1
  6
CONTINUOUS
 62
     7
 10
-610.782846253511
 20
366.9715521899913
 30
0.0
 40
33.43089055907516
 50
317.0128020576559
 51
342.1435797277857
  0
LINE
  5
194
  8
1
  6
CONTINUOUS
 62
     7
 10
-614.7191892085074
 20
388.9509164819774
 30
0.0
 11
-614.7185051582314
 21
388.956873147522
 31
0.0
  0
LINE
  5
195
  8
1
  6
CONTINUOUS
 62
     7
 10
-614.7191892085074
 20
371.0490835180225
 30
0.0
 11
-614.7185051582314
 21
371.043126852478
 31
0.0
  0
LINE
  5
196
  8
1
  6
CONTINUOUS
 62
     7
 10
-575.7342208469112
 20
388.9568731646417
 30
0.0
 11
-575.7335367913527
 21
388.9509164530928
 31
0.0
  0
LINE
  5
197
  8
1
  6
CONTINUOUS
 62
     7
 10
-575.7342208469112
 20
371.0431268353583
 30
0.0
 11
-575.7335367913527
 21
371.0490835469073
 31
0.0
  0
LINE
  5
198
  8
1
  6
CONTINUOUS
 62
     9
 10
-612.0207719943888
 20
401.7207574989943
 30
0.0
 11
-612.0534003153602
 21
401.596732500243
 31
0.0
  0
LINE
  5
199
  8
1
  6
CONTINUOUS
 62
     7
 10
-612.0207719943888
 20
401.7207574989943
 30
0.0
 11
-611.4903343407094
 21
403.2794532822605
 31
0.0
  0
LINE
  5
19A
  8
1
  6
CONTINUOUS
 62
     7
 10
-612.0207719943888
 20
358.2792425010057
 30
0.0
 11
-611.4903343407094
 21
356.7205467177395
 31
0.0
  0
LINE
  5
19B
  8
1
  6
CONTINUOUS
 62
     7
 10
-578.9623916624665
 20
403.2794532822605
 30
0.0
 11
-578.4319535968601
 21
401.7207562249927
 31
0.0
  0
LINE
  5
19C
  8
1
  6
CONTINUOUS
 62
     9
 10
-578.4319535968609
 20
358.2792437750049
 30
0.0
 11
-578.3993263631804
 21
358.4032639790645
 31
0.0
  0
LINE
  5
19D
  8
1
  6
CONTINUOUS
 62
     7
 10
-578.9623916624665
 20
356.7205467177395
 30
0.0
 11
-578.4319535968608
 21
358.2792437750049
 31
0.0
  0
LINE
  5
19E
  8
1
  6
CONTINUOUS
 62
     7
 10
-575.8246910045107
 20
389.7108441894264
 30
0.0
 11
-575.7342208469111
 21
388.9568731646418
 31
0.0
  0
LINE
  5
19F
  8
1
  6
CONTINUOUS
 62
     7
 10
-575.7342208469112
 20
371.0431268353583
 30
0.0
 11
-575.8246910045108
 21
370.2891558105736
 31
0.0
  0
LINE
  5
1A0
  8
1
  6
CONTINUOUS
 62
     7
 10
-614.7185051582309
 20
388.9568731475273
 30
0.0
 11
-614.6280352818698
 21
389.7108419261244
 31
0.0
  0
LINE
  5
1A1
  8
1
  6
CONTINUOUS
 62
     7
 10
-614.6280352818698
 20
370.2891580738756
 30
0.0
 11
-614.7185051582316
 21
371.0431268524781
 31
0.0
  0
POLYLINE
  5
1A2
  8
1
  6
CONTINUOUS
 62
     7
 66
     1
 10
0.0
 20
0.0
 30
0.0
  0
VERTEX
  5
6A6
  8
1
  6
CONTINUOUS
 62
     7
 10
-587.326363001588
 20
413.0
 30
0.0
  0
VERTEX
  5
6A7
  8
1
  6
CONTINUOUS
 62
     7
 10
-587.3257607296905
 20
412.9754661628363
 30
0.0
  0
VERTEX
  5
6A8
  8
1
  6
CONTINUOUS
 62
     7
 10
-587.3239553649241
 20
412.9509914298352
 30
0.0
  0
VERTEX
  5
6A9
  8
1
  6
CONTINUOUS
 62
     7
 10
-587.3209512565703
 20
412.9266347627723
 30
0.0
  0
VERTEX
  5
6AA
  8
1
  6
CONTINUOUS
 62
     7
 10
-587.3167556417895
 20
412.902454838992
 30
0.0
  0
VERTEX
  5
6AB
  8
1
  6
CONTINUOUS
 62
     7
 10
-587.3113786281853
 20
412.8785099100484
 30
0.0
  0
VERTEX
  5
6AC
  8
1
  6
CONTINUOUS
 62
     7
 10
-587.304833169454
 20
412.8548576613728
 30
0.0
  0
VERTEX
  5
6AD
  8
1
  6
CONTINUOUS
 62
     7
 10
-587.2971350341794
 20
412.8315550733039
 30
0.0
  0
VERTEX
  5
6AE
  8
1
  6
CONTINUOUS
 62
     7
 10
-587.2883027678436
 20
412.8086582838175
 30
0.0
  0
VERTEX
  5
6AF
  8
1
  6
CONTINUOUS
 62
     7
 10
-587.2783576481497
 20
412.7862224532849
 30
0.0
  0
VERTEX
  5
6B0
  8
1
  6
CONTINUOUS
 62
     7
 10
-587.2673236337621
 20
412.764301631587
 30
0.0
  0
VERTEX
  5
6B1
  8
1
  6
CONTINUOUS
 62
     7
 10
-587.255227306588
 20
412.7429486279034
 30
0.0
  0
VERTEX
  5
6B2
  8
1
  6
CONTINUOUS
 62
     7
 10
-587.2420978077392
 20
412.7222148834902
 30
0.0
  0
VERTEX
  5
6B3
  8
1
  6
CONTINUOUS
 62
     7
 10
-587.2279667673282
 20
412.7021503477538
 30
0.0
  0
VERTEX
  5
6B4
  8
1
  6
CONTINUOUS
 62
     7
 10
-587.2128682282694
 20
412.6828033579181
 30
0.0
  0
VERTEX
  5
6B5
  8
1
  6
CONTINUOUS
 62
     7
 10
-587.1968385642654
 20
412.6642205225765
 30
0.0
  0
VERTEX
  5
6B6
  8
1
  6
CONTINUOUS
 62
     7
 10
-587.1799163921812
 20
412.6464466094067
 30
0.0
  0
VERTEX
  5
6B7
  8
1
  6
CONTINUOUS
 62
     7
 10
-587.1621424790114
 20
412.6295244373225
 30
0.0
  0
VERTEX
  5
6B8
  8
1
  6
CONTINUOUS
 62
     7
 10
-587.1435596436698
 20
412.6134947733186
 30
0.0
  0
VERTEX
  5
6B9
  8
1
  6
CONTINUOUS
 62
     7
 10
-587.1242126538342
 20
412.5983962342597
 30
0.0
  0
VERTEX
  5
6BA
  8
1
  6
CONTINUOUS
 62
     7
 10
-587.1041481180978
 20
412.5842651938487
 30
0.0
  0
VERTEX
  5
6BB
  8
1
  6
CONTINUOUS
 62
     7
 10
-587.0834143736846
 20
412.5711356949998
 30
0.0
  0
VERTEX
  5
6BC
  8
1
  6
CONTINUOUS
 62
     7
 10
-587.062061370001
 20
412.5590393678258
 30
0.0
  0
VERTEX
  5
6BD
  8
1
  6
CONTINUOUS
 62
     7
 10
-587.0401405483032
 20
412.5480053534383
 30
0.0
  0
VERTEX
  5
6BE
  8
1
  6
CONTINUOUS
 62
     7
 10
-587.0177047177705
 20
412.5380602337443
 30
0.0
  0
VERTEX
  5
6BF
  8
1
  6
CONTINUOUS
 62
     7
 10
-586.9948079282841
 20
412.5292279674085
 30
0.0
  0
VERTEX
  5
6C0
  8
1
  6
CONTINUOUS
 62
     7
 10
-586.9715053402152
 20
412.5215298321339
 30
0.0
  0
VERTEX
  5
6C1
  8
1
  6
CONTINUOUS
 62
     7
 10
-586.9478530915396
 20
412.5149843734027
 30
0.0
  0
VERTEX
  5
6C2
  8
1
  6
CONTINUOUS
 62
     7
 10
-586.9239081625959
 20
412.5096073597984
 30
0.0
  0
VERTEX
  5
6C3
  8
1
  6
CONTINUOUS
 62
     7
 10
-586.8997282388157
 20
412.5054117450176
 30
0.0
  0
VERTEX
  5
6C4
  8
1
  6
CONTINUOUS
 62
     7
 10
-586.8753715717527
 20
412.5024076366639
 30
0.0
  0
VERTEX
  5
6C5
  8
1
  6
CONTINUOUS
 62
     7
 10
-586.8508968387516
 20
412.5006022718974
 30
0.0
  0
VERTEX
  5
6C6
  8
1
  6
CONTINUOUS
 62
     7
 10
-586.826363001588
 20
412.4999999999999
 30
0.0
  0
SEQEND
  5
8E2
  8
1
  6
CONTINUOUS
 62
     7
  0
LINE
  5
1A3
  8
1
  6
CONTINUOUS
 62
     7
 10
-587.326363001588
 20
413.0
 30
0.0
 11
-587.326363001588
 21
413.2164396139381
 31
0.0
  0
LINE
  5
1A4
  8
1
  6
CONTINUOUS
 62
     7
 10
-584.826363001588
 20
413.2164396139381
 30
0.0
 11
-584.826363001588
 21
413.0
 31
0.0
  0
POLYLINE
  5
1A5
  8
1
  6
CONTINUOUS
 62
     7
 66
     1
 10
0.0
 20
0.0
 30
0.0
  0
VERTEX
  5
6C7
  8
1
  6
CONTINUOUS
 62
     7
 10
-585.326363001588
 20
412.4999999999999
 30
0.0
  0
VERTEX
  5
6C8
  8
1
  6
CONTINUOUS
 62
     7
 10
-585.3018291644242
 20
412.5006022718974
 30
0.0
  0
VERTEX
  5
6C9
  8
1
  6
CONTINUOUS
 62
     7
 10
-585.2773544314232
 20
412.5024076366639
 30
0.0
  0
VERTEX
  5
6CA
  8
1
  6
CONTINUOUS
 62
     7
 10
-585.2529977643602
 20
412.5054117450176
 30
0.0
  0
VERTEX
  5
6CB
  8
1
  6
CONTINUOUS
 62
     7
 10
-585.2288178405798
 20
412.5096073597984
 30
0.0
  0
VERTEX
  5
6CC
  8
1
  6
CONTINUOUS
 62
     7
 10
-585.2048729116364
 20
412.5149843734027
 30
0.0
  0
VERTEX
  5
6CD
  8
1
  6
CONTINUOUS
 62
     7
 10
-585.1812206629608
 20
412.5215298321339
 30
0.0
  0
VERTEX
  5
6CE
  8
1
  6
CONTINUOUS
 62
     7
 10
-585.1579180748918
 20
412.5292279674085
 30
0.0
  0
VERTEX
  5
6CF
  8
1
  6
CONTINUOUS
 62
     7
 10
-585.1350212854054
 20
412.5380602337443
 30
0.0
  0
VERTEX
  5
6D0
  8
1
  6
CONTINUOUS
 62
     7
 10
-585.1125854548728
 20
412.5480053534383
 30
0.0
  0
VERTEX
  5
6D1
  8
1
  6
CONTINUOUS
 62
     7
 10
-585.0906646331749
 20
412.5590393678258
 30
0.0
  0
VERTEX
  5
6D2
  8
1
  6
CONTINUOUS
 62
     7
 10
-585.0693116294914
 20
412.5711356949998
 30
0.0
  0
VERTEX
  5
6D3
  8
1
  6
CONTINUOUS
 62
     7
 10
-585.0485778850781
 20
412.5842651938487
 30
0.0
  0
VERTEX
  5
6D4
  8
1
  6
CONTINUOUS
 62
     7
 10
-585.0285133493418
 20
412.5983962342597
 30
0.0
  0
VERTEX
  5
6D5
  8
1
  6
CONTINUOUS
 62
     7
 10
-585.0091663595061
 20
412.6134947733186
 30
0.0
  0
VERTEX
  5
6D6
  8
1
  6
CONTINUOUS
 62
     7
 10
-584.9905835241644
 20
412.6295244373225
 30
0.0
  0
VERTEX
  5
6D7
  8
1
  6
CONTINUOUS
 62
     7
 10
-584.9728096109948
 20
412.6464466094067
 30
0.0
  0
VERTEX
  5
6D8
  8
1
  6
CONTINUOUS
 62
     7
 10
-584.9558874389105
 20
412.6642205225765
 30
0.0
  0
VERTEX
  5
6D9
  8
1
  6
CONTINUOUS
 62
     7
 10
-584.9398577749066
 20
412.6828033579181
 30
0.0
  0
VERTEX
  5
6DA
  8
1
  6
CONTINUOUS
 62
     7
 10
-584.9247592358477
 20
412.7021503477538
 30
0.0
  0
VERTEX
  5
6DB
  8
1
  6
CONTINUOUS
 62
     7
 10
-584.9106281954367
 20
412.7222148834902
 30
0.0
  0
VERTEX
  5
6DC
  8
1
  6
CONTINUOUS
 62
     7
 10
-584.8974986965878
 20
412.7429486279034
 30
0.0
  0
VERTEX
  5
6DD
  8
1
  6
CONTINUOUS
 62
     7
 10
-584.8854023694138
 20
412.764301631587
 30
0.0
  0
VERTEX
  5
6DE
  8
1
  6
CONTINUOUS
 62
     7
 10
-584.8743683550263
 20
412.7862224532849
 30
0.0
  0
VERTEX
  5
6DF
  8
1
  6
CONTINUOUS
 62
     7
 10
-584.8644232353323
 20
412.8086582838175
 30
0.0
  0
VERTEX
  5
6E0
  8
1
  6
CONTINUOUS
 62
     7
 10
-584.8555909689964
 20
412.8315550733039
 30
0.0
  0
VERTEX
  5
6E1
  8
1
  6
CONTINUOUS
 62
     7
 10
-584.8478928337219
 20
412.8548576613728
 30
0.0
  0
VERTEX
  5
6E2
  8
1
  6
CONTINUOUS
 62
     7
 10
-584.8413473749907
 20
412.8785099100484
 30
0.0
  0
VERTEX
  5
6E3
  8
1
  6
CONTINUOUS
 62
     7
 10
-584.8359703613863
 20
412.902454838992
 30
0.0
  0
VERTEX
  5
6E4
  8
1
  6
CONTINUOUS
 62
     7
 10
-584.8317747466057
 20
412.9266347627723
 30
0.0
  0
VERTEX
  5
6E5
  8
1
  6
CONTINUOUS
 62
     7
 10
-584.8287706382519
 20
412.9509914298352
 30
0.0
  0
VERTEX
  5
6E6
  8
1
  6
CONTINUOUS
 62
     7
 10
-584.8269652734854
 20
412.9754661628363
 30
0.0
  0
VERTEX
  5
6E7
  8
1
  6
CONTINUOUS
 62
     7
 10
-584.826363001588
 20
412.9999999999999
 30
0.0
  0
SEQEND
  5
8E3
  8
1
  6
CONTINUOUS
 62
     7
  0
LINE
  5
1A6
  8
1
  6
CONTINUOUS
 62
     7
 10
-585.326363001588
 20
412.4999999999999
 30
0.0
 11
-586.826363001588
 21
412.4999999999999
 31
0.0
  0
LINE
  5
1A7
  8
1
  6
CONTINUOUS
 62
     7
 10
-584.826363001588
 20
346.7835603860619
 30
0.0
 11
-584.826363001588
 21
346.9999999999999
 31
0.0
  0
LINE
  5
1A8
  8
1
  6
CONTINUOUS
 62
     7
 10
-587.326363001588
 20
346.9999999999999
 30
0.0
 11
-587.326363001588
 21
346.7835603860619
 31
0.0
  0
POLYLINE
  5
1A9
  8
1
  6
CONTINUOUS
 62
     7
 66
     1
 10
0.0
 20
0.0
 30
0.0
  0
VERTEX
  5
6E8
  8
1
  6
CONTINUOUS
 62
     7
 10
-585.326363001588
 20
347.5
 30
0.0
  0
VERTEX
  5
6E9
  8
1
  6
CONTINUOUS
 62
     7
 10
-585.3018291644242
 20
347.4993977281026
 30
0.0
  0
VERTEX
  5
6EA
  8
1
  6
CONTINUOUS
 62
     7
 10
-585.2773544314232
 20
347.4975923633361
 30
0.0
  0
VERTEX
  5
6EB
  8
1
  6
CONTINUOUS
 62
     7
 10
-585.2529977643603
 20
347.4945882549824
 30
0.0
  0
VERTEX
  5
6EC
  8
1
  6
CONTINUOUS
 62
     7
 10
-585.2288178405798
 20
347.4903926402016
 30
0.0
  0
VERTEX
  5
6ED
  8
1
  6
CONTINUOUS
 62
     7
 10
-585.2048729116364
 20
347.4850156265973
 30
0.0
  0
VERTEX
  5
6EE
  8
1
  6
CONTINUOUS
 62
     7
 10
-585.1812206629608
 20
347.4784701678661
 30
0.0
  0
VERTEX
  5
6EF
  8
1
  6
CONTINUOUS
 62
     7
 10
-585.1579180748918
 20
347.4707720325915
 30
0.0
  0
VERTEX
  5
6F0
  8
1
  6
CONTINUOUS
 62
     7
 10
-585.1350212854054
 20
347.4619397662557
 30
0.0
  0
VERTEX
  5
6F1
  8
1
  6
CONTINUOUS
 62
     7
 10
-585.1125854548728
 20
347.4519946465617
 30
0.0
  0
VERTEX
  5
6F2
  8
1
  6
CONTINUOUS
 62
     7
 10
-585.0906646331749
 20
347.4409606321742
 30
0.0
  0
VERTEX
  5
6F3
  8
1
  6
CONTINUOUS
 62
     7
 10
-585.0693116294914
 20
347.4288643050002
 30
0.0
  0
VERTEX
  5
6F4
  8
1
  6
CONTINUOUS
 62
     7
 10
-585.0485778850781
 20
347.4157348061513
 30
0.0
  0
VERTEX
  5
6F5
  8
1
  6
CONTINUOUS
 62
     7
 10
-585.0285133493418
 20
347.4016037657403
 30
0.0
  0
VERTEX
  5
6F6
  8
1
  6
CONTINUOUS
 62
     7
 10
-585.0091663595061
 20
347.3865052266813
 30
0.0
  0
VERTEX
  5
6F7
  8
1
  6
CONTINUOUS
 62
     7
 10
-584.9905835241644
 20
347.3704755626775
 30
0.0
  0
VERTEX
  5
6F8
  8
1
  6
CONTINUOUS
 62
     7
 10
-584.9728096109948
 20
347.3535533905933
 30
0.0
  0
VERTEX
  5
6F9
  8
1
  6
CONTINUOUS
 62
     7
 10
-584.9558874389105
 20
347.3357794774235
 30
0.0
  0
VERTEX
  5
6FA
  8
1
  6
CONTINUOUS
 62
     7
 10
-584.9398577749066
 20
347.3171966420818
 30
0.0
  0
VERTEX
  5
6FB
  8
1
  6
CONTINUOUS
 62
     7
 10
-584.9247592358477
 20
347.2978496522462
 30
0.0
  0
VERTEX
  5
6FC
  8
1
  6
CONTINUOUS
 62
     7
 10
-584.9106281954367
 20
347.2777851165098
 30
0.0
  0
VERTEX
  5
6FD
  8
1
  6
CONTINUOUS
 62
     7
 10
-584.8974986965878
 20
347.2570513720966
 30
0.0
  0
VERTEX
  5
6FE
  8
1
  6
CONTINUOUS
 62
     7
 10
-584.8854023694138
 20
347.235698368413
 30
0.0
  0
VERTEX
  5
6FF
  8
1
  6
CONTINUOUS
 62
     7
 10
-584.8743683550263
 20
347.2137775467151
 30
0.0
  0
VERTEX
  5
700
  8
1
  6
CONTINUOUS
 62
     7
 10
-584.8644232353324
 20
347.1913417161825
 30
0.0
  0
VERTEX
  5
701
  8
1
  6
CONTINUOUS
 62
     7
 10
-584.8555909689964
 20
347.1684449266961
 30
0.0
  0
VERTEX
  5
702
  8
1
  6
CONTINUOUS
 62
     7
 10
-584.8478928337219
 20
347.1451423386272
 30
0.0
  0
VERTEX
  5
703
  8
1
  6
CONTINUOUS
 62
     7
 10
-584.8413473749907
 20
347.1214900899516
 30
0.0
  0
VERTEX
  5
704
  8
1
  6
CONTINUOUS
 62
     7
 10
-584.8359703613863
 20
347.097545161008
 30
0.0
  0
VERTEX
  5
705
  8
1
  6
CONTINUOUS
 62
     7
 10
-584.8317747466057
 20
347.0733652372277
 30
0.0
  0
VERTEX
  5
706
  8
1
  6
CONTINUOUS
 62
     7
 10
-584.8287706382519
 20
347.0490085701648
 30
0.0
  0
VERTEX
  5
707
  8
1
  6
CONTINUOUS
 62
     7
 10
-584.8269652734854
 20
347.0245338371637
 30
0.0
  0
VERTEX
  5
708
  8
1
  6
CONTINUOUS
 62
     7
 10
-584.826363001588
 20
347.0
 30
0.0
  0
SEQEND
  5
8E4
  8
1
  6
CONTINUOUS
 62
     7
  0
POLYLINE
  5
1AA
  8
1
  6
CONTINUOUS
 62
     7
 66
     1
 10
0.0
 20
0.0
 30
0.0
  0
VERTEX
  5
709
  8
1
  6
CONTINUOUS
 62
     7
 10
-587.326363001588
 20
346.9999999999999
 30
0.0
  0
VERTEX
  5
70A
  8
1
  6
CONTINUOUS
 62
     7
 10
-587.3257607296905
 20
347.0245338371637
 30
0.0
  0
VERTEX
  5
70B
  8
1
  6
CONTINUOUS
 62
     7
 10
-587.3239553649241
 20
347.0490085701648
 30
0.0
  0
VERTEX
  5
70C
  8
1
  6
CONTINUOUS
 62
     7
 10
-587.3209512565703
 20
347.0733652372277
 30
0.0
  0
VERTEX
  5
70D
  8
1
  6
CONTINUOUS
 62
     7
 10
-587.3167556417897
 20
347.097545161008
 30
0.0
  0
VERTEX
  5
70E
  8
1
  6
CONTINUOUS
 62
     7
 10
-587.3113786281853
 20
347.1214900899516
 30
0.0
  0
VERTEX
  5
70F
  8
1
  6
CONTINUOUS
 62
     7
 10
-587.304833169454
 20
347.1451423386272
 30
0.0
  0
VERTEX
  5
710
  8
1
  6
CONTINUOUS
 62
     7
 10
-587.2971350341794
 20
347.1684449266961
 30
0.0
  0
VERTEX
  5
711
  8
1
  6
CONTINUOUS
 62
     7
 10
-587.2883027678436
 20
347.1913417161825
 30
0.0
  0
VERTEX
  5
712
  8
1
  6
CONTINUOUS
 62
     7
 10
-587.2783576481497
 20
347.2137775467151
 30
0.0
  0
VERTEX
  5
713
  8
1
  6
CONTINUOUS
 62
     7
 10
-587.2673236337621
 20
347.235698368413
 30
0.0
  0
VERTEX
  5
714
  8
1
  6
CONTINUOUS
 62
     7
 10
-587.255227306588
 20
347.2570513720966
 30
0.0
  0
VERTEX
  5
715
  8
1
  6
CONTINUOUS
 62
     7
 10
-587.2420978077392
 20
347.2777851165098
 30
0.0
  0
VERTEX
  5
716
  8
1
  6
CONTINUOUS
 62
     7
 10
-587.2279667673282
 20
347.2978496522462
 30
0.0
  0
VERTEX
  5
717
  8
1
  6
CONTINUOUS
 62
     7
 10
-587.2128682282694
 20
347.3171966420818
 30
0.0
  0
VERTEX
  5
718
  8
1
  6
CONTINUOUS
 62
     7
 10
-587.1968385642654
 20
347.3357794774235
 30
0.0
  0
VERTEX
  5
719
  8
1
  6
CONTINUOUS
 62
     7
 10
-587.1799163921812
 20
347.3535533905933
 30
0.0
  0
VERTEX
  5
71A
  8
1
  6
CONTINUOUS
 62
     7
 10
-587.1621424790114
 20
347.3704755626775
 30
0.0
  0
VERTEX
  5
71B
  8
1
  6
CONTINUOUS
 62
     7
 10
-587.1435596436698
 20
347.3865052266813
 30
0.0
  0
VERTEX
  5
71C
  8
1
  6
CONTINUOUS
 62
     7
 10
-587.1242126538342
 20
347.4016037657403
 30
0.0
  0
VERTEX
  5
71D
  8
1
  6
CONTINUOUS
 62
     7
 10
-587.1041481180978
 20
347.4157348061513
 30
0.0
  0
VERTEX
  5
71E
  8
1
  6
CONTINUOUS
 62
     7
 10
-587.0834143736846
 20
347.4288643050002
 30
0.0
  0
VERTEX
  5
71F
  8
1
  6
CONTINUOUS
 62
     7
 10
-587.062061370001
 20
347.4409606321742
 30
0.0
  0
VERTEX
  5
720
  8
1
  6
CONTINUOUS
 62
     7
 10
-587.0401405483032
 20
347.4519946465617
 30
0.0
  0
VERTEX
  5
721
  8
1
  6
CONTINUOUS
 62
     7
 10
-587.0177047177705
 20
347.4619397662557
 30
0.0
  0
VERTEX
  5
722
  8
1
  6
CONTINUOUS
 62
     7
 10
-586.9948079282841
 20
347.4707720325915
 30
0.0
  0
VERTEX
  5
723
  8
1
  6
CONTINUOUS
 62
     7
 10
-586.9715053402152
 20
347.4784701678661
 30
0.0
  0
VERTEX
  5
724
  8
1
  6
CONTINUOUS
 62
     7
 10
-586.9478530915396
 20
347.4850156265973
 30
0.0
  0
VERTEX
  5
725
  8
1
  6
CONTINUOUS
 62
     7
 10
-586.9239081625959
 20
347.4903926402016
 30
0.0
  0
VERTEX
  5
726
  8
1
  6
CONTINUOUS
 62
     7
 10
-586.8997282388157
 20
347.4945882549824
 30
0.0
  0
VERTEX
  5
727
  8
1
  6
CONTINUOUS
 62
     7
 10
-586.8753715717527
 20
347.4975923633361
 30
0.0
  0
VERTEX
  5
728
  8
1
  6
CONTINUOUS
 62
     7
 10
-586.8508968387516
 20
347.4993977281026
 30
0.0
  0
VERTEX
  5
729
  8
1
  6
CONTINUOUS
 62
     7
 10
-586.826363001588
 20
347.5
 30
0.0
  0
SEQEND
  5
8E5
  8
1
  6
CONTINUOUS
 62
     7
  0
LINE
  5
1AB
  8
1
  6
CONTINUOUS
 62
     7
 10
-585.326363001588
 20
347.5
 30
0.0
 11
-586.826363001588
 21
347.5
 31
0.0
  0
POLYLINE
  5
1AC
  8
1
  6
CONTINUOUS
 62
     7
 66
     1
 10
0.0
 20
0.0
 30
0.0
  0
VERTEX
  5
72A
  8
1
  6
CONTINUOUS
 62
     7
 10
-603.626363001588
 20
347.5
 30
0.0
  0
VERTEX
  5
72B
  8
1
  6
CONTINUOUS
 62
     7
 10
-603.6018291644243
 20
347.4993977281026
 30
0.0
  0
VERTEX
  5
72C
  8
1
  6
CONTINUOUS
 62
     7
 10
-603.5773544314233
 20
347.4975923633361
 30
0.0
  0
VERTEX
  5
72D
  8
1
  6
CONTINUOUS
 62
     7
 10
-603.5529977643603
 20
347.4945882549824
 30
0.0
  0
VERTEX
  5
72E
  8
1
  6
CONTINUOUS
 62
     7
 10
-603.5288178405799
 20
347.4903926402016
 30
0.0
  0
VERTEX
  5
72F
  8
1
  6
CONTINUOUS
 62
     7
 10
-603.5048729116363
 20
347.4850156265973
 30
0.0
  0
VERTEX
  5
730
  8
1
  6
CONTINUOUS
 62
     7
 10
-603.4812206629607
 20
347.4784701678661
 30
0.0
  0
VERTEX
  5
731
  8
1
  6
CONTINUOUS
 62
     7
 10
-603.457918074892
 20
347.4707720325915
 30
0.0
  0
VERTEX
  5
732
  8
1
  6
CONTINUOUS
 62
     7
 10
-603.4350212854054
 20
347.4619397662557
 30
0.0
  0
VERTEX
  5
733
  8
1
  6
CONTINUOUS
 62
     7
 10
-603.4125854548729
 20
347.4519946465617
 30
0.0
  0
VERTEX
  5
734
  8
1
  6
CONTINUOUS
 62
     7
 10
-603.390664633175
 20
347.4409606321742
 30
0.0
  0
VERTEX
  5
735
  8
1
  6
CONTINUOUS
 62
     7
 10
-603.3693116294913
 20
347.4288643050002
 30
0.0
  0
VERTEX
  5
736
  8
1
  6
CONTINUOUS
 62
     7
 10
-603.3485778850783
 20
347.4157348061513
 30
0.0
  0
VERTEX
  5
737
  8
1
  6
CONTINUOUS
 62
     7
 10
-603.3285133493417
 20
347.4016037657403
 30
0.0
  0
VERTEX
  5
738
  8
1
  6
CONTINUOUS
 62
     7
 10
-603.3091663595061
 20
347.3865052266813
 30
0.0
  0
VERTEX
  5
739
  8
1
  6
CONTINUOUS
 62
     7
 10
-603.2905835241644
 20
347.3704755626775
 30
0.0
  0
VERTEX
  5
73A
  8
1
  6
CONTINUOUS
 62
     7
 10
-603.2728096109947
 20
347.3535533905933
 30
0.0
  0
VERTEX
  5
73B
  8
1
  6
CONTINUOUS
 62
     7
 10
-603.2558874389105
 20
347.3357794774235
 30
0.0
  0
VERTEX
  5
73C
  8
1
  6
CONTINUOUS
 62
     7
 10
-603.2398577749066
 20
347.3171966420818
 30
0.0
  0
VERTEX
  5
73D
  8
1
  6
CONTINUOUS
 62
     7
 10
-603.2247592358476
 20
347.2978496522462
 30
0.0
  0
VERTEX
  5
73E
  8
1
  6
CONTINUOUS
 62
     7
 10
-603.2106281954367
 20
347.2777851165098
 30
0.0
  0
VERTEX
  5
73F
  8
1
  6
CONTINUOUS
 62
     7
 10
-603.1974986965879
 20
347.2570513720966
 30
0.0
  0
VERTEX
  5
740
  8
1
  6
CONTINUOUS
 62
     7
 10
-603.1854023694137
 20
347.235698368413
 30
0.0
  0
VERTEX
  5
741
  8
1
  6
CONTINUOUS
 62
     7
 10
-603.1743683550262
 20
347.2137775467151
 30
0.0
  0
VERTEX
  5
742
  8
1
  6
CONTINUOUS
 62
     7
 10
-603.1644232353324
 20
347.1913417161825
 30
0.0
  0
VERTEX
  5
743
  8
1
  6
CONTINUOUS
 62
     7
 10
-603.1555909689965
 20
347.1684449266961
 30
0.0
  0
VERTEX
  5
744
  8
1
  6
CONTINUOUS
 62
     7
 10
-603.1478928337218
 20
347.1451423386272
 30
0.0
  0
VERTEX
  5
745
  8
1
  6
CONTINUOUS
 62
     7
 10
-603.1413473749907
 20
347.1214900899516
 30
0.0
  0
VERTEX
  5
746
  8
1
  6
CONTINUOUS
 62
     7
 10
-603.1359703613863
 20
347.097545161008
 30
0.0
  0
VERTEX
  5
747
  8
1
  6
CONTINUOUS
 62
     7
 10
-603.1317747466056
 20
347.0733652372277
 30
0.0
  0
VERTEX
  5
748
  8
1
  6
CONTINUOUS
 62
     7
 10
-603.1287706382518
 20
347.0490085701648
 30
0.0
  0
VERTEX
  5
749
  8
1
  6
CONTINUOUS
 62
     7
 10
-603.1269652734854
 20
347.0245338371637
 30
0.0
  0
VERTEX
  5
74A
  8
1
  6
CONTINUOUS
 62
     7
 10
-603.126363001588
 20
346.9999999999999
 30
0.0
  0
SEQEND
  5
8E6
  8
1
  6
CONTINUOUS
 62
     7
  0
LINE
  5
1AD
  8
1
  6
CONTINUOUS
 62
     7
 10
-603.126363001588
 20
346.9999999999999
 30
0.0
 11
-603.126363001588
 21
346.7835603860619
 31
0.0
  0
LINE
  5
1AE
  8
1
  6
CONTINUOUS
 62
     7
 10
-605.626363001588
 20
346.7835603860619
 30
0.0
 11
-605.626363001588
 21
347.0
 31
0.0
  0
POLYLINE
  5
1AF
  8
1
  6
CONTINUOUS
 62
     7
 66
     1
 10
0.0
 20
0.0
 30
0.0
  0
VERTEX
  5
74B
  8
1
  6
CONTINUOUS
 62
     7
 10
-605.626363001588
 20
346.9999999999999
 30
0.0
  0
VERTEX
  5
74C
  8
1
  6
CONTINUOUS
 62
     7
 10
-605.6257607296906
 20
347.0245338371637
 30
0.0
  0
VERTEX
  5
74D
  8
1
  6
CONTINUOUS
 62
     7
 10
-605.6239553649241
 20
347.0490085701648
 30
0.0
  0
VERTEX
  5
74E
  8
1
  6
CONTINUOUS
 62
     7
 10
-605.6209512565704
 20
347.0733652372277
 30
0.0
  0
VERTEX
  5
74F
  8
1
  6
CONTINUOUS
 62
     7
 10
-605.6167556417896
 20
347.097545161008
 30
0.0
  0
VERTEX
  5
750
  8
1
  6
CONTINUOUS
 62
     7
 10
-605.6113786281852
 20
347.1214900899516
 30
0.0
  0
VERTEX
  5
751
  8
1
  6
CONTINUOUS
 62
     7
 10
-605.6048331694541
 20
347.1451423386272
 30
0.0
  0
VERTEX
  5
752
  8
1
  6
CONTINUOUS
 62
     7
 10
-605.5971350341795
 20
347.1684449266961
 30
0.0
  0
VERTEX
  5
753
  8
1
  6
CONTINUOUS
 62
     7
 10
-605.5883027678436
 20
347.1913417161825
 30
0.0
  0
VERTEX
  5
754
  8
1
  6
CONTINUOUS
 62
     7
 10
-605.5783576481497
 20
347.2137775467151
 30
0.0
  0
VERTEX
  5
755
  8
1
  6
CONTINUOUS
 62
     7
 10
-605.5673236337622
 20
347.235698368413
 30
0.0
  0
VERTEX
  5
756
  8
1
  6
CONTINUOUS
 62
     7
 10
-605.555227306588
 20
347.2570513720966
 30
0.0
  0
VERTEX
  5
757
  8
1
  6
CONTINUOUS
 62
     7
 10
-605.5420978077392
 20
347.2777851165098
 30
0.0
  0
VERTEX
  5
758
  8
1
  6
CONTINUOUS
 62
     7
 10
-605.5279667673283
 20
347.2978496522462
 30
0.0
  0
VERTEX
  5
759
  8
1
  6
CONTINUOUS
 62
     7
 10
-605.5128682282693
 20
347.3171966420818
 30
0.0
  0
VERTEX
  5
75A
  8
1
  6
CONTINUOUS
 62
     7
 10
-605.4968385642655
 20
347.3357794774235
 30
0.0
  0
VERTEX
  5
75B
  8
1
  6
CONTINUOUS
 62
     7
 10
-605.4799163921813
 20
347.3535533905933
 30
0.0
  0
VERTEX
  5
75C
  8
1
  6
CONTINUOUS
 62
     7
 10
-605.4621424790115
 20
347.3704755626775
 30
0.0
  0
VERTEX
  5
75D
  8
1
  6
CONTINUOUS
 62
     7
 10
-605.4435596436698
 20
347.3865052266813
 30
0.0
  0
VERTEX
  5
75E
  8
1
  6
CONTINUOUS
 62
     7
 10
-605.4242126538342
 20
347.4016037657403
 30
0.0
  0
VERTEX
  5
75F
  8
1
  6
CONTINUOUS
 62
     7
 10
-605.4041481180977
 20
347.4157348061513
 30
0.0
  0
VERTEX
  5
760
  8
1
  6
CONTINUOUS
 62
     7
 10
-605.3834143736846
 20
347.4288643050002
 30
0.0
  0
VERTEX
  5
761
  8
1
  6
CONTINUOUS
 62
     7
 10
-605.3620613700009
 20
347.4409606321742
 30
0.0
  0
VERTEX
  5
762
  8
1
  6
CONTINUOUS
 62
     7
 10
-605.3401405483031
 20
347.4519946465617
 30
0.0
  0
VERTEX
  5
763
  8
1
  6
CONTINUOUS
 62
     7
 10
-605.3177047177704
 20
347.4619397662557
 30
0.0
  0
VERTEX
  5
764
  8
1
  6
CONTINUOUS
 62
     7
 10
-605.2948079282841
 20
347.4707720325915
 30
0.0
  0
VERTEX
  5
765
  8
1
  6
CONTINUOUS
 62
     7
 10
-605.2715053402152
 20
347.4784701678661
 30
0.0
  0
VERTEX
  5
766
  8
1
  6
CONTINUOUS
 62
     7
 10
-605.2478530915396
 20
347.4850156265973
 30
0.0
  0
VERTEX
  5
767
  8
1
  6
CONTINUOUS
 62
     7
 10
-605.2239081625961
 20
347.4903926402016
 30
0.0
  0
VERTEX
  5
768
  8
1
  6
CONTINUOUS
 62
     7
 10
-605.1997282388156
 20
347.4945882549824
 30
0.0
  0
VERTEX
  5
769
  8
1
  6
CONTINUOUS
 62
     7
 10
-605.1753715717527
 20
347.4975923633361
 30
0.0
  0
VERTEX
  5
76A
  8
1
  6
CONTINUOUS
 62
     7
 10
-605.1508968387517
 20
347.4993977281026
 30
0.0
  0
VERTEX
  5
76B
  8
1
  6
CONTINUOUS
 62
     7
 10
-605.126363001588
 20
347.5
 30
0.0
  0
SEQEND
  5
8E7
  8
1
  6
CONTINUOUS
 62
     7
  0
LINE
  5
1B0
  8
1
  6
CONTINUOUS
 62
     7
 10
-605.126363001588
 20
347.5
 30
0.0
 11
-603.626363001588
 21
347.5
 31
0.0
  0
POLYLINE
  5
1B1
  8
1
  6
CONTINUOUS
 62
     7
 66
     1
 10
0.0
 20
0.0
 30
0.0
  0
VERTEX
  5
76C
  8
1
  6
CONTINUOUS
 62
     7
 10
-605.626363001588
 20
413.0
 30
0.0
  0
VERTEX
  5
76D
  8
1
  6
CONTINUOUS
 62
     7
 10
-605.6257607296906
 20
412.9754661628363
 30
0.0
  0
VERTEX
  5
76E
  8
1
  6
CONTINUOUS
 62
     7
 10
-605.6239553649241
 20
412.9509914298352
 30
0.0
  0
VERTEX
  5
76F
  8
1
  6
CONTINUOUS
 62
     7
 10
-605.6209512565704
 20
412.9266347627723
 30
0.0
  0
VERTEX
  5
770
  8
1
  6
CONTINUOUS
 62
     7
 10
-605.6167556417896
 20
412.902454838992
 30
0.0
  0
VERTEX
  5
771
  8
1
  6
CONTINUOUS
 62
     7
 10
-605.6113786281852
 20
412.8785099100484
 30
0.0
  0
VERTEX
  5
772
  8
1
  6
CONTINUOUS
 62
     7
 10
-605.6048331694541
 20
412.8548576613728
 30
0.0
  0
VERTEX
  5
773
  8
1
  6
CONTINUOUS
 62
     7
 10
-605.5971350341795
 20
412.8315550733039
 30
0.0
  0
VERTEX
  5
774
  8
1
  6
CONTINUOUS
 62
     7
 10
-605.5883027678436
 20
412.8086582838175
 30
0.0
  0
VERTEX
  5
775
  8
1
  6
CONTINUOUS
 62
     7
 10
-605.5783576481497
 20
412.7862224532849
 30
0.0
  0
VERTEX
  5
776
  8
1
  6
CONTINUOUS
 62
     7
 10
-605.5673236337622
 20
412.764301631587
 30
0.0
  0
VERTEX
  5
777
  8
1
  6
CONTINUOUS
 62
     7
 10
-605.555227306588
 20
412.7429486279034
 30
0.0
  0
VERTEX
  5
778
  8
1
  6
CONTINUOUS
 62
     7
 10
-605.5420978077392
 20
412.7222148834902
 30
0.0
  0
VERTEX
  5
779
  8
1
  6
CONTINUOUS
 62
     7
 10
-605.5279667673283
 20
412.7021503477538
 30
0.0
  0
VERTEX
  5
77A
  8
1
  6
CONTINUOUS
 62
     7
 10
-605.5128682282693
 20
412.6828033579181
 30
0.0
  0
VERTEX
  5
77B
  8
1
  6
CONTINUOUS
 62
     7
 10
-605.4968385642655
 20
412.6642205225765
 30
0.0
  0
VERTEX
  5
77C
  8
1
  6
CONTINUOUS
 62
     7
 10
-605.4799163921813
 20
412.6464466094067
 30
0.0
  0
VERTEX
  5
77D
  8
1
  6
CONTINUOUS
 62
     7
 10
-605.4621424790115
 20
412.6295244373225
 30
0.0
  0
VERTEX
  5
77E
  8
1
  6
CONTINUOUS
 62
     7
 10
-605.4435596436698
 20
412.6134947733186
 30
0.0
  0
VERTEX
  5
77F
  8
1
  6
CONTINUOUS
 62
     7
 10
-605.4242126538342
 20
412.5983962342597
 30
0.0
  0
VERTEX
  5
780
  8
1
  6
CONTINUOUS
 62
     7
 10
-605.4041481180977
 20
412.5842651938487
 30
0.0
  0
VERTEX
  5
781
  8
1
  6
CONTINUOUS
 62
     7
 10
-605.3834143736846
 20
412.5711356949998
 30
0.0
  0
VERTEX
  5
782
  8
1
  6
CONTINUOUS
 62
     7
 10
-605.3620613700009
 20
412.5590393678258
 30
0.0
  0
VERTEX
  5
783
  8
1
  6
CONTINUOUS
 62
     7
 10
-605.3401405483031
 20
412.5480053534383
 30
0.0
  0
VERTEX
  5
784
  8
1
  6
CONTINUOUS
 62
     7
 10
-605.3177047177704
 20
412.5380602337443
 30
0.0
  0
VERTEX
  5
785
  8
1
  6
CONTINUOUS
 62
     7
 10
-605.2948079282841
 20
412.5292279674085
 30
0.0
  0
VERTEX
  5
786
  8
1
  6
CONTINUOUS
 62
     7
 10
-605.2715053402152
 20
412.5215298321339
 30
0.0
  0
VERTEX
  5
787
  8
1
  6
CONTINUOUS
 62
     7
 10
-605.2478530915396
 20
412.5149843734027
 30
0.0
  0
VERTEX
  5
788
  8
1
  6
CONTINUOUS
 62
     7
 10
-605.2239081625961
 20
412.5096073597984
 30
0.0
  0
VERTEX
  5
789
  8
1
  6
CONTINUOUS
 62
     7
 10
-605.1997282388156
 20
412.5054117450176
 30
0.0
  0
VERTEX
  5
78A
  8
1
  6
CONTINUOUS
 62
     7
 10
-605.1753715717527
 20
412.5024076366639
 30
0.0
  0
VERTEX
  5
78B
  8
1
  6
CONTINUOUS
 62
     7
 10
-605.1508968387517
 20
412.5006022718974
 30
0.0
  0
VERTEX
  5
78C
  8
1
  6
CONTINUOUS
 62
     7
 10
-605.126363001588
 20
412.4999999999999
 30
0.0
  0
SEQEND
  5
8E8
  8
1
  6
CONTINUOUS
 62
     7
  0
LINE
  5
1B2
  8
1
  6
CONTINUOUS
 62
     7
 10
-605.626363001588
 20
413.2164396139381
 30
0.0
 11
-605.626363001588
 21
412.9999999999999
 31
0.0
  0
LINE
  5
1B3
  8
1
  6
CONTINUOUS
 62
     7
 10
-603.126363001588
 20
413.0
 30
0.0
 11
-603.126363001588
 21
413.2164396139381
 31
0.0
  0
LINE
  5
1B4
  8
1
  6
CONTINUOUS
 62
     7
 10
-605.126363001588
 20
412.4999999999999
 30
0.0
 11
-603.626363001588
 21
412.4999999999999
 31
0.0
  0
POLYLINE
  5
1B5
  8
1
  6
CONTINUOUS
 62
     7
 66
     1
 10
0.0
 20
0.0
 30
0.0
  0
VERTEX
  5
78D
  8
1
  6
CONTINUOUS
 62
     7
 10
-603.626363001588
 20
412.4999999999999
 30
0.0
  0
VERTEX
  5
78E
  8
1
  6
CONTINUOUS
 62
     7
 10
-603.6018291644243
 20
412.5006022718974
 30
0.0
  0
VERTEX
  5
78F
  8
1
  6
CONTINUOUS
 62
     7
 10
-603.5773544314233
 20
412.5024076366639
 30
0.0
  0
VERTEX
  5
790
  8
1
  6
CONTINUOUS
 62
     7
 10
-603.5529977643603
 20
412.5054117450176
 30
0.0
  0
VERTEX
  5
791
  8
1
  6
CONTINUOUS
 62
     7
 10
-603.5288178405799
 20
412.5096073597984
 30
0.0
  0
VERTEX
  5
792
  8
1
  6
CONTINUOUS
 62
     7
 10
-603.5048729116363
 20
412.5149843734027
 30
0.0
  0
VERTEX
  5
793
  8
1
  6
CONTINUOUS
 62
     7
 10
-603.4812206629607
 20
412.5215298321339
 30
0.0
  0
VERTEX
  5
794
  8
1
  6
CONTINUOUS
 62
     7
 10
-603.457918074892
 20
412.5292279674085
 30
0.0
  0
VERTEX
  5
795
  8
1
  6
CONTINUOUS
 62
     7
 10
-603.4350212854054
 20
412.5380602337443
 30
0.0
  0
VERTEX
  5
796
  8
1
  6
CONTINUOUS
 62
     7
 10
-603.4125854548729
 20
412.5480053534383
 30
0.0
  0
VERTEX
  5
797
  8
1
  6
CONTINUOUS
 62
     7
 10
-603.3906646331749
 20
412.5590393678258
 30
0.0
  0
VERTEX
  5
798
  8
1
  6
CONTINUOUS
 62
     7
 10
-603.3693116294913
 20
412.5711356949998
 30
0.0
  0
VERTEX
  5
799
  8
1
  6
CONTINUOUS
 62
     7
 10
-603.3485778850782
 20
412.5842651938487
 30
0.0
  0
VERTEX
  5
79A
  8
1
  6
CONTINUOUS
 62
     7
 10
-603.3285133493417
 20
412.5983962342597
 30
0.0
  0
VERTEX
  5
79B
  8
1
  6
CONTINUOUS
 62
     7
 10
-603.3091663595061
 20
412.6134947733186
 30
0.0
  0
VERTEX
  5
79C
  8
1
  6
CONTINUOUS
 62
     7
 10
-603.2905835241644
 20
412.6295244373225
 30
0.0
  0
VERTEX
  5
79D
  8
1
  6
CONTINUOUS
 62
     7
 10
-603.2728096109947
 20
412.6464466094067
 30
0.0
  0
VERTEX
  5
79E
  8
1
  6
CONTINUOUS
 62
     7
 10
-603.2558874389105
 20
412.6642205225765
 30
0.0
  0
VERTEX
  5
79F
  8
1
  6
CONTINUOUS
 62
     7
 10
-603.2398577749066
 20
412.6828033579181
 30
0.0
  0
VERTEX
  5
7A0
  8
1
  6
CONTINUOUS
 62
     7
 10
-603.2247592358476
 20
412.7021503477538
 30
0.0
  0
VERTEX
  5
7A1
  8
1
  6
CONTINUOUS
 62
     7
 10
-603.2106281954367
 20
412.7222148834902
 30
0.0
  0
VERTEX
  5
7A2
  8
1
  6
CONTINUOUS
 62
     7
 10
-603.1974986965878
 20
412.7429486279034
 30
0.0
  0
VERTEX
  5
7A3
  8
1
  6
CONTINUOUS
 62
     7
 10
-603.1854023694137
 20
412.764301631587
 30
0.0
  0
VERTEX
  5
7A4
  8
1
  6
CONTINUOUS
 62
     7
 10
-603.1743683550262
 20
412.7862224532849
 30
0.0
  0
VERTEX
  5
7A5
  8
1
  6
CONTINUOUS
 62
     7
 10
-603.1644232353324
 20
412.8086582838175
 30
0.0
  0
VERTEX
  5
7A6
  8
1
  6
CONTINUOUS
 62
     7
 10
-603.1555909689965
 20
412.8315550733039
 30
0.0
  0
VERTEX
  5
7A7
  8
1
  6
CONTINUOUS
 62
     7
 10
-603.1478928337218
 20
412.8548576613728
 30
0.0
  0
VERTEX
  5
7A8
  8
1
  6
CONTINUOUS
 62
     7
 10
-603.1413473749907
 20
412.8785099100484
 30
0.0
  0
VERTEX
  5
7A9
  8
1
  6
CONTINUOUS
 62
     7
 10
-603.1359703613863
 20
412.902454838992
 30
0.0
  0
VERTEX
  5
7AA
  8
1
  6
CONTINUOUS
 62
     7
 10
-603.1317747466056
 20
412.9266347627723
 30
0.0
  0
VERTEX
  5
7AB
  8
1
  6
CONTINUOUS
 62
     7
 10
-603.1287706382518
 20
412.9509914298352
 30
0.0
  0
VERTEX
  5
7AC
  8
1
  6
CONTINUOUS
 62
     7
 10
-603.1269652734854
 20
412.9754661628363
 30
0.0
  0
VERTEX
  5
7AD
  8
1
  6
CONTINUOUS
 62
     7
 10
-603.126363001588
 20
413.0
 30
0.0
  0
SEQEND
  5
8E9
  8
1
  6
CONTINUOUS
 62
     7
  0
LINE
  5
1B6
  8
1
  6
CONTINUOUS
 62
     7
 10
-614.6280251488292
 20
370.2890770934368
 30
0.0
 11
-614.6108548135892
 21
370.1528730706963
 31
0.0
  0
ARC
  5
1B7
  8
1
  6
CONTINUOUS
 62
     7
 10
-547.6563408458475
 20
378.4856037944315
 30
0.0
 40
67.47104074074159
 50
187.0941982324116
 51
196.1570028613893
  0
LINE
  5
1B8
  8
1
  6
CONTINUOUS
 62
     7
 10
-612.4624803239142
 20
359.7104697293398
 30
0.0
 11
-612.2863758990122
 21
359.1236056810839
 31
0.0
  0
LINE
  5
1B9
  8
1
  6
CONTINUOUS
 62
     7
 10
-612.4624760493167
 20
400.2895447958711
 30
0.0
 11
-612.2863759304839
 21
400.8763942160422
 31
0.0
  0
ARC
  5
1BA
  8
1
  6
CONTINUOUS
 62
     7
 10
-547.6563030337932
 20
381.5143896693895
 30
0.0
 40
67.47107907054833
 50
163.8430394917776
 51
172.9058002251917
  0
LINE
  5
1BB
  8
1
  6
CONTINUOUS
 62
     7
 10
-614.6280244228012
 20
389.7109287087503
 30
0.0
 11
-614.6108535727063
 21
389.847136700223
 31
0.0
  0
LINE
  5
1BC
  8
1
  6
CONTINUOUS
 62
     7
 10
-575.8418724229559
 20
389.8471366410594
 30
0.0
 11
-575.8247012797457
 21
389.710926306218
 31
0.0
  0
ARC
  5
1BD
  8
1
  6
CONTINUOUS
 62
     7
 10
-641.6817606646428
 20
381.7437156486546
 30
0.0
 40
66.33668906011191
 50
7.016544719956529
 51
16.23461532507367
  0
LINE
  5
1BE
  8
1
  6
CONTINUOUS
 62
     7
 10
-578.1663509158074
 20
400.876396971989
 30
0.0
 11
-577.9902634740035
 21
400.2895907376371
 31
0.0
  0
LINE
  5
1BF
  8
1
  6
CONTINUOUS
 62
     7
 10
-578.1663511124672
 20
359.123602385176
 30
0.0
 11
-577.9902595563846
 21
359.7104225745089
 31
0.0
  0
ARC
  5
1C0
  8
1
  6
CONTINUOUS
 62
     7
 10
-641.6817537858925
 20
378.256282666401
 30
0.0
 40
66.33668198459011
 50
343.7653844111974
 51
352.9834464966713
  0
LINE
  5
1C1
  8
1
  6
CONTINUOUS
 62
     7
 10
-575.8418713020208
 20
370.1528721853704
 30
0.0
 11
-575.8247006495372
 21
370.2890787302088
 31
0.0
  0
POLYLINE
  5
1C2
  8
1
  6
CONTINUOUS
 62
     7
 66
     1
 10
0.0
 20
0.0
 30
0.0
  0
VERTEX
  5
7AE
  8
1
  6
CONTINUOUS
 62
     7
 10
-586.826363001588
 20
414.0
 30
0.0
  0
VERTEX
  5
7AF
  8
1
  6
CONTINUOUS
 62
     7
 10
-586.8508968387516
 20
413.9993977281026
 30
0.0
  0
VERTEX
  5
7B0
  8
1
  6
CONTINUOUS
 62
     7
 10
-586.8753715717527
 20
413.9975923633361
 30
0.0
  0
VERTEX
  5
7B1
  8
1
  6
CONTINUOUS
 62
     7
 10
-586.8997282388157
 20
413.9945882549824
 30
0.0
  0
VERTEX
  5
7B2
  8
1
  6
CONTINUOUS
 62
     7
 10
-586.9239081625959
 20
413.9903926402016
 30
0.0
  0
VERTEX
  5
7B3
  8
1
  6
CONTINUOUS
 62
     7
 10
-586.9478530915396
 20
413.9850156265973
 30
0.0
  0
VERTEX
  5
7B4
  8
1
  6
CONTINUOUS
 62
     7
 10
-586.9715053402152
 20
413.9784701678661
 30
0.0
  0
VERTEX
  5
7B5
  8
1
  6
CONTINUOUS
 62
     7
 10
-586.9948079282841
 20
413.9707720325915
 30
0.0
  0
VERTEX
  5
7B6
  8
1
  6
CONTINUOUS
 62
     7
 10
-587.0177047177705
 20
413.9619397662557
 30
0.0
  0
VERTEX
  5
7B7
  8
1
  6
CONTINUOUS
 62
     7
 10
-587.0401405483032
 20
413.9519946465617
 30
0.0
  0
VERTEX
  5
7B8
  8
1
  6
CONTINUOUS
 62
     7
 10
-587.062061370001
 20
413.9409606321742
 30
0.0
  0
VERTEX
  5
7B9
  8
1
  6
CONTINUOUS
 62
     7
 10
-587.0834143736846
 20
413.9288643050002
 30
0.0
  0
VERTEX
  5
7BA
  8
1
  6
CONTINUOUS
 62
     7
 10
-587.1041481180978
 20
413.9157348061513
 30
0.0
  0
VERTEX
  5
7BB
  8
1
  6
CONTINUOUS
 62
     7
 10
-587.1242126538342
 20
413.9016037657403
 30
0.0
  0
VERTEX
  5
7BC
  8
1
  6
CONTINUOUS
 62
     7
 10
-587.1435596436698
 20
413.8865052266813
 30
0.0
  0
VERTEX
  5
7BD
  8
1
  6
CONTINUOUS
 62
     7
 10
-587.1621424790114
 20
413.8704755626775
 30
0.0
  0
VERTEX
  5
7BE
  8
1
  6
CONTINUOUS
 62
     7
 10
-587.1799163921812
 20
413.8535533905933
 30
0.0
  0
VERTEX
  5
7BF
  8
1
  6
CONTINUOUS
 62
     7
 10
-587.1968385642654
 20
413.8357794774235
 30
0.0
  0
VERTEX
  5
7C0
  8
1
  6
CONTINUOUS
 62
     7
 10
-587.2128682282694
 20
413.8171966420818
 30
0.0
  0
VERTEX
  5
7C1
  8
1
  6
CONTINUOUS
 62
     7
 10
-587.2279667673282
 20
413.7978496522462
 30
0.0
  0
VERTEX
  5
7C2
  8
1
  6
CONTINUOUS
 62
     7
 10
-587.2420978077392
 20
413.7777851165098
 30
0.0
  0
VERTEX
  5
7C3
  8
1
  6
CONTINUOUS
 62
     7
 10
-587.255227306588
 20
413.7570513720966
 30
0.0
  0
VERTEX
  5
7C4
  8
1
  6
CONTINUOUS
 62
     7
 10
-587.2673236337621
 20
413.735698368413
 30
0.0
  0
VERTEX
  5
7C5
  8
1
  6
CONTINUOUS
 62
     7
 10
-587.2783576481497
 20
413.7137775467151
 30
0.0
  0
VERTEX
  5
7C6
  8
1
  6
CONTINUOUS
 62
     7
 10
-587.2883027678436
 20
413.6913417161825
 30
0.0
  0
VERTEX
  5
7C7
  8
1
  6
CONTINUOUS
 62
     7
 10
-587.2971350341794
 20
413.6684449266961
 30
0.0
  0
VERTEX
  5
7C8
  8
1
  6
CONTINUOUS
 62
     7
 10
-587.304833169454
 20
413.6451423386272
 30
0.0
  0
VERTEX
  5
7C9
  8
1
  6
CONTINUOUS
 62
     7
 10
-587.3113786281853
 20
413.6214900899516
 30
0.0
  0
VERTEX
  5
7CA
  8
1
  6
CONTINUOUS
 62
     7
 10
-587.3167556417895
 20
413.597545161008
 30
0.0
  0
VERTEX
  5
7CB
  8
1
  6
CONTINUOUS
 62
     7
 10
-587.3209512565703
 20
413.5733652372277
 30
0.0
  0
VERTEX
  5
7CC
  8
1
  6
CONTINUOUS
 62
     7
 10
-587.3239553649241
 20
413.5490085701648
 30
0.0
  0
VERTEX
  5
7CD
  8
1
  6
CONTINUOUS
 62
     7
 10
-587.3257607296905
 20
413.5245338371637
 30
0.0
  0
VERTEX
  5
7CE
  8
1
  6
CONTINUOUS
 62
     7
 10
-587.326363001588
 20
413.4999999999999
 30
0.0
  0
SEQEND
  5
8EA
  8
1
  6
CONTINUOUS
 62
     7
  0
LINE
  5
1C3
  8
1
  6
CONTINUOUS
 62
     7
 10
-586.826363001588
 20
414.0
 30
0.0
 11
-585.326363001588
 21
414.0
 31
0.0
  0
POLYLINE
  5
1C4
  8
1
  6
CONTINUOUS
 62
     7
 66
     1
 10
0.0
 20
0.0
 30
0.0
  0
VERTEX
  5
7CF
  8
1
  6
CONTINUOUS
 62
     7
 10
-584.826363001588
 20
413.4999999999999
 30
0.0
  0
VERTEX
  5
7D0
  8
1
  6
CONTINUOUS
 62
     7
 10
-584.8269652734854
 20
413.5245338371637
 30
0.0
  0
VERTEX
  5
7D1
  8
1
  6
CONTINUOUS
 62
     7
 10
-584.8287706382519
 20
413.5490085701648
 30
0.0
  0
VERTEX
  5
7D2
  8
1
  6
CONTINUOUS
 62
     7
 10
-584.8317747466057
 20
413.5733652372277
 30
0.0
  0
VERTEX
  5
7D3
  8
1
  6
CONTINUOUS
 62
     7
 10
-584.8359703613863
 20
413.597545161008
 30
0.0
  0
VERTEX
  5
7D4
  8
1
  6
CONTINUOUS
 62
     7
 10
-584.8413473749907
 20
413.6214900899516
 30
0.0
  0
VERTEX
  5
7D5
  8
1
  6
CONTINUOUS
 62
     7
 10
-584.8478928337219
 20
413.6451423386272
 30
0.0
  0
VERTEX
  5
7D6
  8
1
  6
CONTINUOUS
 62
     7
 10
-584.8555909689964
 20
413.6684449266961
 30
0.0
  0
VERTEX
  5
7D7
  8
1
  6
CONTINUOUS
 62
     7
 10
-584.8644232353323
 20
413.6913417161825
 30
0.0
  0
VERTEX
  5
7D8
  8
1
  6
CONTINUOUS
 62
     7
 10
-584.8743683550263
 20
413.7137775467151
 30
0.0
  0
VERTEX
  5
7D9
  8
1
  6
CONTINUOUS
 62
     7
 10
-584.8854023694138
 20
413.735698368413
 30
0.0
  0
VERTEX
  5
7DA
  8
1
  6
CONTINUOUS
 62
     7
 10
-584.8974986965878
 20
413.7570513720966
 30
0.0
  0
VERTEX
  5
7DB
  8
1
  6
CONTINUOUS
 62
     7
 10
-584.9106281954367
 20
413.7777851165098
 30
0.0
  0
VERTEX
  5
7DC
  8
1
  6
CONTINUOUS
 62
     7
 10
-584.9247592358477
 20
413.7978496522462
 30
0.0
  0
VERTEX
  5
7DD
  8
1
  6
CONTINUOUS
 62
     7
 10
-584.9398577749066
 20
413.8171966420818
 30
0.0
  0
VERTEX
  5
7DE
  8
1
  6
CONTINUOUS
 62
     7
 10
-584.9558874389105
 20
413.8357794774235
 30
0.0
  0
VERTEX
  5
7DF
  8
1
  6
CONTINUOUS
 62
     7
 10
-584.9728096109948
 20
413.8535533905933
 30
0.0
  0
VERTEX
  5
7E0
  8
1
  6
CONTINUOUS
 62
     7
 10
-584.9905835241644
 20
413.8704755626775
 30
0.0
  0
VERTEX
  5
7E1
  8
1
  6
CONTINUOUS
 62
     7
 10
-585.0091663595061
 20
413.8865052266813
 30
0.0
  0
VERTEX
  5
7E2
  8
1
  6
CONTINUOUS
 62
     7
 10
-585.0285133493418
 20
413.9016037657403
 30
0.0
  0
VERTEX
  5
7E3
  8
1
  6
CONTINUOUS
 62
     7
 10
-585.0485778850781
 20
413.9157348061513
 30
0.0
  0
VERTEX
  5
7E4
  8
1
  6
CONTINUOUS
 62
     7
 10
-585.0693116294914
 20
413.9288643050002
 30
0.0
  0
VERTEX
  5
7E5
  8
1
  6
CONTINUOUS
 62
     7
 10
-585.0906646331749
 20
413.9409606321742
 30
0.0
  0
VERTEX
  5
7E6
  8
1
  6
CONTINUOUS
 62
     7
 10
-585.1125854548728
 20
413.9519946465617
 30
0.0
  0
VERTEX
  5
7E7
  8
1
  6
CONTINUOUS
 62
     7
 10
-585.1350212854054
 20
413.9619397662557
 30
0.0
  0
VERTEX
  5
7E8
  8
1
  6
CONTINUOUS
 62
     7
 10
-585.1579180748918
 20
413.9707720325915
 30
0.0
  0
VERTEX
  5
7E9
  8
1
  6
CONTINUOUS
 62
     7
 10
-585.1812206629608
 20
413.9784701678661
 30
0.0
  0
VERTEX
  5
7EA
  8
1
  6
CONTINUOUS
 62
     7
 10
-585.2048729116364
 20
413.9850156265973
 30
0.0
  0
VERTEX
  5
7EB
  8
1
  6
CONTINUOUS
 62
     7
 10
-585.2288178405798
 20
413.9903926402016
 30
0.0
  0
VERTEX
  5
7EC
  8
1
  6
CONTINUOUS
 62
     7
 10
-585.2529977643602
 20
413.9945882549824
 30
0.0
  0
VERTEX
  5
7ED
  8
1
  6
CONTINUOUS
 62
     7
 10
-585.2773544314232
 20
413.9975923633361
 30
0.0
  0
VERTEX
  5
7EE
  8
1
  6
CONTINUOUS
 62
     7
 10
-585.3018291644242
 20
413.9993977281026
 30
0.0
  0
VERTEX
  5
7EF
  8
1
  6
CONTINUOUS
 62
     7
 10
-585.326363001588
 20
414.0
 30
0.0
  0
SEQEND
  5
8EB
  8
1
  6
CONTINUOUS
 62
     7
  0
LINE
  5
1C5
  8
1
  6
CONTINUOUS
 62
     7
 10
-587.326363001588
 20
413.2164396139381
 30
0.0
 11
-587.326363001588
 21
413.5
 31
0.0
  0
LINE
  5
1C6
  8
1
  6
CONTINUOUS
 62
     7
 10
-584.826363001588
 20
413.4999999999999
 30
0.0
 11
-584.826363001588
 21
413.216439613938
 31
0.0
  0
POLYLINE
  5
1C7
  8
1
  6
CONTINUOUS
 62
     7
 66
     1
 10
0.0
 20
0.0
 30
0.0
  0
VERTEX
  5
7F0
  8
1
  6
CONTINUOUS
 62
     7
 10
-584.826363001588
 20
346.5
 30
0.0
  0
VERTEX
  5
7F1
  8
1
  6
CONTINUOUS
 62
     7
 10
-584.8269652734854
 20
346.4754661628363
 30
0.0
  0
VERTEX
  5
7F2
  8
1
  6
CONTINUOUS
 62
     7
 10
-584.8287706382519
 20
346.4509914298352
 30
0.0
  0
VERTEX
  5
7F3
  8
1
  6
CONTINUOUS
 62
     7
 10
-584.8317747466057
 20
346.4266347627723
 30
0.0
  0
VERTEX
  5
7F4
  8
1
  6
CONTINUOUS
 62
     7
 10
-584.8359703613863
 20
346.402454838992
 30
0.0
  0
VERTEX
  5
7F5
  8
1
  6
CONTINUOUS
 62
     7
 10
-584.8413473749907
 20
346.3785099100484
 30
0.0
  0
VERTEX
  5
7F6
  8
1
  6
CONTINUOUS
 62
     7
 10
-584.8478928337219
 20
346.3548576613728
 30
0.0
  0
VERTEX
  5
7F7
  8
1
  6
CONTINUOUS
 62
     7
 10
-584.8555909689964
 20
346.3315550733039
 30
0.0
  0
VERTEX
  5
7F8
  8
1
  6
CONTINUOUS
 62
     7
 10
-584.8644232353324
 20
346.3086582838175
 30
0.0
  0
VERTEX
  5
7F9
  8
1
  6
CONTINUOUS
 62
     7
 10
-584.8743683550263
 20
346.2862224532849
 30
0.0
  0
VERTEX
  5
7FA
  8
1
  6
CONTINUOUS
 62
     7
 10
-584.8854023694138
 20
346.264301631587
 30
0.0
  0
VERTEX
  5
7FB
  8
1
  6
CONTINUOUS
 62
     7
 10
-584.8974986965878
 20
346.2429486279034
 30
0.0
  0
VERTEX
  5
7FC
  8
1
  6
CONTINUOUS
 62
     7
 10
-584.9106281954367
 20
346.2222148834902
 30
0.0
  0
VERTEX
  5
7FD
  8
1
  6
CONTINUOUS
 62
     7
 10
-584.9247592358477
 20
346.2021503477538
 30
0.0
  0
VERTEX
  5
7FE
  8
1
  6
CONTINUOUS
 62
     7
 10
-584.9398577749066
 20
346.1828033579181
 30
0.0
  0
VERTEX
  5
7FF
  8
1
  6
CONTINUOUS
 62
     7
 10
-584.9558874389105
 20
346.1642205225765
 30
0.0
  0
VERTEX
  5
800
  8
1
  6
CONTINUOUS
 62
     7
 10
-584.9728096109948
 20
346.1464466094067
 30
0.0
  0
VERTEX
  5
801
  8
1
  6
CONTINUOUS
 62
     7
 10
-584.9905835241644
 20
346.1295244373225
 30
0.0
  0
VERTEX
  5
802
  8
1
  6
CONTINUOUS
 62
     7
 10
-585.0091663595061
 20
346.1134947733186
 30
0.0
  0
VERTEX
  5
803
  8
1
  6
CONTINUOUS
 62
     7
 10
-585.0285133493418
 20
346.0983962342597
 30
0.0
  0
VERTEX
  5
804
  8
1
  6
CONTINUOUS
 62
     7
 10
-585.0485778850781
 20
346.0842651938487
 30
0.0
  0
VERTEX
  5
805
  8
1
  6
CONTINUOUS
 62
     7
 10
-585.0693116294914
 20
346.0711356949998
 30
0.0
  0
VERTEX
  5
806
  8
1
  6
CONTINUOUS
 62
     7
 10
-585.0906646331749
 20
346.0590393678258
 30
0.0
  0
VERTEX
  5
807
  8
1
  6
CONTINUOUS
 62
     7
 10
-585.1125854548728
 20
346.0480053534383
 30
0.0
  0
VERTEX
  5
808
  8
1
  6
CONTINUOUS
 62
     7
 10
-585.1350212854054
 20
346.0380602337443
 30
0.0
  0
VERTEX
  5
809
  8
1
  6
CONTINUOUS
 62
     7
 10
-585.1579180748918
 20
346.0292279674085
 30
0.0
  0
VERTEX
  5
80A
  8
1
  6
CONTINUOUS
 62
     7
 10
-585.1812206629608
 20
346.0215298321339
 30
0.0
  0
VERTEX
  5
80B
  8
1
  6
CONTINUOUS
 62
     7
 10
-585.2048729116364
 20
346.0149843734027
 30
0.0
  0
VERTEX
  5
80C
  8
1
  6
CONTINUOUS
 62
     7
 10
-585.2288178405798
 20
346.0096073597984
 30
0.0
  0
VERTEX
  5
80D
  8
1
  6
CONTINUOUS
 62
     7
 10
-585.2529977643603
 20
346.0054117450176
 30
0.0
  0
VERTEX
  5
80E
  8
1
  6
CONTINUOUS
 62
     7
 10
-585.2773544314232
 20
346.0024076366639
 30
0.0
  0
VERTEX
  5
80F
  8
1
  6
CONTINUOUS
 62
     7
 10
-585.3018291644242
 20
346.0006022718974
 30
0.0
  0
VERTEX
  5
810
  8
1
  6
CONTINUOUS
 62
     7
 10
-585.326363001588
 20
345.9999999999999
 30
0.0
  0
SEQEND
  5
8EC
  8
1
  6
CONTINUOUS
 62
     7
  0
LINE
  5
1C8
  8
1
  6
CONTINUOUS
 62
     7
 10
-586.826363001588
 20
345.9999999999999
 30
0.0
 11
-585.326363001588
 21
345.9999999999999
 31
0.0
  0
POLYLINE
  5
1C9
  8
1
  6
CONTINUOUS
 62
     7
 66
     1
 10
0.0
 20
0.0
 30
0.0
  0
VERTEX
  5
811
  8
1
  6
CONTINUOUS
 62
     7
 10
-586.826363001588
 20
345.9999999999999
 30
0.0
  0
VERTEX
  5
812
  8
1
  6
CONTINUOUS
 62
     7
 10
-586.8508968387516
 20
346.0006022718974
 30
0.0
  0
VERTEX
  5
813
  8
1
  6
CONTINUOUS
 62
     7
 10
-586.8753715717527
 20
346.0024076366639
 30
0.0
  0
VERTEX
  5
814
  8
1
  6
CONTINUOUS
 62
     7
 10
-586.8997282388157
 20
346.0054117450176
 30
0.0
  0
VERTEX
  5
815
  8
1
  6
CONTINUOUS
 62
     7
 10
-586.9239081625959
 20
346.0096073597984
 30
0.0
  0
VERTEX
  5
816
  8
1
  6
CONTINUOUS
 62
     7
 10
-586.9478530915396
 20
346.0149843734027
 30
0.0
  0
VERTEX
  5
817
  8
1
  6
CONTINUOUS
 62
     7
 10
-586.9715053402152
 20
346.0215298321339
 30
0.0
  0
VERTEX
  5
818
  8
1
  6
CONTINUOUS
 62
     7
 10
-586.9948079282841
 20
346.0292279674085
 30
0.0
  0
VERTEX
  5
819
  8
1
  6
CONTINUOUS
 62
     7
 10
-587.0177047177705
 20
346.0380602337443
 30
0.0
  0
VERTEX
  5
81A
  8
1
  6
CONTINUOUS
 62
     7
 10
-587.0401405483032
 20
346.0480053534383
 30
0.0
  0
VERTEX
  5
81B
  8
1
  6
CONTINUOUS
 62
     7
 10
-587.062061370001
 20
346.0590393678258
 30
0.0
  0
VERTEX
  5
81C
  8
1
  6
CONTINUOUS
 62
     7
 10
-587.0834143736846
 20
346.0711356949998
 30
0.0
  0
VERTEX
  5
81D
  8
1
  6
CONTINUOUS
 62
     7
 10
-587.1041481180978
 20
346.0842651938487
 30
0.0
  0
VERTEX
  5
81E
  8
1
  6
CONTINUOUS
 62
     7
 10
-587.1242126538342
 20
346.0983962342597
 30
0.0
  0
VERTEX
  5
81F
  8
1
  6
CONTINUOUS
 62
     7
 10
-587.1435596436698
 20
346.1134947733186
 30
0.0
  0
VERTEX
  5
820
  8
1
  6
CONTINUOUS
 62
     7
 10
-587.1621424790114
 20
346.1295244373225
 30
0.0
  0
VERTEX
  5
821
  8
1
  6
CONTINUOUS
 62
     7
 10
-587.1799163921812
 20
346.1464466094067
 30
0.0
  0
VERTEX
  5
822
  8
1
  6
CONTINUOUS
 62
     7
 10
-587.1968385642654
 20
346.1642205225765
 30
0.0
  0
VERTEX
  5
823
  8
1
  6
CONTINUOUS
 62
     7
 10
-587.2128682282694
 20
346.1828033579181
 30
0.0
  0
VERTEX
  5
824
  8
1
  6
CONTINUOUS
 62
     7
 10
-587.2279667673282
 20
346.2021503477538
 30
0.0
  0
VERTEX
  5
825
  8
1
  6
CONTINUOUS
 62
     7
 10
-587.2420978077392
 20
346.2222148834902
 30
0.0
  0
VERTEX
  5
826
  8
1
  6
CONTINUOUS
 62
     7
 10
-587.255227306588
 20
346.2429486279034
 30
0.0
  0
VERTEX
  5
827
  8
1
  6
CONTINUOUS
 62
     7
 10
-587.2673236337621
 20
346.264301631587
 30
0.0
  0
VERTEX
  5
828
  8
1
  6
CONTINUOUS
 62
     7
 10
-587.2783576481497
 20
346.2862224532849
 30
0.0
  0
VERTEX
  5
829
  8
1
  6
CONTINUOUS
 62
     7
 10
-587.2883027678436
 20
346.3086582838175
 30
0.0
  0
VERTEX
  5
82A
  8
1
  6
CONTINUOUS
 62
     7
 10
-587.2971350341794
 20
346.3315550733039
 30
0.0
  0
VERTEX
  5
82B
  8
1
  6
CONTINUOUS
 62
     7
 10
-587.304833169454
 20
346.3548576613728
 30
0.0
  0
VERTEX
  5
82C
  8
1
  6
CONTINUOUS
 62
     7
 10
-587.3113786281853
 20
346.3785099100484
 30
0.0
  0
VERTEX
  5
82D
  8
1
  6
CONTINUOUS
 62
     7
 10
-587.3167556417897
 20
346.402454838992
 30
0.0
  0
VERTEX
  5
82E
  8
1
  6
CONTINUOUS
 62
     7
 10
-587.3209512565703
 20
346.4266347627723
 30
0.0
  0
VERTEX
  5
82F
  8
1
  6
CONTINUOUS
 62
     7
 10
-587.3239553649241
 20
346.4509914298352
 30
0.0
  0
VERTEX
  5
830
  8
1
  6
CONTINUOUS
 62
     7
 10
-587.3257607296905
 20
346.4754661628363
 30
0.0
  0
VERTEX
  5
831
  8
1
  6
CONTINUOUS
 62
     7
 10
-587.326363001588
 20
346.5
 30
0.0
  0
SEQEND
  5
8ED
  8
1
  6
CONTINUOUS
 62
     7
  0
LINE
  5
1CA
  8
1
  6
CONTINUOUS
 62
     7
 10
-587.326363001588
 20
346.7835603860619
 30
0.0
 11
-587.326363001588
 21
346.4999999999999
 31
0.0
  0
LINE
  5
1CB
  8
1
  6
CONTINUOUS
 62
     7
 10
-584.826363001588
 20
346.5
 30
0.0
 11
-584.826363001588
 21
346.783560386062
 31
0.0
  0
POLYLINE
  5
1CC
  8
1
  6
CONTINUOUS
 62
     7
 66
     1
 10
0.0
 20
0.0
 30
0.0
  0
VERTEX
  5
832
  8
1
  6
CONTINUOUS
 62
     7
 10
-605.126363001588
 20
414.0
 30
0.0
  0
VERTEX
  5
833
  8
1
  6
CONTINUOUS
 62
     7
 10
-605.1508968387517
 20
413.9993977281026
 30
0.0
  0
VERTEX
  5
834
  8
1
  6
CONTINUOUS
 62
     7
 10
-605.1753715717527
 20
413.9975923633361
 30
0.0
  0
VERTEX
  5
835
  8
1
  6
CONTINUOUS
 62
     7
 10
-605.1997282388156
 20
413.9945882549824
 30
0.0
  0
VERTEX
  5
836
  8
1
  6
CONTINUOUS
 62
     7
 10
-605.2239081625961
 20
413.9903926402016
 30
0.0
  0
VERTEX
  5
837
  8
1
  6
CONTINUOUS
 62
     7
 10
-605.2478530915396
 20
413.9850156265973
 30
0.0
  0
VERTEX
  5
838
  8
1
  6
CONTINUOUS
 62
     7
 10
-605.2715053402152
 20
413.9784701678661
 30
0.0
  0
VERTEX
  5
839
  8
1
  6
CONTINUOUS
 62
     7
 10
-605.2948079282841
 20
413.9707720325915
 30
0.0
  0
VERTEX
  5
83A
  8
1
  6
CONTINUOUS
 62
     7
 10
-605.3177047177704
 20
413.9619397662557
 30
0.0
  0
VERTEX
  5
83B
  8
1
  6
CONTINUOUS
 62
     7
 10
-605.3401405483031
 20
413.9519946465617
 30
0.0
  0
VERTEX
  5
83C
  8
1
  6
CONTINUOUS
 62
     7
 10
-605.3620613700009
 20
413.9409606321742
 30
0.0
  0
VERTEX
  5
83D
  8
1
  6
CONTINUOUS
 62
     7
 10
-605.3834143736846
 20
413.9288643050002
 30
0.0
  0
VERTEX
  5
83E
  8
1
  6
CONTINUOUS
 62
     7
 10
-605.4041481180977
 20
413.9157348061513
 30
0.0
  0
VERTEX
  5
83F
  8
1
  6
CONTINUOUS
 62
     7
 10
-605.4242126538342
 20
413.9016037657403
 30
0.0
  0
VERTEX
  5
840
  8
1
  6
CONTINUOUS
 62
     7
 10
-605.4435596436698
 20
413.8865052266813
 30
0.0
  0
VERTEX
  5
841
  8
1
  6
CONTINUOUS
 62
     7
 10
-605.4621424790115
 20
413.8704755626775
 30
0.0
  0
VERTEX
  5
842
  8
1
  6
CONTINUOUS
 62
     7
 10
-605.4799163921813
 20
413.8535533905933
 30
0.0
  0
VERTEX
  5
843
  8
1
  6
CONTINUOUS
 62
     7
 10
-605.4968385642655
 20
413.8357794774235
 30
0.0
  0
VERTEX
  5
844
  8
1
  6
CONTINUOUS
 62
     7
 10
-605.5128682282693
 20
413.8171966420818
 30
0.0
  0
VERTEX
  5
845
  8
1
  6
CONTINUOUS
 62
     7
 10
-605.5279667673283
 20
413.7978496522462
 30
0.0
  0
VERTEX
  5
846
  8
1
  6
CONTINUOUS
 62
     7
 10
-605.5420978077392
 20
413.7777851165098
 30
0.0
  0
VERTEX
  5
847
  8
1
  6
CONTINUOUS
 62
     7
 10
-605.555227306588
 20
413.7570513720966
 30
0.0
  0
VERTEX
  5
848
  8
1
  6
CONTINUOUS
 62
     7
 10
-605.5673236337622
 20
413.735698368413
 30
0.0
  0
VERTEX
  5
849
  8
1
  6
CONTINUOUS
 62
     7
 10
-605.5783576481497
 20
413.7137775467151
 30
0.0
  0
VERTEX
  5
84A
  8
1
  6
CONTINUOUS
 62
     7
 10
-605.5883027678436
 20
413.6913417161825
 30
0.0
  0
VERTEX
  5
84B
  8
1
  6
CONTINUOUS
 62
     7
 10
-605.5971350341795
 20
413.6684449266961
 30
0.0
  0
VERTEX
  5
84C
  8
1
  6
CONTINUOUS
 62
     7
 10
-605.6048331694541
 20
413.6451423386272
 30
0.0
  0
VERTEX
  5
84D
  8
1
  6
CONTINUOUS
 62
     7
 10
-605.6113786281852
 20
413.6214900899516
 30
0.0
  0
VERTEX
  5
84E
  8
1
  6
CONTINUOUS
 62
     7
 10
-605.6167556417896
 20
413.597545161008
 30
0.0
  0
VERTEX
  5
84F
  8
1
  6
CONTINUOUS
 62
     7
 10
-605.6209512565704
 20
413.5733652372277
 30
0.0
  0
VERTEX
  5
850
  8
1
  6
CONTINUOUS
 62
     7
 10
-605.6239553649241
 20
413.5490085701648
 30
0.0
  0
VERTEX
  5
851
  8
1
  6
CONTINUOUS
 62
     7
 10
-605.6257607296906
 20
413.5245338371637
 30
0.0
  0
VERTEX
  5
852
  8
1
  6
CONTINUOUS
 62
     7
 10
-605.626363001588
 20
413.4999999999999
 30
0.0
  0
SEQEND
  5
8EE
  8
1
  6
CONTINUOUS
 62
     7
  0
LINE
  5
1CD
  8
1
  6
CONTINUOUS
 62
     7
 10
-605.126363001588
 20
414.0
 30
0.0
 11
-603.626363001588
 21
414.0
 31
0.0
  0
POLYLINE
  5
1CE
  8
1
  6
CONTINUOUS
 62
     7
 66
     1
 10
0.0
 20
0.0
 30
0.0
  0
VERTEX
  5
853
  8
1
  6
CONTINUOUS
 62
     7
 10
-603.126363001588
 20
413.4999999999999
 30
0.0
  0
VERTEX
  5
854
  8
1
  6
CONTINUOUS
 62
     7
 10
-603.1269652734854
 20
413.5245338371637
 30
0.0
  0
VERTEX
  5
855
  8
1
  6
CONTINUOUS
 62
     7
 10
-603.1287706382518
 20
413.5490085701648
 30
0.0
  0
VERTEX
  5
856
  8
1
  6
CONTINUOUS
 62
     7
 10
-603.1317747466056
 20
413.5733652372277
 30
0.0
  0
VERTEX
  5
857
  8
1
  6
CONTINUOUS
 62
     7
 10
-603.1359703613863
 20
413.597545161008
 30
0.0
  0
VERTEX
  5
858
  8
1
  6
CONTINUOUS
 62
     7
 10
-603.1413473749907
 20
413.6214900899516
 30
0.0
  0
VERTEX
  5
859
  8
1
  6
CONTINUOUS
 62
     7
 10
-603.1478928337218
 20
413.6451423386272
 30
0.0
  0
VERTEX
  5
85A
  8
1
  6
CONTINUOUS
 62
     7
 10
-603.1555909689965
 20
413.6684449266961
 30
0.0
  0
VERTEX
  5
85B
  8
1
  6
CONTINUOUS
 62
     7
 10
-603.1644232353324
 20
413.6913417161825
 30
0.0
  0
VERTEX
  5
85C
  8
1
  6
CONTINUOUS
 62
     7
 10
-603.1743683550262
 20
413.7137775467151
 30
0.0
  0
VERTEX
  5
85D
  8
1
  6
CONTINUOUS
 62
     7
 10
-603.1854023694137
 20
413.735698368413
 30
0.0
  0
VERTEX
  5
85E
  8
1
  6
CONTINUOUS
 62
     7
 10
-603.1974986965878
 20
413.7570513720966
 30
0.0
  0
VERTEX
  5
85F
  8
1
  6
CONTINUOUS
 62
     7
 10
-603.2106281954367
 20
413.7777851165098
 30
0.0
  0
VERTEX
  5
860
  8
1
  6
CONTINUOUS
 62
     7
 10
-603.2247592358476
 20
413.7978496522462
 30
0.0
  0
VERTEX
  5
861
  8
1
  6
CONTINUOUS
 62
     7
 10
-603.2398577749066
 20
413.8171966420818
 30
0.0
  0
VERTEX
  5
862
  8
1
  6
CONTINUOUS
 62
     7
 10
-603.2558874389105
 20
413.8357794774235
 30
0.0
  0
VERTEX
  5
863
  8
1
  6
CONTINUOUS
 62
     7
 10
-603.2728096109947
 20
413.8535533905933
 30
0.0
  0
VERTEX
  5
864
  8
1
  6
CONTINUOUS
 62
     7
 10
-603.2905835241644
 20
413.8704755626775
 30
0.0
  0
VERTEX
  5
865
  8
1
  6
CONTINUOUS
 62
     7
 10
-603.3091663595061
 20
413.8865052266813
 30
0.0
  0
VERTEX
  5
866
  8
1
  6
CONTINUOUS
 62
     7
 10
-603.3285133493417
 20
413.9016037657403
 30
0.0
  0
VERTEX
  5
867
  8
1
  6
CONTINUOUS
 62
     7
 10
-603.3485778850782
 20
413.9157348061513
 30
0.0
  0
VERTEX
  5
868
  8
1
  6
CONTINUOUS
 62
     7
 10
-603.3693116294913
 20
413.9288643050002
 30
0.0
  0
VERTEX
  5
869
  8
1
  6
CONTINUOUS
 62
     7
 10
-603.3906646331749
 20
413.9409606321742
 30
0.0
  0
VERTEX
  5
86A
  8
1
  6
CONTINUOUS
 62
     7
 10
-603.4125854548729
 20
413.9519946465617
 30
0.0
  0
VERTEX
  5
86B
  8
1
  6
CONTINUOUS
 62
     7
 10
-603.4350212854054
 20
413.9619397662557
 30
0.0
  0
VERTEX
  5
86C
  8
1
  6
CONTINUOUS
 62
     7
 10
-603.457918074892
 20
413.9707720325915
 30
0.0
  0
VERTEX
  5
86D
  8
1
  6
CONTINUOUS
 62
     7
 10
-603.4812206629607
 20
413.9784701678661
 30
0.0
  0
VERTEX
  5
86E
  8
1
  6
CONTINUOUS
 62
     7
 10
-603.5048729116363
 20
413.9850156265973
 30
0.0
  0
VERTEX
  5
86F
  8
1
  6
CONTINUOUS
 62
     7
 10
-603.5288178405799
 20
413.9903926402016
 30
0.0
  0
VERTEX
  5
870
  8
1
  6
CONTINUOUS
 62
     7
 10
-603.5529977643603
 20
413.9945882549824
 30
0.0
  0
VERTEX
  5
871
  8
1
  6
CONTINUOUS
 62
     7
 10
-603.5773544314233
 20
413.9975923633361
 30
0.0
  0
VERTEX
  5
872
  8
1
  6
CONTINUOUS
 62
     7
 10
-603.6018291644243
 20
413.9993977281026
 30
0.0
  0
VERTEX
  5
873
  8
1
  6
CONTINUOUS
 62
     7
 10
-603.626363001588
 20
414.0
 30
0.0
  0
SEQEND
  5
8EF
  8
1
  6
CONTINUOUS
 62
     7
  0
LINE
  5
1CF
  8
1
  6
CONTINUOUS
 62
     7
 10
-603.126363001588
 20
413.4999999999999
 30
0.0
 11
-603.126363001588
 21
413.2164396139381
 31
0.0
  0
LINE
  5
1D0
  8
1
  6
CONTINUOUS
 62
     7
 10
-605.626363001588
 20
413.2164396139381
 30
0.0
 11
-605.626363001588
 21
413.4999999999999
 31
0.0
  0
POLYLINE
  5
1D1
  8
1
  6
CONTINUOUS
 62
     7
 66
     1
 10
0.0
 20
0.0
 30
0.0
  0
VERTEX
  5
874
  8
1
  6
CONTINUOUS
 62
     7
 10
-603.126363001588
 20
346.5
 30
0.0
  0
VERTEX
  5
875
  8
1
  6
CONTINUOUS
 62
     7
 10
-603.1269652734854
 20
346.4754661628363
 30
0.0
  0
VERTEX
  5
876
  8
1
  6
CONTINUOUS
 62
     7
 10
-603.1287706382518
 20
346.4509914298352
 30
0.0
  0
VERTEX
  5
877
  8
1
  6
CONTINUOUS
 62
     7
 10
-603.1317747466056
 20
346.4266347627723
 30
0.0
  0
VERTEX
  5
878
  8
1
  6
CONTINUOUS
 62
     7
 10
-603.1359703613863
 20
346.402454838992
 30
0.0
  0
VERTEX
  5
879
  8
1
  6
CONTINUOUS
 62
     7
 10
-603.1413473749907
 20
346.3785099100484
 30
0.0
  0
VERTEX
  5
87A
  8
1
  6
CONTINUOUS
 62
     7
 10
-603.1478928337218
 20
346.3548576613728
 30
0.0
  0
VERTEX
  5
87B
  8
1
  6
CONTINUOUS
 62
     7
 10
-603.1555909689965
 20
346.3315550733039
 30
0.0
  0
VERTEX
  5
87C
  8
1
  6
CONTINUOUS
 62
     7
 10
-603.1644232353324
 20
346.3086582838175
 30
0.0
  0
VERTEX
  5
87D
  8
1
  6
CONTINUOUS
 62
     7
 10
-603.1743683550262
 20
346.2862224532849
 30
0.0
  0
VERTEX
  5
87E
  8
1
  6
CONTINUOUS
 62
     7
 10
-603.1854023694137
 20
346.264301631587
 30
0.0
  0
VERTEX
  5
87F
  8
1
  6
CONTINUOUS
 62
     7
 10
-603.1974986965878
 20
346.2429486279034
 30
0.0
  0
VERTEX
  5
880
  8
1
  6
CONTINUOUS
 62
     7
 10
-603.2106281954367
 20
346.2222148834902
 30
0.0
  0
VERTEX
  5
881
  8
1
  6
CONTINUOUS
 62
     7
 10
-603.2247592358476
 20
346.2021503477538
 30
0.0
  0
VERTEX
  5
882
  8
1
  6
CONTINUOUS
 62
     7
 10
-603.2398577749066
 20
346.1828033579181
 30
0.0
  0
VERTEX
  5
883
  8
1
  6
CONTINUOUS
 62
     7
 10
-603.2558874389105
 20
346.1642205225765
 30
0.0
  0
VERTEX
  5
884
  8
1
  6
CONTINUOUS
 62
     7
 10
-603.2728096109947
 20
346.1464466094067
 30
0.0
  0
VERTEX
  5
885
  8
1
  6
CONTINUOUS
 62
     7
 10
-603.2905835241644
 20
346.1295244373225
 30
0.0
  0
VERTEX
  5
886
  8
1
  6
CONTINUOUS
 62
     7
 10
-603.3091663595061
 20
346.1134947733186
 30
0.0
  0
VERTEX
  5
887
  8
1
  6
CONTINUOUS
 62
     7
 10
-603.3285133493417
 20
346.0983962342597
 30
0.0
  0
VERTEX
  5
888
  8
1
  6
CONTINUOUS
 62
     7
 10
-603.3485778850783
 20
346.0842651938487
 30
0.0
  0
VERTEX
  5
889
  8
1
  6
CONTINUOUS
 62
     7
 10
-603.3693116294913
 20
346.0711356949998
 30
0.0
  0
VERTEX
  5
88A
  8
1
  6
CONTINUOUS
 62
     7
 10
-603.390664633175
 20
346.0590393678258
 30
0.0
  0
VERTEX
  5
88B
  8
1
  6
CONTINUOUS
 62
     7
 10
-603.4125854548729
 20
346.0480053534383
 30
0.0
  0
VERTEX
  5
88C
  8
1
  6
CONTINUOUS
 62
     7
 10
-603.4350212854054
 20
346.0380602337443
 30
0.0
  0
VERTEX
  5
88D
  8
1
  6
CONTINUOUS
 62
     7
 10
-603.457918074892
 20
346.0292279674085
 30
0.0
  0
VERTEX
  5
88E
  8
1
  6
CONTINUOUS
 62
     7
 10
-603.4812206629607
 20
346.0215298321339
 30
0.0
  0
VERTEX
  5
88F
  8
1
  6
CONTINUOUS
 62
     7
 10
-603.5048729116363
 20
346.0149843734027
 30
0.0
  0
VERTEX
  5
890
  8
1
  6
CONTINUOUS
 62
     7
 10
-603.5288178405799
 20
346.0096073597984
 30
0.0
  0
VERTEX
  5
891
  8
1
  6
CONTINUOUS
 62
     7
 10
-603.5529977643603
 20
346.0054117450176
 30
0.0
  0
VERTEX
  5
892
  8
1
  6
CONTINUOUS
 62
     7
 10
-603.5773544314233
 20
346.0024076366639
 30
0.0
  0
VERTEX
  5
893
  8
1
  6
CONTINUOUS
 62
     7
 10
-603.6018291644243
 20
346.0006022718974
 30
0.0
  0
VERTEX
  5
894
  8
1
  6
CONTINUOUS
 62
     7
 10
-603.626363001588
 20
345.9999999999999
 30
0.0
  0
SEQEND
  5
8F0
  8
1
  6
CONTINUOUS
 62
     7
  0
LINE
  5
1D2
  8
1
  6
CONTINUOUS
 62
     7
 10
-605.126363001588
 20
345.9999999999999
 30
0.0
 11
-603.626363001588
 21
345.9999999999999
 31
0.0
  0
POLYLINE
  5
1D3
  8
1
  6
CONTINUOUS
 62
     7
 66
     1
 10
0.0
 20
0.0
 30
0.0
  0
VERTEX
  5
895
  8
1
  6
CONTINUOUS
 62
     7
 10
-605.126363001588
 20
345.9999999999999
 30
0.0
  0
VERTEX
  5
896
  8
1
  6
CONTINUOUS
 62
     7
 10
-605.1508968387517
 20
346.0006022718974
 30
0.0
  0
VERTEX
  5
897
  8
1
  6
CONTINUOUS
 62
     7
 10
-605.1753715717527
 20
346.0024076366639
 30
0.0
  0
VERTEX
  5
898
  8
1
  6
CONTINUOUS
 62
     7
 10
-605.1997282388156
 20
346.0054117450176
 30
0.0
  0
VERTEX
  5
899
  8
1
  6
CONTINUOUS
 62
     7
 10
-605.2239081625961
 20
346.0096073597984
 30
0.0
  0
VERTEX
  5
89A
  8
1
  6
CONTINUOUS
 62
     7
 10
-605.2478530915396
 20
346.0149843734027
 30
0.0
  0
VERTEX
  5
89B
  8
1
  6
CONTINUOUS
 62
     7
 10
-605.2715053402152
 20
346.0215298321339
 30
0.0
  0
VERTEX
  5
89C
  8
1
  6
CONTINUOUS
 62
     7
 10
-605.2948079282841
 20
346.0292279674085
 30
0.0
  0
VERTEX
  5
89D
  8
1
  6
CONTINUOUS
 62
     7
 10
-605.3177047177705
 20
346.0380602337443
 30
0.0
  0
VERTEX
  5
89E
  8
1
  6
CONTINUOUS
 62
     7
 10
-605.3401405483031
 20
346.0480053534383
 30
0.0
  0
VERTEX
  5
89F
  8
1
  6
CONTINUOUS
 62
     7
 10
-605.3620613700009
 20
346.0590393678258
 30
0.0
  0
VERTEX
  5
8A0
  8
1
  6
CONTINUOUS
 62
     7
 10
-605.3834143736846
 20
346.0711356949998
 30
0.0
  0
VERTEX
  5
8A1
  8
1
  6
CONTINUOUS
 62
     7
 10
-605.4041481180977
 20
346.0842651938487
 30
0.0
  0
VERTEX
  5
8A2
  8
1
  6
CONTINUOUS
 62
     7
 10
-605.4242126538342
 20
346.0983962342597
 30
0.0
  0
VERTEX
  5
8A3
  8
1
  6
CONTINUOUS
 62
     7
 10
-605.4435596436698
 20
346.1134947733186
 30
0.0
  0
VERTEX
  5
8A4
  8
1
  6
CONTINUOUS
 62
     7
 10
-605.4621424790115
 20
346.1295244373225
 30
0.0
  0
VERTEX
  5
8A5
  8
1
  6
CONTINUOUS
 62
     7
 10
-605.4799163921813
 20
346.1464466094067
 30
0.0
  0
VERTEX
  5
8A6
  8
1
  6
CONTINUOUS
 62
     7
 10
-605.4968385642655
 20
346.1642205225765
 30
0.0
  0
VERTEX
  5
8A7
  8
1
  6
CONTINUOUS
 62
     7
 10
-605.5128682282693
 20
346.1828033579181
 30
0.0
  0
VERTEX
  5
8A8
  8
1
  6
CONTINUOUS
 62
     7
 10
-605.5279667673283
 20
346.2021503477538
 30
0.0
  0
VERTEX
  5
8A9
  8
1
  6
CONTINUOUS
 62
     7
 10
-605.5420978077392
 20
346.2222148834902
 30
0.0
  0
VERTEX
  5
8AA
  8
1
  6
CONTINUOUS
 62
     7
 10
-605.555227306588
 20
346.2429486279034
 30
0.0
  0
VERTEX
  5
8AB
  8
1
  6
CONTINUOUS
 62
     7
 10
-605.5673236337622
 20
346.264301631587
 30
0.0
  0
VERTEX
  5
8AC
  8
1
  6
CONTINUOUS
 62
     7
 10
-605.5783576481497
 20
346.2862224532849
 30
0.0
  0
VERTEX
  5
8AD
  8
1
  6
CONTINUOUS
 62
     7
 10
-605.5883027678436
 20
346.3086582838175
 30
0.0
  0
VERTEX
  5
8AE
  8
1
  6
CONTINUOUS
 62
     7
 10
-605.5971350341795
 20
346.3315550733039
 30
0.0
  0
VERTEX
  5
8AF
  8
1
  6
CONTINUOUS
 62
     7
 10
-605.6048331694541
 20
346.3548576613728
 30
0.0
  0
VERTEX
  5
8B0
  8
1
  6
CONTINUOUS
 62
     7
 10
-605.6113786281852
 20
346.3785099100484
 30
0.0
  0
VERTEX
  5
8B1
  8
1
  6
CONTINUOUS
 62
     7
 10
-605.6167556417896
 20
346.402454838992
 30
0.0
  0
VERTEX
  5
8B2
  8
1
  6
CONTINUOUS
 62
     7
 10
-605.6209512565704
 20
346.4266347627723
 30
0.0
  0
VERTEX
  5
8B3
  8
1
  6
CONTINUOUS
 62
     7
 10
-605.6239553649241
 20
346.4509914298352
 30
0.0
  0
VERTEX
  5
8B4
  8
1
  6
CONTINUOUS
 62
     7
 10
-605.6257607296906
 20
346.4754661628363
 30
0.0
  0
VERTEX
  5
8B5
  8
1
  6
CONTINUOUS
 62
     7
 10
-605.626363001588
 20
346.5
 30
0.0
  0
SEQEND
  5
8F1
  8
1
  6
CONTINUOUS
 62
     7
  0
LINE
  5
1D4
  8
1
  6
CONTINUOUS
 62
     7
 10
-603.126363001588
 20
346.5
 30
0.0
 11
-603.126363001588
 21
346.7835603860619
 31
0.0
  0
LINE
  5
1D5
  8
1
  6
CONTINUOUS
 62
     7
 10
-605.626363001588
 20
346.7835603860619
 30
0.0
 11
-605.626363001588
 21
346.5
 31
0.0
  0
LINE
  5
1D6
  8
1
  6
CONTINUOUS
 62
     7
 10
-612.0449332387458
 20
401.6458490411247
 30
0.0
 11
-612.0207719943888
 21
401.7207574989943
 31
0.0
  0
LINE
  5
1D7
  8
1
  6
CONTINUOUS
 62
     7
 10
-612.2862793416359
 20
400.8767099391226
 30
0.0
 11
-612.0659171658345
 21
401.5804926310227
 31
0.0
  0
LINE
  5
1D8
  8
1
  6
CONTINUOUS
 62
     7
 10
-612.0659171658344
 20
401.5804926310228
 30
0.0
 11
-612.0449332387458
 21
401.6458490411247
 31
0.0
  0
LINE
  5
1D9
  8
1
  6
CONTINUOUS
 62
     7
 10
-578.4077928877599
 20
358.3541505755723
 30
0.0
 11
-578.4319535968582
 21
358.2792437750133
 31
0.0
  0
LINE
  5
1DA
  8
1
  6
CONTINUOUS
 62
     7
 10
-578.1664466920929
 20
359.1232899610092
 30
0.0
 11
-578.3868093191481
 21
358.4195058651355
 31
0.0
  0
LINE
  5
1DB
  8
1
  6
CONTINUOUS
 62
     7
 10
-578.3868093191481
 20
358.4195058651355
 30
0.0
 11
-578.4077928877599
 21
358.3541505755724
 31
0.0
  0
LINE
  5
1DC
  8
1
  6
CONTINUOUS
 62
     9
 10
-612.05340031536
 20
358.4032674997563
 30
0.0
 11
-612.0207719943888
 21
358.2792425010057
 31
0.0
  0
LINE
  5
1DD
  8
1
  6
CONTINUOUS
 62
     7
 10
-612.0449305071751
 20
358.3541424692844
 30
0.0
 11
-612.2862793416359
 21
359.1232900608774
 31
0.0
  0
LINE
  5
1DE
  8
1
  6
CONTINUOUS
 62
     7
 10
-612.0207719943888
 20
358.2792425010057
 30
0.0
 11
-612.0449305071751
 21
358.3541424692844
 31
0.0
  0
LINE
  5
1DF
  8
1
  6
CONTINUOUS
 62
     9
 10
-578.3993263631805
 20
401.5967360209359
 30
0.0
 11
-578.4319535968602
 21
401.7207562249929
 31
0.0
  0
LINE
  5
1E0
  8
1
  6
CONTINUOUS
 62
     7
 10
-578.4077956191082
 20
401.6458579133272
 30
0.0
 11
-578.1664466920929
 21
400.8767100389908
 31
0.0
  0
LINE
  5
1E1
  8
1
  6
CONTINUOUS
 62
     7
 10
-578.431953596858
 20
401.720756224986
 30
0.0
 11
-578.4077956191081
 21
401.6458579133272
 31
0.0
  0
LINE
  5
1E2
  8
1
  6
CONTINUOUS
 62
     7
 10
-612.0533956080181
 20
401.5967558276801
 30
0.0
 11
-612.0449922824569
 21
401.6456205074213
 31
0.0
  0
LINE
  5
1E3
  8
1
  6
CONTINUOUS
 62
     7
 10
-578.3993310960428
 20
358.4032405255053
 30
0.0
 11
-578.407733849567
 21
358.3543790999495
 31
0.0
  0
LINE
  5
1E4
  8
1
  6
CONTINUOUS
 62
     7
 10
-612.044989610728
 20
358.3543652015874
 30
0.0
 11
-612.0533956080183
 21
358.40324417232
 31
0.0
  0
LINE
  5
1E5
  8
1
  6
CONTINUOUS
 62
     7
 10
-578.4077365210703
 20
401.6456351900144
 30
0.0
 11
-578.3993310960428
 21
401.5967594744947
 31
0.0
  0
ENDBLK
  8
0
  0
ENDSEC
  0
SECTION
  2
ENTITIES
  0
INSERT
  5
C9
  8
1
  6
CONTINUOUS
 62
     7
  2
D_FRAME_VIEW_3376
 10
0.0
 20
0.0
 30
0.0
  0
INSERT
  5
1E6
  8
1
  6
CONTINUOUS
 62
     7
  2
D_FRAME_VIEW_2402
 10
0.0
 20
0.0
 30
0.0
  0
TEXT
  5
1E7
  8
1
  6
CONTINUOUS
 62
     7
 10
-589.118184944354
 20
319.9659090909091
 30
0.0
 40
5.0
  1
ＳＢ－ＫＧＰＥＺ
  0
LINE
  5
1E8
  8
1
  6
CONTINUOUS
 62
     7
 10
-545.8635574165107
 20
351.4499497315569
 30
0.0
 11
-546.0357501106569
 21
351.2249203172606
 31
0.0
  0
ENDSEC
  0
EOF
