  0
SECTION
  2
HEADER
  9
$ACADVER
  1
AC1004
  9
$INSBASE
 10
0.0
 20
0.0
  9
$EXTMIN
 10
0.0
 20
0.0
  9
$EXTMAX
 10
404.2371507359818
 20
298.5000000000001
  9
$LIMMIN
 10
0.0
 20
0.0
  9
$LIMMAX
 10
12.0
 20
9.0
  9
$ORTHOMODE
 70
     0
  9
$REGENMODE
 70
     1
  9
$FILLMODE
 70
     1
  9
$QTEXTMODE
 70
     0
  9
$DRAGMODE
 70
     2
  9
$LTSCALE
 40
1.0
  9
$OSMODE
 70
    37
  9
$ATTMODE
 70
     1
  9
$TEXTSIZE
 40
0.2
  9
$TRACEWID
 40
0.05
  9
$TEXTSTYLE
  7
STANDARD
  9
$CLAYER
  8
0
  9
$CELTYPE
  6
BYLAYER
  9
$CECOLOR
 62
   256
  9
$DIMSCALE
 40
1.0
  9
$DIMASZ
 40
3.0
  9
$DIMEXO
 40
0.0625
  9
$DIMDLI
 40
0.38
  9
$DIMRND
 40
0.0
  9
$DIMDLE
 40
0.0
  9
$DIMEXE
 40
1.5
  9
$DIMTP
 40
0.0
  9
$DIMTM
 40
0.0
  9
$DIMTXT
 40
3.0
  9
$DIMCEN
 40
0.09
  9
$DIMTSZ
 40
0.0
  9
$DIMTOL
 70
     0
  9
$DIMLIM
 70
     0
  9
$DIMTIH
 70
     1
  9
$DIMTOH
 70
     1
  9
$DIMSE1
 70
     0
  9
$DIMSE2
 70
     0
  9
$DIMTAD
 70
     1
  9
$DIMZIN
 70
     0
  9
$DIMBLK
  1

  9
$DIMASO
 70
     1
  9
$DIMSHO
 70
     1
  9
$DIMPOST
  1

  9
$DIMAPOST
  1

  9
$DIMALT
 70
     0
  9
$DIMALTD
 70
     2
  9
$DIMALTF
 40
25.4
  9
$DIMLFAC
 40
1.0
  9
$DIMTOFL
 70
     0
  9
$DIMTVP
 40
0.0
  9
$DIMTIX
 70
     0
  9
$DIMSOXD
 70
     0
  9
$DIMSAH
 70
     0
  9
$DIMBLK1
  1

  9
$DIMBLK2
  1

  9
$LUNITS
 70
     2
  9
$LUPREC
 70
     4
  9
$SKETCHINC
 40
0.1
  9
$FILLETRAD
 40
0.5
  9
$AUNITS
 70
     0
  9
$AUPREC
 70
     0
  9
$MENU
  1
.
  9
$ELEVATION
 40
0.0
  9
$THICKNESS
 40
0.0
  9
$LIMCHECK
 70
     0
  9
$CHAMFERA
 40
0.0
  9
$CHAMFERB
 40
0.0
  9
$SKPOLY
 70
     0
  9
$TDCREATE
 40
2460628.575908264
  9
$TDUPDATE
 40
2460628.575912951
  9
$TDINDWG
 40
0.0000000116
  9
$TDUSRTIMER
 40
0.0000000116
  9
$USRTIMER
 70
     1
  9
$ANGBASE
 50
0.0
  9
$ANGDIR
 70
     0
  9
$PDMODE
 70
     0
  9
$PDSIZE
 40
0.0
  9
$PLINEWID
 40
0.0
  9
$COORDS
 70
     1
  9
$SPLFRAME
 70
     0
  9
$SPLINETYPE
 70
     6
  9
$SPLINESEGS
 70
     8
  9
$ATTDIA
 70
     0
  9
$ATTREQ
 70
     1
  9
$SURFTAB1
 70
     6
  9
$SURFTAB2
 70
     6
  9
$SURFTYPE
 70
     6
  9
$SURFU
 70
     6
  9
$SURFV
 70
     6
  9
$UCSNAME
  2

  9
$UCSORG
 10
0.0
 20
0.0
 30
0.0
  9
$UCSXDIR
 10
1.0
 20
0.0
 30
0.0
  9
$UCSYDIR
 10
0.0
 20
1.0
 30
0.0
  9
$USERI1
 70
     0
  9
$USERI2
 70
     0
  9
$USERI3
 70
     0
  9
$USERI4
 70
     0
  9
$USERI5
 70
     0
  9
$USERR1
 40
0.0
  9
$USERR2
 40
0.0
  9
$USERR3
 40
0.0
  9
$USERR4
 40
0.0
  9
$USERR5
 40
0.0
  9
$WORLDVIEW
 70
     1
  0
ENDSEC
  0
SECTION
  2
TABLES
  0
TABLE
  2
LTYPE
 70
     2
  0
LTYPE
  2
CONTINUOUS
 70
     0
  3
Solid line
 72
    65
 73
     0
 40
0.0
  0
LTYPE
  2
CENTER
 70
     0
  3

 72
    65
 73
     0
 40
0.0
  0
ENDTAB
  0
TABLE
  2
LAYER
 70
     2
  0
LAYER
  2
0
 70
     0
 62
     7
  6
CONTINUOUS
  0
LAYER
  2
1
 70
     0
 62
     7
  6
CONTINUOUS
  0
ENDTAB
  0
TABLE
  2
STYLE
 70
     2
  0
STYLE
  2
STANDARD
 70
     0
 40
0.0
 41
1.0
 50
0.0
 71
     0
 42
0.2
  3
txt
  4

  0
STYLE
  2
ＭＳ_ゴシック
 70
     0
 40
0.0
 41
1.0
 50
0.0
 71
     0
 42
0.2
  3
ＭＳ ゴシック.shx
  4

  0
ENDTAB
  0
TABLE
  2
VIEW
 70
     0
  0
ENDTAB
  0
ENDSEC
  0
SECTION
  2
BLOCKS
  0
BLOCK
  8
0
  2
D_FRAME_DRAWING_17
 70
     0
 10
0.0
 20
0.0
  0
LINE
  8
0
  6
CONTINUOUS
 62
     7
 10
0.0
 20
0.0
 11
420.0
 21
0.0
  0
LINE
  8
0
  6
CONTINUOUS
 62
     7
 10
420.0
 20
0.0
 11
420.0
 21
297.0
  0
LINE
  8
0
  6
CONTINUOUS
 62
     7
 10
420.0
 20
297.0
 11
0.0
 21
297.0
  0
LINE
  8
0
  6
CONTINUOUS
 62
     7
 10
0.0
 20
297.0
 11
0.0
 21
0.0
  0
ENDBLK
  8
0
  0
BLOCK
  8
0
  2
D_FRAME_VIEW_3582
 70
     0
 10
0.0
 20
0.0
  0
ENDBLK
  8
0
  0
BLOCK
  8
0
  2
D_FRAME_VIEW_4303
 70
     0
 10
0.0
 20
0.0
  0
ENDBLK
  8
0
  0
BLOCK
  8
0
  2
D_FRAME_VIEW_1444
 70
     0
 10
0.0
 20
0.0
  0
ENDBLK
  8
0
  0
ENDSEC
  0
SECTION
  2
ENTITIES
  0
INSERT
  8
0
 62
     7
  2
D_FRAME_DRAWING_17
 10
0.0
 20
0.0
 30
0.0
  0
LINE
  8
1
  6
CONTINUOUS
 62
     7
 10
240.2
 20
252.75
 11
185.5
 21
252.75
  0
LINE
  8
1
  6
CONTINUOUS
 62
     7
 10
185.5
 20
252.75
 11
185.5
 21
240.75
  0
LINE
  8
1
  6
CENTER
 62
     1
 10
266.5
 20
158.15
 11
266.5
 21
168.35
  0
LINE
  8
1
  6
CENTER
 62
     1
 10
281.5
 20
62.9
 11
281.5
 21
94.89999999999999
  0
LINE
  8
1
  6
CENTER
 62
     1
 10
256.2
 20
205.0
 11
276.8
 21
205.0
  0
LINE
  8
1
  6
CENTER
 62
     1
 10
215.4
 20
246.75
 11
225.6
 21
246.75
  0
LINE
  8
1
  6
CENTER
 62
     1
 10
220.5
 20
241.65
 11
220.5
 21
251.85
  0
LINE
  8
1
  6
CENTER
 62
     1
 10
261.4
 20
163.25
 11
271.6
 21
163.25
  0
LINE
  8
1
  6
CENTER
 62
     1
 10
265.5
 20
78.89999999999999
 11
297.5000000000001
 21
78.89999999999999
  0
LINE
  8
1
  6
CONTINUOUS
 62
     7
 10
301.5
 20
157.25
 11
185.5
 21
157.25
  0
LINE
  8
1
  6
CONTINUOUS
 62
     7
 10
188.15
 20
169.25
 11
188.15
 21
240.75
  0
LINE
  8
1
  6
CONTINUOUS
 62
     7
 10
301.5
 20
252.75
 11
185.5
 21
252.75
  0
INSERT
  8
1
  6
CONTINUOUS
 62
     7
  2
D_FRAME_VIEW_3582
 10
0.0
 20
0.0
 30
0.0
  0
INSERT
  8
1
  6
CONTINUOUS
 62
     7
  2
D_FRAME_VIEW_4303
 10
0.0
 20
0.0
 30
0.0
  0
INSERT
  8
1
  6
CONTINUOUS
 62
     7
  2
D_FRAME_VIEW_1444
 10
0.0
 20
0.0
 30
0.0
  0
TEXT
  8
1
  6
CONTINUOUS
 62
     7
 10
46.62726647492808
 20
89.93181818181819
 40
10.0
  1
ＳＢ－ＫＭＡ２Ｇ
  0
LINE
  8
1
  6
CONTINUOUS
 62
     7
 10
301.5
 20
240.75
 11
185.5
 21
240.75
  0
LINE
  8
1
  6
CONTINUOUS
 62
     7
 10
301.5
 20
157.25
 11
246.8
 21
157.25
  0
LINE
  8
1
  6
CONTINUOUS
 62
     7
 10
185.5
 20
157.25
 11
185.5
 21
169.25
  0
LINE
  8
1
  6
CONTINUOUS
 62
     7
 10
301.5
 20
252.75
 11
301.5
 21
240.75
  0
LINE
  8
1
  6
CONTINUOUS
 62
     7
 10
301.5
 20
157.25
 11
301.5
 21
169.25
  0
LINE
  8
1
  6
CONTINUOUS
 62
     7
 10
301.5
 20
169.25
 11
185.5
 21
169.25
  0
LINE
  8
1
  6
CONTINUOUS
 62
     7
 10
242.525
 20
239.5
 11
242.525
 21
170.5
  0
LINE
  8
1
  6
CONTINUOUS
 62
     7
 10
244.4750000000001
 20
240.75
 11
244.4750000000001
 21
169.25
  0
LINE
  8
1
  6
CONTINUOUS
 62
     7
 10
176.8350079940028
 20
185.8087808426249
 11
177.0389683578167
 21
186.301184719131
  0
LINE
  8
1
  6
CONTINUOUS
 62
     7
 10
185.5
 20
215.9118365096458
 11
188.0881634903542
 21
215.9118365096458
  0
LINE
  8
1
  6
CONTINUOUS
 62
     7
 10
185.5
 20
216.0
 11
185.5
 21
215.9118365096458
  0
LINE
  8
1
  6
CONTINUOUS
 62
     7
 10
180.2279220613579
 20
216.0
 11
185.5
 21
216.0
  0
LINE
  8
1
  6
CONTINUOUS
 62
     7
 10
176.5
 20
212.2720779386421
 11
180.2279220613579
 21
216.0
  0
LINE
  8
1
  6
CONTINUOUS
 62
     7
 10
167.5
 20
216.0
 11
167.5
 21
213.0
  0
LINE
  8
1
  6
CONTINUOUS
 62
     7
 10
188.0881634903542
 20
225.0881634903542
 11
185.5
 21
225.0881634903542
  0
LINE
  8
1
  6
CONTINUOUS
 62
     7
 10
185.5
 20
225.0
 11
176.5
 21
225.0
  0
LINE
  8
1
  6
CONTINUOUS
 62
     7
 10
185.5
 20
225.0
 11
185.5
 21
225.0881634903542
  0
LINE
  8
1
  6
CONTINUOUS
 62
     7
 10
176.5
 20
225.0
 11
167.5
 21
216.0
  0
LINE
  8
1
  6
CONTINUOUS
 62
     7
 10
167.5
 20
197.0
 11
167.5
 21
194.0
  0
LINE
  8
1
  6
CONTINUOUS
 62
     7
 10
176.5
 20
225.0
 11
176.8350079940028
 21
224.1912191573752
  0
LINE
  8
1
  6
CONTINUOUS
 62
     7
 10
176.5
 20
210.5
 11
176.5
 21
212.2720779386421
  0
LINE
  8
1
  6
CONTINUOUS
 62
     7
 10
176.2355095289373
 20
200.5
 11
176.2355095289373
 21
209.5
  0
LINE
  8
1
  6
CONTINUOUS
 62
     7
 10
185.5
 20
194.0
 11
185.5
 21
194.0881634903542
  0
LINE
  8
1
  6
CONTINUOUS
 62
     7
 10
185.5
 20
185.0
 11
185.5
 21
184.9118365096458
  0
LINE
  8
1
  6
CONTINUOUS
 62
     7
 10
167.5
 20
194.0000000000001
 11
176.5
 21
185.0
  0
LINE
  8
1
  6
CONTINUOUS
 62
     7
 10
180.2279220613579
 20
194.0
 11
176.5
 21
197.7279220613579
  0
LINE
  8
1
  6
CONTINUOUS
 62
     7
 10
176.4118365096458
 20
210.0
 11
176.5
 21
210.5
  0
LINE
  8
1
  6
CONTINUOUS
 62
     7
 10
188.0881634903542
 20
194.0881634903542
 11
185.5
 21
194.0881634903542
  0
LINE
  8
1
  6
CONTINUOUS
 62
     7
 10
176.4118365096458
 20
210.0
 11
176.3236730192916
 21
210.0
  0
LINE
  8
1
  6
CONTINUOUS
 62
     7
 10
185.5
 20
184.9118365096458
 11
188.0881634903542
 21
184.9118365096458
  0
LINE
  8
1
  6
CONTINUOUS
 62
     7
 10
176.4118365096458
 20
200.0
 11
176.3236730192916
 21
200.0
  0
LINE
  8
1
  6
CONTINUOUS
 62
     7
 10
176.5
 20
199.5
 11
176.4118365096458
 21
200.0
  0
LINE
  8
1
  6
CONTINUOUS
 62
     7
 10
176.5
 20
197.7279220613579
 11
176.5
 21
199.5
  0
LINE
  8
1
  6
CONTINUOUS
 62
     7
 10
176.5
 20
185.0
 11
185.5
 21
185.0
  0
LINE
  8
1
  6
CONTINUOUS
 62
     7
 10
176.3236730192916
 20
200.0
 11
176.2355095289373
 21
200.5
  0
LINE
  8
1
  6
CONTINUOUS
 62
     7
 10
176.2355095289373
 20
209.5
 11
176.3236730192916
 21
210.0
  0
LINE
  8
1
  6
CONTINUOUS
 62
     7
 10
185.5
 20
194.0
 11
180.2279220613579
 21
194.0
  0
LINE
  8
1
  6
CONTINUOUS
 62
     7
 10
286.4913492875309
 20
258.0
 11
287.491311210595
 21
258.0
  0
LINE
  8
1
  6
CONTINUOUS
 62
     7
 10
168.2130212287767
 20
212.5
 11
168.0958767962971
 21
212.5
  0
POLYLINE
  8
1
  6
CONTINUOUS
 62
     7
 66
     1
  0
VERTEX
  8
1
  6
CONTINUOUS
 62
     7
 10
167.5
 20
197.0
  0
VERTEX
  8
1
  6
CONTINUOUS
 62
     7
 10
167.5007177596975
 20
197.0245338371637
  0
VERTEX
  8
1
  6
CONTINUOUS
 62
     7
 10
167.5028693096439
 20
197.0490085701648
  0
VERTEX
  8
1
  6
CONTINUOUS
 62
     7
 10
167.5064494665669
 20
197.0733652372277
  0
VERTEX
  8
1
  6
CONTINUOUS
 62
     7
 10
167.5114496055551
 20
197.0975451610081
  0
VERTEX
  8
1
  6
CONTINUOUS
 62
     7
 10
167.5178576808355
 20
197.1214900899516
  0
VERTEX
  8
1
  6
CONTINUOUS
 62
     7
 10
167.5256582547935
 20
197.1451423386273
  0
VERTEX
  8
1
  6
CONTINUOUS
 62
     7
 10
167.5348325351633
 20
197.1684449266961
  0
VERTEX
  8
1
  6
CONTINUOUS
 62
     7
 10
167.5453584202998
 20
197.1913417161826
  0
VERTEX
  8
1
  6
CONTINUOUS
 62
     7
 10
167.5572105524238
 20
197.2137775467151
  0
VERTEX
  8
1
  6
CONTINUOUS
 62
     7
 10
167.5703603787109
 20
197.235698368413
  0
VERTEX
  8
1
  6
CONTINUOUS
 62
     7
 10
167.5847762200778
 20
197.2570513720966
  0
VERTEX
  8
1
  6
CONTINUOUS
 62
     7
 10
167.6004233474999
 20
197.2777851165098
  0
VERTEX
  8
1
  6
CONTINUOUS
 62
     7
 10
167.6172640656767
 20
197.2978496522462
  0
VERTEX
  8
1
  6
CONTINUOUS
 62
     7
 10
167.6352578038431
 20
197.3171966420818
  0
VERTEX
  8
1
  6
CONTINUOUS
 62
     7
 10
167.6543612135079
 20
197.3357794774235
  0
VERTEX
  8
1
  6
CONTINUOUS
 62
     7
 10
167.6745282728837
 20
197.3535533905933
  0
VERTEX
  8
1
  6
CONTINUOUS
 62
     7
 10
167.6957103977582
 20
197.3704755626775
  0
VERTEX
  8
1
  6
CONTINUOUS
 62
     7
 10
167.7178565585373
 20
197.3865052266814
  0
VERTEX
  8
1
  6
CONTINUOUS
 62
     7
 10
167.7409134031797
 20
197.4016037657403
  0
VERTEX
  8
1
  6
CONTINUOUS
 62
     7
 10
167.7648253857273
 20
197.4157348061513
  0
VERTEX
  8
1
  6
CONTINUOUS
 62
     7
 10
167.7895349001197
 20
197.4288643050001
  0
VERTEX
  8
1
  6
CONTINUOUS
 62
     7
 10
167.8149824189723
 20
197.4409606321742
  0
VERTEX
  8
1
  6
CONTINUOUS
 62
     7
 10
167.8411066369834
 20
197.4519946465617
  0
VERTEX
  8
1
  6
CONTINUOUS
 62
     7
 10
167.8678446186234
 20
197.4619397662557
  0
VERTEX
  8
1
  6
CONTINUOUS
 62
     7
 10
167.8951319497527
 20
197.4707720325915
  0
VERTEX
  8
1
  6
CONTINUOUS
 62
     7
 10
167.9229028928006
 20
197.4784701678661
  0
VERTEX
  8
1
  6
CONTINUOUS
 62
     7
 10
167.9510905451326
 20
197.4850156265973
  0
VERTEX
  8
1
  6
CONTINUOUS
 62
     7
 10
167.9796270002255
 20
197.4903926402016
  0
VERTEX
  8
1
  6
CONTINUOUS
 62
     7
 10
168.0084435112595
 20
197.4945882549824
  0
VERTEX
  8
1
  6
CONTINUOUS
 62
     7
 10
168.0374706567354
 20
197.4975923633361
  0
VERTEX
  8
1
  6
CONTINUOUS
 62
     7
 10
168.0666385077171
 20
197.4993977281026
  0
VERTEX
  8
1
  6
CONTINUOUS
 62
     7
 10
168.0958767962971
 20
197.5
  0
SEQEND
  8
1
  6
CONTINUOUS
 62
     7
  0
POLYLINE
  8
1
  6
CONTINUOUS
 62
     7
 66
     1
  0
VERTEX
  8
1
  6
CONTINUOUS
 62
     7
 10
167.5
 20
213.0
  0
VERTEX
  8
1
  6
CONTINUOUS
 62
     7
 10
167.5007177596975
 20
212.9754661628363
  0
VERTEX
  8
1
  6
CONTINUOUS
 62
     7
 10
167.5028693096439
 20
212.9509914298352
  0
VERTEX
  8
1
  6
CONTINUOUS
 62
     7
 10
167.5064494665669
 20
212.9266347627724
  0
VERTEX
  8
1
  6
CONTINUOUS
 62
     7
 10
167.5114496055551
 20
212.902454838992
  0
VERTEX
  8
1
  6
CONTINUOUS
 62
     7
 10
167.5178576808355
 20
212.8785099100484
  0
VERTEX
  8
1
  6
CONTINUOUS
 62
     7
 10
167.5256582547935
 20
212.8548576613728
  0
VERTEX
  8
1
  6
CONTINUOUS
 62
     7
 10
167.5348325351633
 20
212.8315550733039
  0
VERTEX
  8
1
  6
CONTINUOUS
 62
     7
 10
167.5453584202998
 20
212.8086582838175
  0
VERTEX
  8
1
  6
CONTINUOUS
 62
     7
 10
167.5572105524238
 20
212.7862224532849
  0
VERTEX
  8
1
  6
CONTINUOUS
 62
     7
 10
167.5703603787109
 20
212.764301631587
  0
VERTEX
  8
1
  6
CONTINUOUS
 62
     7
 10
167.5847762200778
 20
212.7429486279034
  0
VERTEX
  8
1
  6
CONTINUOUS
 62
     7
 10
167.6004233474999
 20
212.7222148834902
  0
VERTEX
  8
1
  6
CONTINUOUS
 62
     7
 10
167.6172640656767
 20
212.7021503477538
  0
VERTEX
  8
1
  6
CONTINUOUS
 62
     7
 10
167.6352578038431
 20
212.6828033579182
  0
VERTEX
  8
1
  6
CONTINUOUS
 62
     7
 10
167.6543612135079
 20
212.6642205225765
  0
VERTEX
  8
1
  6
CONTINUOUS
 62
     7
 10
167.6745282728837
 20
212.6464466094067
  0
VERTEX
  8
1
  6
CONTINUOUS
 62
     7
 10
167.6957103977582
 20
212.6295244373225
  0
VERTEX
  8
1
  6
CONTINUOUS
 62
     7
 10
167.7178565585373
 20
212.6134947733186
  0
VERTEX
  8
1
  6
CONTINUOUS
 62
     7
 10
167.7409134031797
 20
212.5983962342597
  0
VERTEX
  8
1
  6
CONTINUOUS
 62
     7
 10
167.7648253857273
 20
212.5842651938487
  0
VERTEX
  8
1
  6
CONTINUOUS
 62
     7
 10
167.7895349001197
 20
212.5711356949999
  0
VERTEX
  8
1
  6
CONTINUOUS
 62
     7
 10
167.8149824189723
 20
212.5590393678258
  0
VERTEX
  8
1
  6
CONTINUOUS
 62
     7
 10
167.8411066369834
 20
212.5480053534383
  0
VERTEX
  8
1
  6
CONTINUOUS
 62
     7
 10
167.8678446186234
 20
212.5380602337444
  0
VERTEX
  8
1
  6
CONTINUOUS
 62
     7
 10
167.8951319497527
 20
212.5292279674085
  0
VERTEX
  8
1
  6
CONTINUOUS
 62
     7
 10
167.9229028928006
 20
212.5215298321339
  0
VERTEX
  8
1
  6
CONTINUOUS
 62
     7
 10
167.9510905451327
 20
212.5149843734027
  0
VERTEX
  8
1
  6
CONTINUOUS
 62
     7
 10
167.9796270002255
 20
212.5096073597984
  0
VERTEX
  8
1
  6
CONTINUOUS
 62
     7
 10
168.0084435112595
 20
212.5054117450176
  0
VERTEX
  8
1
  6
CONTINUOUS
 62
     7
 10
168.0374706567354
 20
212.5024076366639
  0
VERTEX
  8
1
  6
CONTINUOUS
 62
     7
 10
168.0666385077171
 20
212.5006022718974
  0
VERTEX
  8
1
  6
CONTINUOUS
 62
     7
 10
168.0958767962971
 20
212.5
  0
SEQEND
  8
1
  6
CONTINUOUS
 62
     7
  0
LINE
  8
1
  6
CONTINUOUS
 62
     7
 10
168.0958767962971
 20
197.5
 11
168.2130212287767
 21
197.5
  0
LINE
  8
1
  6
CONTINUOUS
 62
     7
 10
168.2206173522706
 20
197.0
 11
168.2130212287767
 21
197.0868240888335
  0
LINE
  8
1
  6
CONTINUOUS
 62
     7
 10
188.15
 20
234.5
 11
188.15
 21
240.75
  0
LINE
  8
1
  6
CONTINUOUS
 62
     7
 10
301.5
 20
169.25002
 11
301.5
 21
205.0
  0
ARC
  8
1
  6
CONTINUOUS
 62
     7
 10
190.5
 20
253.0
 40
4.999999999999997
 50
90.0
 51
180.0
  0
LINE
  8
1
  6
CONTINUOUS
 62
     7
 10
185.5
 20
252.75
 11
185.5
 21
240.75
  0
LINE
  8
1
  6
CONTINUOUS
 62
     7
 10
185.5
 20
253.0
 11
185.5
 21
252.75002
  0
LINE
  8
1
  6
CONTINUOUS
 62
     7
 10
185.5
 20
184.9118365096458
 11
185.5
 21
169.25002
  0
LINE
  8
1
  6
CONTINUOUS
 62
     7
 10
240.4956746437654
 20
258.0
 11
240.9956556052975
 21
258.0
  0
ARC
  8
1
  6
CONTINUOUS
 62
     7
 10
296.5000000000001
 20
253.0
 40
4.99999999999999
 50
0.0
 51
90.0
  0
LINE
  8
1
  6
CONTINUOUS
 62
     7
 10
190.5
 20
152.0
 11
199.508688789405
 21
152.0
  0
LINE
  8
1
  6
CONTINUOUS
 62
     7
 10
185.5
 20
240.74998
 11
185.5
 21
225.0881634903542
  0
ARC
  8
1
  6
CONTINUOUS
 62
     7
 10
190.5
 20
157.0
 40
5.000000000000004
 50
180.0
 51
270.0
  0
CIRCLE
  8
1
  6
CONTINUOUS
 62
     7
 10
243.5
 20
255.75
 40
1.25
  0
LINE
  8
1
  6
CONTINUOUS
 62
     7
 10
301.5
 20
157.0
 11
301.5
 21
157.24998
  0
LINE
  8
1
  6
CONTINUOUS
 62
     7
 10
199.508688789405
 20
258.0
 11
200.5086507124692
 21
258.0
  0
LINE
  8
1
  6
CONTINUOUS
 62
     7
 10
287.491311210595
 20
152.0
 11
296.5000000000001
 21
152.0
  0
LINE
  8
1
  6
CONTINUOUS
 62
     7
 10
301.5
 20
252.75002
 11
301.5
 21
253.0
  0
LINE
  8
1
  6
CONTINUOUS
 62
     7
 10
185.5
 20
215.9118365096458
 11
185.5
 21
205.0000000000001
  0
LINE
  8
1
  6
CONTINUOUS
 62
     7
 10
185.5
 20
205.0
 11
185.5
 21
194.0881634903542
  0
LINE
  8
1
  6
CONTINUOUS
 62
     7
 10
185.5
 20
169.25
 11
185.5
 21
157.25
  0
LINE
  8
1
  6
CONTINUOUS
 62
     7
 10
185.5
 20
157.24998
 11
185.5
 21
157.0
  0
LINE
  8
1
  6
CONTINUOUS
 62
     7
 10
199.508688789405
 20
258.0
 11
190.5
 21
258.0
  0
LINE
  8
1
  6
CONTINUOUS
 62
     7
 10
301.5
 20
205.0
 11
301.5
 21
240.74998
  0
LINE
  8
1
  6
CONTINUOUS
 62
     7
 10
301.5
 20
157.25
 11
301.5
 21
169.25
  0
LINE
  8
1
  6
CONTINUOUS
 62
     7
 10
226.0
 20
247.7500951923396
 11
226.0
 21
246.75
  0
LINE
  8
1
  6
CONTINUOUS
 62
     7
 10
301.5
 20
240.75
 11
301.5
 21
252.75
  0
LINE
  8
1
  6
CONTINUOUS
 62
     7
 10
246.0043443947025
 20
258.0
 11
246.5043253562346
 21
258.0
  0
LINE
  8
1
  6
CONTINUOUS
 62
     7
 10
298.85
 20
240.75
 11
298.85
 21
169.25
  0
LINE
  8
1
  6
CONTINUOUS
 62
     7
 10
246.0043443947025
 20
258.0
 11
240.9956556052975
 21
258.0
  0
ARC
  8
1
  6
CONTINUOUS
 62
     7
 10
296.5000000000001
 20
157.0
 40
4.999999999999997
 50
270.0
 51
0.0
  0
LINE
  8
1
  6
CONTINUOUS
 62
     7
 10
296.5000000000001
 20
258.0
 11
287.491311210595
 21
258.0
  0
LINE
  8
1
  6
CONTINUOUS
 62
     7
 10
188.15
 20
169.25
 11
188.15
 21
175.5
  0
ARC
  8
1
  6
CONTINUOUS
 62
     7
 10
266.5
 20
246.75
 40
5.5
 50
294.6199773286568
 51
0.0
  0
LINE
  8
1
  6
CONTINUOUS
 62
     7
 10
188.1761806033723
 20
234.991311210595
 11
188.1761806033723
 21
240.75
  0
LINE
  8
1
  6
CONTINUOUS
 62
     7
 10
222.7912878474779
 20
168.25
 11
218.2087121525221
 21
168.25
  0
POLYLINE
  8
1
  6
CONTINUOUS
 62
     7
 66
     1
  0
VERTEX
  8
1
  6
CONTINUOUS
 62
     7
 10
226.0
 20
247.7500951923396
  0
VERTEX
  8
1
  6
CONTINUOUS
 62
     7
 10
225.9519660145977
 20
248.2378125685948
  0
VERTEX
  8
1
  6
CONTINUOUS
 62
     7
 10
225.8097097991107
 20
248.7067817351993
  0
VERTEX
  8
1
  6
CONTINUOUS
 62
     7
 10
225.5786976517739
 20
249.1389822118614
  0
VERTEX
  8
1
  6
CONTINUOUS
 62
     7
 10
225.2678063818629
 20
249.5178063818629
  0
VERTEX
  8
1
  6
CONTINUOUS
 62
     7
 10
224.8889822118614
 20
249.8286976517739
  0
VERTEX
  8
1
  6
CONTINUOUS
 62
     7
 10
224.4567817351993
 20
250.0597097991107
  0
VERTEX
  8
1
  6
CONTINUOUS
 62
     7
 10
223.9878125685948
 20
250.2019660145977
  0
VERTEX
  8
1
  6
CONTINUOUS
 62
     7
 10
223.5000951923396
 20
250.25
  0
SEQEND
  8
1
  6
CONTINUOUS
 62
     7
  0
LINE
  8
1
  6
CONTINUOUS
 62
     7
 10
264.2087121525221
 20
168.25
 11
268.7912878474779
 21
168.25
  0
ARC
  8
1
  6
CONTINUOUS
 62
     7
 10
220.5
 20
163.25
 40
5.500000000000001
 50
0.0
 51
65.38002267134317
  0
ARC
  8
1
  6
CONTINUOUS
 62
     7
 10
266.5
 20
163.25
 40
5.500000000000004
 50
114.6199773286569
 51
180.0
  0
LINE
  8
1
  6
CONTINUOUS
 62
     7
 10
272.0
 20
246.75
 11
272.0
 21
247.7500951923396
  0
LINE
  8
1
  6
CONTINUOUS
 62
     7
 10
215.0
 20
246.75
 11
215.0
 21
247.7500951923396
  0
ARC
  8
1
  6
CONTINUOUS
 62
     7
 10
266.5
 20
163.25
 40
5.5
 50
0.0000000000000568
 51
65.38002267134317
  0
ARC
  8
1
  6
CONTINUOUS
 62
     7
 10
266.5
 20
246.75
 40
5.499999999999998
 50
180.0
 51
245.3800226713432
  0
LINE
  8
1
  6
CONTINUOUS
 62
     7
 10
188.1761806033723
 20
169.25
 11
188.1761806033723
 21
175.008688789405
  0
POLYLINE
  8
1
  6
CONTINUOUS
 62
     7
 66
     1
  0
VERTEX
  8
1
  6
CONTINUOUS
 62
     7
 10
261.0
 20
162.2499048076604
  0
VERTEX
  8
1
  6
CONTINUOUS
 62
     7
 10
261.0480339854023
 20
161.7621874314052
  0
VERTEX
  8
1
  6
CONTINUOUS
 62
     7
 10
261.1902902008893
 20
161.2932182648008
  0
VERTEX
  8
1
  6
CONTINUOUS
 62
     7
 10
261.421302348226
 20
160.8610177881387
  0
VERTEX
  8
1
  6
CONTINUOUS
 62
     7
 10
261.7321936181371
 20
160.4821936181372
  0
VERTEX
  8
1
  6
CONTINUOUS
 62
     7
 10
262.1110177881386
 20
160.1713023482261
  0
VERTEX
  8
1
  6
CONTINUOUS
 62
     7
 10
262.5432182648007
 20
159.9402902008893
  0
VERTEX
  8
1
  6
CONTINUOUS
 62
     7
 10
263.0121874314051
 20
159.7980339854024
  0
VERTEX
  8
1
  6
CONTINUOUS
 62
     7
 10
263.4999048076604
 20
159.75
  0
SEQEND
  8
1
  6
CONTINUOUS
 62
     7
  0
LINE
  8
1
  6
CONTINUOUS
 62
     7
 10
261.0
 20
162.2499048076604
 11
261.0
 21
163.25
  0
LINE
  8
1
  6
CONTINUOUS
 62
     7
 10
272.0
 20
163.25
 11
272.0
 21
162.2499048076604
  0
CIRCLE
  8
1
  6
CONTINUOUS
 62
     7
 10
266.5
 20
246.75
 40
3.100000000000002
  0
LINE
  8
1
  6
CONTINUOUS
 62
     7
 10
269.5000951923396
 20
250.25
 11
263.4999048076604
 21
250.25
  0
POLYLINE
  8
1
  6
CONTINUOUS
 62
     7
 66
     1
  0
VERTEX
  8
1
  6
CONTINUOUS
 62
     7
 10
217.4999048076604
 20
250.25
  0
VERTEX
  8
1
  6
CONTINUOUS
 62
     7
 10
217.0121874314052
 20
250.2019660145976
  0
VERTEX
  8
1
  6
CONTINUOUS
 62
     7
 10
216.5432182648008
 20
250.0597097991107
  0
VERTEX
  8
1
  6
CONTINUOUS
 62
     7
 10
216.1110177881387
 20
249.8286976517739
  0
VERTEX
  8
1
  6
CONTINUOUS
 62
     7
 10
215.7321936181372
 20
249.5178063818629
  0
VERTEX
  8
1
  6
CONTINUOUS
 62
     7
 10
215.4213023482262
 20
249.1389822118614
  0
VERTEX
  8
1
  6
CONTINUOUS
 62
     7
 10
215.1902902008893
 20
248.7067817351993
  0
VERTEX
  8
1
  6
CONTINUOUS
 62
     7
 10
215.0480339854024
 20
248.2378125685948
  0
VERTEX
  8
1
  6
CONTINUOUS
 62
     7
 10
215.0
 20
247.7500951923396
  0
SEQEND
  8
1
  6
CONTINUOUS
 62
     7
  0
POLYLINE
  8
1
  6
CONTINUOUS
 62
     7
 66
     1
  0
VERTEX
  8
1
  6
CONTINUOUS
 62
     7
 10
269.5000951923396
 20
159.75
  0
VERTEX
  8
1
  6
CONTINUOUS
 62
     7
 10
269.9878125685949
 20
159.7980339854024
  0
VERTEX
  8
1
  6
CONTINUOUS
 62
     7
 10
270.4567817351993
 20
159.9402902008893
  0
VERTEX
  8
1
  6
CONTINUOUS
 62
     7
 10
270.8889822118614
 20
160.1713023482262
  0
VERTEX
  8
1
  6
CONTINUOUS
 62
     7
 10
271.2678063818629
 20
160.4821936181372
  0
VERTEX
  8
1
  6
CONTINUOUS
 62
     7
 10
271.578697651774
 20
160.8610177881387
  0
VERTEX
  8
1
  6
CONTINUOUS
 62
     7
 10
271.8097097991107
 20
161.2932182648008
  0
VERTEX
  8
1
  6
CONTINUOUS
 62
     7
 10
271.9519660145977
 20
161.7621874314052
  0
VERTEX
  8
1
  6
CONTINUOUS
 62
     7
 10
272.0
 20
162.2499048076604
  0
SEQEND
  8
1
  6
CONTINUOUS
 62
     7
  0
ARC
  8
1
  6
CONTINUOUS
 62
     7
 10
220.5
 20
246.75
 40
5.500000000000001
 50
294.6199773286568
 51
0.0
  0
LINE
  8
1
  6
CONTINUOUS
 62
     7
 10
269.5000951923396
 20
159.75
 11
263.4999048076604
 21
159.75
  0
CIRCLE
  8
1
  6
CONTINUOUS
 62
     7
 10
266.5
 20
163.25
 40
3.100000000000002
  0
LINE
  8
1
  6
CONTINUOUS
 62
     7
 10
226.0
 20
162.2499048076604
 11
226.0
 21
163.25
  0
POLYLINE
  8
1
  6
CONTINUOUS
 62
     7
 66
     1
  0
VERTEX
  8
1
  6
CONTINUOUS
 62
     7
 10
223.5000951923396
 20
159.75
  0
VERTEX
  8
1
  6
CONTINUOUS
 62
     7
 10
223.9878125685949
 20
159.7980339854024
  0
VERTEX
  8
1
  6
CONTINUOUS
 62
     7
 10
224.4567817351993
 20
159.9402902008893
  0
VERTEX
  8
1
  6
CONTINUOUS
 62
     7
 10
224.8889822118614
 20
160.1713023482262
  0
VERTEX
  8
1
  6
CONTINUOUS
 62
     7
 10
225.2678063818629
 20
160.4821936181372
  0
VERTEX
  8
1
  6
CONTINUOUS
 62
     7
 10
225.5786976517739
 20
160.8610177881387
  0
VERTEX
  8
1
  6
CONTINUOUS
 62
     7
 10
225.8097097991107
 20
161.2932182648008
  0
VERTEX
  8
1
  6
CONTINUOUS
 62
     7
 10
225.9519660145977
 20
161.7621874314052
  0
VERTEX
  8
1
  6
CONTINUOUS
 62
     7
 10
226.0
 20
162.2499048076604
  0
SEQEND
  8
1
  6
CONTINUOUS
 62
     7
  0
LINE
  8
1
  6
CONTINUOUS
 62
     7
 10
217.4999048076604
 20
159.75
 11
223.5000951923396
 21
159.75
  0
LINE
  8
1
  6
CONTINUOUS
 62
     7
 10
264.2087121525221
 20
241.75
 11
268.7912878474779
 21
241.75
  0
LINE
  8
1
  6
CONTINUOUS
 62
     7
 10
222.7912878474779
 20
241.75
 11
218.2087121525221
 21
241.75
  0
ARC
  8
1
  6
CONTINUOUS
 62
     7
 10
220.5
 20
163.25
 40
5.5
 50
114.6199773286568
 51
180.0
  0
POLYLINE
  8
1
  6
CONTINUOUS
 62
     7
 66
     1
  0
VERTEX
  8
1
  6
CONTINUOUS
 62
     7
 10
263.4999048076604
 20
250.25
  0
VERTEX
  8
1
  6
CONTINUOUS
 62
     7
 10
263.0121874314051
 20
250.2019660145976
  0
VERTEX
  8
1
  6
CONTINUOUS
 62
     7
 10
262.5432182648007
 20
250.0597097991107
  0
VERTEX
  8
1
  6
CONTINUOUS
 62
     7
 10
262.1110177881386
 20
249.8286976517739
  0
VERTEX
  8
1
  6
CONTINUOUS
 62
     7
 10
261.7321936181371
 20
249.5178063818629
  0
VERTEX
  8
1
  6
CONTINUOUS
 62
     7
 10
261.421302348226
 20
249.1389822118614
  0
VERTEX
  8
1
  6
CONTINUOUS
 62
     7
 10
261.1902902008893
 20
248.7067817351993
  0
VERTEX
  8
1
  6
CONTINUOUS
 62
     7
 10
261.0480339854023
 20
248.2378125685948
  0
VERTEX
  8
1
  6
CONTINUOUS
 62
     7
 10
261.0
 20
247.7500951923396
  0
SEQEND
  8
1
  6
CONTINUOUS
 62
     7
  0
ARC
  8
1
  6
CONTINUOUS
 62
     7
 10
220.5
 20
246.75
 40
5.5
 50
180.0
 51
245.3800226713431
  0
CIRCLE
  8
1
  6
CONTINUOUS
 62
     7
 10
220.5
 20
246.75
 40
3.100000000000002
  0
LINE
  8
1
  6
CONTINUOUS
 62
     7
 10
217.4999048076604
 20
250.25
 11
223.5000951923396
 21
250.25
  0
LINE
  8
1
  6
CONTINUOUS
 62
     7
 10
261.0
 20
247.7500951923396
 11
261.0
 21
246.75
  0
POLYLINE
  8
1
  6
CONTINUOUS
 62
     7
 66
     1
  0
VERTEX
  8
1
  6
CONTINUOUS
 62
     7
 10
272.0
 20
247.7500951923396
  0
VERTEX
  8
1
  6
CONTINUOUS
 62
     7
 10
271.9519660145977
 20
248.2378125685948
  0
VERTEX
  8
1
  6
CONTINUOUS
 62
     7
 10
271.8097097991107
 20
248.7067817351993
  0
VERTEX
  8
1
  6
CONTINUOUS
 62
     7
 10
271.578697651774
 20
249.1389822118614
  0
VERTEX
  8
1
  6
CONTINUOUS
 62
     7
 10
271.2678063818629
 20
249.5178063818629
  0
VERTEX
  8
1
  6
CONTINUOUS
 62
     7
 10
270.8889822118614
 20
249.8286976517739
  0
VERTEX
  8
1
  6
CONTINUOUS
 62
     7
 10
270.4567817351993
 20
250.0597097991107
  0
VERTEX
  8
1
  6
CONTINUOUS
 62
     7
 10
269.9878125685949
 20
250.2019660145976
  0
VERTEX
  8
1
  6
CONTINUOUS
 62
     7
 10
269.5000951923396
 20
250.25
  0
SEQEND
  8
1
  6
CONTINUOUS
 62
     7
  0
CIRCLE
  8
1
  6
CONTINUOUS
 62
     7
 10
243.5
 20
154.25
 40
1.249999999999999
  0
LINE
  8
1
  6
CONTINUOUS
 62
     7
 10
200.5086507124692
 20
152.0
 11
199.508688789405
 21
152.0
  0
LINE
  8
1
  6
CONTINUOUS
 62
     7
 10
215.0
 20
163.25
 11
215.0
 21
162.2499048076604
  0
POLYLINE
  8
1
  6
CONTINUOUS
 62
     7
 66
     1
  0
VERTEX
  8
1
  6
CONTINUOUS
 62
     7
 10
215.0
 20
162.2499048076604
  0
VERTEX
  8
1
  6
CONTINUOUS
 62
     7
 10
215.0480339854024
 20
161.7621874314052
  0
VERTEX
  8
1
  6
CONTINUOUS
 62
     7
 10
215.1902902008893
 20
161.2932182648008
  0
VERTEX
  8
1
  6
CONTINUOUS
 62
     7
 10
215.4213023482261
 20
160.8610177881387
  0
VERTEX
  8
1
  6
CONTINUOUS
 62
     7
 10
215.7321936181371
 20
160.4821936181372
  0
VERTEX
  8
1
  6
CONTINUOUS
 62
     7
 10
216.1110177881387
 20
160.1713023482261
  0
VERTEX
  8
1
  6
CONTINUOUS
 62
     7
 10
216.5432182648007
 20
159.9402902008893
  0
VERTEX
  8
1
  6
CONTINUOUS
 62
     7
 10
217.0121874314052
 20
159.7980339854024
  0
VERTEX
  8
1
  6
CONTINUOUS
 62
     7
 10
217.4999048076604
 20
159.75
  0
SEQEND
  8
1
  6
CONTINUOUS
 62
     7
  0
LINE
  8
1
  6
CONTINUOUS
 62
     7
 10
240.9956556052975
 20
152.0
 11
246.0043443947025
 21
152.0
  0
CIRCLE
  8
1
  6
CONTINUOUS
 62
     7
 10
220.5
 20
163.25
 40
3.100000000000002
  0
LINE
  8
1
  6
CONTINUOUS
 62
     7
 10
240.9956556052975
 20
152.0
 11
240.4956746437654
 21
152.0
  0
LINE
  8
1
  6
CONTINUOUS
 62
     7
 10
246.5043253562346
 20
152.0
 11
246.0043443947025
 21
152.0
  0
LINE
  8
1
  6
CONTINUOUS
 62
     7
 10
287.491311210595
 20
152.0
 11
286.4913492875309
 21
152.0
  0
LINE
  8
1
  6
CONTINUOUS
 62
     7
 10
246.51537449514
 20
258.0
 11
246.51537449514
 21
253.35
  0
LINE
  8
1
  6
CONTINUOUS
 62
     7
 10
240.48462550486
 20
152.0
 11
240.48462550486
 21
156.65
  0
LINE
  8
1
  6
CONTINUOUS
 62
     7
 10
246.51537449514
 20
258.0
 11
246.5043253562346
 21
258.0
  0
LINE
  8
1
  6
CONTINUOUS
 62
     7
 10
246.51537449514
 20
152.0
 11
246.51537449514
 21
156.65
  0
LINE
  8
1
  6
CONTINUOUS
 62
     7
 10
246.51537449514
 20
152.0
 11
246.5043253562346
 21
152.0
  0
LINE
  8
1
  6
CONTINUOUS
 62
     7
 10
240.48462550486
 20
258.0
 11
240.48462550486
 21
253.35
  0
LINE
  8
1
  6
CONTINUOUS
 62
     7
 10
240.4956746437654
 20
258.0
 11
240.48462550486
 21
258.0
  0
LINE
  8
1
  6
CONTINUOUS
 62
     7
 10
240.4956746437654
 20
152.0
 11
240.48462550486
 21
152.0
  0
POLYLINE
  8
1
  6
CONTINUOUS
 62
     7
 66
     1
  0
VERTEX
  8
1
  6
CONTINUOUS
 62
     7
 10
200.5261806033723
 20
154.1762757957119
  0
VERTEX
  8
1
  6
CONTINUOUS
 62
     7
 10
200.4781466179699
 20
154.6639931719671
  0
VERTEX
  8
1
  6
CONTINUOUS
 62
     7
 10
200.335890402483
 20
155.1329623385716
  0
VERTEX
  8
1
  6
CONTINUOUS
 62
     7
 10
200.1048782551462
 20
155.5651628152336
  0
VERTEX
  8
1
  6
CONTINUOUS
 62
     7
 10
199.7939869852352
 20
155.9439869852352
  0
VERTEX
  8
1
  6
CONTINUOUS
 62
     7
 10
199.4151628152337
 20
156.2548782551462
  0
VERTEX
  8
1
  6
CONTINUOUS
 62
     7
 10
198.9829623385716
 20
156.485890402483
  0
VERTEX
  8
1
  6
CONTINUOUS
 62
     7
 10
198.5139931719671
 20
156.6281466179699
  0
VERTEX
  8
1
  6
CONTINUOUS
 62
     7
 10
198.0262757957119
 20
156.6761806033723
  0
SEQEND
  8
1
  6
CONTINUOUS
 62
     7
  0
POLYLINE
  8
1
  6
CONTINUOUS
 62
     7
 66
     1
  0
VERTEX
  8
1
  6
CONTINUOUS
 62
     7
 10
288.9737242042881
 20
156.6761806033723
  0
VERTEX
  8
1
  6
CONTINUOUS
 62
     7
 10
288.4860068280328
 20
156.6281466179699
  0
VERTEX
  8
1
  6
CONTINUOUS
 62
     7
 10
288.0170376614284
 20
156.485890402483
  0
VERTEX
  8
1
  6
CONTINUOUS
 62
     7
 10
287.5848371847663
 20
156.2548782551462
  0
VERTEX
  8
1
  6
CONTINUOUS
 62
     7
 10
287.2060130147648
 20
155.9439869852352
  0
VERTEX
  8
1
  6
CONTINUOUS
 62
     7
 10
286.8951217448538
 20
155.5651628152337
  0
VERTEX
  8
1
  6
CONTINUOUS
 62
     7
 10
286.664109597517
 20
155.1329623385716
  0
VERTEX
  8
1
  6
CONTINUOUS
 62
     7
 10
286.52185338203
 20
154.6639931719671
  0
VERTEX
  8
1
  6
CONTINUOUS
 62
     7
 10
286.4738193966277
 20
154.1762757957119
  0
SEQEND
  8
1
  6
CONTINUOUS
 62
     7
  0
LINE
  8
1
  6
CONTINUOUS
 62
     7
 10
200.5261806033723
 20
258.0
 11
200.5086507124692
 21
258.0
  0
POLYLINE
  8
1
  6
CONTINUOUS
 62
     7
 66
     1
  0
VERTEX
  8
1
  6
CONTINUOUS
 62
     7
 10
286.4738193966277
 20
255.8237242042881
  0
VERTEX
  8
1
  6
CONTINUOUS
 62
     7
 10
286.52185338203
 20
255.3360068280329
  0
VERTEX
  8
1
  6
CONTINUOUS
 62
     7
 10
286.664109597517
 20
254.8670376614285
  0
VERTEX
  8
1
  6
CONTINUOUS
 62
     7
 10
286.8951217448538
 20
254.4348371847664
  0
VERTEX
  8
1
  6
CONTINUOUS
 62
     7
 10
287.2060130147648
 20
254.0560130147649
  0
VERTEX
  8
1
  6
CONTINUOUS
 62
     7
 10
287.5848371847663
 20
253.7451217448539
  0
VERTEX
  8
1
  6
CONTINUOUS
 62
     7
 10
288.0170376614284
 20
253.514109597517
  0
VERTEX
  8
1
  6
CONTINUOUS
 62
     7
 10
288.4860068280328
 20
253.3718533820301
  0
VERTEX
  8
1
  6
CONTINUOUS
 62
     7
 10
288.9737242042881
 20
253.3238193966277
  0
SEQEND
  8
1
  6
CONTINUOUS
 62
     7
  0
LINE
  8
1
  6
CONTINUOUS
 62
     7
 10
200.5261806033723
 20
258.0
 11
200.5261806033723
 21
255.8237242042882
  0
POLYLINE
  8
1
  6
CONTINUOUS
 62
     7
 66
     1
  0
VERTEX
  8
1
  6
CONTINUOUS
 62
     7
 10
198.0262757957119
 20
253.3238193966277
  0
VERTEX
  8
1
  6
CONTINUOUS
 62
     7
 10
198.5139931719671
 20
253.3718533820301
  0
VERTEX
  8
1
  6
CONTINUOUS
 62
     7
 10
198.9829623385716
 20
253.514109597517
  0
VERTEX
  8
1
  6
CONTINUOUS
 62
     7
 10
199.4151628152337
 20
253.7451217448539
  0
VERTEX
  8
1
  6
CONTINUOUS
 62
     7
 10
199.7939869852352
 20
254.0560130147649
  0
VERTEX
  8
1
  6
CONTINUOUS
 62
     7
 10
200.1048782551462
 20
254.4348371847664
  0
VERTEX
  8
1
  6
CONTINUOUS
 62
     7
 10
200.335890402483
 20
254.8670376614285
  0
VERTEX
  8
1
  6
CONTINUOUS
 62
     7
 10
200.47814661797
 20
255.3360068280329
  0
VERTEX
  8
1
  6
CONTINUOUS
 62
     7
 10
200.5261806033723
 20
255.8237242042881
  0
SEQEND
  8
1
  6
CONTINUOUS
 62
     7
  0
LINE
  8
1
  6
CONTINUOUS
 62
     7
 10
286.4738193966277
 20
258.0
 11
286.4738193966277
 21
255.8237242042882
  0
LINE
  8
1
  6
CONTINUOUS
 62
     7
 10
286.4913492875309
 20
258.0
 11
286.4738193966277
 21
258.0
  0
ARC
  8
1
  6
CONTINUOUS
 62
     7
 10
238.0
 20
173.5
 40
2.500000000000001
 50
270.0
 51
0.0
  0
LINE
  8
1
  6
CONTINUOUS
 62
     7
 10
301.5000000000001
 20
97.9
 11
301.5000000000001
 21
62.9
  0
ARC
  8
1
  6
CONTINUOUS
 62
     7
 10
249.0
 20
236.5
 40
2.5
 50
90.0
 51
180.0
  0
LINE
  8
1
  6
CENTER
 62
     1
 10
220.5
 20
152.0
 11
220.5
 21
258.0
  0
LINE
  8
1
  6
CENTER
 62
     1
 10
102.9
 20
230.0
 11
66.89999999999999
 21
230.0
  0
ARC
  8
1
  6
CONTINUOUS
 62
     7
 10
266.5
 20
205.0
 40
8.299999999999999
 50
0.0
 51
180.0
  0
LINE
  8
1
  6
CONTINUOUS
 62
     7
 10
249.0
 20
239.0
 11
284.0
 21
239.0
  0
LINE
  8
1
  6
CENTER
 62
     1
 10
220.5
 20
97.9
 11
220.5
 21
61.9
  0
LINE
  8
1
  6
CENTER
 62
     1
 10
168.2130212287767
 20
205.0
 11
301.5
 21
205.0
  0
LINE
  8
1
  6
CENTER
 62
     1
 10
266.5
 20
97.9
 11
266.5
 21
61.9
  0
LINE
  8
1
  6
CONTINUOUS
 62
     7
 10
200.5000000000001
 20
173.5
 11
200.5
 21
236.5
  0
LINE
  8
1
  6
CONTINUOUS
 62
     7
 10
240.5
 20
236.5
 11
240.5
 21
173.5
  0
LINE
  8
1
  6
CENTER
 62
     1
 10
108.4
 20
205.0
 11
67.89999999999999
 21
205.0
  0
LINE
  8
1
  6
CENTER
 62
     1
 10
243.5000000000001
 20
258.0
 11
243.5000000000001
 21
152.0
  0
ARC
  8
1
  6
CONTINUOUS
 62
     7
 10
266.5
 20
205.0
 40
8.3
 50
180.0
 51
0.0
  0
LINE
  8
1
  6
CENTER
 62
     1
 10
185.5
 20
78.89999999999999
 11
301.5
 21
78.89999999999999
  0
LINE
  8
1
  6
CENTER
 62
     1
 10
66.89999999999999
 20
180.0
 11
102.9
 21
180.0
  0
LINE
  8
1
  6
CENTER
 62
     1
 10
266.5
 20
152.0
 11
266.5
 21
258.0
  0
LINE
  8
1
  6
CONTINUOUS
 62
     7
 10
193.4323141730311
 20
169.25
 11
193.4323141730311
 21
240.75
  0
LINE
  8
1
  6
CONTINUOUS
 62
     7
 10
185.5
 20
62.9
 11
185.5
 21
97.9
  0
ARC
  8
1
  6
CONTINUOUS
 62
     7
 10
220.5
 20
205.0
 40
8.199999999999996
 50
180.0
 51
0.0
  0
LINE
  8
1
  6
CONTINUOUS
 62
     7
 10
284.0
 20
171.0
 11
249.0
 21
171.0
  0
LINE
  8
1
  6
CONTINUOUS
 62
     7
 10
238.0
 20
171.0
 11
203.0
 21
171.0
  0
LINE
  8
1
  6
CONTINUOUS
 62
     7
 10
100.4
 20
165.0
 11
66.89999999999999
 21
164.9999999999999
  0
LINE
  8
1
  6
CENTER
 62
     1
 10
243.5
 20
61.9
 11
243.5
 21
97.9
  0
LINE
  8
1
  6
CONTINUOUS
 62
     7
 10
100.4
 20
245.0
 11
66.89999999999999
 21
245.0
  0
LINE
  8
1
  6
CONTINUOUS
 62
     7
 10
293.8151686841586
 20
169.25
 11
293.8151686841586
 21
240.75
  0
ARC
  8
1
  6
CONTINUOUS
 62
     7
 10
220.5
 20
205.0
 40
8.199999999999996
 50
0.0000000000000568
 51
180.0
  0
LINE
  8
1
  6
CONTINUOUS
 62
     7
 10
246.5000000000001
 20
173.5
 11
246.5
 21
236.5
  0
LINE
  8
1
  6
CONTINUOUS
 62
     7
 10
203.0
 20
239.0
 11
238.0
 21
239.0
  0
LINE
  8
1
  6
CONTINUOUS
 62
     7
 10
286.5
 20
236.5
 11
286.5
 21
173.5
  0
LINE
  8
1
  6
CONTINUOUS
 62
     7
 10
250.5887234393789
 20
258.0
 11
246.51537449514
 21
258.0
  0
LINE
  8
1
  6
CONTINUOUS
 62
     7
 10
200.5261806033723
 20
152.0
 11
200.5086507124692
 21
152.0
  0
LINE
  8
1
  6
CONTINUOUS
 62
     7
 10
240.48462550486
 20
258.0
 11
236.4112765606211
 21
258.0
  0
LINE
  8
1
  6
CONTINUOUS
 62
     7
 10
240.48462550486
 20
152.0
 11
236.4112765606211
 21
152.0
  0
LINE
  8
1
  6
CONTINUOUS
 62
     7
 10
250.5887234393789
 20
152.0
 11
246.51537449514
 21
152.0
  0
LINE
  8
1
  6
CONTINUOUS
 62
     7
 10
200.5261806033723
 20
152.0
 11
200.5261806033723
 21
154.1762757957119
  0
LINE
  8
1
  6
CONTINUOUS
 62
     7
 10
286.4913492875309
 20
152.0
 11
286.4738193966277
 21
152.0
  0
LINE
  8
1
  6
CONTINUOUS
 62
     7
 10
286.4738193966277
 20
152.0
 11
286.4738193966277
 21
154.1762757957119
  0
LINE
  8
1
  6
CONTINUOUS
 62
     7
 10
236.4112765606211
 20
152.0
 11
200.5261806033723
 21
152.0
  0
LINE
  8
1
  6
CONTINUOUS
 62
     7
 10
286.4738193966277
 20
152.0
 11
250.5887234393789
 21
152.0
  0
LINE
  8
1
  6
CONTINUOUS
 62
     7
 10
236.4112765606211
 20
258.0
 11
200.5261806033723
 21
258.0
  0
LINE
  8
1
  6
CONTINUOUS
 62
     7
 10
286.4738193966277
 20
258.0
 11
250.5887234393789
 21
258.0
  0
LINE
  8
1
  6
CONTINUOUS
 62
     7
 10
200.5
 20
223.5
 11
200.5
 21
186.5
  0
ARC
  8
1
  6
CONTINUOUS
 62
     7
 10
203.0
 20
173.5
 40
2.500000000000002
 50
180.0
 51
269.9999999999997
  0
ARC
  8
1
  6
CONTINUOUS
 62
     7
 10
284.0
 20
236.5
 40
2.500000000000002
 50
0.0
 51
89.99999999999966
  0
ARC
  8
1
  6
CONTINUOUS
 62
     7
 10
284.0
 20
173.5
 40
2.500000000000002
 50
270.0000000000003
 51
0.0
  0
ARC
  8
1
  6
CONTINUOUS
 62
     7
 10
203.0
 20
236.5
 40
2.500000000000002
 50
90.00000000000034
 51
180.0
  0
LINE
  8
1
  6
CONTINUOUS
 62
     7
 10
224.0
 20
239.0
 11
238.0
 21
239.0
  0
LINE
  8
1
  6
CONTINUOUS
 62
     7
 10
270.0
 20
203.9
 11
263.0
 21
203.9
  0
LINE
  8
1
  6
CONTINUOUS
 62
     7
 10
263.0
 20
206.1
 11
270.0
 21
206.1
  0
ARC
  8
1
  6
CONTINUOUS
 62
     7
 10
263.0
 20
204.4
 40
0.5000000000000008
 50
180.0
 51
270.0
  0
LINE
  8
1
  6
CONTINUOUS
 62
     7
 10
270.5
 20
205.6
 11
270.5
 21
204.4
  0
LINE
  8
1
  6
CONTINUOUS
 62
     7
 10
240.5
 20
236.5
 11
240.5
 21
227.0
  0
ARC
  8
1
  6
CONTINUOUS
 62
     7
 10
263.0
 20
205.6
 40
0.5000000000000004
 50
90.0
 51
180.0
  0
LINE
  8
1
  6
CONTINUOUS
 62
     7
 10
263.0
 20
171.0
 11
249.0
 21
171.0
  0
LINE
  8
1
  6
CONTINUOUS
 62
     7
 10
262.5
 20
204.4
 11
262.5
 21
205.6
  0
ARC
  8
1
  6
CONTINUOUS
 62
     7
 10
238.0
 20
236.5
 40
2.500000000000002
 50
0.0
 51
89.99999999999966
  0
ARC
  8
1
  6
CONTINUOUS
 62
     7
 10
249.0
 20
173.5
 40
2.500000000000002
 50
180.0
 51
269.9999999999997
  0
ARC
  8
1
  6
CONTINUOUS
 62
     7
 10
270.0
 20
204.4
 40
0.5000000000000004
 50
270.0
 51
0.0000000000000568
  0
ARC
  8
1
  6
CONTINUOUS
 62
     7
 10
270.0
 20
205.6
 40
0.5
 50
0.0
 51
90.0
  0
LINE
  8
1
  6
CONTINUOUS
 62
     7
 10
286.5
 20
236.5
 11
286.5
 21
233.4641016151378
  0
LINE
  8
1
  6
CONTINUOUS
 62
     7
 10
168.2130212287767
 20
212.9131759111665
 11
168.2130212287767
 21
197.0868240888335
  0
LINE
  8
1
  6
CONTINUOUS
 62
     7
 10
103.4
 20
197.0
 11
103.4
 21
194.0000000000001
  0
LINE
  8
1
  6
CONTINUOUS
 62
     7
 10
106.9075961234939
 20
212.5
 11
103.9
 21
212.5
  0
POLYLINE
  8
1
  6
CONTINUOUS
 62
     7
 66
     1
  0
VERTEX
  8
1
  6
CONTINUOUS
 62
     7
 10
103.4
 20
197.0
  0
VERTEX
  8
1
  6
CONTINUOUS
 62
     7
 10
103.4006022718974
 20
197.0245338371637
  0
VERTEX
  8
1
  6
CONTINUOUS
 62
     7
 10
103.4024076366639
 20
197.0490085701648
  0
VERTEX
  8
1
  6
CONTINUOUS
 62
     7
 10
103.4054117450176
 20
197.0733652372277
  0
VERTEX
  8
1
  6
CONTINUOUS
 62
     7
 10
103.4096073597984
 20
197.0975451610081
  0
VERTEX
  8
1
  6
CONTINUOUS
 62
     7
 10
103.4149843734027
 20
197.1214900899517
  0
VERTEX
  8
1
  6
CONTINUOUS
 62
     7
 10
103.4215298321339
 20
197.1451423386273
  0
VERTEX
  8
1
  6
CONTINUOUS
 62
     7
 10
103.4292279674085
 20
197.1684449266961
  0
VERTEX
  8
1
  6
CONTINUOUS
 62
     7
 10
103.4380602337444
 20
197.1913417161826
  0
VERTEX
  8
1
  6
CONTINUOUS
 62
     7
 10
103.4480053534383
 20
197.2137775467151
  0
VERTEX
  8
1
  6
CONTINUOUS
 62
     7
 10
103.4590393678258
 20
197.235698368413
  0
VERTEX
  8
1
  6
CONTINUOUS
 62
     7
 10
103.4711356949999
 20
197.2570513720966
  0
VERTEX
  8
1
  6
CONTINUOUS
 62
     7
 10
103.4842651938487
 20
197.2777851165098
  0
VERTEX
  8
1
  6
CONTINUOUS
 62
     7
 10
103.4983962342597
 20
197.2978496522462
  0
VERTEX
  8
1
  6
CONTINUOUS
 62
     7
 10
103.5134947733186
 20
197.3171966420818
  0
VERTEX
  8
1
  6
CONTINUOUS
 62
     7
 10
103.5295244373225
 20
197.3357794774235
  0
VERTEX
  8
1
  6
CONTINUOUS
 62
     7
 10
103.5464466094067
 20
197.3535533905933
  0
VERTEX
  8
1
  6
CONTINUOUS
 62
     7
 10
103.5642205225765
 20
197.3704755626775
  0
VERTEX
  8
1
  6
CONTINUOUS
 62
     7
 10
103.5828033579182
 20
197.3865052266814
  0
VERTEX
  8
1
  6
CONTINUOUS
 62
     7
 10
103.6021503477538
 20
197.4016037657403
  0
VERTEX
  8
1
  6
CONTINUOUS
 62
     7
 10
103.6222148834902
 20
197.4157348061513
  0
VERTEX
  8
1
  6
CONTINUOUS
 62
     7
 10
103.6429486279034
 20
197.4288643050001
  0
VERTEX
  8
1
  6
CONTINUOUS
 62
     7
 10
103.664301631587
 20
197.4409606321742
  0
VERTEX
  8
1
  6
CONTINUOUS
 62
     7
 10
103.6862224532848
 20
197.4519946465617
  0
VERTEX
  8
1
  6
CONTINUOUS
 62
     7
 10
103.7086582838174
 20
197.4619397662557
  0
VERTEX
  8
1
  6
CONTINUOUS
 62
     7
 10
103.7315550733039
 20
197.4707720325915
  0
VERTEX
  8
1
  6
CONTINUOUS
 62
     7
 10
103.7548576613728
 20
197.4784701678661
  0
VERTEX
  8
1
  6
CONTINUOUS
 62
     7
 10
103.7785099100484
 20
197.4850156265973
  0
VERTEX
  8
1
  6
CONTINUOUS
 62
     7
 10
103.8024548389919
 20
197.4903926402016
  0
VERTEX
  8
1
  6
CONTINUOUS
 62
     7
 10
103.8266347627723
 20
197.4945882549824
  0
VERTEX
  8
1
  6
CONTINUOUS
 62
     7
 10
103.8509914298352
 20
197.4975923633361
  0
VERTEX
  8
1
  6
CONTINUOUS
 62
     7
 10
103.8754661628363
 20
197.4993977281026
  0
VERTEX
  8
1
  6
CONTINUOUS
 62
     7
 10
103.9
 20
197.5
  0
SEQEND
  8
1
  6
CONTINUOUS
 62
     7
  0
POLYLINE
  8
1
  6
CONTINUOUS
 62
     7
 66
     1
  0
VERTEX
  8
1
  6
CONTINUOUS
 62
     7
 10
107.9868240888334
 20
215.6649920059972
  0
VERTEX
  8
1
  6
CONTINUOUS
 62
     7
 10
108.0112604669781
 20
215.6629458239642
  0
VERTEX
  8
1
  6
CONTINUOUS
 62
     7
 10
108.0354202340715
 20
215.6603976514613
  0
VERTEX
  8
1
  6
CONTINUOUS
 62
     7
 10
108.0592433251258
 20
215.6573538236467
  0
VERTEX
  8
1
  6
CONTINUOUS
 62
     7
 10
108.0826705121832
 20
215.6538219079561
  0
VERTEX
  8
1
  6
CONTINUOUS
 62
     7
 10
108.1056435515653
 20
215.6498106852883
  0
VERTEX
  8
1
  6
CONTINUOUS
 62
     7
 10
108.1281053286766
 20
215.6453301281749
  0
VERTEX
  8
1
  6
CONTINUOUS
 62
     7
 10
108.15
 20
215.6403913759869
  0
VERTEX
  8
1
  6
CONTINUOUS
 62
     7
 10
108.1712731319329
 20
215.6350067072403
  0
VERTEX
  8
1
  6
CONTINUOUS
 62
     7
 10
108.1918718361174
 20
215.6291895090701
  0
VERTEX
  8
1
  6
CONTINUOUS
 62
     7
 10
108.2117449009294
 20
215.6229542439476
  0
VERTEX
  8
1
  6
CONTINUOUS
 62
     7
 10
108.2308429187984
 20
215.6163164137241
  0
VERTEX
  8
1
  6
CONTINUOUS
 62
     7
 10
108.249118409043
 20
215.6092925210916
  0
VERTEX
  8
1
  6
CONTINUOUS
 62
     7
 10
108.2665259359149
 20
215.6019000285539
  0
VERTEX
  8
1
  6
CONTINUOUS
 62
     7
 10
108.2830222215595
 20
215.5941573150121
  0
VERTEX
  8
1
  6
CONTINUOUS
 62
     7
 10
108.2985662536115
 20
215.5860836300721
  0
VERTEX
  8
1
  6
CONTINUOUS
 62
     7
 10
108.313119387158
 20
215.5776990461867
  0
VERTEX
  8
1
  6
CONTINUOUS
 62
     7
 10
108.3266454408161
 20
215.5690244087526
  0
VERTEX
  8
1
  6
CONTINUOUS
 62
     7
 10
108.3391107866851
 20
215.5600812842852
  0
VERTEX
  8
1
  6
CONTINUOUS
 62
     7
 10
108.3504844339512
 20
215.5508919068012
  0
VERTEX
  8
1
  6
CONTINUOUS
 62
     7
 10
108.3607381059352
 20
215.5414791225406
  0
VERTEX
  8
1
  6
CONTINUOUS
 62
     7
 10
108.3698463103929
 20
215.5318663331684
  0
VERTEX
  8
1
  6
CONTINUOUS
 62
     7
 10
108.3777864028931
 20
215.5220774375936
  0
VERTEX
  8
1
  6
CONTINUOUS
 62
     7
 10
108.3845386431145
 20
215.5121367725529
  0
VERTEX
  8
1
  6
CONTINUOUS
 62
     7
 10
108.3900862439243
 20
215.5020690521059
  0
VERTEX
  8
1
  6
CONTINUOUS
 62
     7
 10
108.3944154131125
 20
215.4918993061918
  0
VERTEX
  8
1
  6
CONTINUOUS
 62
     7
 10
108.3975153876827
 20
215.4816528184014
  0
VERTEX
  8
1
  6
CONTINUOUS
 62
     7
 10
108.3993784606095
 20
215.4713550631179
  0
VERTEX
  8
1
  6
CONTINUOUS
 62
     7
 10
108.4
 20
215.4610316421833
  0
SEQEND
  8
1
  6
CONTINUOUS
 62
     7
  0
LINE
  8
1
  6
CONTINUOUS
 62
     7
 10
106.9
 20
197.5
 11
106.9
 21
212.5
  0
POLYLINE
  8
1
  6
CONTINUOUS
 62
     7
 66
     1
  0
VERTEX
  8
1
  6
CONTINUOUS
 62
     7
 10
107.9868240888334
 20
185.8087808426249
  0
VERTEX
  8
1
  6
CONTINUOUS
 62
     7
 10
108.0112604669781
 20
185.8137207630401
  0
VERTEX
  8
1
  6
CONTINUOUS
 62
     7
 10
108.0354202340715
 20
185.819872595656
  0
VERTEX
  8
1
  6
CONTINUOUS
 62
     7
 10
108.0592433251258
 20
185.8272210460474
  0
VERTEX
  8
1
  6
CONTINUOUS
 62
     7
 10
108.0826705121832
 20
185.8357478448089
  0
VERTEX
  8
1
  6
CONTINUOUS
 62
     7
 10
108.1056435515653
 20
185.8454317929751
  0
VERTEX
  8
1
  6
CONTINUOUS
 62
     7
 10
108.1281053286766
 20
185.8562488147253
  0
VERTEX
  8
1
  6
CONTINUOUS
 62
     7
 10
108.15
 20
185.8681720172387
  0
VERTEX
  8
1
  6
CONTINUOUS
 62
     7
 10
108.1712731319329
 20
185.8811717575556
  0
VERTEX
  8
1
  6
CONTINUOUS
 62
     7
 10
108.1918718361174
 20
185.8952157162731
  0
VERTEX
  8
1
  6
CONTINUOUS
 62
     7
 10
108.2117449009294
 20
185.910268977897
  0
VERTEX
  8
1
  6
CONTINUOUS
 62
     7
 10
108.2308429187984
 20
185.9262941176471
  0
VERTEX
  8
1
  6
CONTINUOUS
 62
     7
 10
108.249118409043
 20
185.9432512945011
  0
VERTEX
  8
1
  6
CONTINUOUS
 62
     7
 10
108.2665259359149
 20
185.9610983502455
  0
VERTEX
  8
1
  6
CONTINUOUS
 62
     7
 10
108.2830222215595
 20
185.9797909142877
  0
VERTEX
  8
1
  6
CONTINUOUS
 62
     7
 10
108.2985662536115
 20
185.9992825139682
  0
VERTEX
  8
1
  6
CONTINUOUS
 62
     7
 10
108.313119387158
 20
186.0195246900992
  0
VERTEX
  8
1
  6
CONTINUOUS
 62
     7
 10
108.3266454408161
 20
186.0404671174412
  0
VERTEX
  8
1
  6
CONTINUOUS
 62
     7
 10
108.3391107866851
 20
186.0620577298203
  0
VERTEX
  8
1
  6
CONTINUOUS
 62
     7
 10
108.3504844339512
 20
186.0842428495722
  0
VERTEX
  8
1
  6
CONTINUOUS
 62
     7
 10
108.3607381059352
 20
186.1069673209936
  0
VERTEX
  8
1
  6
CONTINUOUS
 62
     7
 10
108.3698463103929
 20
186.1301746474682
  0
VERTEX
  8
1
  6
CONTINUOUS
 62
     7
 10
108.3777864028931
 20
186.1538071319255
  0
VERTEX
  8
1
  6
CONTINUOUS
 62
     7
 10
108.3845386431145
 20
186.1778060202858
  0
VERTEX
  8
1
  6
CONTINUOUS
 62
     7
 10
108.3900862439243
 20
186.2021116475313
  0
VERTEX
  8
1
  6
CONTINUOUS
 62
     7
 10
108.3944154131125
 20
186.2266635860429
  0
VERTEX
  8
1
  6
CONTINUOUS
 62
     7
 10
108.3975153876827
 20
186.2514007958331
  0
VERTEX
  8
1
  6
CONTINUOUS
 62
     7
 10
108.3993784606095
 20
186.2762617763006
  0
VERTEX
  8
1
  6
CONTINUOUS
 62
     7
 10
108.4
 20
186.301184719131
  0
SEQEND
  8
1
  6
CONTINUOUS
 62
     7
  0
POLYLINE
  8
1
  6
CONTINUOUS
 62
     7
 66
     1
  0
VERTEX
  8
1
  6
CONTINUOUS
 62
     7
 10
107.9868240888334
 20
224.1912191573752
  0
VERTEX
  8
1
  6
CONTINUOUS
 62
     7
 10
108.0112604669781
 20
224.18627923696
  0
VERTEX
  8
1
  6
CONTINUOUS
 62
     7
 10
108.0354202340715
 20
224.1801274043441
  0
VERTEX
  8
1
  6
CONTINUOUS
 62
     7
 10
108.0592433251258
 20
224.1727789539526
  0
VERTEX
  8
1
  6
CONTINUOUS
 62
     7
 10
108.0826705121832
 20
224.1642521551911
  0
VERTEX
  8
1
  6
CONTINUOUS
 62
     7
 10
108.1056435515653
 20
224.1545682070249
  0
VERTEX
  8
1
  6
CONTINUOUS
 62
     7
 10
108.1281053286766
 20
224.1437511852748
  0
VERTEX
  8
1
  6
CONTINUOUS
 62
     7
 10
108.15
 20
224.1318279827613
  0
VERTEX
  8
1
  6
CONTINUOUS
 62
     7
 10
108.1712731319329
 20
224.1188282424444
  0
VERTEX
  8
1
  6
CONTINUOUS
 62
     7
 10
108.1918718361174
 20
224.104784283727
  0
VERTEX
  8
1
  6
CONTINUOUS
 62
     7
 10
108.2117449009294
 20
224.0897310221031
  0
VERTEX
  8
1
  6
CONTINUOUS
 62
     7
 10
108.2308429187984
 20
224.0737058823529
  0
VERTEX
  8
1
  6
CONTINUOUS
 62
     7
 10
108.249118409043
 20
224.0567487054989
  0
VERTEX
  8
1
  6
CONTINUOUS
 62
     7
 10
108.2665259359149
 20
224.0389016497545
  0
VERTEX
  8
1
  6
CONTINUOUS
 62
     7
 10
108.2830222215595
 20
224.0202090857123
  0
VERTEX
  8
1
  6
CONTINUOUS
 62
     7
 10
108.2985662536115
 20
224.0007174860318
  0
VERTEX
  8
1
  6
CONTINUOUS
 62
     7
 10
108.313119387158
 20
223.9804753099009
  0
VERTEX
  8
1
  6
CONTINUOUS
 62
     7
 10
108.3266454408161
 20
223.9595328825588
  0
VERTEX
  8
1
  6
CONTINUOUS
 62
     7
 10
108.3391107866851
 20
223.9379422701797
  0
VERTEX
  8
1
  6
CONTINUOUS
 62
     7
 10
108.3504844339512
 20
223.9157571504278
  0
VERTEX
  8
1
  6
CONTINUOUS
 62
     7
 10
108.3607381059352
 20
223.8930326790064
  0
VERTEX
  8
1
  6
CONTINUOUS
 62
     7
 10
108.3698463103929
 20
223.8698253525319
  0
VERTEX
  8
1
  6
CONTINUOUS
 62
     7
 10
108.3777864028931
 20
223.8461928680745
  0
VERTEX
  8
1
  6
CONTINUOUS
 62
     7
 10
108.3845386431145
 20
223.8221939797142
  0
VERTEX
  8
1
  6
CONTINUOUS
 62
     7
 10
108.3900862439243
 20
223.7978883524687
  0
VERTEX
  8
1
  6
CONTINUOUS
 62
     7
 10
108.3944154131126
 20
223.7733364139571
  0
VERTEX
  8
1
  6
CONTINUOUS
 62
     7
 10
108.3975153876827
 20
223.7485992041669
  0
VERTEX
  8
1
  6
CONTINUOUS
 62
     7
 10
108.3993784606095
 20
223.7237382236994
  0
VERTEX
  8
1
  6
CONTINUOUS
 62
     7
 10
108.4
 20
223.698815280869
  0
SEQEND
  8
1
  6
CONTINUOUS
 62
     7
  0
LINE
  8
1
  6
CONTINUOUS
 62
     7
 10
103.4
 20
225.0
 11
107.9868240888334
 21
224.1912191573752
  0
LINE
  8
1
  6
CONTINUOUS
 62
     7
 10
103.4
 20
194.0000000000001
 11
103.4
 21
185.0
  0
LINE
  8
1
  6
CONTINUOUS
 62
     7
 10
107.4868240888334
 20
197.0
 11
106.9075961234939
 21
197.5
  0
LINE
  8
1
  6
CONTINUOUS
 62
     7
 10
102.9
 20
157.25
 11
102.9
 21
169.25
  0
LINE
  8
1
  6
CONTINUOUS
 62
     7
 10
108.4
 20
194.5389683578167
 11
108.4
 21
186.301184719131
  0
LINE
  8
1
  6
CONTINUOUS
 62
     7
 10
102.9
 20
252.75
 11
102.9
 21
240.75
  0
LINE
  8
1
  6
CONTINUOUS
 62
     7
 10
103.4
 20
216.0
 11
107.9868240888334
 21
215.6649920059972
  0
LINE
  8
1
  6
CONTINUOUS
 62
     7
 10
103.9
 20
197.5
 11
106.9075961234939
 21
197.5
  0
LINE
  8
1
  6
CONTINUOUS
 62
     7
 10
103.4
 20
197.0
 11
103.4
 21
199.5
  0
LINE
  8
1
  6
CONTINUOUS
 62
     7
 10
103.4
 20
185.0
 11
107.9868240888334
 21
185.8087808426249
  0
ARC
  8
1
  6
CONTINUOUS
 62
     7
 10
104.4
 20
209.5
 40
0.5000000000000004
 50
0.0
 51
90.0
  0
LINE
  8
1
  6
CONTINUOUS
 62
     7
 10
104.9
 20
200.5
 11
104.9
 21
209.5
  0
POLYLINE
  8
1
  6
CONTINUOUS
 62
     7
 66
     1
  0
VERTEX
  8
1
  6
CONTINUOUS
 62
     7
 10
107.9868240888334
 20
194.3350079940028
  0
VERTEX
  8
1
  6
CONTINUOUS
 62
     7
 10
108.0112604669781
 20
194.3370541760358
  0
VERTEX
  8
1
  6
CONTINUOUS
 62
     7
 10
108.0354202340715
 20
194.3396023485388
  0
VERTEX
  8
1
  6
CONTINUOUS
 62
     7
 10
108.0592433251258
 20
194.3426461763534
  0
VERTEX
  8
1
  6
CONTINUOUS
 62
     7
 10
108.0826705121832
 20
194.346178092044
  0
VERTEX
  8
1
  6
CONTINUOUS
 62
     7
 10
108.1056435515653
 20
194.3501893147118
  0
VERTEX
  8
1
  6
CONTINUOUS
 62
     7
 10
108.1281053286766
 20
194.3546698718251
  0
VERTEX
  8
1
  6
CONTINUOUS
 62
     7
 10
108.15
 20
194.3596086240132
  0
VERTEX
  8
1
  6
CONTINUOUS
 62
     7
 10
108.1712731319329
 20
194.3649932927597
  0
VERTEX
  8
1
  6
CONTINUOUS
 62
     7
 10
108.1918718361174
 20
194.3708104909299
  0
VERTEX
  8
1
  6
CONTINUOUS
 62
     7
 10
108.2117449009294
 20
194.3770457560525
  0
VERTEX
  8
1
  6
CONTINUOUS
 62
     7
 10
108.2308429187984
 20
194.3836835862759
  0
VERTEX
  8
1
  6
CONTINUOUS
 62
     7
 10
108.249118409043
 20
194.3907074789084
  0
VERTEX
  8
1
  6
CONTINUOUS
 62
     7
 10
108.2665259359149
 20
194.3980999714462
  0
VERTEX
  8
1
  6
CONTINUOUS
 62
     7
 10
108.2830222215595
 20
194.405842684988
  0
VERTEX
  8
1
  6
CONTINUOUS
 62
     7
 10
108.2985662536115
 20
194.413916369928
  0
VERTEX
  8
1
  6
CONTINUOUS
 62
     7
 10
108.313119387158
 20
194.4223009538134
  0
VERTEX
  8
1
  6
CONTINUOUS
 62
     7
 10
108.3266454408161
 20
194.4309755912474
  0
VERTEX
  8
1
  6
CONTINUOUS
 62
     7
 10
108.3391107866851
 20
194.4399187157148
  0
VERTEX
  8
1
  6
CONTINUOUS
 62
     7
 10
108.3504844339512
 20
194.4491080931989
  0
VERTEX
  8
1
  6
CONTINUOUS
 62
     7
 10
108.3607381059352
 20
194.4585208774594
  0
VERTEX
  8
1
  6
CONTINUOUS
 62
     7
 10
108.3698463103929
 20
194.4681336668316
  0
VERTEX
  8
1
  6
CONTINUOUS
 62
     7
 10
108.3777864028931
 20
194.4779225624064
  0
VERTEX
  8
1
  6
CONTINUOUS
 62
     7
 10
108.3845386431145
 20
194.4878632274471
  0
VERTEX
  8
1
  6
CONTINUOUS
 62
     7
 10
108.3900862439243
 20
194.4979309478942
  0
VERTEX
  8
1
  6
CONTINUOUS
 62
     7
 10
108.3944154131125
 20
194.5081006938082
  0
VERTEX
  8
1
  6
CONTINUOUS
 62
     7
 10
108.3975153876827
 20
194.5183471815986
  0
VERTEX
  8
1
  6
CONTINUOUS
 62
     7
 10
108.3993784606095
 20
194.5286449368822
  0
VERTEX
  8
1
  6
CONTINUOUS
 62
     7
 10
108.4
 20
194.5389683578167
  0
SEQEND
  8
1
  6
CONTINUOUS
 62
     7
  0
LINE
  8
1
  6
CONTINUOUS
 62
     7
 10
103.4
 20
194.0000000000001
 11
107.9868240888334
 21
194.3350079940028
  0
POLYLINE
  8
1
  6
CONTINUOUS
 62
     7
 66
     1
  0
VERTEX
  8
1
  6
CONTINUOUS
 62
     7
 10
103.4
 20
213.0
  0
VERTEX
  8
1
  6
CONTINUOUS
 62
     7
 10
103.4006022718974
 20
212.9754661628363
  0
VERTEX
  8
1
  6
CONTINUOUS
 62
     7
 10
103.4024076366639
 20
212.9509914298352
  0
VERTEX
  8
1
  6
CONTINUOUS
 62
     7
 10
103.4054117450176
 20
212.9266347627724
  0
VERTEX
  8
1
  6
CONTINUOUS
 62
     7
 10
103.4096073597984
 20
212.902454838992
  0
VERTEX
  8
1
  6
CONTINUOUS
 62
     7
 10
103.4149843734027
 20
212.8785099100484
  0
VERTEX
  8
1
  6
CONTINUOUS
 62
     7
 10
103.4215298321339
 20
212.8548576613728
  0
VERTEX
  8
1
  6
CONTINUOUS
 62
     7
 10
103.4292279674085
 20
212.8315550733039
  0
VERTEX
  8
1
  6
CONTINUOUS
 62
     7
 10
103.4380602337444
 20
212.8086582838175
  0
VERTEX
  8
1
  6
CONTINUOUS
 62
     7
 10
103.4480053534383
 20
212.7862224532849
  0
VERTEX
  8
1
  6
CONTINUOUS
 62
     7
 10
103.4590393678258
 20
212.764301631587
  0
VERTEX
  8
1
  6
CONTINUOUS
 62
     7
 10
103.4711356949999
 20
212.7429486279034
  0
VERTEX
  8
1
  6
CONTINUOUS
 62
     7
 10
103.4842651938487
 20
212.7222148834902
  0
VERTEX
  8
1
  6
CONTINUOUS
 62
     7
 10
103.4983962342597
 20
212.7021503477538
  0
VERTEX
  8
1
  6
CONTINUOUS
 62
     7
 10
103.5134947733186
 20
212.6828033579182
  0
VERTEX
  8
1
  6
CONTINUOUS
 62
     7
 10
103.5295244373225
 20
212.6642205225765
  0
VERTEX
  8
1
  6
CONTINUOUS
 62
     7
 10
103.5464466094067
 20
212.6464466094067
  0
VERTEX
  8
1
  6
CONTINUOUS
 62
     7
 10
103.5642205225765
 20
212.6295244373225
  0
VERTEX
  8
1
  6
CONTINUOUS
 62
     7
 10
103.5828033579182
 20
212.6134947733186
  0
VERTEX
  8
1
  6
CONTINUOUS
 62
     7
 10
103.6021503477538
 20
212.5983962342597
  0
VERTEX
  8
1
  6
CONTINUOUS
 62
     7
 10
103.6222148834902
 20
212.5842651938487
  0
VERTEX
  8
1
  6
CONTINUOUS
 62
     7
 10
103.6429486279034
 20
212.5711356949999
  0
VERTEX
  8
1
  6
CONTINUOUS
 62
     7
 10
103.664301631587
 20
212.5590393678258
  0
VERTEX
  8
1
  6
CONTINUOUS
 62
     7
 10
103.6862224532848
 20
212.5480053534383
  0
VERTEX
  8
1
  6
CONTINUOUS
 62
     7
 10
103.7086582838174
 20
212.5380602337444
  0
VERTEX
  8
1
  6
CONTINUOUS
 62
     7
 10
103.7315550733039
 20
212.5292279674085
  0
VERTEX
  8
1
  6
CONTINUOUS
 62
     7
 10
103.7548576613728
 20
212.5215298321339
  0
VERTEX
  8
1
  6
CONTINUOUS
 62
     7
 10
103.7785099100484
 20
212.5149843734027
  0
VERTEX
  8
1
  6
CONTINUOUS
 62
     7
 10
103.8024548389919
 20
212.5096073597984
  0
VERTEX
  8
1
  6
CONTINUOUS
 62
     7
 10
103.8266347627723
 20
212.5054117450176
  0
VERTEX
  8
1
  6
CONTINUOUS
 62
     7
 10
103.8509914298352
 20
212.5024076366639
  0
VERTEX
  8
1
  6
CONTINUOUS
 62
     7
 10
103.8754661628363
 20
212.5006022718974
  0
VERTEX
  8
1
  6
CONTINUOUS
 62
     7
 10
103.9
 20
212.5
  0
SEQEND
  8
1
  6
CONTINUOUS
 62
     7
  0
LINE
  8
1
  6
CONTINUOUS
 62
     7
 10
103.4
 20
225.0
 11
103.4
 21
216.0
  0
LINE
  8
1
  6
CONTINUOUS
 62
     7
 10
103.4
 20
216.0
 11
103.4
 21
213.0
  0
ARC
  8
1
  6
CONTINUOUS
 62
     7
 10
103.9
 20
210.5
 40
0.5000000000000004
 50
180.0
 51
270.0
  0
ARC
  8
1
  6
CONTINUOUS
 62
     7
 10
103.9
 20
199.5
 40
0.5000000000000004
 50
90.0
 51
180.0
  0
LINE
  8
1
  6
CONTINUOUS
 62
     7
 10
108.4
 20
223.698815280869
 11
108.4
 21
215.4610316421833
  0
LINE
  8
1
  6
CONTINUOUS
 62
     7
 10
107.4868240888334
 20
213.0
 11
106.9075961234939
 21
212.5
  0
LINE
  8
1
  6
CONTINUOUS
 62
     7
 10
108.4
 20
215.4610316421833
 11
108.4
 21
194.5389683578167
  0
LINE
  8
1
  6
CONTINUOUS
 62
     7
 10
103.4
 20
210.5
 11
103.4
 21
213.0
  0
LINE
  8
1
  6
CONTINUOUS
 62
     7
 10
100.4
 20
258.0
 11
102.9
 21
258.0
  0
LINE
  8
1
  6
CONTINUOUS
 62
     7
 10
98.64999999999999
 20
182.25
 11
95.46169010185542
 21
182.25
  0
LINE
  8
1
  6
CONTINUOUS
 62
     7
 10
98.64999999999999
 20
232.25
 11
95.46169010185542
 21
232.25
  0
LINE
  8
1
  6
CONTINUOUS
 62
     7
 10
100.4
 20
253.0
 11
100.4
 21
258.0
  0
ARC
  8
1
  6
CONTINUOUS
 62
     7
 10
98.64999999999999
 20
180.0
 40
2.250000000000002
 50
270.0
 51
89.9999999999999
  0
LINE
  8
1
  6
CONTINUOUS
 62
     7
 10
95.46169010185542
 20
177.75
 11
98.64999999999999
 21
177.75
  0
LINE
  8
1
  6
CONTINUOUS
 62
     7
 10
95.46169010185542
 20
202.75
 11
98.64999999999999
 21
202.75
  0
LINE
  8
1
  6
CONTINUOUS
 62
     7
 10
67.89999999999999
 20
227.781828305231
 11
90.91745307099674
 21
227.9826985750616
  0
LINE
  8
1
  6
CONTINUOUS
 62
     7
 10
95.46169010185542
 20
207.25
 11
95.46169010185542
 21
202.75
  0
ARC
  8
1
  6
CONTINUOUS
 62
     7
 10
98.64999999999999
 20
205.0
 40
2.250000000000002
 50
270.0
 51
89.9999999999999
  0
LINE
  8
1
  6
CONTINUOUS
 62
     7
 10
97.89999999999999
 20
225.5
 11
97.89999999999999
 21
210.0
  0
LINE
  8
1
  6
CONTINUOUS
 62
     7
 10
92.89999999999998
 20
229.98262242119
 11
92.89999999999998
 21
230.0173775788101
  0
ARC
  8
1
  6
CONTINUOUS
 62
     7
 10
90.89999999999998
 20
230.0173775788101
 40
1.999999999999978
 50
0.0
 51
89.5
  0
LINE
  8
1
  6
CONTINUOUS
 62
     7
 10
104.4
 20
210.0
 11
103.9
 21
210.0
  0
LINE
  8
1
  6
CONTINUOUS
 62
     7
 10
95.46169010185542
 20
232.25
 11
95.46169010185542
 21
227.75
  0
ARC
  8
1
  6
CONTINUOUS
 62
     7
 10
104.4
 20
200.5
 40
0.5000000000000004
 50
270.0
 51
0.0
  0
LINE
  8
1
  6
CONTINUOUS
 62
     7
 10
95.46169010185542
 20
227.75
 11
98.64999999999999
 21
227.75
  0
ARC
  8
1
  6
CONTINUOUS
 62
     7
 10
90.89999999999998
 20
229.98262242119
 40
2.000000000000002
 50
270.5000000000001
 51
0.0
  0
LINE
  8
1
  6
CONTINUOUS
 62
     7
 10
90.91745307099674
 20
232.0173014249384
 11
67.89999999999999
 21
232.218171694769
  0
LINE
  8
1
  6
CONTINUOUS
 62
     7
 10
97.89999999999999
 20
225.5
 11
67.89999999999999
 21
225.7618060337228
  0
LINE
  8
1
  6
CONTINUOUS
 62
     7
 10
97.89999999999999
 20
234.5
 11
67.90000000000002
 21
234.2381939662773
  0
LINE
  8
1
  6
CONTINUOUS
 62
     7
 10
97.89999999999999
 20
242.5
 11
97.89999999999999
 21
234.5
  0
LINE
  8
1
  6
CONTINUOUS
 62
     7
 10
97.89999999999999
 20
242.5
 11
67.90000000000002
 21
242.7618060337228
  0
LINE
  8
1
  6
CONTINUOUS
 62
     7
 10
103.9
 20
200.0
 11
104.4
 21
200.0
  0
LINE
  8
1
  6
CONTINUOUS
 62
     7
 10
95.46169010185542
 20
182.25
 11
95.46169010185542
 21
177.75
  0
LINE
  8
1
  6
CONTINUOUS
 62
     7
 10
98.64999999999999
 20
207.25
 11
95.46169010185542
 21
207.25
  0
LINE
  8
1
  6
CONTINUOUS
 62
     7
 10
84.39999999999998
 20
245.0
 11
67.90000000000002
 21
245.0
  0
LINE
  8
1
  6
CONTINUOUS
 62
     7
 10
102.9
 20
258.0
 11
102.9
 21
253.0
  0
ARC
  8
1
  6
CONTINUOUS
 62
     7
 10
98.64999999999999
 20
230.0
 40
2.250000000000002
 50
270.0
 51
89.9999999999999
  0
ARC
  8
1
  6
CONTINUOUS
 62
     7
 10
281.5
 20
78.89999999999999
 40
14.0
 50
90.0
 51
270.0
  0
LINE
  8
1
  6
CONTINUOUS
 62
     7
 10
240.4956746437654
 20
97.40436326774918
 11
240.48462550486
 21
96.13825735548866
  0
ARC
  8
1
  6
CONTINUOUS
 62
     7
 10
243.5
 20
78.89999999999999
 40
17.5
 50
99.92198671406544
 51
113.8955081861615
  0
LINE
  8
1
  6
CONTINUOUS
 62
     7
 10
190.5
 20
95.39999999999999
 11
198.0
 21
95.39999999999999
  0
LINE
  8
1
  6
CONTINUOUS
 62
     7
 10
301.5000000000001
 20
95.39999999999999
 11
296.5000000000001
 21
95.39999999999999
  0
LINE
  8
1
  6
CONTINUOUS
 62
     7
 10
190.5
 20
95.39999999999999
 11
185.5
 21
95.39999999999999
  0
LINE
  8
1
  6
CONTINUOUS
 62
     7
 10
271.0
 20
92.89999999999999
 11
289.0000000000001
 21
92.89999999999999
  0
LINE
  8
1
  6
CONTINUOUS
 62
     7
 10
289.0000000000001
 20
95.39999999999999
 11
296.5000000000001
 21
95.39999999999999
  0
ARC
  8
1
  6
CONTINUOUS
 62
     7
 10
243.5
 20
78.89999999999999
 40
15.0
 50
50.05549481018512
 51
68.9605302186828
  0
ARC
  8
1
  6
CONTINUOUS
 62
     7
 10
199.508688789405
 20
96.89999999999999
 40
1.000000000000003
 50
0.4999999999999818
 51
90.0
  0
LINE
  8
1
  6
CONTINUOUS
 62
     7
 10
296.5000000000001
 20
95.39999999999999
 11
296.5000000000001
 21
93.39999999999999
  0
LINE
  8
1
  6
CONTINUOUS
 62
     7
 10
289.0000000000001
 20
92.89999999999999
 11
289.0000000000001
 21
95.39999999999999
  0
LINE
  8
1
  6
CONTINUOUS
 62
     7
 10
198.0
 20
95.39999999999999
 11
198.0
 21
92.89999999999999
  0
LINE
  8
1
  6
CONTINUOUS
 62
     7
 10
262.0
 20
93.89999999999999
 11
262.0
 21
92.89999999999999
  0
LINE
  8
1
  6
CONTINUOUS
 62
     7
 10
296.5000000000001
 20
97.9
 11
301.5000000000001
 21
97.9
  0
LINE
  8
1
  6
CONTINUOUS
 62
     7
 10
271.0
 20
93.89999999999999
 11
262.0
 21
93.89999999999999
  0
LINE
  8
1
  6
CONTINUOUS
 62
     7
 10
225.0
 20
93.89999999999999
 11
216.0
 21
93.89999999999999
  0
LINE
  8
1
  6
CONTINUOUS
 62
     7
 10
271.0
 20
92.89999999999999
 11
271.0
 21
93.89999999999999
  0
LINE
  8
1
  6
CONTINUOUS
 62
     7
 10
248.8851648071345
 20
92.89999999999999
 11
262.0
 21
92.89999999999999
  0
LINE
  8
1
  6
CONTINUOUS
 62
     7
 10
190.5
 20
97.9
 11
199.508688789405
 21
97.9
  0
LINE
  8
1
  6
CONTINUOUS
 62
     7
 10
198.0
 20
92.89999999999999
 11
216.0
 21
92.89999999999999
  0
LINE
  8
1
  6
CONTINUOUS
 62
     7
 10
286.4913492875309
 20
96.90872653549836
 11
286.4738193966277
 21
94.89999999999999
  0
ARC
  8
1
  6
CONTINUOUS
 62
     7
 10
243.5
 20
78.89999999999999
 40
17.5
 50
66.10449181383851
 51
80.07801328593452
  0
LINE
  8
1
  6
CONTINUOUS
 62
     7
 10
286.4738193966277
 20
94.89999999999999
 11
250.5887234393789
 21
94.89999999999999
  0
LINE
  8
1
  6
CONTINUOUS
 62
     7
 10
185.5
 20
97.9
 11
190.5
 21
97.9
  0
ARC
  8
1
  6
CONTINUOUS
 62
     7
 10
243.5
 20
78.89999999999996
 40
14.99999999999998
 50
249.306458768814
 51
290.6935412311861
  0
LINE
  8
1
  6
CONTINUOUS
 62
     7
 10
198.0
 20
92.89999999999999
 11
193.0
 21
92.89999999999999
  0
LINE
  8
1
  6
CONTINUOUS
 62
     7
 10
236.4112765606211
 20
94.89999999999999
 11
200.5261806033723
 21
94.89999999999999
  0
ARC
  8
1
  6
CONTINUOUS
 62
     7
 10
246.0043443947025
 20
97.39999999999999
 40
0.5000000000000014
 50
0.5000000000000353
 51
90.0
  0
LINE
  8
1
  6
CONTINUOUS
 62
     7
 10
240.9956556052975
 20
97.9
 11
246.0043443947025
 21
97.9
  0
LINE
  8
1
  6
CONTINUOUS
 62
     7
 10
200.5261806033723
 20
94.89999999999999
 11
200.5086507124692
 21
96.90872653549836
  0
ARC
  8
1
  6
CONTINUOUS
 62
     7
 10
243.5
 20
78.89999999999999
 40
15.0
 50
68.96053021868278
 51
111.0394697813172
  0
LINE
  8
1
  6
CONTINUOUS
 62
     7
 10
287.491311210595
 20
97.9
 11
296.5000000000001
 21
97.9
  0
ARC
  8
1
  6
CONTINUOUS
 62
     7
 10
205.5
 20
78.89999999999999
 40
14.00000000000001
 50
270.0
 51
90.0
  0
LINE
  8
1
  6
CONTINUOUS
 62
     7
 10
246.51537449514
 20
96.13825735548866
 11
246.5043253562346
 21
97.40436326774918
  0
ARC
  8
1
  6
CONTINUOUS
 62
     7
 10
243.5
 20
78.89999999999999
 40
15.0
 50
111.0394697813172
 51
129.9445051898149
  0
LINE
  8
1
  6
CONTINUOUS
 62
     7
 10
225.0
 20
92.89999999999999
 11
238.1148351928655
 21
92.89999999999999
  0
LINE
  8
1
  6
CONTINUOUS
 62
     7
 10
216.0
 20
93.89999999999999
 11
216.0
 21
92.89999999999999
  0
ARC
  8
1
  6
CONTINUOUS
 62
     7
 10
240.9956556052975
 20
97.39999999999999
 40
0.5000000000000004
 50
89.99999999999986
 51
179.5
  0
ARC
  8
1
  6
CONTINUOUS
 62
     7
 10
287.491311210595
 20
96.89999999999999
 40
1.000000000000001
 50
90.0
 51
179.5
  0
LINE
  8
1
  6
CONTINUOUS
 62
     7
 10
225.0
 20
92.89999999999999
 11
225.0
 21
93.89999999999999
  0
LINE
  8
1
  6
CONTINUOUS
 62
     7
 10
100.4
 20
253.0
 11
100.4
 21
245.0
  0
ARC
  8
1
  6
CONTINUOUS
 62
     7
 10
90.89999999999998
 20
179.98262242119
 40
2.000000000000002
 50
270.5000000000001
 51
0.0
  0
LINE
  8
1
  6
CONTINUOUS
 62
     7
 10
67.89999999999999
 20
182.218171694769
 11
90.91745307099674
 21
182.0173014249384
  0
LINE
  8
1
  6
CONTINUOUS
 62
     7
 10
103.4
 20
194.0
 11
102.9
 21
194.0881634903542
  0
LINE
  8
1
  6
CONTINUOUS
 62
     7
 10
103.4
 20
216.0
 11
102.9
 21
215.9118365096458
  0
LINE
  8
1
  6
CONTINUOUS
 62
     7
 10
103.4
 20
185.0
 11
102.9
 21
184.9118365096458
  0
LINE
  8
1
  6
CONTINUOUS
 62
     7
 10
67.89999999999999
 20
177.781828305231
 11
90.91745307099674
 21
177.9826985750616
  0
LINE
  8
1
  6
CONTINUOUS
 62
     7
 10
103.4
 20
225.0
 11
102.9
 21
225.0881634903542
  0
LINE
  8
1
  6
CONTINUOUS
 62
     7
 10
97.89999999999999
 20
167.5
 11
67.89999999999999
 21
167.2381939662773
  0
ARC
  8
1
  6
CONTINUOUS
 62
     7
 10
90.89999999999998
 20
180.0173775788101
 40
2.000000000000006
 50
0.0
 51
89.5
  0
LINE
  8
1
  6
CONTINUOUS
 62
     7
 10
102.9
 20
157.24998
 11
102.9
 21
157.0
  0
LINE
  8
1
  6
CONTINUOUS
 62
     7
 10
102.9
 20
184.9118365096458
 11
102.9
 21
169.25002
  0
LINE
  8
1
  6
CONTINUOUS
 62
     7
 10
102.9
 20
215.9118365096458
 11
102.9
 21
205.0
  0
LINE
  8
1
  6
CONTINUOUS
 62
     7
 10
102.9
 20
253.0
 11
102.9
 21
252.75002
  0
LINE
  8
1
  6
CONTINUOUS
 62
     7
 10
102.9
 20
252.75
 11
102.9
 21
240.75
  0
LINE
  8
1
  6
CONTINUOUS
 62
     7
 10
84.39999999999998
 20
165.0
 11
67.90000000000002
 21
165.0
  0
LINE
  8
1
  6
CONTINUOUS
 62
     7
 10
97.89999999999999
 20
175.5
 11
97.89999999999999
 21
167.5
  0
LINE
  8
1
  6
CONTINUOUS
 62
     7
 10
92.89999999999998
 20
180.0173775788101
 11
92.89999999999998
 21
179.98262242119
  0
LINE
  8
1
  6
CONTINUOUS
 62
     7
 10
97.89999999999999
 20
210.0
 11
93.89999999999998
 21
209.965092528837
  0
LINE
  8
1
  6
CONTINUOUS
 62
     7
 10
97.89999999999999
 20
200.0
 11
97.89999999999999
 21
184.5
  0
LINE
  8
1
  6
CONTINUOUS
 62
     7
 10
97.89999999999999
 20
175.5
 11
67.89999999999999
 21
175.7618060337228
  0
LINE
  8
1
  6
CONTINUOUS
 62
     7
 10
102.9
 20
205.0
 11
102.9
 21
194.0881634903542
  0
LINE
  8
1
  6
CONTINUOUS
 62
     7
 10
102.9
 20
169.25
 11
102.9
 21
157.25
  0
LINE
  8
1
  6
CONTINUOUS
 62
     7
 10
100.4
 20
157.0
 11
100.4
 21
165.0
  0
LINE
  8
1
  6
CONTINUOUS
 62
     7
 10
97.89999999999999
 20
200.0
 11
93.89999999999998
 21
200.0349074711631
  0
LINE
  8
1
  6
CONTINUOUS
 62
     7
 10
97.89999999999999
 20
184.5
 11
67.89999999999999
 21
184.2381939662772
  0
LINE
  8
1
  6
CONTINUOUS
 62
     7
 10
102.9
 20
240.74998
 11
102.9
 21
225.0881634903542
  0
LINE
  8
1
  6
CONTINUOUS
 62
     7
 10
97.89999999999999
 20
253.5
 11
97.89999999999999
 21
255.5
  0
LINE
  8
1
  6
CONTINUOUS
 62
     7
 10
67.89999999999999
 20
242.7618060337228
 11
66.89999999999999
 21
242.7705329015135
  0
LINE
  8
1
  6
CONTINUOUS
 62
     7
 10
102.9
 20
157.0
 11
102.9
 21
152.0
  0
LINE
  8
1
  6
CONTINUOUS
 62
     7
 10
66.89999999999999
 20
234.2294670984865
 11
66.89999999999999
 21
242.7705329015135
  0
LINE
  8
1
  6
CONTINUOUS
 62
     7
 10
97.89999999999999
 20
245.0
 11
97.89999999999999
 21
253.5
  0
LINE
  8
1
  6
CONTINUOUS
 62
     7
 10
67.89999999999999
 20
182.218171694769
 11
66.89999999999999
 21
182.2268985625597
  0
LINE
  8
1
  6
CONTINUOUS
 62
     7
 10
92.89999999999998
 20
200.0436343389538
 11
92.89999999999998
 21
209.9563656610462
  0
LINE
  8
1
  6
CONTINUOUS
 62
     7
 10
67.89999999999999
 20
232.218171694769
 11
66.89999999999999
 21
232.2268985625598
  0
LINE
  8
1
  6
CONTINUOUS
 62
     7
 10
66.89999999999999
 20
242.7705329015135
 11
66.89999999999999
 21
245.0
  0
LINE
  8
1
  6
CONTINUOUS
 62
     7
 10
66.89999999999999
 20
225.7705329015135
 11
66.89999999999999
 21
227.7731014374403
  0
LINE
  8
1
  6
CONTINUOUS
 62
     7
 10
66.89999999999999
 20
227.7731014374403
 11
67.89999999999999
 21
227.781828305231
  0
LINE
  8
1
  6
CONTINUOUS
 62
     7
 10
66.89999999999996
 20
186.75
 11
67.89999999999999
 21
187.75
  0
LINE
  8
1
  6
CONTINUOUS
 62
     7
 10
67.89999999999999
 20
187.75
 11
67.89999999999999
 21
222.25
  0
LINE
  8
1
  6
CONTINUOUS
 62
     7
 10
67.89999999999999
 20
222.25
 11
66.89999999999999
 21
223.25
  0
ARC
  8
1
  6
CONTINUOUS
 62
     7
 10
69.39999999999999
 20
156.5
 40
2.500000000000002
 50
180.0
 51
269.9999999999998
  0
LINE
  8
1
  6
CONTINUOUS
 62
     7
 10
69.89999999999999
 20
156.5
 11
69.89999999999999
 21
154.5
  0
LINE
  8
1
  6
CONTINUOUS
 62
     7
 10
66.89999999999999
 20
234.2294670984865
 11
67.89999999999999
 21
234.2381939662773
  0
LINE
  8
1
  6
CONTINUOUS
 62
     7
 10
92.89999999999998
 20
209.9563656610462
 11
93.89999999999998
 21
209.965092528837
  0
LINE
  8
1
  6
CONTINUOUS
 62
     7
 10
66.89999999999999
 20
184.2294670984865
 11
67.89999999999999
 21
184.2381939662772
  0
LINE
  8
1
  6
CONTINUOUS
 62
     7
 10
97.89999999999999
 20
154.5
 11
97.89999999999999
 21
156.5
  0
LINE
  8
1
  6
CONTINUOUS
 62
     7
 10
67.89999999999999
 20
175.7618060337228
 11
66.89999999999999
 21
175.7705329015135
  0
LINE
  8
1
  6
CONTINUOUS
 62
     7
 10
67.90000000000002
 20
165.0
 11
66.89999999999999
 21
165.0
  0
LINE
  8
1
  6
CONTINUOUS
 62
     7
 10
66.89999999999996
 20
186.75
 11
66.89999999999999
 21
184.2294670984865
  0
ARC
  8
1
  6
CONTINUOUS
 62
     7
 10
69.39999999999999
 20
253.5
 40
2.500000000000002
 50
90.0
 51
180.0
  0
ARC
  8
1
  6
CONTINUOUS
 62
     7
 10
69.39999999999999
 20
154.5
 40
0.5000000000000004
 50
269.9999999999992
 51
0.0
  0
LINE
  8
1
  6
CONTINUOUS
 62
     7
 10
102.9
 20
152.0
 11
100.4
 21
152.0
  0
LINE
  8
1
  6
CONTINUOUS
 62
     7
 10
93.89999999999998
 20
200.0349074711631
 11
92.89999999999998
 21
200.0436343389538
  0
LINE
  8
1
  6
CONTINUOUS
 62
     7
 10
66.89999999999999
 20
177.7731014374403
 11
67.89999999999999
 21
177.781828305231
  0
LINE
  8
1
  6
CONTINUOUS
 62
     7
 10
67.89999999999999
 20
225.7618060337228
 11
66.89999999999999
 21
225.7705329015135
  0
LINE
  8
1
  6
CONTINUOUS
 62
     7
 10
66.89999999999999
 20
225.7705329015135
 11
66.89999999999999
 21
223.25
  0
ARC
  8
1
  6
CONTINUOUS
 62
     7
 10
69.39999999999999
 20
255.5
 40
0.5000000000000004
 50
0.0
 51
90.0
  0
LINE
  8
1
  6
CONTINUOUS
 62
     7
 10
69.89999999999999
 20
255.5
 11
69.89999999999999
 21
253.5
  0
LINE
  8
1
  6
CONTINUOUS
 62
     7
 10
97.89999999999999
 20
156.5
 11
97.89999999999999
 21
165.0
  0
LINE
  8
1
  6
CONTINUOUS
 62
     7
 10
69.89999999999999
 20
165.0
 11
69.89999999999999
 21
156.5
  0
LINE
  8
1
  6
CONTINUOUS
 62
     7
 10
66.89999999999999
 20
165.0
 11
66.89999999999999
 21
167.2294670984865
  0
LINE
  8
1
  6
CONTINUOUS
 62
     7
 10
66.89999999999999
 20
245.0
 11
66.89999999999999
 21
253.5
  0
LINE
  8
1
  6
CONTINUOUS
 62
     7
 10
100.4
 20
152.0
 11
100.4
 21
157.0
  0
LINE
  8
1
  6
CONTINUOUS
 62
     7
 10
66.89999999999999
 20
167.2294670984865
 11
67.89999999999999
 21
167.2381939662773
  0
LINE
  8
1
  6
CONTINUOUS
 62
     7
 10
69.89999999999999
 20
253.5
 11
69.89999999999999
 21
245.0
  0
LINE
  8
1
  6
CONTINUOUS
 62
     7
 10
66.89999999999999
 20
175.7705329015135
 11
66.89999999999999
 21
177.7731014374403
  0
LINE
  8
1
  6
CONTINUOUS
 62
     7
 10
66.89999999999999
 20
182.2268985625597
 11
66.89999999999999
 21
184.2294670984865
  0
LINE
  8
1
  6
CONTINUOUS
 62
     7
 10
66.89999999999999
 20
245.0
 11
67.90000000000002
 21
245.0
  0
LINE
  8
1
  6
CONTINUOUS
 62
     7
 10
66.89999999999999
 20
232.2268985625598
 11
66.89999999999999
 21
234.2294670984865
  0
LINE
  8
1
  6
CONTINUOUS
 62
     7
 10
66.89999999999999
 20
156.5
 11
66.89999999999999
 21
165.0
  0
LINE
  8
1
  6
CONTINUOUS
 62
     7
 10
66.89999999999999
 20
167.2294670984865
 11
66.89999999999999
 21
175.7705329015135
  0
LINE
  8
1
  6
CONTINUOUS
 62
     7
 10
97.89999999999999
 20
258.0
 11
97.89999999999999
 21
255.5
  0
LINE
  8
1
  6
CONTINUOUS
 62
     7
 10
66.89999999999999
 20
227.7731014374403
 11
66.89999999999999
 21
232.2268985625598
  0
LINE
  8
1
  6
CONTINUOUS
 62
     7
 10
97.89999999999999
 20
152.0
 11
97.89999999999999
 21
154.5
  0
LINE
  8
1
  6
CONTINUOUS
 62
     7
 10
100.4
 20
152.0
 11
97.89999999999999
 21
152.0
  0
LINE
  8
1
  6
CONTINUOUS
 62
     7
 10
66.89999999999999
 20
177.7731014374403
 11
66.89999999999999
 21
182.2268985625597
  0
LINE
  8
1
  6
CONTINUOUS
 62
     7
 10
100.4
 20
258.0
 11
97.89999999999999
 21
258.0
  0
LINE
  8
1
  6
CONTINUOUS
 62
     7
 10
69.39999999999996
 20
154.0
 11
97.89999999999999
 21
154.0
  0
LINE
  8
1
  6
CONTINUOUS
 62
     7
 10
97.89999999999999
 20
256.0
 11
69.39999999999999
 21
256.0
  0
LINE
  8
1
  6
CONTINUOUS
 62
     7
 10
68.15000084614658
 20
154.3349360020162
 11
68.27356140549983
 21
154.2681541063907
  0
LINE
  8
1
  6
CONTINUOUS
 62
     7
 10
287.491311210595
 20
97.9
 11
247.0
 21
97.9
  0
LINE
  8
1
  6
CONTINUOUS
 62
     7
 10
240.0
 20
97.9
 11
199.5086887894051
 21
97.9
  0
LINE
  8
1
  6
CONTINUOUS
 62
     7
 10
193.0
 20
92.89999999999999
 11
191.0
 21
92.89999999999999
  0
LINE
  8
1
  6
CONTINUOUS
 62
     7
 10
253.1306801421291
 20
67.39999999999999
 11
254.5
 21
67.39999999999999
  0
LINE
  8
1
  6
CONTINUOUS
 62
     7
 10
232.5
 20
67.4
 11
233.8693198578709
 21
67.39999999999999
  0
ARC
  8
1
  6
CONTINUOUS
 62
     7
 10
243.5
 20
78.89999999999999
 40
15.00000000000001
 50
230.0554948101851
 51
249.306458768814
  0
ARC
  8
1
  6
CONTINUOUS
 62
     7
 10
191.0
 20
64.39999999999998
 40
0.5000000000000004
 50
90.0
 51
180.0
  0
LINE
  8
1
  6
CONTINUOUS
 62
     7
 10
191.0
 20
64.89999999999999
 11
193.0
 21
64.89999999999999
  0
LINE
  8
1
  6
CONTINUOUS
 62
     7
 10
294.0000000000001
 20
92.89999999999999
 11
289.0000000000001
 21
92.89999999999999
  0
LINE
  8
1
  6
CONTINUOUS
 62
     7
 10
281.5
 20
64.89999999999999
 11
294.0000000000001
 21
64.89999999999999
  0
LINE
  8
1
  6
CONTINUOUS
 62
     7
 10
190.5
 20
93.39999999999999
 11
190.5
 21
95.39999999999999
  0
LINE
  8
1
  6
CONTINUOUS
 62
     7
 10
294.0000000000001
 20
61.9
 11
193.0
 21
61.9
  0
LINE
  8
1
  6
CONTINUOUS
 62
     7
 10
254.5
 20
90.39999999999999
 11
253.1306801421291
 21
90.39999999999999
  0
ARC
  8
1
  6
CONTINUOUS
 62
     7
 10
193.0
 20
64.39999999999998
 40
2.500000000000002
 50
180.0
 51
270.0
  0
ARC
  8
1
  6
CONTINUOUS
 62
     7
 10
296.0000000000001
 20
64.39999999999999
 40
0.5000000000000004
 50
359.9999999999993
 51
90.0
  0
LINE
  8
1
  6
CONTINUOUS
 62
     7
 10
193.0
 20
64.89999999999999
 11
205.5
 21
64.89999999999999
  0
ARC
  8
1
  6
CONTINUOUS
 62
     7
 10
254.5
 20
78.89999999999999
 40
11.50000000000001
 50
270.0000000000001
 51
90.0
  0
ARC
  8
1
  6
CONTINUOUS
 62
     7
 10
296.0000000000001
 20
93.39999999999999
 40
0.4999999999999449
 50
270.0
 51
0.0
  0
ARC
  8
1
  6
CONTINUOUS
 62
     7
 10
243.5
 20
78.89999999999999
 40
15.0
 50
290.693541231186
 51
309.9445051898149
  0
ARC
  8
1
  6
CONTINUOUS
 62
     7
 10
191.0
 20
93.39999999999999
 40
0.5000000000000004
 50
180.0
 51
270.0
  0
LINE
  8
1
  6
CONTINUOUS
 62
     7
 10
294.0000000000001
 20
64.89999999999999
 11
296.0000000000001
 21
64.89999999999999
  0
LINE
  8
1
  6
CONTINUOUS
 62
     7
 10
296.0000000000001
 20
92.89999999999999
 11
294.0000000000001
 21
92.89999999999999
  0
LINE
  8
1
  6
CONTINUOUS
 62
     7
 10
233.8693198578709
 20
90.39999999999999
 11
232.5
 21
90.39999999999999
  0
ARC
  8
1
  6
CONTINUOUS
 62
     7
 10
232.5
 20
78.89999999999999
 40
11.5
 50
90.0
 51
270.0
  0
ARC
  8
1
  6
CONTINUOUS
 62
     7
 10
294.0000000000001
 20
64.39999999999999
 40
2.500000000000002
 50
270.0
 51
359.9999999999998
  0
LINE
  8
1
  6
CONTINUOUS
 62
     7
 10
247.0
 20
97.9
 11
246.0043443947025
 21
97.9
  0
LINE
  8
1
  6
CONTINUOUS
 62
     7
 10
240.0
 20
97.9
 11
240.9956556052975
 21
97.9
  0
LINE
  8
1
  6
CONTINUOUS
 62
     7
 10
272.0
 20
97.9
 11
272.0261806033723
 21
94.89999999999999
  0
LINE
  8
1
  6
CONTINUOUS
 62
     7
 10
214.9738193966278
 20
94.89999999999999
 11
215.0
 21
97.9
  0
LINE
  8
1
  6
CONTINUOUS
 62
     7
 10
226.0
 20
97.9
 11
226.0261806033723
 21
94.89999999999999
  0
LINE
  8
1
  6
CONTINUOUS
 62
     7
 10
260.9738193966277
 20
94.89999999999999
 11
261.0
 21
97.9
  0
LINE
  8
1
  6
CONTINUOUS
 62
     7
 10
193.2068054155564
 20
91.39074411135925
 11
193.4249771103254
 21
66.39074411135925
  0
LINE
  8
1
  6
CONTINUOUS
 62
     7
 10
301.5000000000001
 20
95.39999999999999
 11
301.5
 21
88.89999999999999
  0
LINE
  8
1
  6
CONTINUOUS
 62
     7
 10
190.924881914361
 20
66.39074411135925
 11
190.7067102195921
 21
91.39074411135925
  0
LINE
  8
1
  6
CONTINUOUS
 62
     7
 10
294.0000000000001
 20
61.9
 11
300.5000000000001
 21
61.9
  0
LINE
  8
1
  6
CONTINUOUS
 62
     7
 10
176.5
 20
98.4
 11
185.5
 21
98.4
  0
LINE
  8
1
  6
CONTINUOUS
 62
     7
 10
293.5750228896747
 20
66.39074411135925
 11
293.562013362905
 21
64.89999999999999
  0
LINE
  8
1
  6
CONTINUOUS
 62
     7
 10
176.5
 20
98.4
 11
176.8350079940028
 21
102.9868240888335
  0
LINE
  8
1
  6
CONTINUOUS
 62
     7
 10
193.437986637095
 20
64.89999999999999
 11
193.4249771103254
 21
66.39074411135925
  0
LINE
  8
1
  6
CONTINUOUS
 62
     7
 10
302.5000000000001
 20
61.89999999999998
 11
301.5000000000001
 21
62.89999999999998
  0
LINE
  8
1
  6
CONTINUOUS
 62
     7
 10
185.5
 20
79.39999999999999
 11
185.5
 21
62.90000000000001
  0
LINE
  8
1
  6
CONTINUOUS
 62
     7
 10
193.0
 20
61.9
 11
186.5
 21
61.9
  0
ARC
  8
1
  6
CONTINUOUS
 62
     7
 10
300.5000000000001
 20
62.9
 40
1.000000000000001
 50
270.0
 51
0.0000000000011937
  0
LINE
  8
1
  6
CONTINUOUS
 62
     7
 10
301.5
 20
79.39999999999998
 11
301.5
 21
62.90000000000001
  0
POLYLINE
  8
1
  6
CONTINUOUS
 62
     7
 66
     1
  0
VERTEX
  8
1
  6
CONTINUOUS
 62
     7
 10
192.8280305646896
 20
92.89999999999999
  0
VERTEX
  8
1
  6
CONTINUOUS
 62
     7
 10
192.4125689130767
 20
92.87095176477044
  0
VERTEX
  8
1
  6
CONTINUOUS
 62
     7
 10
192.0131984985104
 20
92.7849321257084
  0
VERTEX
  8
1
  6
CONTINUOUS
 62
     7
 10
191.645387328652
 20
92.64527270776028
  0
VERTEX
  8
1
  6
CONTINUOUS
 62
     7
 10
191.3233810906777
 20
92.45738265709224
  0
VERTEX
  8
1
  6
CONTINUOUS
 62
     7
 10
191.0596514018488
 20
92.22853913955636
  0
VERTEX
  8
1
  6
CONTINUOUS
 62
     7
 10
190.8644127715497
 20
91.96760548892352
  0
VERTEX
  8
1
  6
CONTINUOUS
 62
     7
 10
190.7452269833252
 20
91.68468792127757
  0
VERTEX
  8
1
  6
CONTINUOUS
 62
     7
 10
190.7067102195921
 20
91.39074411135924
  0
SEQEND
  8
1
  6
CONTINUOUS
 62
     7
  0
ARC
  8
1
  6
CONTINUOUS
 62
     7
 10
186.5
 20
62.9
 40
1.000000000000001
 50
179.9999999999988
 51
270.0
  0
POLYLINE
  8
1
  6
CONTINUOUS
 62
     7
 66
     1
  0
VERTEX
  8
1
  6
CONTINUOUS
 62
     7
 10
190.924881914361
 20
66.39074411135925
  0
VERTEX
  8
1
  6
CONTINUOUS
 62
     7
 10
190.9678677342064
 20
66.09942548625531
  0
VERTEX
  8
1
  6
CONTINUOUS
 62
     7
 10
191.0900985064939
 20
65.81956748635758
  0
VERTEX
  8
1
  6
CONTINUOUS
 62
     7
 10
191.2869136861483
 20
65.56184083556688
  0
VERTEX
  8
1
  6
CONTINUOUS
 62
     7
 10
191.5508088943689
 20
65.33607241013283
  0
VERTEX
  8
1
  6
CONTINUOUS
 62
     7
 10
191.8717220535783
 20
65.15087054904953
  0
VERTEX
  8
1
  6
CONTINUOUS
 62
     7
 10
192.2374170450328
 20
65.01329682613749
  0
VERTEX
  8
1
  6
CONTINUOUS
 62
     7
 10
192.6339502605915
 20
64.92859679883558
  0
VERTEX
  8
1
  6
CONTINUOUS
 62
     7
 10
193.0462022594585
 20
64.9
  0
SEQEND
  8
1
  6
CONTINUOUS
 62
     7
  0
POLYLINE
  8
1
  6
CONTINUOUS
 62
     7
 66
     1
  0
VERTEX
  8
1
  6
CONTINUOUS
 62
     7
 10
296.293289780408
 20
91.39074411135924
  0
VERTEX
  8
1
  6
CONTINUOUS
 62
     7
 10
296.2547730166748
 20
91.68468792127757
  0
VERTEX
  8
1
  6
CONTINUOUS
 62
     7
 10
296.1355872284504
 20
91.96760548892352
  0
VERTEX
  8
1
  6
CONTINUOUS
 62
     7
 10
295.9403485981512
 20
92.22853913955636
  0
VERTEX
  8
1
  6
CONTINUOUS
 62
     7
 10
295.6766189093224
 20
92.45738265709223
  0
VERTEX
  8
1
  6
CONTINUOUS
 62
     7
 10
295.354612671348
 20
92.64527270776028
  0
VERTEX
  8
1
  6
CONTINUOUS
 62
     7
 10
294.9868015014897
 20
92.7849321257084
  0
VERTEX
  8
1
  6
CONTINUOUS
 62
     7
 10
294.5874310869233
 20
92.87095176477044
  0
VERTEX
  8
1
  6
CONTINUOUS
 62
     7
 10
294.1719694353105
 20
92.89999999999999
  0
SEQEND
  8
1
  6
CONTINUOUS
 62
     7
  0
POLYLINE
  8
1
  6
CONTINUOUS
 62
     7
 66
     1
  0
VERTEX
  8
1
  6
CONTINUOUS
 62
     7
 10
293.9537977405415
 20
64.9
  0
VERTEX
  8
1
  6
CONTINUOUS
 62
     7
 10
294.3660497394085
 20
64.92859679883558
  0
VERTEX
  8
1
  6
CONTINUOUS
 62
     7
 10
294.7625829549672
 20
65.01329682613749
  0
VERTEX
  8
1
  6
CONTINUOUS
 62
     7
 10
295.1282779464218
 20
65.15087054904953
  0
VERTEX
  8
1
  6
CONTINUOUS
 62
     7
 10
295.4491911056311
 20
65.33607241013283
  0
VERTEX
  8
1
  6
CONTINUOUS
 62
     7
 10
295.7130863138517
 20
65.56184083556688
  0
VERTEX
  8
1
  6
CONTINUOUS
 62
     7
 10
295.9099014935061
 20
65.81956748635758
  0
VERTEX
  8
1
  6
CONTINUOUS
 62
     7
 10
296.0321322657937
 20
66.09942548625531
  0
VERTEX
  8
1
  6
CONTINUOUS
 62
     7
 10
296.075118085639
 20
66.39074411135925
  0
SEQEND
  8
1
  6
CONTINUOUS
 62
     7
  0
LINE
  8
1
  6
CONTINUOUS
 62
     7
 10
185.5
 20
95.39999999999999
 11
185.5
 21
88.9
  0
LINE
  8
1
  6
CONTINUOUS
 62
     7
 10
193.2068054155564
 20
91.39074411135925
 11
193.1936343389538
 21
92.89999999999999
  0
LINE
  8
1
  6
CONTINUOUS
 62
     7
 10
293.8063656610462
 20
92.89999999999999
 11
293.7931945844437
 21
91.39074411135925
  0
LINE
  8
1
  6
CONTINUOUS
 62
     7
 10
293.5750228896747
 20
66.39074411135925
 11
293.7931945844437
 21
91.39074411135925
  0
LINE
  8
1
  6
CONTINUOUS
 62
     7
 10
300.5000000000001
 20
61.89999999999998
 11
302.5000000000001
 21
61.89999999999998
  0
LINE
  8
1
  6
CONTINUOUS
 62
     7
 10
296.293289780408
 20
91.39074411135925
 11
296.075118085639
 21
66.39074411135925
  0
LINE
  8
1
  6
CONTINUOUS
 62
     7
 10
187.1912191573751
 20
102.9868240888335
 11
188.0881634903542
 21
97.9
  0
LINE
  8
1
  6
CONTINUOUS
 62
     7
 10
167.5
 20
98.4
 11
168.3087808426249
 21
102.9868240888335
  0
LINE
  8
1
  6
CONTINUOUS
 62
     7
 10
167.5
 20
98.4
 11
176.5
 21
98.4
  0
LINE
  8
1
  6
CONTINUOUS
 62
     7
 10
185.5
 20
98.4
 11
185.5
 21
97.9
  0
LINE
  8
1
  6
CONTINUOUS
 62
     7
 10
204.8918550383474
 20
61.60000000000002
 11
204.5718720098938
 21
61.60000000000002
  0
LINE
  8
1
  6
CONTINUOUS
 62
     7
 10
210.0000000000001
 20
61.60000000000002
 11
208.3158857306244
 21
61.60000000000002
  0
LINE
  8
1
  6
CONTINUOUS
 62
     7
 10
204.5718720098938
 20
61.60000000000002
 11
204.231076154687
 21
61.60000000000002
  0
LINE
  8
1
  6
CONTINUOUS
 62
     7
 10
205.198995534466
 20
61.90000000000001
 11
205.198995534466
 21
61.60000000000002
  0
LINE
  8
1
  6
CONTINUOUS
 62
     7
 10
204.8918550383474
 20
61.90000000000001
 11
204.8918550383474
 21
61.60000000000002
  0
LINE
  8
1
  6
CONTINUOUS
 62
     7
 10
210.0000000000001
 20
61.90000000000001
 11
210.0000000000001
 21
61.60000000000002
  0
LINE
  8
1
  6
CONTINUOUS
 62
     7
 10
208.3158857306244
 20
61.60000000000002
 11
207.8305192898744
 21
61.60000000000002
  0
LINE
  8
1
  6
CONTINUOUS
 62
     7
 10
203.8753422753836
 20
61.60000000000002
 11
203.1694807101258
 21
61.60000000000002
  0
LINE
  8
1
  6
CONTINUOUS
 62
     7
 10
201.0000000000001
 20
61.90000000000001
 11
201.0000000000001
 21
61.60000000000002
  0
LINE
  8
1
  6
CONTINUOUS
 62
     7
 10
206.5200000000001
 20
61.90000000000001
 11
206.5200000000001
 21
61.60000000000002
  0
LINE
  8
1
  6
CONTINUOUS
 62
     7
 10
206.5200000000001
 20
61.60000000000002
 11
206.3550000000001
 21
61.60000000000002
  0
LINE
  8
1
  6
CONTINUOUS
 62
     7
 10
206.5800000000001
 20
61.60000000000002
 11
206.5200000000001
 21
61.60000000000002
  0
POLYLINE
  8
1
  6
CONTINUOUS
 62
     7
 66
     1
  0
VERTEX
  8
1
  6
CONTINUOUS
 62
     7
 10
176.8350079940028
 20
102.9868240888335
  0
VERTEX
  8
1
  6
CONTINUOUS
 62
     7
 10
176.8370541760358
 20
103.0112604669782
  0
VERTEX
  8
1
  6
CONTINUOUS
 62
     7
 10
176.8396023485388
 20
103.0354202340715
  0
VERTEX
  8
1
  6
CONTINUOUS
 62
     7
 10
176.8426461763533
 20
103.0592433251258
  0
VERTEX
  8
1
  6
CONTINUOUS
 62
     7
 10
176.8461780920439
 20
103.0826705121832
  0
VERTEX
  8
1
  6
CONTINUOUS
 62
     7
 10
176.8501893147117
 20
103.1056435515653
  0
VERTEX
  8
1
  6
CONTINUOUS
 62
     7
 10
176.8546698718251
 20
103.1281053286766
  0
VERTEX
  8
1
  6
CONTINUOUS
 62
     7
 10
176.8596086240131
 20
103.15
  0
VERTEX
  8
1
  6
CONTINUOUS
 62
     7
 10
176.8649932927597
 20
103.1712731319329
  0
VERTEX
  8
1
  6
CONTINUOUS
 62
     7
 10
176.8708104909299
 20
103.1918718361174
  0
VERTEX
  8
1
  6
CONTINUOUS
 62
     7
 10
176.8770457560524
 20
103.2117449009294
  0
VERTEX
  8
1
  6
CONTINUOUS
 62
     7
 10
176.8836835862759
 20
103.2308429187984
  0
VERTEX
  8
1
  6
CONTINUOUS
 62
     7
 10
176.8907074789084
 20
103.249118409043
  0
VERTEX
  8
1
  6
CONTINUOUS
 62
     7
 10
176.8980999714461
 20
103.2665259359149
  0
VERTEX
  8
1
  6
CONTINUOUS
 62
     7
 10
176.9058426849879
 20
103.2830222215595
  0
VERTEX
  8
1
  6
CONTINUOUS
 62
     7
 10
176.913916369928
 20
103.2985662536115
  0
VERTEX
  8
1
  6
CONTINUOUS
 62
     7
 10
176.9223009538133
 20
103.313119387158
  0
VERTEX
  8
1
  6
CONTINUOUS
 62
     7
 10
176.9309755912474
 20
103.3266454408161
  0
VERTEX
  8
1
  6
CONTINUOUS
 62
     7
 10
176.9399187157148
 20
103.3391107866851
  0
VERTEX
  8
1
  6
CONTINUOUS
 62
     7
 10
176.9491080931989
 20
103.3504844339512
  0
VERTEX
  8
1
  6
CONTINUOUS
 62
     7
 10
176.9585208774594
 20
103.3607381059352
  0
VERTEX
  8
1
  6
CONTINUOUS
 62
     7
 10
176.9681336668316
 20
103.3698463103929
  0
VERTEX
  8
1
  6
CONTINUOUS
 62
     7
 10
176.9779225624064
 20
103.3777864028931
  0
VERTEX
  8
1
  6
CONTINUOUS
 62
     7
 10
176.9878632274471
 20
103.3845386431145
  0
VERTEX
  8
1
  6
CONTINUOUS
 62
     7
 10
176.9979309478941
 20
103.3900862439243
  0
VERTEX
  8
1
  6
CONTINUOUS
 62
     7
 10
177.0081006938082
 20
103.3944154131126
  0
VERTEX
  8
1
  6
CONTINUOUS
 62
     7
 10
177.0183471815986
 20
103.3975153876827
  0
VERTEX
  8
1
  6
CONTINUOUS
 62
     7
 10
177.0286449368821
 20
103.3993784606095
  0
VERTEX
  8
1
  6
CONTINUOUS
 62
     7
 10
177.0389683578167
 20
103.4
  0
SEQEND
  8
1
  6
CONTINUOUS
 62
     7
  0
LINE
  8
1
  6
CONTINUOUS
 62
     7
 10
168.801184719131
 20
103.4
 11
177.0389683578167
 21
103.4
  0
LINE
  8
1
  6
CONTINUOUS
 62
     7
 10
206.3550000000001
 20
61.60000000000002
 11
205.6050000000001
 21
61.60000000000002
  0
LINE
  8
1
  6
CONTINUOUS
 62
     7
 10
207.0750000000001
 20
61.90000000000001
 11
207.0750000000001
 21
61.60000000000002
  0
LINE
  8
1
  6
CONTINUOUS
 62
     7
 10
204.5718720098938
 20
61.90000000000001
 11
204.5718720098938
 21
61.60000000000002
  0
LINE
  8
1
  6
CONTINUOUS
 62
     7
 10
207.8305192898744
 20
61.90000000000001
 11
207.8305192898744
 21
61.60000000000002
  0
LINE
  8
1
  6
CONTINUOUS
 62
     7
 10
205.6050000000001
 20
61.60000000000002
 11
205.198995534466
 21
61.60000000000002
  0
LINE
  8
1
  6
CONTINUOUS
 62
     7
 10
208.3158857306244
 20
61.90000000000001
 11
208.3158857306244
 21
61.60000000000002
  0
POLYLINE
  8
1
  6
CONTINUOUS
 62
     7
 66
     1
  0
VERTEX
  8
1
  6
CONTINUOUS
 62
     7
 10
187.1912191573751
 20
102.9868240888335
  0
VERTEX
  8
1
  6
CONTINUOUS
 62
     7
 10
187.18627923696
 20
103.0112604669782
  0
VERTEX
  8
1
  6
CONTINUOUS
 62
     7
 10
187.1801274043441
 20
103.0354202340715
  0
VERTEX
  8
1
  6
CONTINUOUS
 62
     7
 10
187.1727789539526
 20
103.0592433251258
  0
VERTEX
  8
1
  6
CONTINUOUS
 62
     7
 10
187.1642521551912
 20
103.0826705121832
  0
VERTEX
  8
1
  6
CONTINUOUS
 62
     7
 10
187.1545682070249
 20
103.1056435515653
  0
VERTEX
  8
1
  6
CONTINUOUS
 62
     7
 10
187.1437511852748
 20
103.1281053286766
  0
VERTEX
  8
1
  6
CONTINUOUS
 62
     7
 10
187.1318279827613
 20
103.15
  0
VERTEX
  8
1
  6
CONTINUOUS
 62
     7
 10
187.1188282424444
 20
103.1712731319329
  0
VERTEX
  8
1
  6
CONTINUOUS
 62
     7
 10
187.104784283727
 20
103.1918718361174
  0
VERTEX
  8
1
  6
CONTINUOUS
 62
     7
 10
187.0897310221031
 20
103.2117449009294
  0
VERTEX
  8
1
  6
CONTINUOUS
 62
     7
 10
187.0737058823529
 20
103.2308429187984
  0
VERTEX
  8
1
  6
CONTINUOUS
 62
     7
 10
187.0567487054989
 20
103.249118409043
  0
VERTEX
  8
1
  6
CONTINUOUS
 62
     7
 10
187.0389016497545
 20
103.2665259359149
  0
VERTEX
  8
1
  6
CONTINUOUS
 62
     7
 10
187.0202090857123
 20
103.2830222215595
  0
VERTEX
  8
1
  6
CONTINUOUS
 62
     7
 10
187.0007174860318
 20
103.2985662536115
  0
VERTEX
  8
1
  6
CONTINUOUS
 62
     7
 10
186.9804753099009
 20
103.313119387158
  0
VERTEX
  8
1
  6
CONTINUOUS
 62
     7
 10
186.9595328825588
 20
103.3266454408161
  0
VERTEX
  8
1
  6
CONTINUOUS
 62
     7
 10
186.9379422701797
 20
103.3391107866851
  0
VERTEX
  8
1
  6
CONTINUOUS
 62
     7
 10
186.9157571504278
 20
103.3504844339512
  0
VERTEX
  8
1
  6
CONTINUOUS
 62
     7
 10
186.8930326790064
 20
103.3607381059352
  0
VERTEX
  8
1
  6
CONTINUOUS
 62
     7
 10
186.8698253525319
 20
103.3698463103929
  0
VERTEX
  8
1
  6
CONTINUOUS
 62
     7
 10
186.8461928680745
 20
103.3777864028931
  0
VERTEX
  8
1
  6
CONTINUOUS
 62
     7
 10
186.8221939797142
 20
103.3845386431145
  0
VERTEX
  8
1
  6
CONTINUOUS
 62
     7
 10
186.7978883524687
 20
103.3900862439243
  0
VERTEX
  8
1
  6
CONTINUOUS
 62
     7
 10
186.7733364139572
 20
103.3944154131126
  0
VERTEX
  8
1
  6
CONTINUOUS
 62
     7
 10
186.748599204167
 20
103.3975153876827
  0
VERTEX
  8
1
  6
CONTINUOUS
 62
     7
 10
186.7237382236994
 20
103.3993784606095
  0
VERTEX
  8
1
  6
CONTINUOUS
 62
     7
 10
186.6988152808691
 20
103.4
  0
SEQEND
  8
1
  6
CONTINUOUS
 62
     7
  0
LINE
  8
1
  6
CONTINUOUS
 62
     7
 10
202.6841142693757
 20
61.60000000000002
 11
201.0000000000001
 21
61.60000000000002
  0
LINE
  8
1
  6
CONTINUOUS
 62
     7
 10
177.0389683578167
 20
103.4
 11
186.6988152808691
 21
103.4
  0
LINE
  8
1
  6
CONTINUOUS
 62
     7
 10
204.9000000000001
 20
61.60000000000002
 11
204.8918550383474
 21
61.60000000000002
  0
LINE
  8
1
  6
CONTINUOUS
 62
     7
 10
203.1694807101258
 20
61.90000000000001
 11
203.1694807101258
 21
61.60000000000002
  0
LINE
  8
1
  6
CONTINUOUS
 62
     7
 10
203.1694807101258
 20
61.60000000000002
 11
202.6841142693757
 21
61.60000000000002
  0
LINE
  8
1
  6
CONTINUOUS
 62
     7
 10
203.8753422753836
 20
61.90000000000001
 11
203.8753422753836
 21
61.60000000000002
  0
LINE
  8
1
  6
CONTINUOUS
 62
     7
 10
204.231076154687
 20
61.60000000000002
 11
203.8753422753836
 21
61.60000000000002
  0
LINE
  8
1
  6
CONTINUOUS
 62
     7
 10
202.6841142693757
 20
61.90000000000001
 11
202.6841142693757
 21
61.60000000000002
  0
LINE
  8
1
  6
CONTINUOUS
 62
     7
 10
204.231076154687
 20
61.90000000000001
 11
204.231076154687
 21
61.60000000000002
  0
LINE
  8
1
  6
CONTINUOUS
 62
     7
 10
205.198995534466
 20
61.60000000000002
 11
204.9000000000001
 21
61.60000000000002
  0
POLYLINE
  8
1
  6
CONTINUOUS
 62
     7
 66
     1
  0
VERTEX
  8
1
  6
CONTINUOUS
 62
     7
 10
168.3087808426249
 20
102.9868240888335
  0
VERTEX
  8
1
  6
CONTINUOUS
 62
     7
 10
168.3137207630401
 20
103.0112604669782
  0
VERTEX
  8
1
  6
CONTINUOUS
 62
     7
 10
168.3198725956559
 20
103.0354202340715
  0
VERTEX
  8
1
  6
CONTINUOUS
 62
     7
 10
168.3272210460474
 20
103.0592433251258
  0
VERTEX
  8
1
  6
CONTINUOUS
 62
     7
 10
168.3357478448089
 20
103.0826705121832
  0
VERTEX
  8
1
  6
CONTINUOUS
 62
     7
 10
168.3454317929751
 20
103.1056435515653
  0
VERTEX
  8
1
  6
CONTINUOUS
 62
     7
 10
168.3562488147252
 20
103.1281053286766
  0
VERTEX
  8
1
  6
CONTINUOUS
 62
     7
 10
168.3681720172387
 20
103.15
  0
VERTEX
  8
1
  6
CONTINUOUS
 62
     7
 10
168.3811717575556
 20
103.1712731319329
  0
VERTEX
  8
1
  6
CONTINUOUS
 62
     7
 10
168.395215716273
 20
103.1918718361174
  0
VERTEX
  8
1
  6
CONTINUOUS
 62
     7
 10
168.4102689778969
 20
103.2117449009294
  0
VERTEX
  8
1
  6
CONTINUOUS
 62
     7
 10
168.4262941176471
 20
103.2308429187984
  0
VERTEX
  8
1
  6
CONTINUOUS
 62
     7
 10
168.4432512945011
 20
103.249118409043
  0
VERTEX
  8
1
  6
CONTINUOUS
 62
     7
 10
168.4610983502455
 20
103.2665259359149
  0
VERTEX
  8
1
  6
CONTINUOUS
 62
     7
 10
168.4797909142877
 20
103.2830222215595
  0
VERTEX
  8
1
  6
CONTINUOUS
 62
     7
 10
168.4992825139682
 20
103.2985662536115
  0
VERTEX
  8
1
  6
CONTINUOUS
 62
     7
 10
168.5195246900992
 20
103.313119387158
  0
VERTEX
  8
1
  6
CONTINUOUS
 62
     7
 10
168.5404671174412
 20
103.3266454408161
  0
VERTEX
  8
1
  6
CONTINUOUS
 62
     7
 10
168.5620577298203
 20
103.3391107866851
  0
VERTEX
  8
1
  6
CONTINUOUS
 62
     7
 10
168.5842428495722
 20
103.3504844339512
  0
VERTEX
  8
1
  6
CONTINUOUS
 62
     7
 10
168.6069673209936
 20
103.3607381059352
  0
VERTEX
  8
1
  6
CONTINUOUS
 62
     7
 10
168.6301746474682
 20
103.3698463103929
  0
VERTEX
  8
1
  6
CONTINUOUS
 62
     7
 10
168.6538071319255
 20
103.3777864028931
  0
VERTEX
  8
1
  6
CONTINUOUS
 62
     7
 10
168.6778060202858
 20
103.3845386431145
  0
VERTEX
  8
1
  6
CONTINUOUS
 62
     7
 10
168.7021116475313
 20
103.3900862439243
  0
VERTEX
  8
1
  6
CONTINUOUS
 62
     7
 10
168.7266635860429
 20
103.3944154131126
  0
VERTEX
  8
1
  6
CONTINUOUS
 62
     7
 10
168.7514007958331
 20
103.3975153876827
  0
VERTEX
  8
1
  6
CONTINUOUS
 62
     7
 10
168.7762617763006
 20
103.3993784606095
  0
VERTEX
  8
1
  6
CONTINUOUS
 62
     7
 10
168.801184719131
 20
103.4
  0
SEQEND
  8
1
  6
CONTINUOUS
 62
     7
  0
LINE
  8
1
  6
CONTINUOUS
 62
     7
 10
206.5800000000001
 20
61.90000000000001
 11
206.5800000000001
 21
61.60000000000002
  0
LINE
  8
1
  6
CONTINUOUS
 62
     7
 10
207.0750000000001
 20
61.60000000000002
 11
206.5800000000001
 21
61.60000000000002
  0
LINE
  8
1
  6
CONTINUOUS
 62
     7
 10
204.9000000000001
 20
61.90000000000001
 11
204.9000000000001
 21
61.60000000000002
  0
LINE
  8
1
  6
CONTINUOUS
 62
     7
 10
207.8305192898744
 20
61.60000000000002
 11
207.0750000000001
 21
61.60000000000002
  0
LINE
  8
1
  6
CONTINUOUS
 62
     7
 10
206.3550000000001
 20
61.60000000000002
 11
206.3550000000001
 21
61.90000000000001
  0
LINE
  8
1
  6
CENTER
 62
     1
 10
205.5
 20
62.89999999999998
 11
205.5
 21
94.9
  0
ENDSEC
  0
EOF
