  0
SECTION
  2
HEADER
  9
$ACADVER
  1
AC1006
  9
$DWGCODEPAGE
  3
ansi_932
  9
$INSBASE
 10
0.0
 20
0.0
 30
0.0
  9
$EXTMIN
 10
-255.7638529961431
 20
23.45657464123182
  9
$EXTMAX
 10
-74.26385299614309
 20
268.735820159435
  9
$LIMMIN
 10
0.0
 20
0.0
  9
$LIMMAX
 10
12.0
 20
9.0
  9
$ORTHOMODE
 70
     0
  9
$REGENMODE
 70
     1
  9
$FILLMODE
 70
     1
  9
$QTEXTMODE
 70
     0
  9
$MIRRTEXT
 70
     1
  9
$DRAGMODE
 70
     2
  9
$LTSCALE
 40
1.0
  9
$OSMODE
 70
    37
  9
$ATTMODE
 70
     1
  9
$TEXTSIZE
 40
0.2
  9
$TRACEWID
 40
0.05
  9
$TEXTSTYLE
  7
STANDARD
  9
$CLAYER
  8
0
  9
$CELTYPE
  6
BYLAYER
  9
$CECOLOR
 62
   256
  9
$DIMSCALE
 40
1.0
  9
$DIMASZ
 40
3.0
  9
$DIMEXO
 40
0.0625
  9
$DIMDLI
 40
0.38
  9
$DIMRND
 40
0.0
  9
$DIMDLE
 40
0.0
  9
$DIMEXE
 40
1.5
  9
$DIMTP
 40
0.0
  9
$DIMTM
 40
0.0
  9
$DIMTXT
 40
3.0
  9
$DIMCEN
 40
0.09
  9
$DIMTSZ
 40
0.0
  9
$DIMTOL
 70
     0
  9
$DIMLIM
 70
     0
  9
$DIMTIH
 70
     1
  9
$DIMTOH
 70
     1
  9
$DIMSE1
 70
     0
  9
$DIMSE2
 70
     0
  9
$DIMTAD
 70
     1
  9
$DIMZIN
 70
     0
  9
$DIMBLK
  1

  9
$DIMASO
 70
     1
  9
$DIMSHO
 70
     1
  9
$DIMPOST
  1

  9
$DIMAPOST
  1

  9
$DIMALT
 70
     0
  9
$DIMALTD
 70
     2
  9
$DIMALTF
 40
25.4
  9
$DIMLFAC
 40
1.0
  9
$DIMTOFL
 70
     0
  9
$DIMTVP
 40
0.0
  9
$DIMTIX
 70
     0
  9
$DIMSOXD
 70
     0
  9
$DIMSAH
 70
     0
  9
$DIMBLK1
  1

  9
$DIMBLK2
  1

  9
$LUNITS
 70
     2
  9
$LUPREC
 70
     4
  9
$SKETCHINC
 40
0.1
  9
$FILLETRAD
 40
0.5
  9
$AUNITS
 70
     0
  9
$AUPREC
 70
     0
  9
$MENU
  1
.
  9
$ELEVATION
 40
0.0
  9
$THICKNESS
 40
0.0
  9
$LIMCHECK
 70
     0
  9
$CHAMFERA
 40
0.0
  9
$CHAMFERB
 40
0.0
  9
$SKPOLY
 70
     0
  9
$TDCREATE
 40
2460427.629522199
  9
$TDUPDATE
 40
2460427.629522431
  9
$TDINDWG
 40
0.0000000116
  9
$TDUSRTIMER
 40
0.0000000116
  9
$USRTIMER
 70
     1
  9
$ANGBASE
 50
0.0
  9
$ANGDIR
 70
     0
  9
$PDMODE
 70
     0
  9
$PDSIZE
 40
0.0
  9
$PLINEWID
 40
0.0
  9
$COORDS
 70
     1
  9
$SPLFRAME
 70
     0
  9
$SPLINETYPE
 70
     6
  9
$SPLINESEGS
 70
     8
  9
$ATTDIA
 70
     0
  9
$ATTREQ
 70
     1
  9
$HANDLING
 70
     1
  9
$HANDSEED
  5
420
  9
$SURFTAB1
 70
     6
  9
$SURFTAB2
 70
     6
  9
$SURFTYPE
 70
     6
  9
$SURFU
 70
     6
  9
$SURFV
 70
     6
  9
$UCSNAME
  2

  9
$UCSORG
 10
0.0
 20
0.0
 30
0.0
  9
$UCSXDIR
 10
1.0
 20
0.0
 30
0.0
  9
$UCSYDIR
 10
0.0
 20
1.0
 30
0.0
  9
$USERI1
 70
     0
  9
$USERI2
 70
     0
  9
$USERI3
 70
     0
  9
$USERI4
 70
     0
  9
$USERI5
 70
     0
  9
$USERR1
 40
0.0
  9
$USERR2
 40
0.0
  9
$USERR3
 40
0.0
  9
$USERR4
 40
0.0
  9
$USERR5
 40
0.0
  9
$WORLDVIEW
 70
     1
  0
ENDSEC
  0
SECTION
  2
TABLES
  0
TABLE
  2
VPORT
 70
     1
  0
VPORT
  2
*ACTIVE
 70
     0
 10
0.0
 20
0.0
 11
1.0
 21
1.0
 12
-165.0138529961431
 22
146.0961974003334
 13
0.0
 23
0.0
 14
0.5
 24
0.5
 15
0.5
 25
0.5
 16
0.0
 26
0.0
 36
1.0
 17
0.0
 27
0.0
 37
0.0
 40
245.2792455182031
 41
1.6
 42
50.0
 43
0.0
 44
0.0
 50
0.0
 51
0.0
 71
     0
 72
   100
 73
     1
 74
     3
 75
     0
 76
     0
 77
     0
 78
     0
  0
ENDTAB
  0
TABLE
  2
LTYPE
 70
     2
  0
LTYPE
  2
CONTINUOUS
 70
     0
  3
Solid line
 72
    65
 73
     0
 40
0.0
  0
LTYPE
  2
CENTER
 70
     0
  3

 72
    65
 73
     0
 40
0.0
  0
ENDTAB
  0
TABLE
  2
LAYER
 70
     1
  0
LAYER
  2
0
 70
     0
 62
     7
  6
CONTINUOUS
  0
ENDTAB
  0
TABLE
  2
STYLE
 70
     2
  0
STYLE
  2
STANDARD
 70
     0
 40
0.0
 41
1.0
 50
0.0
 71
     0
 42
0.2
  3
txt
  4

  0
STYLE
  2
ＭＳ_ゴシック
 70
     0
 40
0.0
 41
1.0
 50
0.0
 71
     0
 42
0.2
  3
ＭＳ ゴシック.shx
  4

  0
ENDTAB
  0
TABLE
  2
VIEW
 70
     0
  0
ENDTAB
  0
TABLE
  2
UCS
 70
     0
  0
ENDTAB
  0
ENDSEC
  0
SECTION
  2
BLOCKS
  0
BLOCK
  8
0
  2
D_FRAME_VIEW_4070
 70
     0
 10
0.0
 20
0.0
 30
0.0
  0
LINE
  5
AC
  8
0
  6
CONTINUOUS
 62
     7
 10
-223.7551642067381
 20
90.96626908570373
 30
0.0
 11
-183.2638529961431
 21
90.96626908570373
 31
0.0
  0
LINE
  5
AD
  8
0
  6
CONTINUOUS
 62
     7
 10
-176.2638529961431
 20
90.96626908570373
 30
0.0
 11
-137.2638529961431
 21
90.96626908570373
 31
0.0
  0
LINE
  5
AE
  8
0
  6
CONTINUOUS
 62
     7
 10
-130.2638529961431
 20
90.96626908570373
 30
0.0
 11
-89.77254178554811
 21
90.96626908570373
 31
0.0
  0
LINE
  5
AF
  8
0
  6
CONTINUOUS
 62
     7
 10
-180.7638529961431
 20
59.46626908570374
 30
0.0
 11
-180.7638529961431
 21
63.56626908570373
 31
0.0
  0
LINE
  5
B0
  8
0
  6
CONTINUOUS
 62
     7
 10
-180.7638529961431
 20
80.36626908570372
 30
0.0
 11
-180.7638529961431
 21
81.3662690857037
 31
0.0
  0
LINE
  5
B1
  8
0
  6
CONTINUOUS
 62
     7
 10
-178.7638529961431
 20
59.46626908570374
 30
0.0
 11
-178.7638529961431
 21
63.56626908570373
 31
0.0
  0
LINE
  5
B2
  8
0
  6
CONTINUOUS
 62
     7
 10
-178.7638529961431
 20
80.36626908570372
 30
0.0
 11
-178.7638529961431
 21
81.3662690857037
 31
0.0
  0
LINE
  5
B3
  8
0
  6
CONTINUOUS
 62
     7
 10
-180.7638529961431
 20
59.1072395339085
 30
0.0
 11
-180.7638529961431
 21
59.46626908570374
 31
0.0
  0
LINE
  5
B4
  8
0
  6
CONTINUOUS
 62
     7
 10
-178.7638529961431
 20
59.00478768888799
 30
0.0
 11
-178.7638529961431
 21
59.46626908570374
 31
0.0
  0
LINE
  5
B5
  8
0
  6
CONTINUOUS
 62
     7
 10
-237.7638529961431
 20
91.46626908570373
 30
0.0
 11
-237.7638529961431
 21
90.96626908570373
 31
0.0
  0
LINE
  5
B6
  8
0
  6
CONTINUOUS
 62
     7
 10
-246.763852996143
 20
91.46626908570373
 30
0.0
 11
-237.7638529961431
 21
91.46626908570373
 31
0.0
  0
LINE
  5
B7
  8
0
  6
CONTINUOUS
 62
     7
 10
-246.763852996143
 20
91.46626908570373
 30
0.0
 11
-246.4288450021403
 21
96.0530931745372
 31
0.0
  0
LINE
  5
B8
  8
0
  6
CONTINUOUS
 62
     7
 10
-236.072633838768
 20
96.05309317453718
 30
0.0
 11
-235.1756895057889
 21
90.96626908570371
 31
0.0
  0
LINE
  5
B9
  8
0
  6
CONTINUOUS
 62
     7
 10
-255.7638529961431
 20
91.46626908570373
 30
0.0
 11
-246.763852996143
 21
91.46626908570373
 31
0.0
  0
LINE
  5
BA
  8
0
  6
CONTINUOUS
 62
     7
 10
-255.7638529961431
 20
91.46626908570373
 30
0.0
 11
-254.9550721535182
 21
96.0530931745372
 31
0.0
  0
POLYLINE
  5
BB
  8
0
  6
CONTINUOUS
 62
     7
 66
     1
 10
0.0
 20
0.0
 30
0.0
  0
VERTEX
  5
2E0
  8
0
  6
CONTINUOUS
 62
     7
 10
-246.4288450021403
 20
96.05309317453718
 30
0.0
  0
VERTEX
  5
2E1
  8
0
  6
CONTINUOUS
 62
     7
 10
-246.4267988201073
 20
96.07752955268188
 30
0.0
  0
VERTEX
  5
2E2
  8
0
  6
CONTINUOUS
 62
     7
 10
-246.4242506476043
 20
96.10168931977522
 30
0.0
  0
VERTEX
  5
2E3
  8
0
  6
CONTINUOUS
 62
     7
 10
-246.4212068197898
 20
96.12551241082957
 30
0.0
  0
VERTEX
  5
2E4
  8
0
  6
CONTINUOUS
 62
     7
 10
-246.4176749040992
 20
96.14893959788692
 30
0.0
  0
VERTEX
  5
2E5
  8
0
  6
CONTINUOUS
 62
     7
 10
-246.4136636814314
 20
96.17191263726903
 30
0.0
  0
VERTEX
  5
2E6
  8
0
  6
CONTINUOUS
 62
     7
 10
-246.409183124318
 20
96.1943744143803
 30
0.0
  0
VERTEX
  5
2E7
  8
0
  6
CONTINUOUS
 62
     7
 10
-246.40424437213
 20
96.21626908570373
 30
0.0
  0
VERTEX
  5
2E8
  8
0
  6
CONTINUOUS
 62
     7
 10
-246.3988597033834
 20
96.2375422176366
 30
0.0
  0
VERTEX
  5
2E9
  8
0
  6
CONTINUOUS
 62
     7
 10
-246.3930425052132
 20
96.25814092182112
 30
0.0
  0
VERTEX
  5
2EA
  8
0
  6
CONTINUOUS
 62
     7
 10
-246.3868072400907
 20
96.27801398663308
 30
0.0
  0
VERTEX
  5
2EB
  8
0
  6
CONTINUOUS
 62
     7
 10
-246.3801694098672
 20
96.29711200450215
 30
0.0
  0
VERTEX
  5
2EC
  8
0
  6
CONTINUOUS
 62
     7
 10
-246.3731455172347
 20
96.31538749474676
 30
0.0
  0
VERTEX
  5
2ED
  8
0
  6
CONTINUOUS
 62
     7
 10
-246.3657530246969
 20
96.33279502161864
 30
0.0
  0
VERTEX
  5
2EE
  8
0
  6
CONTINUOUS
 62
     7
 10
-246.3580103111552
 20
96.3492913072632
 30
0.0
  0
VERTEX
  5
2EF
  8
0
  6
CONTINUOUS
 62
     7
 10
-246.3499366262151
 20
96.36483533931518
 30
0.0
  0
VERTEX
  5
2F0
  8
0
  6
CONTINUOUS
 62
     7
 10
-246.3415520423298
 20
96.37938847286172
 30
0.0
  0
VERTEX
  5
2F1
  8
0
  6
CONTINUOUS
 62
     7
 10
-246.3328774048957
 20
96.39291452651979
 30
0.0
  0
VERTEX
  5
2F2
  8
0
  6
CONTINUOUS
 62
     7
 10
-246.3239342804283
 20
96.40537987238882
 30
0.0
  0
VERTEX
  5
2F3
  8
0
  6
CONTINUOUS
 62
     7
 10
-246.3147449029442
 20
96.41675351965493
 30
0.0
  0
VERTEX
  5
2F4
  8
0
  6
CONTINUOUS
 62
     7
 10
-246.3053321186837
 20
96.42700719163892
 30
0.0
  0
VERTEX
  5
2F5
  8
0
  6
CONTINUOUS
 62
     7
 10
-246.2957193293115
 20
96.43611539609668
 30
0.0
  0
VERTEX
  5
2F6
  8
0
  6
CONTINUOUS
 62
     7
 10
-246.2859304337367
 20
96.44405548859679
 30
0.0
  0
VERTEX
  5
2F7
  8
0
  6
CONTINUOUS
 62
     7
 10
-246.275989768696
 20
96.45080772881826
 30
0.0
  0
VERTEX
  5
2F8
  8
0
  6
CONTINUOUS
 62
     7
 10
-246.2659220482489
 20
96.456355329628
 30
0.0
  0
VERTEX
  5
2F9
  8
0
  6
CONTINUOUS
 62
     7
 10
-246.2557523023349
 20
96.46068449881628
 30
0.0
  0
VERTEX
  5
2FA
  8
0
  6
CONTINUOUS
 62
     7
 10
-246.2455058145445
 20
96.46378447338643
 30
0.0
  0
VERTEX
  5
2FB
  8
0
  6
CONTINUOUS
 62
     7
 10
-246.235208059261
 20
96.46564754631319
 30
0.0
  0
VERTEX
  5
2FC
  8
0
  6
CONTINUOUS
 62
     7
 10
-246.2248846383264
 20
96.46626908570373
 30
0.0
  0
SEQEND
  5
40B
  8
0
  6
CONTINUOUS
 62
     7
  0
LINE
  5
BC
  8
0
  6
CONTINUOUS
 62
     7
 10
-246.2248846383264
 20
96.46626908570373
 30
0.0
 11
-236.565037715274
 21
96.46626908570373
 31
0.0
  0
POLYLINE
  5
BD
  8
0
  6
CONTINUOUS
 62
     7
 66
     1
 10
0.0
 20
0.0
 30
0.0
  0
VERTEX
  5
2FD
  8
0
  6
CONTINUOUS
 62
     7
 10
-236.072633838768
 20
96.05309317453718
 30
0.0
  0
VERTEX
  5
2FE
  8
0
  6
CONTINUOUS
 62
     7
 10
-236.0775737591831
 20
96.07752955268188
 30
0.0
  0
VERTEX
  5
2FF
  8
0
  6
CONTINUOUS
 62
     7
 10
-236.083725591799
 20
96.10168931977522
 30
0.0
  0
VERTEX
  5
300
  8
0
  6
CONTINUOUS
 62
     7
 10
-236.0910740421905
 20
96.12551241082956
 30
0.0
  0
VERTEX
  5
301
  8
0
  6
CONTINUOUS
 62
     7
 10
-236.0996008409519
 20
96.14893959788692
 30
0.0
  0
VERTEX
  5
302
  8
0
  6
CONTINUOUS
 62
     7
 10
-236.1092847891182
 20
96.17191263726903
 30
0.0
  0
VERTEX
  5
303
  8
0
  6
CONTINUOUS
 62
     7
 10
-236.1201018108683
 20
96.1943744143803
 30
0.0
  0
VERTEX
  5
304
  8
0
  6
CONTINUOUS
 62
     7
 10
-236.1320250133818
 20
96.21626908570373
 30
0.0
  0
VERTEX
  5
305
  8
0
  6
CONTINUOUS
 62
     7
 10
-236.1450247536987
 20
96.2375422176366
 30
0.0
  0
VERTEX
  5
306
  8
0
  6
CONTINUOUS
 62
     7
 10
-236.1590687124161
 20
96.25814092182112
 30
0.0
  0
VERTEX
  5
307
  8
0
  6
CONTINUOUS
 62
     7
 10
-236.17412197404
 20
96.27801398663308
 30
0.0
  0
VERTEX
  5
308
  8
0
  6
CONTINUOUS
 62
     7
 10
-236.1901471137902
 20
96.29711200450215
 30
0.0
  0
VERTEX
  5
309
  8
0
  6
CONTINUOUS
 62
     7
 10
-236.2071042906442
 20
96.31538749474676
 30
0.0
  0
VERTEX
  5
30A
  8
0
  6
CONTINUOUS
 62
     7
 10
-236.2249513463886
 20
96.33279502161864
 30
0.0
  0
VERTEX
  5
30B
  8
0
  6
CONTINUOUS
 62
     7
 10
-236.2436439104308
 20
96.3492913072632
 30
0.0
  0
VERTEX
  5
30C
  8
0
  6
CONTINUOUS
 62
     7
 10
-236.2631355101113
 20
96.36483533931518
 30
0.0
  0
VERTEX
  5
30D
  8
0
  6
CONTINUOUS
 62
     7
 10
-236.2833776862422
 20
96.37938847286172
 30
0.0
  0
VERTEX
  5
30E
  8
0
  6
CONTINUOUS
 62
     7
 10
-236.3043201135843
 20
96.3929145265198
 30
0.0
  0
VERTEX
  5
30F
  8
0
  6
CONTINUOUS
 62
     7
 10
-236.3259107259634
 20
96.40537987238882
 30
0.0
  0
VERTEX
  5
310
  8
0
  6
CONTINUOUS
 62
     7
 10
-236.3480958457152
 20
96.41675351965493
 30
0.0
  0
VERTEX
  5
311
  8
0
  6
CONTINUOUS
 62
     7
 10
-236.3708203171367
 20
96.42700719163892
 30
0.0
  0
VERTEX
  5
312
  8
0
  6
CONTINUOUS
 62
     7
 10
-236.3940276436112
 20
96.43611539609668
 30
0.0
  0
VERTEX
  5
313
  8
0
  6
CONTINUOUS
 62
     7
 10
-236.4176601280686
 20
96.44405548859679
 30
0.0
  0
VERTEX
  5
314
  8
0
  6
CONTINUOUS
 62
     7
 10
-236.4416590164289
 20
96.45080772881826
 30
0.0
  0
VERTEX
  5
315
  8
0
  6
CONTINUOUS
 62
     7
 10
-236.4659646436744
 20
96.456355329628
 30
0.0
  0
VERTEX
  5
316
  8
0
  6
CONTINUOUS
 62
     7
 10
-236.4905165821859
 20
96.46068449881628
 30
0.0
  0
VERTEX
  5
317
  8
0
  6
CONTINUOUS
 62
     7
 10
-236.5152537919761
 20
96.46378447338643
 30
0.0
  0
VERTEX
  5
318
  8
0
  6
CONTINUOUS
 62
     7
 10
-236.5401147724437
 20
96.46564754631319
 30
0.0
  0
VERTEX
  5
319
  8
0
  6
CONTINUOUS
 62
     7
 10
-236.565037715274
 20
96.46626908570373
 30
0.0
  0
SEQEND
  5
40C
  8
0
  6
CONTINUOUS
 62
     7
  0
POLYLINE
  5
BE
  8
0
  6
CONTINUOUS
 62
     7
 66
     1
 10
0.0
 20
0.0
 30
0.0
  0
VERTEX
  5
31A
  8
0
  6
CONTINUOUS
 62
     7
 10
-254.9550721535182
 20
96.05309317453718
 30
0.0
  0
VERTEX
  5
31B
  8
0
  6
CONTINUOUS
 62
     7
 10
-254.950132233103
 20
96.07752955268188
 30
0.0
  0
VERTEX
  5
31C
  8
0
  6
CONTINUOUS
 62
     7
 10
-254.9439804004872
 20
96.10168931977522
 30
0.0
  0
VERTEX
  5
31D
  8
0
  6
CONTINUOUS
 62
     7
 10
-254.9366319500957
 20
96.12551241082957
 30
0.0
  0
VERTEX
  5
31E
  8
0
  6
CONTINUOUS
 62
     7
 10
-254.9281051513342
 20
96.14893959788692
 30
0.0
  0
VERTEX
  5
31F
  8
0
  6
CONTINUOUS
 62
     7
 10
-254.918421203168
 20
96.17191263726903
 30
0.0
  0
VERTEX
  5
320
  8
0
  6
CONTINUOUS
 62
     7
 10
-254.9076041814179
 20
96.1943744143803
 30
0.0
  0
VERTEX
  5
321
  8
0
  6
CONTINUOUS
 62
     7
 10
-254.8956809789044
 20
96.21626908570373
 30
0.0
  0
VERTEX
  5
322
  8
0
  6
CONTINUOUS
 62
     7
 10
-254.8826812385875
 20
96.2375422176366
 30
0.0
  0
VERTEX
  5
323
  8
0
  6
CONTINUOUS
 62
     7
 10
-254.8686372798701
 20
96.25814092182112
 30
0.0
  0
VERTEX
  5
324
  8
0
  6
CONTINUOUS
 62
     7
 10
-254.8535840182462
 20
96.27801398663308
 30
0.0
  0
VERTEX
  5
325
  8
0
  6
CONTINUOUS
 62
     7
 10
-254.837558878496
 20
96.29711200450215
 30
0.0
  0
VERTEX
  5
326
  8
0
  6
CONTINUOUS
 62
     7
 10
-254.820601701642
 20
96.31538749474676
 30
0.0
  0
VERTEX
  5
327
  8
0
  6
CONTINUOUS
 62
     7
 10
-254.8027546458976
 20
96.33279502161864
 30
0.0
  0
VERTEX
  5
328
  8
0
  6
CONTINUOUS
 62
     7
 10
-254.7840620818554
 20
96.3492913072632
 30
0.0
  0
VERTEX
  5
329
  8
0
  6
CONTINUOUS
 62
     7
 10
-254.7645704821749
 20
96.36483533931518
 30
0.0
  0
VERTEX
  5
32A
  8
0
  6
CONTINUOUS
 62
     7
 10
-254.7443283060439
 20
96.37938847286172
 30
0.0
  0
VERTEX
  5
32B
  8
0
  6
CONTINUOUS
 62
     7
 10
-254.7233858787019
 20
96.3929145265198
 30
0.0
  0
VERTEX
  5
32C
  8
0
  6
CONTINUOUS
 62
     7
 10
-254.7017952663227
 20
96.40537987238882
 30
0.0
  0
VERTEX
  5
32D
  8
0
  6
CONTINUOUS
 62
     7
 10
-254.6796101465709
 20
96.41675351965493
 30
0.0
  0
VERTEX
  5
32E
  8
0
  6
CONTINUOUS
 62
     7
 10
-254.6568856751495
 20
96.42700719163892
 30
0.0
  0
VERTEX
  5
32F
  8
0
  6
CONTINUOUS
 62
     7
 10
-254.6336783486749
 20
96.43611539609668
 30
0.0
  0
VERTEX
  5
330
  8
0
  6
CONTINUOUS
 62
     7
 10
-254.6100458642176
 20
96.44405548859679
 30
0.0
  0
VERTEX
  5
331
  8
0
  6
CONTINUOUS
 62
     7
 10
-254.5860469758573
 20
96.45080772881826
 30
0.0
  0
VERTEX
  5
332
  8
0
  6
CONTINUOUS
 62
     7
 10
-254.5617413486118
 20
96.456355329628
 30
0.0
  0
VERTEX
  5
333
  8
0
  6
CONTINUOUS
 62
     7
 10
-254.5371894101002
 20
96.46068449881628
 30
0.0
  0
VERTEX
  5
334
  8
0
  6
CONTINUOUS
 62
     7
 10
-254.51245220031
 20
96.46378447338643
 30
0.0
  0
VERTEX
  5
335
  8
0
  6
CONTINUOUS
 62
     7
 10
-254.4875912198425
 20
96.46564754631319
 30
0.0
  0
VERTEX
  5
336
  8
0
  6
CONTINUOUS
 62
     7
 10
-254.4626682770121
 20
96.46626908570373
 30
0.0
  0
SEQEND
  5
40D
  8
0
  6
CONTINUOUS
 62
     7
  0
LINE
  5
BF
  8
0
  6
CONTINUOUS
 62
     7
 10
-254.4626682770121
 20
96.46626908570373
 30
0.0
 11
-246.2248846383264
 21
96.46626908570373
 31
0.0
  0
LINE
  5
C0
  8
0
  6
CONTINUOUS
 62
     7
 10
-80.7638529961431
 20
90.96626908570373
 30
0.0
 11
-75.76385299614309
 21
90.96626908570373
 31
0.0
  0
LINE
  5
C1
  8
0
  6
CONTINUOUS
 62
     7
 10
-75.76385299614309
 20
90.96626908570373
 30
0.0
 11
-75.76385299614306
 21
88.46626908570371
 31
0.0
  0
LINE
  5
C2
  8
0
  6
CONTINUOUS
 62
     7
 10
-75.76385299614309
 20
88.46626908570371
 30
0.0
 11
-80.7638529961431
 21
88.46626908570371
 31
0.0
  0
ARC
  5
C3
  8
0
  6
CONTINUOUS
 62
     7
 10
-179.7638529961431
 20
71.96626908570371
 30
0.0
 40
17.5
 50
66.10449181383854
 51
80.0780132859346
  0
LINE
  5
C4
  8
0
  6
CONTINUOUS
 62
     7
 10
-172.6751295567642
 20
87.96626908570373
 30
0.0
 11
-156.7638529961431
 21
87.96626908570371
 31
0.0
  0
LINE
  5
C5
  8
0
  6
CONTINUOUS
 62
     7
 10
-156.7638529961431
 20
87.96626908570371
 30
0.0
 11
-140.852576435522
 21
87.96626908570373
 31
0.0
  0
ARC
  5
C6
  8
0
  6
CONTINUOUS
 62
     7
 10
-133.7638529961431
 20
71.96626908570371
 30
0.0
 40
17.50000000000001
 50
99.92198671406544
 51
113.8955081861615
  0
LINE
  5
C7
  8
0
  6
CONTINUOUS
 62
     7
 10
-136.7792274912831
 20
89.2045264411924
 30
0.0
 11
-136.7681783523777
 21
90.47063235345291
 31
0.0
  0
ARC
  5
C8
  8
0
  6
CONTINUOUS
 62
     7
 10
-136.2681973908456
 20
90.46626908570373
 30
0.0
 40
0.5000000000000004
 50
90.0
 51
179.5
  0
LINE
  5
C9
  8
0
  6
CONTINUOUS
 62
     7
 10
-136.2681973908456
 20
90.96626908570373
 30
0.0
 11
-131.2595086014406
 21
90.96626908570373
 31
0.0
  0
ARC
  5
CA
  8
0
  6
CONTINUOUS
 62
     7
 10
-131.2595086014406
 20
90.46626908570373
 30
0.0
 40
0.5000000000000014
 50
0.4999999999999749
 51
90.0
  0
LINE
  5
CB
  8
0
  6
CONTINUOUS
 62
     7
 10
-130.7484785010031
 20
89.2045264411924
 30
0.0
 11
-130.7595276399085
 21
90.47063235345291
 31
0.0
  0
LINE
  5
CC
  8
0
  6
CONTINUOUS
 62
     7
 10
-152.2638529961431
 20
85.96626908570371
 30
0.0
 11
-139.1490178032776
 21
85.9662690857037
 31
0.0
  0
LINE
  5
CD
  8
0
  6
CONTINUOUS
 62
     7
 10
-152.2638529961431
 20
86.96626908570371
 30
0.0
 11
-152.2638529961431
 21
85.96626908570371
 31
0.0
  0
LINE
  5
CE
  8
0
  6
CONTINUOUS
 62
     7
 10
-161.2638529961431
 20
86.96626908570371
 30
0.0
 11
-152.2638529961431
 21
86.96626908570373
 31
0.0
  0
LINE
  5
CF
  8
0
  6
CONTINUOUS
 62
     7
 10
-161.2638529961431
 20
85.96626908570371
 30
0.0
 11
-161.2638529961431
 21
86.9662690857037
 31
0.0
  0
LINE
  5
D0
  8
0
  6
CONTINUOUS
 62
     7
 10
-174.3786881890086
 20
85.96626908570371
 30
0.0
 11
-161.2638529961431
 21
85.96626908570371
 31
0.0
  0
ARC
  5
D1
  8
0
  6
CONTINUOUS
 62
     7
 10
-179.7638529961431
 20
71.96626908570371
 30
0.0
 40
15.0
 50
68.96053021868275
 51
111.0394697813173
  0
LINE
  5
D2
  8
0
  6
CONTINUOUS
 62
     7
 10
-198.2638529961431
 20
85.96626908570371
 30
0.0
 11
-185.1490178032776
 21
85.96626908570371
 31
0.0
  0
LINE
  5
D3
  8
0
  6
CONTINUOUS
 62
     7
 10
-198.2638529961431
 20
86.96626908570371
 30
0.0
 11
-198.2638529961431
 21
85.96626908570371
 31
0.0
  0
LINE
  5
D4
  8
0
  6
CONTINUOUS
 62
     7
 10
-207.2638529961431
 20
86.96626908570371
 30
0.0
 11
-198.2638529961431
 21
86.96626908570373
 31
0.0
  0
LINE
  5
D5
  8
0
  6
CONTINUOUS
 62
     7
 10
-207.2638529961431
 20
85.96626908570371
 30
0.0
 11
-207.2638529961431
 21
86.9662690857037
 31
0.0
  0
LINE
  5
D6
  8
0
  6
CONTINUOUS
 62
     7
 10
-225.2638529961431
 20
85.96626908570371
 30
0.0
 11
-207.2638529961431
 21
85.96626908570373
 31
0.0
  0
LINE
  5
D7
  8
0
  6
CONTINUOUS
 62
     7
 10
-225.2638529961431
 20
88.46626908570371
 30
0.0
 11
-225.2638529961431
 21
85.96626908570371
 31
0.0
  0
LINE
  5
D8
  8
0
  6
CONTINUOUS
 62
     7
 10
-232.7638529961431
 20
88.46626908570371
 30
0.0
 11
-225.2638529961431
 21
88.46626908570371
 31
0.0
  0
LINE
  5
D9
  8
0
  6
CONTINUOUS
 62
     7
 10
-232.7638529961431
 20
90.96626908570373
 30
0.0
 11
-223.7551642067381
 21
90.96626908570373
 31
0.0
  0
ARC
  5
DA
  8
0
  6
CONTINUOUS
 62
     7
 10
-223.7551642067381
 20
89.96626908570371
 30
0.0
 40
1.000000000000003
 50
0.4999999999999818
 51
90.0
  0
LINE
  5
DB
  8
0
  6
CONTINUOUS
 62
     7
 10
-222.7376723927708
 20
87.96626908570371
 30
0.0
 11
-222.7552022836739
 21
89.97499562120208
 31
0.0
  0
LINE
  5
DC
  8
0
  6
CONTINUOUS
 62
     7
 10
-186.8525764355221
 20
87.96626908570371
 30
0.0
 11
-222.7376723927708
 21
87.96626908570371
 31
0.0
  0
ARC
  5
DD
  8
0
  6
CONTINUOUS
 62
     7
 10
-179.7638529961431
 20
71.96626908570371
 30
0.0
 40
17.5
 50
99.92198671406544
 51
113.8955081861616
  0
LINE
  5
DE
  8
0
  6
CONTINUOUS
 62
     7
 10
-182.7681783523777
 20
90.47063235345291
 30
0.0
 11
-182.7792274912831
 21
89.2045264411924
 31
0.0
  0
ARC
  5
DF
  8
0
  6
CONTINUOUS
 62
     7
 10
-182.2681973908456
 20
90.46626908570373
 30
0.0
 40
0.5000000000000004
 50
90.0
 51
179.5
  0
LINE
  5
E0
  8
0
  6
CONTINUOUS
 62
     7
 10
-182.2681973908456
 20
90.96626908570373
 30
0.0
 11
-177.2595086014406
 21
90.96626908570373
 31
0.0
  0
ARC
  5
E1
  8
0
  6
CONTINUOUS
 62
     7
 10
-177.2595086014406
 20
90.46626908570373
 30
0.0
 40
0.5000000000000014
 50
0.5000000000000349
 51
90.0
  0
LINE
  5
E2
  8
0
  6
CONTINUOUS
 62
     7
 10
-176.7595276399085
 20
90.47063235345291
 30
0.0
 11
-176.7484785010031
 21
89.2045264411924
 31
0.0
  0
LINE
  5
E3
  8
0
  6
CONTINUOUS
 62
     7
 10
-89.7725417855481
 20
90.96626908570373
 30
0.0
 11
-80.7638529961431
 21
90.96626908570373
 31
0.0
  0
ARC
  5
E4
  8
0
  6
CONTINUOUS
 62
     7
 10
-133.7638529961431
 20
71.96626908570371
 30
0.0
 40
15.0
 50
68.96053021868275
 51
111.0394697813173
  0
LINE
  5
E5
  8
0
  6
CONTINUOUS
 62
     7
 10
-90.77250370861223
 20
89.97499562120208
 30
0.0
 11
-90.79003359951533
 21
87.96626908570371
 31
0.0
  0
LINE
  5
E6
  8
0
  6
CONTINUOUS
 62
     7
 10
-90.79003359951533
 20
87.96626908570371
 30
0.0
 11
-126.6751295567641
 21
87.9662690857037
 31
0.0
  0
ARC
  5
E7
  8
0
  6
CONTINUOUS
 62
     7
 10
-133.7638529961431
 20
71.96626908570371
 30
0.0
 40
17.5
 50
66.10449181383841
 51
80.07801328593452
  0
LINE
  5
E8
  8
0
  6
CONTINUOUS
 62
     7
 10
-88.26385299614309
 20
88.46626908570371
 30
0.0
 11
-80.7638529961431
 21
88.46626908570371
 31
0.0
  0
LINE
  5
E9
  8
0
  6
CONTINUOUS
 62
     7
 10
-88.26385299614307
 20
85.96626908570371
 30
0.0
 11
-88.26385299614309
 21
88.46626908570371
 31
0.0
  0
LINE
  5
EA
  8
0
  6
CONTINUOUS
 62
     7
 10
-115.2638529961431
 20
85.96626908570371
 30
0.0
 11
-115.2638529961431
 21
86.9662690857037
 31
0.0
  0
LINE
  5
EB
  8
0
  6
CONTINUOUS
 62
     7
 10
-115.2638529961431
 20
86.96626908570371
 30
0.0
 11
-106.2638529961431
 21
86.96626908570373
 31
0.0
  0
LINE
  5
EC
  8
0
  6
CONTINUOUS
 62
     7
 10
-106.2638529961431
 20
86.96626908570371
 30
0.0
 11
-106.2638529961431
 21
85.96626908570371
 31
0.0
  0
LINE
  5
ED
  8
0
  6
CONTINUOUS
 62
     7
 10
-128.3786881890086
 20
85.96626908570371
 30
0.0
 11
-115.2638529961431
 21
85.96626908570373
 31
0.0
  0
LINE
  5
EE
  8
0
  6
CONTINUOUS
 62
     7
 10
-106.2638529961431
 20
85.96626908570371
 30
0.0
 11
-88.26385299614307
 21
85.9662690857037
 31
0.0
  0
ARC
  5
EF
  8
0
  6
CONTINUOUS
 62
     7
 10
-89.77254178554811
 20
89.96626908570371
 30
0.0
 40
1.000000000000001
 50
89.9999999999992
 51
179.5000000000001
  0
LINE
  5
F0
  8
0
  6
CONTINUOUS
 62
     7
 10
-237.7638529961431
 20
88.46626908570371
 30
0.0
 11
-237.7638529961431
 21
90.96626908570373
 31
0.0
  0
LINE
  5
F1
  8
0
  6
CONTINUOUS
 62
     7
 10
-232.7638529961431
 20
88.46626908570371
 30
0.0
 11
-237.7638529961431
 21
88.46626908570371
 31
0.0
  0
LINE
  5
F2
  8
0
  6
CONTINUOUS
 62
     7
 10
-237.7638529961431
 20
90.96626908570373
 30
0.0
 11
-232.7638529961431
 21
90.96626908570373
 31
0.0
  0
LINE
  5
F3
  8
0
  6
CONTINUOUS
 62
     7
 10
-157.5138529961431
 20
54.96626908570372
 30
0.0
 11
-156.0138529961431
 21
54.96626908570372
 31
0.0
  0
ARC
  5
F4
  8
0
  6
CONTINUOUS
 62
     7
 10
-133.7638529961431
 20
71.96633470367317
 30
0.0
 40
15.00006178316932
 50
250.3150296037296
 51
289.6849703962704
  0
ARC
  5
F5
  8
0
  6
CONTINUOUS
 62
     7
 10
-179.7638529961431
 20
71.96626908570377
 30
0.0
 40
15.00000000000004
 50
250.3149451753413
 51
289.6850548246588
  0
ARC
  5
F6
  8
0
  6
CONTINUOUS
 62
     7
 10
-95.76385299614309
 20
71.96626908570371
 30
0.0
 40
13.99999999999998
 50
180.0
 51
270.0000000000001
  0
ARC
  5
F7
  8
0
  6
CONTINUOUS
 62
     7
 10
-95.76385299614309
 20
71.96626908570371
 30
0.0
 40
14.0
 50
90.0
 51
180.0
  0
ARC
  5
F8
  8
0
  6
CONTINUOUS
 62
     7
 10
-217.7638529961431
 20
71.96626908570371
 30
0.0
 40
14.0
 50
269.9999999999999
 51
90.0
  0
ARC
  5
F9
  8
0
  6
CONTINUOUS
 62
     7
 10
-179.7638529961431
 20
71.96626908570371
 30
0.0
 40
15.00000000000001
 50
111.0394697813173
 51
129.9445051898149
  0
ARC
  5
FA
  8
0
  6
CONTINUOUS
 62
     7
 10
-133.7638529961431
 20
71.96626908570371
 30
0.0
 40
15.00000000000001
 50
111.0394697813173
 51
129.9445051898148
  0
ARC
  5
FB
  8
0
  6
CONTINUOUS
 62
     7
 10
-133.7638529961431
 20
71.96626908570371
 30
0.0
 40
14.99999999999999
 50
50.05549481018505
 51
68.96053021868275
  0
ARC
  5
FC
  8
0
  6
CONTINUOUS
 62
     7
 10
-179.7638529961431
 20
71.96626908570371
 30
0.0
 40
14.99999999999999
 50
50.05549481018519
 51
68.96053021868272
  0
LINE
  5
FD
  8
0
  6
CONTINUOUS
 62
     7
 10
-114.7638529961431
 20
84.2256380874762
 30
0.0
 11
-106.7638529961431
 21
84.22563808747617
 31
0.0
  0
LINE
  5
FE
  8
0
  6
CONTINUOUS
 62
     7
 10
-106.7638529961431
 20
86.70690008393126
 30
0.0
 11
-106.7638529961431
 21
84.22563808747616
 31
0.0
  0
LINE
  5
FF
  8
0
  6
CONTINUOUS
 62
     7
 10
-114.7638529961431
 20
86.70690008393126
 30
0.0
 11
-106.7638529961431
 21
86.70690008393126
 31
0.0
  0
LINE
  5
100
  8
0
  6
CONTINUOUS
 62
     7
 10
-114.7638529961431
 20
86.70690008393126
 30
0.0
 11
-114.7638529961431
 21
84.22563808747618
 31
0.0
  0
ARC
  5
101
  8
0
  6
CONTINUOUS
 62
     7
 10
-83.2638529961431
 20
57.46626908570373
 30
0.0
 40
2.500000000000002
 50
270.0
 51
359.9999999999998
  0
LINE
  5
102
  8
0
  6
CONTINUOUS
 62
     7
 10
-81.2638529961431
 20
85.96626908570371
 30
0.0
 11
-83.26385299614311
 21
85.96626908570371
 31
0.0
  0
ARC
  5
103
  8
0
  6
CONTINUOUS
 62
     7
 10
-81.2638529961431
 20
86.46626908570371
 30
0.0
 40
0.5000000000000004
 50
270.0
 51
0.0
  0
LINE
  5
104
  8
0
  6
CONTINUOUS
 62
     7
 10
-83.2638529961431
 20
54.96626908570373
 30
0.0
 11
-156.0138529961431
 21
54.96626908570373
 31
0.0
  0
ARC
  5
105
  8
0
  6
CONTINUOUS
 62
     7
 10
-133.7638529961431
 20
71.96626908570371
 30
0.0
 40
14.99999999999999
 50
289.6850548246588
 51
309.9445051898151
  0
LINE
  5
106
  8
0
  6
CONTINUOUS
 62
     7
 10
-86.263852996143
 20
57.96376280425705
 30
0.0
 11
-85.76385299614309
 21
57.96376280425705
 31
0.0
  0
LINE
  5
107
  8
0
  6
CONTINUOUS
 62
     7
 10
-85.68885299614301
 20
57.96626908570375
 30
0.0
 11
-85.76385299614309
 21
57.96376280425705
 31
0.0
  0
LINE
  5
108
  8
0
  6
CONTINUOUS
 62
     7
 10
-85.68885299614301
 20
57.96626908570374
 30
0.0
 11
-83.2638529961431
 21
57.96626908570374
 31
0.0
  0
LINE
  5
109
  8
0
  6
CONTINUOUS
 62
     7
 10
-95.76385299614307
 20
57.96626908570373
 30
0.0
 11
-86.263852996143
 21
57.96626908570373
 31
0.0
  0
LINE
  5
10A
  8
0
  6
CONTINUOUS
 62
     7
 10
-122.7638529961431
 20
83.46626908570371
 30
0.0
 11
-124.133172854014
 21
83.4662690857037
 31
0.0
  0
LINE
  5
10B
  8
0
  6
CONTINUOUS
 62
     7
 10
-83.26385299614311
 20
85.96626908570371
 30
0.0
 11
-85.68885299614301
 21
85.96626908570371
 31
0.0
  0
LINE
  5
10C
  8
0
  6
CONTINUOUS
 62
     7
 10
-85.76385299614309
 20
85.9687753671504
 30
0.0
 11
-85.68885299614301
 21
85.9662690857037
 31
0.0
  0
LINE
  5
10D
  8
0
  6
CONTINUOUS
 62
     7
 10
-85.76385299614309
 20
85.9687753671504
 30
0.0
 11
-86.263852996143
 21
85.9687753671504
 31
0.0
  0
LINE
  5
10E
  8
0
  6
CONTINUOUS
 62
     7
 10
-86.263852996143
 20
85.96626908570371
 30
0.0
 11
-88.26385299614307
 21
85.96626908570371
 31
0.0
  0
LINE
  5
10F
  8
0
  6
CONTINUOUS
 62
     7
 10
-83.2638529961431
 20
57.96626908570374
 30
0.0
 11
-81.2638529961431
 21
57.96626908570374
 31
0.0
  0
ARC
  5
110
  8
0
  6
CONTINUOUS
 62
     7
 10
-81.2638529961431
 20
57.46626908570374
 30
0.0
 40
0.5000000000000004
 50
359.9999999999985
 51
90.0
  0
ARC
  5
111
  8
0
  6
CONTINUOUS
 62
     7
 10
-122.7638529961431
 20
71.96626908570373
 30
0.0
 40
11.5
 50
270.0000000000001
 51
89.9999999999999
  0
LINE
  5
112
  8
0
  6
CONTINUOUS
 62
     7
 10
-206.7638529961431
 20
84.2256380874762
 30
0.0
 11
-198.7638529961431
 21
84.22563808747617
 31
0.0
  0
LINE
  5
113
  8
0
  6
CONTINUOUS
 62
     7
 10
-198.7638529961431
 20
86.70690008393126
 30
0.0
 11
-198.7638529961431
 21
84.22563808747616
 31
0.0
  0
LINE
  5
114
  8
0
  6
CONTINUOUS
 62
     7
 10
-206.7638529961431
 20
86.70690008393126
 30
0.0
 11
-198.7638529961431
 21
86.70690008393126
 31
0.0
  0
LINE
  5
115
  8
0
  6
CONTINUOUS
 62
     7
 10
-206.7638529961431
 20
86.70690008393126
 30
0.0
 11
-206.7638529961431
 21
84.22563808747618
 31
0.0
  0
LINE
  5
116
  8
0
  6
CONTINUOUS
 62
     7
 10
-124.1331728540139
 20
60.46626908570374
 30
0.0
 11
-122.7638529961431
 21
60.46626908570372
 31
0.0
  0
LINE
  5
117
  8
0
  6
CONTINUOUS
 62
     7
 10
-80.76385299614307
 20
88.46626908570371
 30
0.0
 11
-80.7638529961431
 21
86.46626908570373
 31
0.0
  0
LINE
  5
118
  8
0
  6
CONTINUOUS
 62
     7
 10
-160.7638529961431
 20
84.2256380874762
 30
0.0
 11
-152.7638529961431
 21
84.22563808747617
 31
0.0
  0
LINE
  5
119
  8
0
  6
CONTINUOUS
 62
     7
 10
-152.7638529961431
 20
86.70690008393126
 30
0.0
 11
-152.7638529961431
 21
84.22563808747616
 31
0.0
  0
LINE
  5
11A
  8
0
  6
CONTINUOUS
 62
     7
 10
-160.7638529961431
 20
86.70690008393126
 30
0.0
 11
-152.7638529961431
 21
86.70690008393126
 31
0.0
  0
LINE
  5
11B
  8
0
  6
CONTINUOUS
 62
     7
 10
-160.7638529961431
 20
86.70690008393126
 30
0.0
 11
-160.7638529961431
 21
84.22563808747618
 31
0.0
  0
LINE
  5
11C
  8
0
  6
CONTINUOUS
 62
     7
 10
-144.7638529961431
 20
60.46626908570374
 30
0.0
 11
-143.3945331382722
 21
60.46626908570371
 31
0.0
  0
LINE
  5
11D
  8
0
  6
CONTINUOUS
 62
     7
 10
-157.5138529961431
 20
54.96626908570372
 30
0.0
 11
-230.2638529961431
 21
54.96626908570373
 31
0.0
  0
ARC
  5
11E
  8
0
  6
CONTINUOUS
 62
     7
 10
-179.7638529961431
 20
71.96626908570371
 30
0.0
 40
15.0
 50
230.055494810185
 51
250.3149451753412
  0
LINE
  5
11F
  8
0
  6
CONTINUOUS
 62
     7
 10
-168.7638529961431
 20
83.46626908570371
 30
0.0
 11
-170.133172854014
 21
83.46626908570373
 31
0.0
  0
LINE
  5
120
  8
0
  6
CONTINUOUS
 62
     7
 10
-170.133172854014
 20
60.46626908570371
 30
0.0
 11
-168.7638529961431
 21
60.46626908570373
 31
0.0
  0
ARC
  5
121
  8
0
  6
CONTINUOUS
 62
     7
 10
-133.7638529961431
 20
71.96626908570371
 30
0.0
 40
14.99999999999999
 50
230.0554948101852
 51
250.3149451753411
  0
ARC
  5
122
  8
0
  6
CONTINUOUS
 62
     7
 10
-168.7638529961431
 20
71.96626908570371
 30
0.0
 40
11.5
 50
269.9999999999999
 51
90.00000000000016
  0
ARC
  5
123
  8
0
  6
CONTINUOUS
 62
     7
 10
-144.7638529961431
 20
71.96626908570371
 30
0.0
 40
11.49999999999998
 50
180.0
 51
270.0000000000001
  0
ARC
  5
124
  8
0
  6
CONTINUOUS
 62
     7
 10
-144.7638529961431
 20
71.96626908570371
 30
0.0
 40
11.5
 50
89.99999999999986
 51
180.0
  0
LINE
  5
125
  8
0
  6
CONTINUOUS
 62
     7
 10
-143.3945331382722
 20
83.46626908570373
 30
0.0
 11
-144.7638529961431
 21
83.46626908570373
 31
0.0
  0
ARC
  5
126
  8
0
  6
CONTINUOUS
 62
     7
 10
-179.7638529961431
 20
71.96626908570371
 30
0.0
 40
14.99999999999999
 50
289.6850548246588
 51
309.9445051898148
  0
ARC
  5
127
  8
0
  6
CONTINUOUS
 62
     7
 10
-190.7638529961431
 20
71.96626908570373
 30
0.0
 40
11.49999999999998
 50
180.0
 51
269.9999999999999
  0
ARC
  5
128
  8
0
  6
CONTINUOUS
 62
     7
 10
-190.7638529961431
 20
71.96626908570373
 30
0.0
 40
11.49999999999999
 50
90.00000000000009
 51
180.0
  0
LINE
  5
129
  8
0
  6
CONTINUOUS
 62
     7
 10
-227.2638529961432
 20
85.9687753671504
 30
0.0
 11
-227.7638529961431
 21
85.9687753671504
 31
0.0
  0
LINE
  5
12A
  8
0
  6
CONTINUOUS
 62
     7
 10
-227.8388529961432
 20
85.96626908570371
 30
0.0
 11
-227.7638529961431
 21
85.96877536715041
 31
0.0
  0
LINE
  5
12B
  8
0
  6
CONTINUOUS
 62
     7
 10
-227.8388529961432
 20
85.96626908570371
 30
0.0
 11
-230.2638529961431
 21
85.96626908570371
 31
0.0
  0
LINE
  5
12C
  8
0
  6
CONTINUOUS
 62
     7
 10
-225.2638529961431
 20
85.96626908570371
 30
0.0
 11
-227.2638529961432
 21
85.96626908570371
 31
0.0
  0
LINE
  5
12D
  8
0
  6
CONTINUOUS
 62
     7
 10
-232.7638529961431
 20
86.46626908570371
 30
0.0
 11
-232.7638529961431
 21
88.4662690857037
 31
0.0
  0
LINE
  5
12E
  8
0
  6
CONTINUOUS
 62
     7
 10
-232.2638529961431
 20
57.96626908570374
 30
0.0
 11
-230.2638529961431
 21
57.96626908570374
 31
0.0
  0
ARC
  5
12F
  8
0
  6
CONTINUOUS
 62
     7
 10
-232.2638529961431
 20
57.46626908570374
 30
0.0
 40
0.5000000000000004
 50
90.0
 51
180.0000000000016
  0
LINE
  5
130
  8
0
  6
CONTINUOUS
 62
     7
 10
-230.2638529961431
 20
57.96626908570374
 30
0.0
 11
-227.8388529961432
 21
57.96626908570374
 31
0.0
  0
LINE
  5
131
  8
0
  6
CONTINUOUS
 62
     7
 10
-227.7638529961431
 20
57.96376280425705
 30
0.0
 11
-227.8388529961432
 21
57.96626908570375
 31
0.0
  0
LINE
  5
132
  8
0
  6
CONTINUOUS
 62
     7
 10
-227.7638529961431
 20
57.96376280425705
 30
0.0
 11
-227.2638529961432
 21
57.96376280425705
 31
0.0
  0
LINE
  5
133
  8
0
  6
CONTINUOUS
 62
     7
 10
-227.2638529961432
 20
57.96626908570373
 30
0.0
 11
-217.7638529961431
 21
57.96626908570373
 31
0.0
  0
LINE
  5
134
  8
0
  6
CONTINUOUS
 62
     7
 10
-189.3945331382722
 20
83.46626908570371
 30
0.0
 11
-190.7638529961431
 21
83.46626908570373
 31
0.0
  0
LINE
  5
135
  8
0
  6
CONTINUOUS
 62
     7
 10
-230.2638529961431
 20
85.96626908570371
 30
0.0
 11
-232.2638529961431
 21
85.96626908570371
 31
0.0
  0
ARC
  5
136
  8
0
  6
CONTINUOUS
 62
     7
 10
-232.2638529961431
 20
86.46626908570371
 30
0.0
 40
0.5000000000000004
 50
180.0
 51
270.0
  0
LINE
  5
137
  8
0
  6
CONTINUOUS
 62
     7
 10
-190.7638529961431
 20
60.46626908570372
 30
0.0
 11
-189.3945331382723
 21
60.46626908570374
 31
0.0
  0
ARC
  5
138
  8
0
  6
CONTINUOUS
 62
     7
 10
-230.2638529961431
 20
57.46626908570372
 30
0.0
 40
2.500000000000002
 50
180.0
 51
270.0
  0
LINE
  5
139
  8
0
  6
CONTINUOUS
 62
     7
 10
-86.76385299614307
 20
65.6417137653669
 30
0.0
 11
-86.76385299614304
 21
66.55794217250772
 31
0.0
  0
LINE
  5
13A
  8
0
  6
CONTINUOUS
 62
     7
 10
-86.76385299614304
 20
77.37459599889968
 30
0.0
 11
-86.76385299614307
 21
78.29082440604049
 31
0.0
  0
LINE
  5
13B
  8
0
  6
CONTINUOUS
 62
     7
 10
-226.7638529961432
 20
66.55794217250772
 30
0.0
 11
-226.7638529961431
 21
65.6417137653669
 31
0.0
  0
LINE
  5
13C
  8
0
  6
CONTINUOUS
 62
     7
 10
-226.7638529961431
 20
78.2908244060405
 30
0.0
 11
-226.7638529961432
 21
77.37459599889968
 31
0.0
  0
LINE
  5
13D
  8
0
  6
CONTINUOUS
 62
     7
 10
-84.2638529961431
 20
59.46626908570374
 30
0.0
 11
-84.26385299614309
 21
57.96626908570374
 31
0.0
  0
LINE
  5
13E
  8
0
  6
CONTINUOUS
 62
     7
 10
-86.26385299614299
 20
81.3662690857037
 30
0.0
 11
-85.76385299614309
 21
81.3662690857037
 31
0.0
  0
LINE
  5
13F
  8
0
  6
CONTINUOUS
 62
     7
 10
-84.26385299614309
 20
62.56626908570372
 30
0.0
 11
-84.2638529961431
 21
61.06626908570373
 31
0.0
  0
LINE
  5
140
  8
0
  6
CONTINUOUS
 62
     7
 10
-85.76385299614309
 20
62.56626908570374
 30
0.0
 11
-84.26385299614309
 21
62.56626908570373
 31
0.0
  0
ARC
  5
141
  8
0
  6
CONTINUOUS
 62
     7
 10
-95.76385299614311
 20
71.96626908570371
 30
0.0
 40
11.99999999999998
 50
171.6144613529187
 51
188.3855386470813
  0
LINE
  5
142
  8
0
  6
CONTINUOUS
 62
     7
 10
-84.26385299614307
 20
85.96626908570371
 30
0.0
 11
-84.2638529961431
 21
84.46626908570367
 31
0.0
  0
LINE
  5
143
  8
0
  6
CONTINUOUS
 62
     7
 10
-86.26385299614299
 20
62.56626908570373
 30
0.0
 11
-85.76385299614309
 21
62.56626908570373
 31
0.0
  0
LINE
  5
144
  8
0
  6
CONTINUOUS
 62
     7
 10
-84.2638529961431
 20
82.86626908570369
 30
0.0
 11
-84.26385299614296
 21
81.3662690857037
 31
0.0
  0
LINE
  5
145
  8
0
  6
CONTINUOUS
 62
     7
 10
-84.26385299614296
 20
81.3662690857037
 30
0.0
 11
-85.76385299614309
 21
81.3662690857037
 31
0.0
  0
LINE
  5
146
  8
0
  6
CONTINUOUS
 62
     7
 10
-227.2638529961432
 20
62.56626908570373
 30
0.0
 11
-227.7638529961431
 21
62.56626908570373
 31
0.0
  0
LINE
  5
147
  8
0
  6
CONTINUOUS
 62
     7
 10
-229.2638529961431
 20
84.46626908570367
 30
0.0
 11
-229.2638529961431
 21
85.96626908570373
 31
0.0
  0
LINE
  5
148
  8
0
  6
CONTINUOUS
 62
     7
 10
-227.2638529961432
 20
81.3662690857037
 30
0.0
 11
-227.7638529961431
 21
81.3662690857037
 31
0.0
  0
ARC
  5
149
  8
0
  6
CONTINUOUS
 62
     7
 10
-217.7638529961431
 20
71.96626908570371
 30
0.0
 40
12.0
 50
351.6144613529187
 51
8.385538647081319
  0
LINE
  5
14A
  8
0
  6
CONTINUOUS
 62
     7
 10
-229.2638529961431
 20
61.06626908570374
 30
0.0
 11
-229.2638529961432
 21
62.56626908570374
 31
0.0
  0
LINE
  5
14B
  8
0
  6
CONTINUOUS
 62
     7
 10
-229.2638529961432
 20
62.56626908570374
 30
0.0
 11
-227.7638529961431
 21
62.56626908570374
 31
0.0
  0
LINE
  5
14C
  8
0
  6
CONTINUOUS
 62
     7
 10
-229.2638529961431
 20
57.96626908570374
 30
0.0
 11
-229.2638529961431
 21
59.46626908570374
 31
0.0
  0
LINE
  5
14D
  8
0
  6
CONTINUOUS
 62
     7
 10
-229.2638529961431
 20
81.36626908570372
 30
0.0
 11
-229.2638529961431
 21
82.8662690857037
 31
0.0
  0
LINE
  5
14E
  8
0
  6
CONTINUOUS
 62
     7
 10
-227.7638529961431
 20
81.3662690857037
 30
0.0
 11
-229.2638529961431
 21
81.3662690857037
 31
0.0
  0
LINE
  5
14F
  8
0
  6
CONTINUOUS
 62
     7
 10
-122.7638529961431
 20
62.56626908570373
 30
0.0
 11
-123.8638529961431
 21
62.56626908570373
 31
0.0
  0
ARC
  5
150
  8
0
  6
CONTINUOUS
 62
     7
 10
-122.7638529961431
 20
71.96626908570371
 30
0.0
 40
9.399999999999995
 50
269.9999999999998
 51
276.7202229601851
  0
LINE
  5
151
  8
0
  6
CONTINUOUS
 62
     7
 10
-123.8638529961431
 20
81.36626908570372
 30
0.0
 11
-122.7638529961431
 21
81.36626908570372
 31
0.0
  0
ARC
  5
152
  8
0
  6
CONTINUOUS
 62
     7
 10
-122.7638529961431
 20
71.96626908570371
 30
0.0
 40
9.400000000000006
 50
83.27977703981492
 51
90.00000000000016
  0
LINE
  5
153
  8
0
  6
CONTINUOUS
 62
     7
 10
-175.7638529961431
 20
81.36626908570372
 30
0.0
 11
-175.7638529961431
 21
83.46626908570373
 31
0.0
  0
LINE
  5
154
  8
0
  6
CONTINUOUS
 62
     7
 10
-183.7638529961431
 20
81.36626908570372
 30
0.0
 11
-175.7638529961431
 21
81.36626908570372
 31
0.0
  0
LINE
  5
155
  8
0
  6
CONTINUOUS
 62
     7
 10
-183.7638529961431
 20
83.46626908570371
 30
0.0
 11
-183.7638529961431
 21
81.3662690857037
 31
0.0
  0
LINE
  5
156
  8
0
  6
CONTINUOUS
 62
     7
 10
-182.2638529961431
 20
83.46626908570371
 30
0.0
 11
-183.7638529961431
 21
83.46626908570371
 31
0.0
  0
ARC
  5
157
  8
0
  6
CONTINUOUS
 62
     7
 10
-182.2638529961431
 20
84.46626908570371
 30
0.0
 40
1.000000000000001
 50
270.0
 51
0.0000000000000568
  0
LINE
  5
158
  8
0
  6
CONTINUOUS
 62
     7
 10
-181.2638529961431
 20
85.38267695070245
 30
0.0
 11
-181.2638529961431
 21
84.46626908570373
 31
0.0
  0
LINE
  5
159
  8
0
  6
CONTINUOUS
 62
     7
 10
-178.2638529961431
 20
84.46626908570371
 30
0.0
 11
-178.2638529961431
 21
85.38267695070245
 31
0.0
  0
ARC
  5
15A
  8
0
  6
CONTINUOUS
 62
     7
 10
-177.2638529961431
 20
84.46626908570371
 30
0.0
 40
0.9999999999999939
 50
180.0
 51
270.0
  0
LINE
  5
15B
  8
0
  6
CONTINUOUS
 62
     7
 10
-175.7638529961431
 20
83.46626908570371
 30
0.0
 11
-177.2638529961431
 21
83.46626908570371
 31
0.0
  0
LINE
  5
15C
  8
0
  6
CONTINUOUS
 62
     7
 10
-134.2638529961431
 20
63.56626908570373
 30
0.0
 11
-134.2638529961431
 21
80.36626908570372
 31
0.0
  0
ARC
  5
15D
  8
0
  6
CONTINUOUS
 62
     7
 10
-168.7638529961431
 20
71.96626908570371
 30
0.0
 40
9.400000000000006
 50
83.27977703981492
 51
90.00000000000016
  0
ARC
  5
15E
  8
0
  6
CONTINUOUS
 62
     7
 10
-168.7638529961431
 20
71.96626908570371
 30
0.0
 40
9.399999999999995
 50
269.9999999999998
 51
276.7202229601851
  0
LINE
  5
15F
  8
0
  6
CONTINUOUS
 62
     7
 10
-143.6638529961431
 20
62.56626908570373
 30
0.0
 11
-144.7638529961431
 21
62.56626908570373
 31
0.0
  0
LINE
  5
160
  8
0
  6
CONTINUOUS
 62
     7
 10
-181.2638529961431
 20
85.38267695070245
 30
0.0
 11
-181.2638529961431
 21
86.38847418755968
 31
0.0
  0
LINE
  5
161
  8
0
  6
CONTINUOUS
 62
     7
 10
-178.2638529961431
 20
86.38847418755965
 30
0.0
 11
-178.2638529961431
 21
85.38267695070245
 31
0.0
  0
LINE
  5
162
  8
0
  6
CONTINUOUS
 62
     7
 10
-133.2638529961431
 20
80.36626908570372
 30
0.0
 11
-133.2638529961431
 21
63.56626908570373
 31
0.0
  0
LINE
  5
163
  8
0
  6
CONTINUOUS
 62
     7
 10
-179.2638529961431
 20
63.56626908570373
 30
0.0
 11
-179.2638529961431
 21
80.36626908570372
 31
0.0
  0
LINE
  5
164
  8
0
  6
CONTINUOUS
 62
     7
 10
-180.2638529961431
 20
80.36626908570372
 30
0.0
 11
-180.2638529961431
 21
63.56626908570373
 31
0.0
  0
LINE
  5
165
  8
0
  6
CONTINUOUS
 62
     7
 10
-144.7638529961431
 20
81.36626908570372
 30
0.0
 11
-143.6638529961431
 21
81.36626908570372
 31
0.0
  0
LINE
  5
166
  8
0
  6
CONTINUOUS
 62
     7
 10
-169.8638529961431
 20
81.36626908570372
 30
0.0
 11
-168.7638529961431
 21
81.36626908570372
 31
0.0
  0
LINE
  5
167
  8
0
  6
CONTINUOUS
 62
     7
 10
-129.7638529961431
 20
83.46626908570371
 30
0.0
 11
-129.7638529961431
 21
81.3662690857037
 31
0.0
  0
LINE
  5
168
  8
0
  6
CONTINUOUS
 62
     7
 10
-137.7638529961431
 20
83.46626908570371
 30
0.0
 11
-136.2638529961431
 21
83.46626908570371
 31
0.0
  0
ARC
  5
169
  8
0
  6
CONTINUOUS
 62
     7
 10
-136.2638529961431
 20
84.46626908570371
 30
0.0
 40
1.000000000000001
 50
270.0
 51
0.0
  0
LINE
  5
16A
  8
0
  6
CONTINUOUS
 62
     7
 10
-135.2638529961431
 20
84.46626908570371
 30
0.0
 11
-135.2638529961431
 21
85.38267695070245
 31
0.0
  0
LINE
  5
16B
  8
0
  6
CONTINUOUS
 62
     7
 10
-137.7638529961431
 20
81.36626908570372
 30
0.0
 11
-137.7638529961431
 21
83.46626908570373
 31
0.0
  0
ARC
  5
16C
  8
0
  6
CONTINUOUS
 62
     7
 10
-131.2638529961431
 20
84.46626908570371
 30
0.0
 40
0.9999999999999939
 50
180.0
 51
270.0
  0
LINE
  5
16D
  8
0
  6
CONTINUOUS
 62
     7
 10
-132.2638529961431
 20
85.38267695070245
 30
0.0
 11
-132.2638529961431
 21
84.46626908570373
 31
0.0
  0
LINE
  5
16E
  8
0
  6
CONTINUOUS
 62
     7
 10
-129.7638529961431
 20
81.36626908570372
 30
0.0
 11
-137.7638529961431
 21
81.36626908570372
 31
0.0
  0
LINE
  5
16F
  8
0
  6
CONTINUOUS
 62
     7
 10
-131.2638529961431
 20
83.46626908570371
 30
0.0
 11
-129.7638529961431
 21
83.46626908570371
 31
0.0
  0
ARC
  5
170
  8
0
  6
CONTINUOUS
 62
     7
 10
-144.7638529961431
 20
71.96626908570371
 30
0.0
 40
9.400000000000002
 50
89.99999999999982
 51
96.72022296018515
  0
LINE
  5
171
  8
0
  6
CONTINUOUS
 62
     7
 10
-168.7638529961431
 20
62.56626908570373
 30
0.0
 11
-169.8638529961431
 21
62.56626908570373
 31
0.0
  0
LINE
  5
172
  8
0
  6
CONTINUOUS
 62
     7
 10
-135.2638529961431
 20
85.38267695070245
 30
0.0
 11
-135.2638529961431
 21
86.38847418755968
 31
0.0
  0
LINE
  5
173
  8
0
  6
CONTINUOUS
 62
     7
 10
-132.2638529961431
 20
86.38847418755967
 30
0.0
 11
-132.2638529961431
 21
85.38267695070245
 31
0.0
  0
ARC
  5
174
  8
0
  6
CONTINUOUS
 62
     7
 10
-144.7638529961431
 20
71.96626908570371
 30
0.0
 40
9.399999999999995
 50
263.2797770398148
 51
270.0000000000001
  0
ARC
  5
175
  8
0
  6
CONTINUOUS
 62
     7
 10
-190.7638529961431
 20
71.96626908570371
 30
0.0
 40
9.399999999999995
 50
263.2797770398147
 51
270.0
  0
LINE
  5
176
  8
0
  6
CONTINUOUS
 62
     7
 10
-189.6638529961431
 20
62.56626908570373
 30
0.0
 11
-190.7638529961431
 21
62.56626908570373
 31
0.0
  0
LINE
  5
177
  8
0
  6
CONTINUOUS
 62
     7
 10
-190.7638529961431
 20
81.36626908570372
 30
0.0
 11
-189.663852996143
 21
81.36626908570372
 31
0.0
  0
ARC
  5
178
  8
0
  6
CONTINUOUS
 62
     7
 10
-190.7638529961431
 20
71.96626908570371
 30
0.0
 40
9.400000000000002
 50
89.99999999999982
 51
96.72022296018515
  0
LINE
  5
179
  8
0
  6
CONTINUOUS
 62
     7
 10
-84.26385299614296
 20
81.3662690857037
 30
0.0
 11
-84.26385299614309
 21
79.3662690857037
 31
0.0
  0
LINE
  5
17A
  8
0
  6
CONTINUOUS
 62
     7
 10
-86.76385299614307
 20
79.36626908570372
 30
0.0
 11
-86.26385299614307
 21
81.3662690857037
 31
0.0
  0
LINE
  5
17B
  8
0
  6
CONTINUOUS
 62
     7
 10
-86.26385299614299
 20
62.56626908570373
 30
0.0
 11
-86.76385299614307
 21
64.56626908570371
 31
0.0
  0
LINE
  5
17C
  8
0
  6
CONTINUOUS
 62
     7
 10
-84.26385299614309
 20
64.56626908570371
 30
0.0
 11
-84.26385299614309
 21
62.56626908570373
 31
0.0
  0
LINE
  5
17D
  8
0
  6
CONTINUOUS
 62
     7
 10
-84.26385299614309
 20
79.36626908570372
 30
0.0
 11
-84.26385299614309
 21
64.56626908570371
 31
0.0
  0
LINE
  5
17E
  8
0
  6
CONTINUOUS
 62
     7
 10
-86.76385299614307
 20
64.56626908570371
 30
0.0
 11
-86.76385299614307
 21
65.64171376536692
 31
0.0
  0
LINE
  5
17F
  8
0
  6
CONTINUOUS
 62
     7
 10
-86.76385299614307
 20
78.2908244060405
 30
0.0
 11
-86.76385299614307
 21
79.36626908570372
 31
0.0
  0
LINE
  5
180
  8
0
  6
CONTINUOUS
 62
     7
 10
-229.2638529961431
 20
79.36626908570372
 30
0.0
 11
-229.2638529961431
 21
64.56626908570371
 31
0.0
  0
LINE
  5
181
  8
0
  6
CONTINUOUS
 62
     7
 10
-226.7638529961431
 20
78.2908244060405
 30
0.0
 11
-226.7638529961431
 21
79.36626908570372
 31
0.0
  0
LINE
  5
182
  8
0
  6
CONTINUOUS
 62
     7
 10
-226.7638529961431
 20
64.56626908570371
 30
0.0
 11
-226.7638529961431
 21
65.64171376536692
 31
0.0
  0
LINE
  5
183
  8
0
  6
CONTINUOUS
 62
     7
 10
-229.2638529961431
 20
79.36626908570372
 30
0.0
 11
-229.2638529961431
 21
81.36626908570372
 31
0.0
  0
LINE
  5
184
  8
0
  6
CONTINUOUS
 62
     7
 10
-227.2638529961432
 20
81.3662690857037
 30
0.0
 11
-226.7638529961431
 21
79.36626908570372
 31
0.0
  0
LINE
  5
185
  8
0
  6
CONTINUOUS
 62
     7
 10
-229.2638529961432
 20
62.56626908570374
 30
0.0
 11
-229.2638529961431
 21
64.56626908570371
 31
0.0
  0
LINE
  5
186
  8
0
  6
CONTINUOUS
 62
     7
 10
-226.7638529961431
 20
64.56626908570371
 30
0.0
 11
-227.263852996143
 21
62.56626908570373
 31
0.0
  0
ARC
  5
187
  8
0
  6
CONTINUOUS
 62
     7
 10
-122.7638529961431
 20
71.96626908570371
 30
0.0
 40
9.399999999999997
 50
276.7202229601851
 51
83.27977703981492
  0
ARC
  5
188
  8
0
  6
CONTINUOUS
 62
     7
 10
-168.7638529961431
 20
71.96626908570371
 30
0.0
 40
9.399999999999999
 50
276.7202229601851
 51
83.27977703981492
  0
ARC
  5
189
  8
0
  6
CONTINUOUS
 62
     7
 10
-144.7638529961431
 20
71.96626908570371
 30
0.0
 40
9.399999999999991
 50
180.0
 51
263.2797770398149
  0
ARC
  5
18A
  8
0
  6
CONTINUOUS
 62
     7
 10
-144.7638529961431
 20
71.96626908570371
 30
0.0
 40
9.399999999999999
 50
96.7202229601851
 51
180.0
  0
ARC
  5
18B
  8
0
  6
CONTINUOUS
 62
     7
 10
-190.7638529961431
 20
71.96626908570371
 30
0.0
 40
9.399999999999991
 50
180.0
 51
263.2797770398149
  0
ARC
  5
18C
  8
0
  6
CONTINUOUS
 62
     7
 10
-190.7638529961431
 20
71.96626908570371
 30
0.0
 40
9.400000000000002
 50
96.7202229601851
 51
180.0
  0
LINE
  5
18D
  8
0
  6
CONTINUOUS
 62
     7
 10
-93.26385299614319
 20
62.56626908570372
 30
0.0
 11
-86.26385299614299
 21
62.56626908570328
 31
0.0
  0
LINE
  5
18E
  8
0
  6
CONTINUOUS
 62
     7
 10
-143.3945331382722
 20
83.4662690857037
 30
0.0
 11
-137.7638529961431
 21
83.46626908570371
 31
0.0
  0
LINE
  5
18F
  8
0
  6
CONTINUOUS
 62
     7
 10
-129.7638529961431
 20
83.46626908570371
 30
0.0
 11
-124.133172854014
 21
83.46626908570371
 31
0.0
  0
LINE
  5
190
  8
0
  6
CONTINUOUS
 62
     7
 10
-123.8638529961431
 20
81.36626908570372
 30
0.0
 11
-129.7638529961431
 21
81.36626908570372
 31
0.0
  0
ARC
  5
191
  8
0
  6
CONTINUOUS
 62
     7
 10
-93.26385299614313
 20
71.96626908570371
 30
0.0
 40
9.400000000000006
 50
180.0
 51
269.9999999999997
  0
ARC
  5
192
  8
0
  6
CONTINUOUS
 62
     7
 10
-93.26385299614313
 20
71.96626908570371
 30
0.0
 40
9.399999999999999
 50
90.00000000000026
 51
180.0
  0
LINE
  5
193
  8
0
  6
CONTINUOUS
 62
     7
 10
-124.7838752678856
 20
62.56626908570372
 30
0.0
 11
-123.8638529961431
 21
62.56626908570372
 31
0.0
  0
LINE
  5
194
  8
0
  6
CONTINUOUS
 62
     7
 10
-84.2638529961431
 20
82.86626908570369
 30
0.0
 11
-84.2638529961431
 21
84.46626908570367
 31
0.0
  0
LINE
  5
195
  8
0
  6
CONTINUOUS
 62
     7
 10
-84.2638529961431
 20
59.46626908570374
 30
0.0
 11
-84.2638529961431
 21
61.06626908570374
 31
0.0
  0
LINE
  5
196
  8
0
  6
CONTINUOUS
 62
     7
 10
-86.26385299614309
 20
81.36626908570372
 30
0.0
 11
-93.26385299614317
 21
81.36626908570373
 31
0.0
  0
ARC
  5
197
  8
0
  6
CONTINUOUS
 62
     7
 10
-133.7638529961431
 20
71.96626908570371
 30
0.0
 40
13.00000000000002
 50
226.3091047207149
 51
313.690895279285
  0
ARC
  5
198
  8
0
  6
CONTINUOUS
 62
     7
 10
-179.7638529961431
 20
71.96626908570371
 30
0.0
 40
13.00000000000001
 50
226.3091047207149
 51
313.6908952792851
  0
LINE
  5
199
  8
0
  6
CONTINUOUS
 62
     7
 10
-183.7638529961431
 20
81.36626908570372
 30
0.0
 11
-189.6638529961431
 21
81.36626908570372
 31
0.0
  0
LINE
  5
19A
  8
0
  6
CONTINUOUS
 62
     7
 10
-169.8638529961431
 20
81.36626908570372
 30
0.0
 11
-175.7638529961431
 21
81.36626908570372
 31
0.0
  0
LINE
  5
19B
  8
0
  6
CONTINUOUS
 62
     7
 10
-170.7838752678856
 20
62.56626908570372
 30
0.0
 11
-169.8638529961431
 21
62.56626908570373
 31
0.0
  0
LINE
  5
19C
  8
0
  6
CONTINUOUS
 62
     7
 10
-143.6638529961431
 20
62.56626908570373
 30
0.0
 11
-142.7438307244006
 21
62.56626908570373
 31
0.0
  0
LINE
  5
19D
  8
0
  6
CONTINUOUS
 62
     7
 10
-181.2638529961431
 20
86.38847418755967
 30
0.0
 11
-181.2638529961431
 21
86.891080642303
 31
0.0
  0
LINE
  5
19E
  8
0
  6
CONTINUOUS
 62
     7
 10
-178.2638529961431
 20
86.89108064230301
 30
0.0
 11
-178.2638529961431
 21
86.38847418755965
 31
0.0
  0
LINE
  5
19F
  8
0
  6
CONTINUOUS
 62
     7
 10
-137.7638529961431
 20
81.36626908570372
 30
0.0
 11
-143.6638529961431
 21
81.36626908570372
 31
0.0
  0
LINE
  5
1A0
  8
0
  6
CONTINUOUS
 62
     7
 10
-189.3945331382722
 20
83.4662690857037
 30
0.0
 11
-183.7638529961431
 21
83.46626908570371
 31
0.0
  0
LINE
  5
1A1
  8
0
  6
CONTINUOUS
 62
     7
 10
-175.7638529961431
 20
83.46626908570371
 30
0.0
 11
-170.133172854014
 21
83.46626908570373
 31
0.0
  0
LINE
  5
1A2
  8
0
  6
CONTINUOUS
 62
     7
 10
-135.2638529961431
 20
86.38847418755967
 30
0.0
 11
-135.2638529961431
 21
86.891080642303
 31
0.0
  0
LINE
  5
1A3
  8
0
  6
CONTINUOUS
 62
     7
 10
-132.2638529961431
 20
86.89108064230301
 30
0.0
 11
-132.2638529961431
 21
86.38847418755968
 31
0.0
  0
LINE
  5
1A4
  8
0
  6
CONTINUOUS
 62
     7
 10
-227.263852996143
 20
62.56626908570373
 30
0.0
 11
-220.263852996143
 21
62.5662690857037
 31
0.0
  0
LINE
  5
1A5
  8
0
  6
CONTINUOUS
 62
     7
 10
-220.263852996143
 20
81.36626908570372
 30
0.0
 11
-227.2638529961432
 21
81.3662690857041
 31
0.0
  0
ARC
  5
1A6
  8
0
  6
CONTINUOUS
 62
     7
 10
-220.263852996143
 20
71.96626908570371
 30
0.0
 40
9.400000000000002
 50
270.0000000000003
 51
89.99999999999977
  0
LINE
  5
1A7
  8
0
  6
CONTINUOUS
 62
     7
 10
-229.2638529961431
 20
82.86626908570369
 30
0.0
 11
-229.2638529961431
 21
84.46626908570367
 31
0.0
  0
LINE
  5
1A8
  8
0
  6
CONTINUOUS
 62
     7
 10
-229.2638529961431
 20
59.46626908570374
 30
0.0
 11
-229.2638529961431
 21
61.06626908570374
 31
0.0
  0
LINE
  5
1A9
  8
0
  6
CONTINUOUS
 62
     7
 10
-189.6638529961431
 20
62.56626908570373
 30
0.0
 11
-188.7438307244006
 21
62.56626908570373
 31
0.0
  0
LINE
  5
1AA
  8
0
  6
CONTINUOUS
 62
     7
 10
-86.76385299614309
 20
66.55794217250772
 30
0.0
 11
-86.76385299614304
 21
77.37459599889968
 31
0.0
  0
LINE
  5
1AB
  8
0
  6
CONTINUOUS
 62
     7
 10
-226.7638529961432
 20
77.37459599889968
 30
0.0
 11
-226.7638529961431
 21
66.55794217250772
 31
0.0
  0
LINE
  5
1AC
  8
0
  6
CONTINUOUS
 62
     7
 10
-183.2638529961431
 20
89.11269728518599
 30
0.0
 11
-183.2638529961431
 21
90.96626908570374
 31
0.0
  0
LINE
  5
1AD
  8
0
  6
CONTINUOUS
 62
     7
 10
-182.2681973908456
 20
90.96626908570373
 30
0.0
 11
-183.2638529961431
 21
90.96626908570373
 31
0.0
  0
LINE
  5
1AE
  8
0
  6
CONTINUOUS
 62
     7
 10
-137.2638529961431
 20
89.11269728518597
 30
0.0
 11
-137.2638529961431
 21
90.96626908570373
 31
0.0
  0
LINE
  5
1AF
  8
0
  6
CONTINUOUS
 62
     7
 10
-136.2681973908456
 20
90.96626908570373
 30
0.0
 11
-137.2638529961431
 21
90.96626908570373
 31
0.0
  0
LINE
  5
1B0
  8
0
  6
CONTINUOUS
 62
     7
 10
-176.2638529961431
 20
89.11269728518613
 30
0.0
 11
-176.2638529961431
 21
90.96626908570373
 31
0.0
  0
LINE
  5
1B1
  8
0
  6
CONTINUOUS
 62
     7
 10
-177.2595086014406
 20
90.96626908570373
 30
0.0
 11
-176.2638529961431
 21
90.96626908570373
 31
0.0
  0
LINE
  5
1B2
  8
0
  6
CONTINUOUS
 62
     7
 10
-130.2638529961431
 20
89.11269728518613
 30
0.0
 11
-130.2638529961431
 21
90.96626908570373
 31
0.0
  0
LINE
  5
1B3
  8
0
  6
CONTINUOUS
 62
     7
 10
-131.2595086014406
 20
90.96626908570373
 30
0.0
 11
-130.2638529961431
 21
90.96626908570373
 31
0.0
  0
LINE
  5
1B4
  8
0
  6
CONTINUOUS
 62
     7
 10
-116.2900335995154
 20
87.96626908570371
 30
0.0
 11
-116.2638529961431
 21
90.96626908570373
 31
0.0
  0
LINE
  5
1B5
  8
0
  6
CONTINUOUS
 62
     7
 10
-105.2638529961431
 20
90.96626908570373
 30
0.0
 11
-105.2376723927708
 21
87.96626908570371
 31
0.0
  0
LINE
  5
1B6
  8
0
  6
CONTINUOUS
 62
     7
 10
-151.2638529961431
 20
90.96626908570373
 30
0.0
 11
-151.2376723927708
 21
87.96626908570371
 31
0.0
  0
LINE
  5
1B7
  8
0
  6
CONTINUOUS
 62
     7
 10
-162.2900335995154
 20
87.96626908570371
 30
0.0
 11
-162.2638529961431
 21
90.96626908570373
 31
0.0
  0
LINE
  5
1B8
  8
0
  6
CONTINUOUS
 62
     7
 10
-197.2638529961431
 20
90.96626908570373
 30
0.0
 11
-197.2376723927708
 21
87.96626908570371
 31
0.0
  0
LINE
  5
1B9
  8
0
  6
CONTINUOUS
 62
     7
 10
-208.2900335995154
 20
87.96626908570371
 30
0.0
 11
-208.2638529961431
 21
90.96626908570373
 31
0.0
  0
LINE
  5
1BA
  8
0
  6
CONTINUOUS
 62
     7
 10
-232.6138529961431
 20
73.46626908570371
 30
0.0
 11
-232.6138529961431
 21
72.96626908570371
 31
0.0
  0
LINE
  5
1BB
  8
0
  6
CONTINUOUS
 62
     7
 10
-237.7638529961431
 20
72.96626908570371
 30
0.0
 11
-237.7638529961431
 21
73.46626908570371
 31
0.0
  0
LINE
  5
1BC
  8
0
  6
CONTINUOUS
 62
     7
 10
-237.7638529961431
 20
72.46626908570371
 30
0.0
 11
-237.7638529961431
 21
72.96626908570371
 31
0.0
  0
LINE
  5
1BD
  8
0
  6
CONTINUOUS
 62
     7
 10
-232.6138529961431
 20
81.46626908570371
 30
0.0
 11
-232.6138529961431
 21
80.96626908570371
 31
0.0
  0
LINE
  5
1BE
  8
0
  6
CONTINUOUS
 62
     7
 10
-237.7638529961431
 20
80.96626908570371
 30
0.0
 11
-237.7638529961431
 21
81.46626908570371
 31
0.0
  0
LINE
  5
1BF
  8
0
  6
CONTINUOUS
 62
     7
 10
-232.6138529961431
 20
78.46626908570371
 30
0.0
 11
-232.6138529961431
 21
77.96626908570371
 31
0.0
  0
LINE
  5
1C0
  8
0
  6
CONTINUOUS
 62
     7
 10
-232.6138529961431
 20
72.96626908570371
 30
0.0
 11
-232.6138529961431
 21
72.46626908570371
 31
0.0
  0
LINE
  5
1C1
  8
0
  6
CONTINUOUS
 62
     7
 10
-237.7638529961431
 20
77.96626908570371
 30
0.0
 11
-237.7638529961431
 21
78.46626908570371
 31
0.0
  0
LINE
  5
1C2
  8
0
  6
CONTINUOUS
 62
     7
 10
-75.7638529961431
 20
78.96626908570371
 30
0.0
 11
-75.76385299614309
 21
78.46626908570371
 31
0.0
  0
LINE
  5
1C3
  8
0
  6
CONTINUOUS
 62
     7
 10
-80.91385299614309
 20
80.96626908570371
 30
0.0
 11
-80.91385299614309
 21
81.46626908570371
 31
0.0
  0
LINE
  5
1C4
  8
0
  6
CONTINUOUS
 62
     7
 10
-75.76385299614309
 20
81.46626908570371
 30
0.0
 11
-75.76385299614309
 21
80.96626908570371
 31
0.0
  0
LINE
  5
1C5
  8
0
  6
CONTINUOUS
 62
     7
 10
-232.6138529961431
 20
76.46626908570373
 30
0.0
 11
-232.6138529961431
 21
75.96626908570373
 31
0.0
  0
LINE
  5
1C6
  8
0
  6
CONTINUOUS
 62
     7
 10
-237.7638529961431
 20
75.96626908570373
 30
0.0
 11
-237.7638529961431
 21
76.46626908570373
 31
0.0
  0
LINE
  5
1C7
  8
0
  6
CONTINUOUS
 62
     7
 10
-232.6138529961431
 20
75.96626908570373
 30
0.0
 11
-232.6138529961431
 21
75.46626908570373
 31
0.0
  0
LINE
  5
1C8
  8
0
  6
CONTINUOUS
 62
     7
 10
-237.7638529961431
 20
75.46626908570373
 30
0.0
 11
-237.7638529961431
 21
75.96626908570373
 31
0.0
  0
LINE
  5
1C9
  8
0
  6
CONTINUOUS
 62
     7
 10
-75.76385299614309
 20
72.96626908570371
 30
0.0
 11
-75.76385299614309
 21
72.46626908570371
 31
0.0
  0
LINE
  5
1CA
  8
0
  6
CONTINUOUS
 62
     7
 10
-237.7638529961431
 20
78.46626908570371
 30
0.0
 11
-237.7638529961431
 21
78.96626908570371
 31
0.0
  0
LINE
  5
1CB
  8
0
  6
CONTINUOUS
 62
     7
 10
-75.76385299614309
 20
78.46626908570371
 30
0.0
 11
-75.76385299614309
 21
77.96626908570371
 31
0.0
  0
LINE
  5
1CC
  8
0
  6
CONTINUOUS
 62
     7
 10
-232.6138529961431
 20
78.96626908570371
 30
0.0
 11
-232.6138529961431
 21
78.46626908570371
 31
0.0
  0
LINE
  5
1CD
  8
0
  6
CONTINUOUS
 62
     7
 10
-80.91385299614309
 20
72.96626908570371
 30
0.0
 11
-80.91385299614309
 21
73.46626908570371
 31
0.0
  0
LINE
  5
1CE
  8
0
  6
CONTINUOUS
 62
     7
 10
-75.7638529961431
 20
73.46626908570371
 30
0.0
 11
-75.76385299614309
 21
72.96626908570371
 31
0.0
  0
LINE
  5
1CF
  8
0
  6
CONTINUOUS
 62
     7
 10
-80.91385299614309
 20
75.46626908570373
 30
0.0
 11
-80.91385299614309
 21
75.96626908570373
 31
0.0
  0
LINE
  5
1D0
  8
0
  6
CONTINUOUS
 62
     7
 10
-75.76385299614309
 20
75.96626908570373
 30
0.0
 11
-75.76385299614309
 21
75.46626908570373
 31
0.0
  0
LINE
  5
1D1
  8
0
  6
CONTINUOUS
 62
     7
 10
-80.91385299614309
 20
77.96626908570371
 30
0.0
 11
-80.91385299614309
 21
78.46626908570371
 31
0.0
  0
LINE
  5
1D2
  8
0
  6
CONTINUOUS
 62
     7
 10
-232.6138529961431
 20
81.96626908570371
 30
0.0
 11
-232.6138529961431
 21
81.46626908570371
 31
0.0
  0
LINE
  5
1D3
  8
0
  6
CONTINUOUS
 62
     7
 10
-237.7638529961431
 20
81.46626908570371
 30
0.0
 11
-237.7638529961431
 21
81.96626908570371
 31
0.0
  0
LINE
  5
1D4
  8
0
  6
CONTINUOUS
 62
     7
 10
-80.91385299614309
 20
75.96626908570373
 30
0.0
 11
-80.91385299614309
 21
76.46626908570373
 31
0.0
  0
LINE
  5
1D5
  8
0
  6
CONTINUOUS
 62
     7
 10
-75.7638529961431
 20
76.46626908570373
 30
0.0
 11
-75.76385299614309
 21
75.96626908570373
 31
0.0
  0
LINE
  5
1D6
  8
0
  6
CONTINUOUS
 62
     7
 10
-80.91385299614309
 20
81.46626908570371
 30
0.0
 11
-80.91385299614309
 21
81.96626908570371
 31
0.0
  0
LINE
  5
1D7
  8
0
  6
CONTINUOUS
 62
     7
 10
-75.7638529961431
 20
81.96626908570371
 30
0.0
 11
-75.76385299614309
 21
81.46626908570371
 31
0.0
  0
LINE
  5
1D8
  8
0
  6
CONTINUOUS
 62
     7
 10
-80.91385299614309
 20
72.46626908570371
 30
0.0
 11
-80.91385299614309
 21
72.96626908570371
 31
0.0
  0
LINE
  5
1D9
  8
0
  6
CONTINUOUS
 62
     7
 10
-80.91385299614309
 20
78.46626908570371
 30
0.0
 11
-80.91385299614309
 21
78.96626908570371
 31
0.0
  0
LINE
  5
1DA
  8
0
  6
CONTINUOUS
 62
     7
 10
-180.7638529961431
 20
59.1072395339085
 30
0.0
 11
-180.7638529961431
 21
59.00478768888802
 31
0.0
  0
POLYLINE
  5
1DB
  8
0
  6
CONTINUOUS
 62
     7
 66
     1
 10
0.0
 20
0.0
 30
0.0
  0
VERTEX
  5
337
  8
0
  6
CONTINUOUS
 62
     7
 10
-83.03517333970272
 20
57.96626908570374
 30
0.0
  0
VERTEX
  5
338
  8
0
  6
CONTINUOUS
 62
     7
 10
-82.6213242707783
 20
57.99509116509889
 30
0.0
  0
VERTEX
  5
339
  8
0
  6
CONTINUOUS
 62
     7
 10
-82.22337918948342
 20
58.08044978693681
 30
0.0
  0
VERTEX
  5
33A
  8
0
  6
CONTINUOUS
 62
     7
 10
-81.85663090212208
 20
58.21906466724992
 30
0.0
  0
VERTEX
  5
33B
  8
0
  6
CONTINUOUS
 62
     7
 10
-81.53517333970272
 20
58.40560891392392
 30
0.0
  0
VERTEX
  5
33C
  8
0
  6
CONTINUOUS
 62
     7
 10
-81.2713599360737
 20
58.63291373617434
 30
0.0
  0
VERTEX
  5
33D
  8
0
  6
CONTINUOUS
 62
     7
 10
-81.07532889238817
 20
58.8922439371561
 30
0.0
  0
VERTEX
  5
33E
  8
0
  6
CONTINUOUS
 62
     7
 10
-80.9546135717195
 20
59.17363360267954
 30
0.0
  0
VERTEX
  5
33F
  8
0
  6
CONTINUOUS
 62
     7
 10
-80.91385299614309
 20
59.46626908570374
 30
0.0
  0
SEQEND
  5
40E
  8
0
  6
CONTINUOUS
 62
     7
  0
LINE
  5
1DC
  8
0
  6
CONTINUOUS
 62
     7
 10
-80.91385299614309
 20
72.46626908570371
 30
0.0
 11
-80.91385299614309
 21
59.46626908570374
 31
0.0
  0
ARC
  5
1DD
  8
0
  6
CONTINUOUS
 62
     7
 10
-76.76385299614309
 20
55.96626908570373
 30
0.0
 40
1.000000000000001
 50
270.0
 51
0.0000000000011937
  0
LINE
  5
1DE
  8
0
  6
CONTINUOUS
 62
     7
 10
-75.7638529961431
 20
72.46626908570371
 30
0.0
 11
-75.7638529961431
 21
55.96626908570375
 31
0.0
  0
LINE
  5
1DF
  8
0
  6
CONTINUOUS
 62
     7
 10
-83.2638529961431
 20
54.96626908570373
 30
0.0
 11
-76.76385299614309
 21
54.96626908570373
 31
0.0
  0
LINE
  5
1E0
  8
0
  6
CONTINUOUS
 62
     7
 10
-80.91385299614309
 20
84.46626908570371
 30
0.0
 11
-80.91385299614309
 21
81.96626908570371
 31
0.0
  0
POLYLINE
  5
1E1
  8
0
  6
CONTINUOUS
 62
     7
 66
     1
 10
0.0
 20
0.0
 30
0.0
  0
VERTEX
  5
340
  8
0
  6
CONTINUOUS
 62
     7
 10
-80.91385299614309
 20
84.46626908570371
 30
0.0
  0
VERTEX
  5
341
  8
0
  6
CONTINUOUS
 62
     7
 10
-80.9546135717195
 20
84.75890456872791
 30
0.0
  0
VERTEX
  5
342
  8
0
  6
CONTINUOUS
 62
     7
 10
-81.07532889238817
 20
85.04029423425135
 30
0.0
  0
VERTEX
  5
343
  8
0
  6
CONTINUOUS
 62
     7
 10
-81.2713599360737
 20
85.29962443523313
 30
0.0
  0
VERTEX
  5
344
  8
0
  6
CONTINUOUS
 62
     7
 10
-81.53517333970274
 20
85.52692925748354
 30
0.0
  0
VERTEX
  5
345
  8
0
  6
CONTINUOUS
 62
     7
 10
-81.85663090212209
 20
85.71347350415753
 30
0.0
  0
VERTEX
  5
346
  8
0
  6
CONTINUOUS
 62
     7
 10
-82.22337918948345
 20
85.85208838447065
 30
0.0
  0
VERTEX
  5
347
  8
0
  6
CONTINUOUS
 62
     7
 10
-82.62132427077833
 20
85.93744700630856
 30
0.0
  0
VERTEX
  5
348
  8
0
  6
CONTINUOUS
 62
     7
 10
-83.03517333970275
 20
85.96626908570371
 30
0.0
  0
SEQEND
  5
40F
  8
0
  6
CONTINUOUS
 62
     7
  0
LINE
  5
1E2
  8
0
  6
CONTINUOUS
 62
     7
 10
-75.76385299614306
 20
88.46626908570371
 30
0.0
 11
-75.7638529961431
 21
81.96626908570371
 31
0.0
  0
LINE
  5
1E3
  8
0
  6
CONTINUOUS
 62
     7
 10
-80.91385299614309
 20
80.96626908570371
 30
0.0
 11
-80.91385299614309
 21
78.96626908570371
 31
0.0
  0
LINE
  5
1E4
  8
0
  6
CONTINUOUS
 62
     7
 10
-80.91385299614309
 20
77.96626908570371
 30
0.0
 11
-80.91385299614309
 21
76.46626908570371
 31
0.0
  0
LINE
  5
1E5
  8
0
  6
CONTINUOUS
 62
     7
 10
-80.91385299614309
 20
75.46626908570373
 30
0.0
 11
-80.91385299614309
 21
73.46626908570371
 31
0.0
  0
LINE
  5
1E6
  8
0
  6
CONTINUOUS
 62
     7
 10
-83.68874933155199
 20
59.46626908570374
 30
0.0
 11
-83.47057763678302
 21
84.46626908570373
 31
0.0
  0
LINE
  5
1E7
  8
0
  6
CONTINUOUS
 62
     7
 10
-75.7638529961431
 20
75.46626908570373
 30
0.0
 11
-75.7638529961431
 21
73.46626908570371
 31
0.0
  0
LINE
  5
1E8
  8
0
  6
CONTINUOUS
 62
     7
 10
-75.7638529961431
 20
77.96626908570371
 30
0.0
 11
-75.7638529961431
 21
76.4662690857037
 31
0.0
  0
LINE
  5
1E9
  8
0
  6
CONTINUOUS
 62
     7
 10
-75.7638529961431
 20
80.96626908570371
 30
0.0
 11
-75.7638529961431
 21
78.9662690857037
 31
0.0
  0
LINE
  5
1EA
  8
0
  6
CONTINUOUS
 62
     7
 10
-83.45748733509689
 20
85.96626908570371
 30
0.0
 11
-83.47057763678303
 21
84.46626908570371
 31
0.0
  0
LINE
  5
1EB
  8
0
  6
CONTINUOUS
 62
     7
 10
-83.688749331552
 20
59.46626908570375
 30
0.0
 11
-83.70183963323814
 21
57.96626908570374
 31
0.0
  0
POLYLINE
  5
1EC
  8
0
  6
CONTINUOUS
 62
     7
 66
     1
 10
0.0
 20
0.0
 30
0.0
  0
VERTEX
  5
349
  8
0
  6
CONTINUOUS
 62
     7
 10
-230.4925326525835
 20
85.96626908570371
 30
0.0
  0
VERTEX
  5
34A
  8
0
  6
CONTINUOUS
 62
     7
 10
-230.9063817215079
 20
85.93744700630856
 30
0.0
  0
VERTEX
  5
34B
  8
0
  6
CONTINUOUS
 62
     7
 10
-231.3043268028028
 20
85.85208838447065
 30
0.0
  0
VERTEX
  5
34C
  8
0
  6
CONTINUOUS
 62
     7
 10
-231.6710750901641
 20
85.71347350415753
 30
0.0
  0
VERTEX
  5
34D
  8
0
  6
CONTINUOUS
 62
     7
 10
-231.9925326525835
 20
85.52692925748353
 30
0.0
  0
VERTEX
  5
34E
  8
0
  6
CONTINUOUS
 62
     7
 10
-232.2563460562125
 20
85.29962443523311
 30
0.0
  0
VERTEX
  5
34F
  8
0
  6
CONTINUOUS
 62
     7
 10
-232.4523770998981
 20
85.04029423425135
 30
0.0
  0
VERTEX
  5
350
  8
0
  6
CONTINUOUS
 62
     7
 10
-232.5730924205667
 20
84.7589045687279
 30
0.0
  0
VERTEX
  5
351
  8
0
  6
CONTINUOUS
 62
     7
 10
-232.6138529961431
 20
84.46626908570371
 30
0.0
  0
SEQEND
  5
410
  8
0
  6
CONTINUOUS
 62
     7
  0
LINE
  5
1ED
  8
0
  6
CONTINUOUS
 62
     7
 10
-232.6138529961431
 20
81.96626908570371
 30
0.0
 11
-232.6138529961431
 21
84.46626908570373
 31
0.0
  0
LINE
  5
1EE
  8
0
  6
CONTINUOUS
 62
     7
 10
-237.7638529961431
 20
88.46626908570371
 30
0.0
 11
-237.7638529961431
 21
81.96626908570373
 31
0.0
  0
LINE
  5
1EF
  8
0
  6
CONTINUOUS
 62
     7
 10
-232.6138529961431
 20
78.96626908570371
 30
0.0
 11
-232.6138529961431
 21
80.96626908570373
 31
0.0
  0
LINE
  5
1F0
  8
0
  6
CONTINUOUS
 62
     7
 10
-237.7638529961431
 20
80.96626908570371
 30
0.0
 11
-237.7638529961431
 21
78.96626908570371
 31
0.0
  0
LINE
  5
1F1
  8
0
  6
CONTINUOUS
 62
     7
 10
-232.6138529961431
 20
59.46626908570374
 30
0.0
 11
-232.6138529961431
 21
72.46626908570371
 31
0.0
  0
POLYLINE
  5
1F2
  8
0
  6
CONTINUOUS
 62
     7
 66
     1
 10
0.0
 20
0.0
 30
0.0
  0
VERTEX
  5
352
  8
0
  6
CONTINUOUS
 62
     7
 10
-232.6138529961431
 20
59.46626908570374
 30
0.0
  0
VERTEX
  5
353
  8
0
  6
CONTINUOUS
 62
     7
 10
-232.5730924205667
 20
59.17363360267954
 30
0.0
  0
VERTEX
  5
354
  8
0
  6
CONTINUOUS
 62
     7
 10
-232.452377099898
 20
58.8922439371561
 30
0.0
  0
VERTEX
  5
355
  8
0
  6
CONTINUOUS
 62
     7
 10
-232.2563460562125
 20
58.63291373617433
 30
0.0
  0
VERTEX
  5
356
  8
0
  6
CONTINUOUS
 62
     7
 10
-231.9925326525835
 20
58.40560891392391
 30
0.0
  0
VERTEX
  5
357
  8
0
  6
CONTINUOUS
 62
     7
 10
-231.6710750901641
 20
58.21906466724992
 30
0.0
  0
VERTEX
  5
358
  8
0
  6
CONTINUOUS
 62
     7
 10
-231.3043268028028
 20
58.0804497869368
 30
0.0
  0
VERTEX
  5
359
  8
0
  6
CONTINUOUS
 62
     7
 10
-230.9063817215079
 20
57.99509116509889
 30
0.0
  0
VERTEX
  5
35A
  8
0
  6
CONTINUOUS
 62
     7
 10
-230.4925326525835
 20
57.96626908570374
 30
0.0
  0
SEQEND
  5
411
  8
0
  6
CONTINUOUS
 62
     7
  0
ARC
  5
1F3
  8
0
  6
CONTINUOUS
 62
     7
 10
-236.7638529961431
 20
55.96626908570373
 30
0.0
 40
1.000000000000001
 50
179.9999999999988
 51
270.0
  0
LINE
  5
1F4
  8
0
  6
CONTINUOUS
 62
     7
 10
-237.7638529961431
 20
72.46626908570371
 30
0.0
 11
-237.7638529961431
 21
55.96626908570375
 31
0.0
  0
LINE
  5
1F5
  8
0
  6
CONTINUOUS
 62
     7
 10
-230.2638529961431
 20
54.96626908570373
 30
0.0
 11
-236.7638529961431
 21
54.96626908570373
 31
0.0
  0
LINE
  5
1F6
  8
0
  6
CONTINUOUS
 62
     7
 10
-232.6138529961431
 20
76.46626908570371
 30
0.0
 11
-232.6138529961431
 21
77.96626908570373
 31
0.0
  0
LINE
  5
1F7
  8
0
  6
CONTINUOUS
 62
     7
 10
-237.7638529961431
 20
77.96626908570371
 30
0.0
 11
-237.7638529961431
 21
76.46626908570371
 31
0.0
  0
LINE
  5
1F8
  8
0
  6
CONTINUOUS
 62
     7
 10
-232.6138529961431
 20
73.4662690857037
 30
0.0
 11
-232.6138529961431
 21
75.46626908570373
 31
0.0
  0
LINE
  5
1F9
  8
0
  6
CONTINUOUS
 62
     7
 10
-237.7638529961431
 20
75.46626908570373
 30
0.0
 11
-237.7638529961431
 21
73.46626908570371
 31
0.0
  0
LINE
  5
1FA
  8
0
  6
CONTINUOUS
 62
     7
 10
-230.0571283555032
 20
84.46626908570371
 30
0.0
 11
-229.8389566607342
 21
59.46626908570374
 31
0.0
  0
LINE
  5
1FB
  8
0
  6
CONTINUOUS
 62
     7
 10
-229.825866359048
 20
57.96626908570374
 30
0.0
 11
-229.8389566607342
 21
59.46626908570374
 31
0.0
  0
LINE
  5
1FC
  8
0
  6
CONTINUOUS
 62
     7
 10
-230.0571283555032
 20
84.46626908570371
 30
0.0
 11
-230.0702186571893
 21
85.96626908570371
 31
0.0
  0
ENDBLK
  8
0
  0
BLOCK
  8
0
  2
D_FRAME_VIEW_1489
 70
     0
 10
0.0
 20
0.0
 30
0.0
  0
LINE
  5
201
  8
0
  6
CONTINUOUS
 62
     7
 10
-130.4638529961431
 20
127.4858201594349
 30
0.0
 11
-75.76385299614309
 21
127.4858201594349
 31
0.0
  0
LINE
  5
202
  8
0
  6
CONTINUOUS
 62
     7
 10
-237.7638529961431
 20
139.485820159435
 30
0.0
 11
-237.7638529961431
 21
127.485820159435
 31
0.0
  0
LINE
  5
203
  8
0
  6
CONTINUOUS
 62
     7
 10
-237.7638529961431
 20
139.485820159435
 30
0.0
 11
-75.76385299614307
 21
139.485820159435
 31
0.0
  0
LINE
  5
204
  8
0
  6
CONTINUOUS
 62
     7
 10
-75.76385299614309
 20
139.485820159435
 30
0.0
 11
-75.76385299614309
 21
127.4858201594349
 31
0.0
  0
LINE
  5
205
  8
0
  6
CONTINUOUS
 62
     7
 10
-75.76385299614309
 20
210.985820159435
 30
0.0
 11
-237.7638529961431
 21
210.985820159435
 31
0.0
  0
LINE
  5
206
  8
0
  6
CONTINUOUS
 62
     7
 10
-75.76385299614309
 20
222.9858201594349
 30
0.0
 11
-75.76385299614309
 21
210.985820159435
 31
0.0
  0
LINE
  5
207
  8
0
  6
CONTINUOUS
 62
     7
 10
-75.76385299614309
 20
222.9858201594349
 30
0.0
 11
-130.4638529961431
 21
222.985820159435
 31
0.0
  0
LINE
  5
208
  8
0
  6
CONTINUOUS
 62
     7
 10
-237.7638529961431
 20
222.985820159435
 30
0.0
 11
-237.7638529961431
 21
210.985820159435
 31
0.0
  0
LINE
  5
209
  8
0
  6
CONTINUOUS
 62
     7
 10
-180.7638529961431
 20
139.485820159435
 30
0.0
 11
-180.7638529961431
 21
210.985820159435
 31
0.0
  0
LINE
  5
20A
  8
0
  6
CONTINUOUS
 62
     7
 10
-178.7638529961431
 20
139.485820159435
 30
0.0
 11
-178.7638529961431
 21
210.985820159435
 31
0.0
  0
LINE
  5
20B
  8
0
  6
CONTINUOUS
 62
     7
 10
-237.7638529961431
 20
164.235820159435
 30
0.0
 11
-243.0359309347852
 21
164.235820159435
 31
0.0
  0
LINE
  5
20C
  8
0
  6
CONTINUOUS
 62
     7
 10
-237.7638529961431
 20
164.235820159435
 30
0.0
 11
-237.7638529961431
 21
164.3239836497892
 31
0.0
  0
LINE
  5
20D
  8
0
  6
CONTINUOUS
 62
     7
 10
-235.1756895057889
 20
164.3239836497892
 30
0.0
 11
-237.7638529961431
 21
164.3239836497892
 31
0.0
  0
LINE
  5
20E
  8
0
  6
CONTINUOUS
 62
     7
 10
-246.763852996143
 20
195.235820159435
 30
0.0
 11
-255.7638529961431
 21
186.2358201594349
 31
0.0
  0
LINE
  5
20F
  8
0
  6
CONTINUOUS
 62
     7
 10
-246.7638529961431
 20
182.5078980980771
 30
0.0
 11
-243.0359309347852
 21
186.235820159435
 31
0.0
  0
LINE
  5
210
  8
0
  6
CONTINUOUS
 62
     7
 10
-243.0359309347852
 20
164.235820159435
 30
0.0
 11
-246.7638529961431
 21
167.9637422207929
 31
0.0
  0
LINE
  5
211
  8
0
  6
CONTINUOUS
 62
     7
 10
-255.7638529961431
 20
164.235820159435
 30
0.0
 11
-246.763852996143
 21
155.235820159435
 31
0.0
  0
LINE
  5
212
  8
0
  6
CONTINUOUS
 62
     7
 10
-237.7638529961431
 20
186.1476566690807
 30
0.0
 11
-235.1756895057889
 21
186.1476566690807
 31
0.0
  0
LINE
  5
213
  8
0
  6
CONTINUOUS
 62
     7
 10
-237.7638529961431
 20
186.235820159435
 30
0.0
 11
-237.7638529961431
 21
186.1476566690807
 31
0.0
  0
LINE
  5
214
  8
0
  6
CONTINUOUS
 62
     7
 10
-243.0359309347852
 20
186.235820159435
 30
0.0
 11
-237.7638529961431
 21
186.235820159435
 31
0.0
  0
LINE
  5
215
  8
0
  6
CONTINUOUS
 62
     7
 10
-255.7638529961431
 20
186.2358201594349
 30
0.0
 11
-255.7638529961431
 21
183.235820159435
 31
0.0
  0
LINE
  5
216
  8
0
  6
CONTINUOUS
 62
     7
 10
-255.7638529961431
 20
167.235820159435
 30
0.0
 11
-255.7638529961431
 21
164.235820159435
 31
0.0
  0
LINE
  5
217
  8
0
  6
CONTINUOUS
 62
     7
 10
-237.7638529961431
 20
155.1476566690807
 30
0.0
 11
-235.1756895057889
 21
155.1476566690807
 31
0.0
  0
LINE
  5
218
  8
0
  6
CONTINUOUS
 62
     7
 10
-237.7638529961431
 20
155.235820159435
 30
0.0
 11
-237.7638529961431
 21
155.1476566690807
 31
0.0
  0
LINE
  5
219
  8
0
  6
CONTINUOUS
 62
     7
 10
-246.763852996143
 20
155.235820159435
 30
0.0
 11
-237.7638529961431
 21
155.235820159435
 31
0.0
  0
LINE
  5
21A
  8
0
  6
CONTINUOUS
 62
     7
 10
-237.7638529961431
 20
195.235820159435
 30
0.0
 11
-246.763852996143
 21
195.235820159435
 31
0.0
  0
LINE
  5
21B
  8
0
  6
CONTINUOUS
 62
     7
 10
-237.7638529961431
 20
195.235820159435
 30
0.0
 11
-237.7638529961431
 21
195.3239836497892
 31
0.0
  0
LINE
  5
21C
  8
0
  6
CONTINUOUS
 62
     7
 10
-235.1756895057889
 20
195.3239836497892
 30
0.0
 11
-237.7638529961431
 21
195.3239836497892
 31
0.0
  0
LINE
  5
21D
  8
0
  6
CONTINUOUS
 62
     7
 10
-235.1756895057889
 20
186.1476566690807
 30
0.0
 11
-235.1756895057889
 21
195.3239836497892
 31
0.0
  0
LINE
  5
21E
  8
0
  6
CONTINUOUS
 62
     7
 10
-235.1756895057889
 20
155.1476566690807
 30
0.0
 11
-235.1756895057889
 21
164.3239836497892
 31
0.0
  0
LINE
  5
21F
  8
0
  6
CONTINUOUS
 62
     7
 10
-247.0283434672058
 20
179.735820159435
 30
0.0
 11
-246.9401799768515
 21
180.235820159435
 31
0.0
  0
LINE
  5
220
  8
0
  6
CONTINUOUS
 62
     7
 10
-247.0283434672058
 20
170.735820159435
 30
0.0
 11
-247.0283434672058
 21
179.735820159435
 31
0.0
  0
LINE
  5
221
  8
0
  6
CONTINUOUS
 62
     7
 10
-246.9401799768515
 20
170.235820159435
 30
0.0
 11
-247.0283434672058
 21
170.735820159435
 31
0.0
  0
LINE
  5
222
  8
0
  6
CONTINUOUS
 62
     7
 10
-246.8520164864973
 20
170.235820159435
 30
0.0
 11
-246.9401799768515
 21
170.235820159435
 31
0.0
  0
LINE
  5
223
  8
0
  6
CONTINUOUS
 62
     7
 10
-246.7638529961431
 20
169.735820159435
 30
0.0
 11
-246.8520164864973
 21
170.235820159435
 31
0.0
  0
LINE
  5
224
  8
0
  6
CONTINUOUS
 62
     7
 10
-246.7638529961431
 20
167.9637422207929
 30
0.0
 11
-246.7638529961431
 21
169.735820159435
 31
0.0
  0
LINE
  5
225
  8
0
  6
CONTINUOUS
 62
     7
 10
-246.7638529961431
 20
180.735820159435
 30
0.0
 11
-246.7638529961431
 21
182.5078980980771
 31
0.0
  0
LINE
  5
226
  8
0
  6
CONTINUOUS
 62
     7
 10
-246.8520164864973
 20
180.235820159435
 30
0.0
 11
-246.7638529961431
 21
180.735820159435
 31
0.0
  0
LINE
  5
227
  8
0
  6
CONTINUOUS
 62
     7
 10
-246.8520164864973
 20
180.235820159435
 30
0.0
 11
-246.9401799768515
 21
180.235820159435
 31
0.0
  0
POLYLINE
  5
228
  8
0
  6
CONTINUOUS
 62
     7
 66
     1
 10
0.0
 20
0.0
 30
0.0
  0
VERTEX
  5
35D
  8
0
  6
CONTINUOUS
 62
     7
 10
-255.7638529961431
 20
183.235820159435
 30
0.0
  0
VERTEX
  5
35E
  8
0
  6
CONTINUOUS
 62
     7
 10
-255.7631352364456
 20
183.2112863222713
 30
0.0
  0
VERTEX
  5
35F
  8
0
  6
CONTINUOUS
 62
     7
 10
-255.7609836864992
 20
183.1868115892702
 30
0.0
  0
VERTEX
  5
360
  8
0
  6
CONTINUOUS
 62
     7
 10
-255.7574035295762
 20
183.1624549222073
 30
0.0
  0
VERTEX
  5
361
  8
0
  6
CONTINUOUS
 62
     7
 10
-255.752403390588
 20
183.1382749984269
 30
0.0
  0
VERTEX
  5
362
  8
0
  6
CONTINUOUS
 62
     7
 10
-255.7459953153076
 20
183.1143300694833
 30
0.0
  0
VERTEX
  5
363
  8
0
  6
CONTINUOUS
 62
     7
 10
-255.7381947413496
 20
183.0906778208077
 30
0.0
  0
VERTEX
  5
364
  8
0
  6
CONTINUOUS
 62
     7
 10
-255.7290204609798
 20
183.0673752327389
 30
0.0
  0
VERTEX
  5
365
  8
0
  6
CONTINUOUS
 62
     7
 10
-255.7184945758433
 20
183.0444784432524
 30
0.0
  0
VERTEX
  5
366
  8
0
  6
CONTINUOUS
 62
     7
 10
-255.7066424437193
 20
183.0220426127198
 30
0.0
  0
VERTEX
  5
367
  8
0
  6
CONTINUOUS
 62
     7
 10
-255.6934926174322
 20
183.000121791022
 30
0.0
  0
VERTEX
  5
368
  8
0
  6
CONTINUOUS
 62
     7
 10
-255.6790767760653
 20
182.9787687873383
 30
0.0
  0
VERTEX
  5
369
  8
0
  6
CONTINUOUS
 62
     7
 10
-255.6634296486432
 20
182.9580350429252
 30
0.0
  0
VERTEX
  5
36A
  8
0
  6
CONTINUOUS
 62
     7
 10
-255.6465889304664
 20
182.9379705071887
 30
0.0
  0
VERTEX
  5
36B
  8
0
  6
CONTINUOUS
 62
     7
 10
-255.6285951923
 20
182.9186235173531
 30
0.0
  0
VERTEX
  5
36C
  8
0
  6
CONTINUOUS
 62
     7
 10
-255.6094917826352
 20
182.9000406820115
 30
0.0
  0
VERTEX
  5
36D
  8
0
  6
CONTINUOUS
 62
     7
 10
-255.5893247232594
 20
182.8822667688417
 30
0.0
  0
VERTEX
  5
36E
  8
0
  6
CONTINUOUS
 62
     7
 10
-255.5681425983848
 20
182.8653445967575
 30
0.0
  0
VERTEX
  5
36F
  8
0
  6
CONTINUOUS
 62
     7
 10
-255.5459964376058
 20
182.8493149327536
 30
0.0
  0
VERTEX
  5
370
  8
0
  6
CONTINUOUS
 62
     7
 10
-255.5229395929634
 20
182.8342163936946
 30
0.0
  0
VERTEX
  5
371
  8
0
  6
CONTINUOUS
 62
     7
 10
-255.4990276104158
 20
182.8200853532837
 30
0.0
  0
VERTEX
  5
372
  8
0
  6
CONTINUOUS
 62
     7
 10
-255.4743180960234
 20
182.8069558544348
 30
0.0
  0
VERTEX
  5
373
  8
0
  6
CONTINUOUS
 62
     7
 10
-255.4488705771707
 20
182.7948595272608
 30
0.0
  0
VERTEX
  5
374
  8
0
  6
CONTINUOUS
 62
     7
 10
-255.4227463591597
 20
182.7838255128732
 30
0.0
  0
VERTEX
  5
375
  8
0
  6
CONTINUOUS
 62
     7
 10
-255.3960083775196
 20
182.7738803931793
 30
0.0
  0
VERTEX
  5
376
  8
0
  6
CONTINUOUS
 62
     7
 10
-255.3687210463903
 20
182.7650481268435
 30
0.0
  0
VERTEX
  5
377
  8
0
  6
CONTINUOUS
 62
     7
 10
-255.3409501033425
 20
182.7573499915689
 30
0.0
  0
VERTEX
  5
378
  8
0
  6
CONTINUOUS
 62
     7
 10
-255.3127624510104
 20
182.7508045328377
 30
0.0
  0
VERTEX
  5
379
  8
0
  6
CONTINUOUS
 62
     7
 10
-255.2842259959175
 20
182.7454275192333
 30
0.0
  0
VERTEX
  5
37A
  8
0
  6
CONTINUOUS
 62
     7
 10
-255.2554094848836
 20
182.7412319044526
 30
0.0
  0
VERTEX
  5
37B
  8
0
  6
CONTINUOUS
 62
     7
 10
-255.2263823394077
 20
182.7382277960988
 30
0.0
  0
VERTEX
  5
37C
  8
0
  6
CONTINUOUS
 62
     7
 10
-255.1972144884259
 20
182.7364224313324
 30
0.0
  0
VERTEX
  5
37D
  8
0
  6
CONTINUOUS
 62
     7
 10
-255.167976199846
 20
182.735820159435
 30
0.0
  0
SEQEND
  5
412
  8
0
  6
CONTINUOUS
 62
     7
  0
LINE
  5
229
  8
0
  6
CONTINUOUS
 62
     7
 10
-255.0432356438724
 20
183.235820159435
 30
0.0
 11
-255.0508317673664
 21
183.1489960706015
 31
0.0
  0
LINE
  5
22A
  8
0
  6
CONTINUOUS
 62
     7
 10
-255.0508317673664
 20
182.735820159435
 30
0.0
 11
-255.167976199846
 21
182.735820159435
 31
0.0
  0
POLYLINE
  5
22B
  8
0
  6
CONTINUOUS
 62
     7
 66
     1
 10
0.0
 20
0.0
 30
0.0
  0
VERTEX
  5
37E
  8
0
  6
CONTINUOUS
 62
     7
 10
-255.7638529961431
 20
167.235820159435
 30
0.0
  0
VERTEX
  5
37F
  8
0
  6
CONTINUOUS
 62
     7
 10
-255.7631352364456
 20
167.2603539965987
 30
0.0
  0
VERTEX
  5
380
  8
0
  6
CONTINUOUS
 62
     7
 10
-255.7609836864992
 20
167.2848287295997
 30
0.0
  0
VERTEX
  5
381
  8
0
  6
CONTINUOUS
 62
     7
 10
-255.7574035295762
 20
167.3091853966627
 30
0.0
  0
VERTEX
  5
382
  8
0
  6
CONTINUOUS
 62
     7
 10
-255.752403390588
 20
167.333365320443
 30
0.0
  0
VERTEX
  5
383
  8
0
  6
CONTINUOUS
 62
     7
 10
-255.7459953153076
 20
167.3573102493866
 30
0.0
  0
VERTEX
  5
384
  8
0
  6
CONTINUOUS
 62
     7
 10
-255.7381947413496
 20
167.3809624980622
 30
0.0
  0
VERTEX
  5
385
  8
0
  6
CONTINUOUS
 62
     7
 10
-255.7290204609798
 20
167.4042650861311
 30
0.0
  0
VERTEX
  5
386
  8
0
  6
CONTINUOUS
 62
     7
 10
-255.7184945758433
 20
167.4271618756175
 30
0.0
  0
VERTEX
  5
387
  8
0
  6
CONTINUOUS
 62
     7
 10
-255.7066424437193
 20
167.4495977061501
 30
0.0
  0
VERTEX
  5
388
  8
0
  6
CONTINUOUS
 62
     7
 10
-255.6934926174322
 20
167.471518527848
 30
0.0
  0
VERTEX
  5
389
  8
0
  6
CONTINUOUS
 62
     7
 10
-255.6790767760653
 20
167.4928715315316
 30
0.0
  0
VERTEX
  5
38A
  8
0
  6
CONTINUOUS
 62
     7
 10
-255.6634296486432
 20
167.5136052759448
 30
0.0
  0
VERTEX
  5
38B
  8
0
  6
CONTINUOUS
 62
     7
 10
-255.6465889304664
 20
167.5336698116812
 30
0.0
  0
VERTEX
  5
38C
  8
0
  6
CONTINUOUS
 62
     7
 10
-255.6285951923
 20
167.5530168015168
 30
0.0
  0
VERTEX
  5
38D
  8
0
  6
CONTINUOUS
 62
     7
 10
-255.6094917826352
 20
167.5715996368585
 30
0.0
  0
VERTEX
  5
38E
  8
0
  6
CONTINUOUS
 62
     7
 10
-255.5893247232594
 20
167.5893735500282
 30
0.0
  0
VERTEX
  5
38F
  8
0
  6
CONTINUOUS
 62
     7
 10
-255.5681425983848
 20
167.6062957221124
 30
0.0
  0
VERTEX
  5
390
  8
0
  6
CONTINUOUS
 62
     7
 10
-255.5459964376058
 20
167.6223253861163
 30
0.0
  0
VERTEX
  5
391
  8
0
  6
CONTINUOUS
 62
     7
 10
-255.5229395929634
 20
167.6374239251753
 30
0.0
  0
VERTEX
  5
392
  8
0
  6
CONTINUOUS
 62
     7
 10
-255.4990276104158
 20
167.6515549655862
 30
0.0
  0
VERTEX
  5
393
  8
0
  6
CONTINUOUS
 62
     7
 10
-255.4743180960234
 20
167.6646844644351
 30
0.0
  0
VERTEX
  5
394
  8
0
  6
CONTINUOUS
 62
     7
 10
-255.4488705771707
 20
167.6767807916091
 30
0.0
  0
VERTEX
  5
395
  8
0
  6
CONTINUOUS
 62
     7
 10
-255.4227463591597
 20
167.6878148059967
 30
0.0
  0
VERTEX
  5
396
  8
0
  6
CONTINUOUS
 62
     7
 10
-255.3960083775196
 20
167.6977599256906
 30
0.0
  0
VERTEX
  5
397
  8
0
  6
CONTINUOUS
 62
     7
 10
-255.3687210463903
 20
167.7065921920264
 30
0.0
  0
VERTEX
  5
398
  8
0
  6
CONTINUOUS
 62
     7
 10
-255.3409501033425
 20
167.7142903273011
 30
0.0
  0
VERTEX
  5
399
  8
0
  6
CONTINUOUS
 62
     7
 10
-255.3127624510104
 20
167.7208357860322
 30
0.0
  0
VERTEX
  5
39A
  8
0
  6
CONTINUOUS
 62
     7
 10
-255.2842259959175
 20
167.7262127996366
 30
0.0
  0
VERTEX
  5
39B
  8
0
  6
CONTINUOUS
 62
     7
 10
-255.2554094848836
 20
167.7304084144174
 30
0.0
  0
VERTEX
  5
39C
  8
0
  6
CONTINUOUS
 62
     7
 10
-255.2263823394077
 20
167.7334125227711
 30
0.0
  0
VERTEX
  5
39D
  8
0
  6
CONTINUOUS
 62
     7
 10
-255.1972144884259
 20
167.7352178875376
 30
0.0
  0
VERTEX
  5
39E
  8
0
  6
CONTINUOUS
 62
     7
 10
-255.167976199846
 20
167.735820159435
 30
0.0
  0
SEQEND
  5
413
  8
0
  6
CONTINUOUS
 62
     7
  0
LINE
  5
22C
  8
0
  6
CONTINUOUS
 62
     7
 10
-255.167976199846
 20
167.735820159435
 30
0.0
 11
-255.0508317673664
 21
167.735820159435
 31
0.0
  0
LINE
  5
22D
  8
0
  6
CONTINUOUS
 62
     7
 10
-255.0432356438724
 20
167.235820159435
 30
0.0
 11
-255.0508317673664
 21
167.3226442482684
 31
0.0
  0
LINE
  5
22E
  8
0
  6
CONTINUOUS
 62
     7
 10
-107.7637578038035
 20
129.9858201594349
 30
0.0
 11
-113.7639481884827
 21
129.9858201594349
 31
0.0
  0
POLYLINE
  5
22F
  8
0
  6
CONTINUOUS
 62
     7
 66
     1
 10
0.0
 20
0.0
 30
0.0
  0
VERTEX
  5
39F
  8
0
  6
CONTINUOUS
 62
     7
 10
-151.2638529961431
 20
217.9859153517745
 30
0.0
  0
VERTEX
  5
3A0
  8
0
  6
CONTINUOUS
 62
     7
 10
-151.3118869815454
 20
218.4736327280298
 30
0.0
  0
VERTEX
  5
3A1
  8
0
  6
CONTINUOUS
 62
     7
 10
-151.4541431970324
 20
218.9426018946342
 30
0.0
  0
VERTEX
  5
3A2
  8
0
  6
CONTINUOUS
 62
     7
 10
-151.6851553443692
 20
219.3748023712963
 30
0.0
  0
VERTEX
  5
3A3
  8
0
  6
CONTINUOUS
 62
     7
 10
-151.9960466142802
 20
219.7536265412978
 30
0.0
  0
VERTEX
  5
3A4
  8
0
  6
CONTINUOUS
 62
     7
 10
-152.3748707842817
 20
220.0645178112088
 30
0.0
  0
VERTEX
  5
3A5
  8
0
  6
CONTINUOUS
 62
     7
 10
-152.8070712609438
 20
220.2955299585457
 30
0.0
  0
VERTEX
  5
3A6
  8
0
  6
CONTINUOUS
 62
     7
 10
-153.2760404275482
 20
220.4377861740326
 30
0.0
  0
VERTEX
  5
3A7
  8
0
  6
CONTINUOUS
 62
     7
 10
-153.7637578038035
 20
220.485820159435
 30
0.0
  0
SEQEND
  5
414
  8
0
  6
CONTINUOUS
 62
     7
  0
LINE
  5
230
  8
0
  6
CONTINUOUS
 62
     7
 10
-151.2638529961431
 20
217.9859153517745
 30
0.0
 11
-151.2638529961431
 21
216.985820159435
 31
0.0
  0
ARC
  5
231
  8
0
  6
CONTINUOUS
 62
     7
 10
-156.7638529961431
 20
216.985820159435
 30
0.0
 40
5.500000000000004
 50
294.6199773286568
 51
0.0
  0
LINE
  5
232
  8
0
  6
CONTINUOUS
 62
     7
 10
-154.4725651486652
 20
211.985820159435
 30
0.0
 11
-159.055140843621
 21
211.985820159435
 31
0.0
  0
ARC
  5
233
  8
0
  6
CONTINUOUS
 62
     7
 10
-156.7638529961431
 20
216.985820159435
 30
0.0
 40
5.499999999999995
 50
180.0
 51
245.3800226713432
  0
LINE
  5
234
  8
0
  6
CONTINUOUS
 62
     7
 10
-162.2638529961431
 20
216.985820159435
 30
0.0
 11
-162.2638529961431
 21
217.9859153517745
 31
0.0
  0
POLYLINE
  5
235
  8
0
  6
CONTINUOUS
 62
     7
 66
     1
 10
0.0
 20
0.0
 30
0.0
  0
VERTEX
  5
3A8
  8
0
  6
CONTINUOUS
 62
     7
 10
-159.7639481884827
 20
220.485820159435
 30
0.0
  0
VERTEX
  5
3A9
  8
0
  6
CONTINUOUS
 62
     7
 10
-160.2516655647379
 20
220.4377861740326
 30
0.0
  0
VERTEX
  5
3AA
  8
0
  6
CONTINUOUS
 62
     7
 10
-160.7206347313423
 20
220.2955299585457
 30
0.0
  0
VERTEX
  5
3AB
  8
0
  6
CONTINUOUS
 62
     7
 10
-161.1528352080044
 20
220.0645178112088
 30
0.0
  0
VERTEX
  5
3AC
  8
0
  6
CONTINUOUS
 62
     7
 10
-161.531659378006
 20
219.7536265412979
 30
0.0
  0
VERTEX
  5
3AD
  8
0
  6
CONTINUOUS
 62
     7
 10
-161.8425506479169
 20
219.3748023712963
 30
0.0
  0
VERTEX
  5
3AE
  8
0
  6
CONTINUOUS
 62
     7
 10
-162.0735627952538
 20
218.9426018946342
 30
0.0
  0
VERTEX
  5
3AF
  8
0
  6
CONTINUOUS
 62
     7
 10
-162.2158190107407
 20
218.4736327280298
 30
0.0
  0
VERTEX
  5
3B0
  8
0
  6
CONTINUOUS
 62
     7
 10
-162.2638529961431
 20
217.9859153517746
 30
0.0
  0
SEQEND
  5
415
  8
0
  6
CONTINUOUS
 62
     7
  0
LINE
  5
236
  8
0
  6
CONTINUOUS
 62
     7
 10
-159.7639481884827
 20
220.485820159435
 30
0.0
 11
-153.7637578038035
 21
220.485820159435
 31
0.0
  0
CIRCLE
  5
237
  8
0
  6
CONTINUOUS
 62
     7
 10
-156.7638529961431
 20
216.985820159435
 30
0.0
 40
3.100000000000019
  0
LINE
  5
238
  8
0
  6
CONTINUOUS
 62
     7
 10
-235.0876723927708
 20
195.235820159435
 30
0.0
 11
-235.0876723927708
 21
180.235820159435
 31
0.0
  0
LINE
  5
239
  8
0
  6
CONTINUOUS
 62
     7
 10
-235.1138529961431
 20
195.235820159435
 30
0.0
 11
-235.1138529961431
 21
180.235820159435
 31
0.0
  0
CIRCLE
  5
23A
  8
0
  6
CONTINUOUS
 62
     7
 10
-110.7638529961431
 20
133.485820159435
 30
0.0
 40
3.100000000000005
  0
POLYLINE
  5
23B
  8
0
  6
CONTINUOUS
 62
     7
 66
     1
 10
0.0
 20
0.0
 30
0.0
  0
VERTEX
  5
3B1
  8
0
  6
CONTINUOUS
 62
     7
 10
-205.7639481884827
 20
220.485820159435
 30
0.0
  0
VERTEX
  5
3B2
  8
0
  6
CONTINUOUS
 62
     7
 10
-206.2516655647379
 20
220.4377861740326
 30
0.0
  0
VERTEX
  5
3B3
  8
0
  6
CONTINUOUS
 62
     7
 10
-206.7206347313424
 20
220.2955299585457
 30
0.0
  0
VERTEX
  5
3B4
  8
0
  6
CONTINUOUS
 62
     7
 10
-207.1528352080045
 20
220.0645178112088
 30
0.0
  0
VERTEX
  5
3B5
  8
0
  6
CONTINUOUS
 62
     7
 10
-207.531659378006
 20
219.7536265412978
 30
0.0
  0
VERTEX
  5
3B6
  8
0
  6
CONTINUOUS
 62
     7
 10
-207.842550647917
 20
219.3748023712963
 30
0.0
  0
VERTEX
  5
3B7
  8
0
  6
CONTINUOUS
 62
     7
 10
-208.0735627952538
 20
218.9426018946342
 30
0.0
  0
VERTEX
  5
3B8
  8
0
  6
CONTINUOUS
 62
     7
 10
-208.2158190107407
 20
218.4736327280298
 30
0.0
  0
VERTEX
  5
3B9
  8
0
  6
CONTINUOUS
 62
     7
 10
-208.2638529961431
 20
217.9859153517746
 30
0.0
  0
SEQEND
  5
416
  8
0
  6
CONTINUOUS
 62
     7
  0
LINE
  5
23C
  8
0
  6
CONTINUOUS
 62
     7
 10
-235.0876723927708
 20
155.235820159435
 30
0.0
 11
-235.0876723927708
 21
170.235820159435
 31
0.0
  0
LINE
  5
23D
  8
0
  6
CONTINUOUS
 62
     7
 10
-235.1138529961431
 20
170.235820159435
 30
0.0
 11
-235.1138529961431
 21
155.235820159435
 31
0.0
  0
LINE
  5
23E
  8
0
  6
CONTINUOUS
 62
     7
 10
-234.6138529961431
 20
205.235820159435
 30
0.0
 11
-234.1138529961431
 21
205.235820159435
 31
0.0
  0
LINE
  5
23F
  8
0
  6
CONTINUOUS
 62
     7
 10
-234.1138529961431
 20
205.235820159435
 30
0.0
 11
-234.1138529961431
 21
195.235820159435
 31
0.0
  0
LINE
  5
240
  8
0
  6
CONTINUOUS
 62
     7
 10
-234.1138529961431
 20
195.235820159435
 30
0.0
 11
-234.6138529961431
 21
195.235820159435
 31
0.0
  0
ARC
  5
241
  8
0
  6
CONTINUOUS
 62
     7
 10
-110.7638529961431
 20
133.485820159435
 30
0.0
 40
5.499999999999988
 50
114.6199773286568
 51
180.0
  0
LINE
  5
242
  8
0
  6
CONTINUOUS
 62
     7
 10
-108.4725651486652
 20
138.485820159435
 30
0.0
 11
-113.055140843621
 21
138.485820159435
 31
0.0
  0
ARC
  5
243
  8
0
  6
CONTINUOUS
 62
     7
 10
-110.7638529961431
 20
133.485820159435
 30
0.0
 40
5.500000000000004
 50
0.0000000000000653
 51
65.38002267134324
  0
ARC
  5
244
  8
0
  6
CONTINUOUS
 62
     7
 10
-156.7638529961431
 20
133.485820159435
 30
0.0
 40
5.499999999999995
 50
114.6199773286568
 51
180.0
  0
LINE
  5
245
  8
0
  6
CONTINUOUS
 62
     7
 10
-154.4725651486652
 20
138.485820159435
 30
0.0
 11
-159.055140843621
 21
138.485820159435
 31
0.0
  0
ARC
  5
246
  8
0
  6
CONTINUOUS
 62
     7
 10
-156.7638529961431
 20
133.485820159435
 30
0.0
 40
5.500000000000004
 50
0.0
 51
65.38002267134323
  0
LINE
  5
247
  8
0
  6
CONTINUOUS
 62
     7
 10
-151.2638529961431
 20
132.4857249670954
 30
0.0
 11
-151.2638529961431
 21
133.485820159435
 31
0.0
  0
LINE
  5
248
  8
0
  6
CONTINUOUS
 62
     7
 10
-162.2638529961431
 20
133.485820159435
 30
0.0
 11
-162.2638529961431
 21
132.4857249670954
 31
0.0
  0
ARC
  5
249
  8
0
  6
CONTINUOUS
 62
     7
 10
-202.7638529961431
 20
133.485820159435
 30
0.0
 40
5.499999999999982
 50
114.6199773286568
 51
180.0
  0
LINE
  5
24A
  8
0
  6
CONTINUOUS
 62
     7
 10
-200.4725651486652
 20
138.485820159435
 30
0.0
 11
-205.055140843621
 21
138.485820159435
 31
0.0
  0
ARC
  5
24B
  8
0
  6
CONTINUOUS
 62
     7
 10
-202.7638529961431
 20
133.485820159435
 30
0.0
 40
5.500000000000004
 50
0.0
 51
65.38002267134323
  0
ARC
  5
24C
  8
0
  6
CONTINUOUS
 62
     7
 10
-110.7638529961431
 20
216.985820159435
 30
0.0
 40
5.499999999999995
 50
180.0
 51
245.3800226713432
  0
LINE
  5
24D
  8
0
  6
CONTINUOUS
 62
     7
 10
-108.4725651486652
 20
211.985820159435
 30
0.0
 11
-113.055140843621
 21
211.985820159435
 31
0.0
  0
LINE
  5
24E
  8
0
  6
CONTINUOUS
 62
     7
 10
-197.2638529961431
 20
132.4857249670954
 30
0.0
 11
-197.2638529961431
 21
133.485820159435
 31
0.0
  0
LINE
  5
24F
  8
0
  6
CONTINUOUS
 62
     7
 10
-105.2638529961431
 20
217.9859153517745
 30
0.0
 11
-105.2638529961431
 21
216.985820159435
 31
0.0
  0
LINE
  5
250
  8
0
  6
CONTINUOUS
 62
     7
 10
-116.2638529961431
 20
216.985820159435
 30
0.0
 11
-116.2638529961431
 21
217.9859153517745
 31
0.0
  0
ARC
  5
251
  8
0
  6
CONTINUOUS
 62
     7
 10
-202.7638529961431
 20
216.985820159435
 30
0.0
 40
5.499999999999995
 50
180.0
 51
245.3800226713432
  0
LINE
  5
252
  8
0
  6
CONTINUOUS
 62
     7
 10
-197.2638529961431
 20
217.9859153517745
 30
0.0
 11
-197.2638529961431
 21
216.985820159435
 31
0.0
  0
LINE
  5
253
  8
0
  6
CONTINUOUS
 62
     7
 10
-208.2638529961431
 20
216.985820159435
 30
0.0
 11
-208.2638529961431
 21
217.9859153517745
 31
0.0
  0
LINE
  5
254
  8
0
  6
CONTINUOUS
 62
     7
 10
-90.77250370861228
 20
228.235820159435
 30
0.0
 11
-89.77254178554811
 21
228.235820159435
 31
0.0
  0
POLYLINE
  5
255
  8
0
  6
CONTINUOUS
 62
     7
 66
     1
 10
0.0
 20
0.0
 30
0.0
  0
VERTEX
  5
3BA
  8
0
  6
CONTINUOUS
 62
     7
 10
-116.2638529961431
 20
132.4857249670953
 30
0.0
  0
VERTEX
  5
3BB
  8
0
  6
CONTINUOUS
 62
     7
 10
-116.2158190107408
 20
131.9980075908401
 30
0.0
  0
VERTEX
  5
3BC
  8
0
  6
CONTINUOUS
 62
     7
 10
-116.0735627952538
 20
131.5290384242357
 30
0.0
  0
VERTEX
  5
3BD
  8
0
  6
CONTINUOUS
 62
     7
 10
-115.842550647917
 20
131.0968379475736
 30
0.0
  0
VERTEX
  5
3BE
  8
0
  6
CONTINUOUS
 62
     7
 10
-115.531659378006
 20
130.7180137775721
 30
0.0
  0
VERTEX
  5
3BF
  8
0
  6
CONTINUOUS
 62
     7
 10
-115.1528352080044
 20
130.4071225076611
 30
0.0
  0
VERTEX
  5
3C0
  8
0
  6
CONTINUOUS
 62
     7
 10
-114.7206347313424
 20
130.1761103603242
 30
0.0
  0
VERTEX
  5
3C1
  8
0
  6
CONTINUOUS
 62
     7
 10
-114.2516655647379
 20
130.0338541448372
 30
0.0
  0
VERTEX
  5
3C2
  8
0
  6
CONTINUOUS
 62
     7
 10
-113.7639481884827
 20
129.9858201594349
 30
0.0
  0
SEQEND
  5
417
  8
0
  6
CONTINUOUS
 62
     7
  0
POLYLINE
  5
256
  8
0
  6
CONTINUOUS
 62
     7
 66
     1
 10
0.0
 20
0.0
 30
0.0
  0
VERTEX
  5
3C3
  8
0
  6
CONTINUOUS
 62
     7
 10
-162.2638529961431
 20
132.4857249670954
 30
0.0
  0
VERTEX
  5
3C4
  8
0
  6
CONTINUOUS
 62
     7
 10
-162.2158190107408
 20
131.9980075908401
 30
0.0
  0
VERTEX
  5
3C5
  8
0
  6
CONTINUOUS
 62
     7
 10
-162.0735627952538
 20
131.5290384242357
 30
0.0
  0
VERTEX
  5
3C6
  8
0
  6
CONTINUOUS
 62
     7
 10
-161.842550647917
 20
131.0968379475736
 30
0.0
  0
VERTEX
  5
3C7
  8
0
  6
CONTINUOUS
 62
     7
 10
-161.531659378006
 20
130.7180137775721
 30
0.0
  0
VERTEX
  5
3C8
  8
0
  6
CONTINUOUS
 62
     7
 10
-161.1528352080045
 20
130.4071225076611
 30
0.0
  0
VERTEX
  5
3C9
  8
0
  6
CONTINUOUS
 62
     7
 10
-160.7206347313424
 20
130.1761103603242
 30
0.0
  0
VERTEX
  5
3CA
  8
0
  6
CONTINUOUS
 62
     7
 10
-160.2516655647379
 20
130.0338541448373
 30
0.0
  0
VERTEX
  5
3CB
  8
0
  6
CONTINUOUS
 62
     7
 10
-159.7639481884827
 20
129.985820159435
 30
0.0
  0
SEQEND
  5
418
  8
0
  6
CONTINUOUS
 62
     7
  0
POLYLINE
  5
257
  8
0
  6
CONTINUOUS
 62
     7
 66
     1
 10
0.0
 20
0.0
 30
0.0
  0
VERTEX
  5
3CC
  8
0
  6
CONTINUOUS
 62
     7
 10
-208.2638529961431
 20
132.4857249670954
 30
0.0
  0
VERTEX
  5
3CD
  8
0
  6
CONTINUOUS
 62
     7
 10
-208.2158190107407
 20
131.9980075908401
 30
0.0
  0
VERTEX
  5
3CE
  8
0
  6
CONTINUOUS
 62
     7
 10
-208.0735627952538
 20
131.5290384242357
 30
0.0
  0
VERTEX
  5
3CF
  8
0
  6
CONTINUOUS
 62
     7
 10
-207.842550647917
 20
131.0968379475736
 30
0.0
  0
VERTEX
  5
3D0
  8
0
  6
CONTINUOUS
 62
     7
 10
-207.531659378006
 20
130.7180137775721
 30
0.0
  0
VERTEX
  5
3D1
  8
0
  6
CONTINUOUS
 62
     7
 10
-207.1528352080045
 20
130.4071225076611
 30
0.0
  0
VERTEX
  5
3D2
  8
0
  6
CONTINUOUS
 62
     7
 10
-206.7206347313424
 20
130.1761103603242
 30
0.0
  0
VERTEX
  5
3D3
  8
0
  6
CONTINUOUS
 62
     7
 10
-206.2516655647379
 20
130.0338541448373
 30
0.0
  0
VERTEX
  5
3D4
  8
0
  6
CONTINUOUS
 62
     7
 10
-205.7639481884827
 20
129.985820159435
 30
0.0
  0
SEQEND
  5
419
  8
0
  6
CONTINUOUS
 62
     7
  0
POLYLINE
  5
258
  8
0
  6
CONTINUOUS
 62
     7
 66
     1
 10
0.0
 20
0.0
 30
0.0
  0
VERTEX
  5
3D5
  8
0
  6
CONTINUOUS
 62
     7
 10
-199.7637578038035
 20
129.985820159435
 30
0.0
  0
VERTEX
  5
3D6
  8
0
  6
CONTINUOUS
 62
     7
 10
-199.2760404275482
 20
130.0338541448373
 30
0.0
  0
VERTEX
  5
3D7
  8
0
  6
CONTINUOUS
 62
     7
 10
-198.8070712609438
 20
130.1761103603242
 30
0.0
  0
VERTEX
  5
3D8
  8
0
  6
CONTINUOUS
 62
     7
 10
-198.3748707842817
 20
130.4071225076611
 30
0.0
  0
VERTEX
  5
3D9
  8
0
  6
CONTINUOUS
 62
     7
 10
-197.9960466142802
 20
130.7180137775721
 30
0.0
  0
VERTEX
  5
3DA
  8
0
  6
CONTINUOUS
 62
     7
 10
-197.6851553443692
 20
131.0968379475736
 30
0.0
  0
VERTEX
  5
3DB
  8
0
  6
CONTINUOUS
 62
     7
 10
-197.4541431970324
 20
131.5290384242357
 30
0.0
  0
VERTEX
  5
3DC
  8
0
  6
CONTINUOUS
 62
     7
 10
-197.3118869815454
 20
131.9980075908401
 30
0.0
  0
VERTEX
  5
3DD
  8
0
  6
CONTINUOUS
 62
     7
 10
-197.2638529961431
 20
132.4857249670954
 30
0.0
  0
SEQEND
  5
41A
  8
0
  6
CONTINUOUS
 62
     7
  0
POLYLINE
  5
259
  8
0
  6
CONTINUOUS
 62
     7
 66
     1
 10
0.0
 20
0.0
 30
0.0
  0
VERTEX
  5
3DE
  8
0
  6
CONTINUOUS
 62
     7
 10
-153.7637578038035
 20
129.985820159435
 30
0.0
  0
VERTEX
  5
3DF
  8
0
  6
CONTINUOUS
 62
     7
 10
-153.2760404275483
 20
130.0338541448373
 30
0.0
  0
VERTEX
  5
3E0
  8
0
  6
CONTINUOUS
 62
     7
 10
-152.8070712609438
 20
130.1761103603242
 30
0.0
  0
VERTEX
  5
3E1
  8
0
  6
CONTINUOUS
 62
     7
 10
-152.3748707842817
 20
130.4071225076611
 30
0.0
  0
VERTEX
  5
3E2
  8
0
  6
CONTINUOUS
 62
     7
 10
-151.9960466142802
 20
130.7180137775721
 30
0.0
  0
VERTEX
  5
3E3
  8
0
  6
CONTINUOUS
 62
     7
 10
-151.6851553443692
 20
131.0968379475736
 30
0.0
  0
VERTEX
  5
3E4
  8
0
  6
CONTINUOUS
 62
     7
 10
-151.4541431970324
 20
131.5290384242357
 30
0.0
  0
VERTEX
  5
3E5
  8
0
  6
CONTINUOUS
 62
     7
 10
-151.3118869815454
 20
131.9980075908401
 30
0.0
  0
VERTEX
  5
3E6
  8
0
  6
CONTINUOUS
 62
     7
 10
-151.2638529961431
 20
132.4857249670954
 30
0.0
  0
SEQEND
  5
41B
  8
0
  6
CONTINUOUS
 62
     7
  0
ARC
  5
25A
  8
0
  6
CONTINUOUS
 62
     7
 10
-110.7638529961431
 20
216.985820159435
 30
0.0
 40
5.499999999999991
 50
294.6199773286568
 51
0.0
  0
POLYLINE
  5
25B
  8
0
  6
CONTINUOUS
 62
     7
 66
     1
 10
0.0
 20
0.0
 30
0.0
  0
VERTEX
  5
3E7
  8
0
  6
CONTINUOUS
 62
     7
 10
-113.7639481884827
 20
220.485820159435
 30
0.0
  0
VERTEX
  5
3E8
  8
0
  6
CONTINUOUS
 62
     7
 10
-114.2516655647379
 20
220.4377861740326
 30
0.0
  0
VERTEX
  5
3E9
  8
0
  6
CONTINUOUS
 62
     7
 10
-114.7206347313423
 20
220.2955299585457
 30
0.0
  0
VERTEX
  5
3EA
  8
0
  6
CONTINUOUS
 62
     7
 10
-115.1528352080044
 20
220.0645178112088
 30
0.0
  0
VERTEX
  5
3EB
  8
0
  6
CONTINUOUS
 62
     7
 10
-115.531659378006
 20
219.7536265412978
 30
0.0
  0
VERTEX
  5
3EC
  8
0
  6
CONTINUOUS
 62
     7
 10
-115.842550647917
 20
219.3748023712963
 30
0.0
  0
VERTEX
  5
3ED
  8
0
  6
CONTINUOUS
 62
     7
 10
-116.0735627952538
 20
218.9426018946342
 30
0.0
  0
VERTEX
  5
3EE
  8
0
  6
CONTINUOUS
 62
     7
 10
-116.2158190107407
 20
218.4736327280298
 30
0.0
  0
VERTEX
  5
3EF
  8
0
  6
CONTINUOUS
 62
     7
 10
-116.2638529961431
 20
217.9859153517745
 30
0.0
  0
SEQEND
  5
41C
  8
0
  6
CONTINUOUS
 62
     7
  0
POLYLINE
  5
25C
  8
0
  6
CONTINUOUS
 62
     7
 66
     1
 10
0.0
 20
0.0
 30
0.0
  0
VERTEX
  5
3F0
  8
0
  6
CONTINUOUS
 62
     7
 10
-197.263852996143
 20
217.9859153517746
 30
0.0
  0
VERTEX
  5
3F1
  8
0
  6
CONTINUOUS
 62
     7
 10
-197.3118869815454
 20
218.4736327280298
 30
0.0
  0
VERTEX
  5
3F2
  8
0
  6
CONTINUOUS
 62
     7
 10
-197.4541431970323
 20
218.9426018946343
 30
0.0
  0
VERTEX
  5
3F3
  8
0
  6
CONTINUOUS
 62
     7
 10
-197.6851553443692
 20
219.3748023712964
 30
0.0
  0
VERTEX
  5
3F4
  8
0
  6
CONTINUOUS
 62
     7
 10
-197.9960466142801
 20
219.7536265412979
 30
0.0
  0
VERTEX
  5
3F5
  8
0
  6
CONTINUOUS
 62
     7
 10
-198.3748707842817
 20
220.0645178112089
 30
0.0
  0
VERTEX
  5
3F6
  8
0
  6
CONTINUOUS
 62
     7
 10
-198.8070712609438
 20
220.2955299585457
 30
0.0
  0
VERTEX
  5
3F7
  8
0
  6
CONTINUOUS
 62
     7
 10
-199.2760404275482
 20
220.4377861740327
 30
0.0
  0
VERTEX
  5
3F8
  8
0
  6
CONTINUOUS
 62
     7
 10
-199.7637578038035
 20
220.485820159435
 30
0.0
  0
SEQEND
  5
41D
  8
0
  6
CONTINUOUS
 62
     7
  0
POLYLINE
  5
25D
  8
0
  6
CONTINUOUS
 62
     7
 66
     1
 10
0.0
 20
0.0
 30
0.0
  0
VERTEX
  5
3F9
  8
0
  6
CONTINUOUS
 62
     7
 10
-105.2638529961431
 20
217.9859153517745
 30
0.0
  0
VERTEX
  5
3FA
  8
0
  6
CONTINUOUS
 62
     7
 10
-105.3118869815454
 20
218.4736327280298
 30
0.0
  0
VERTEX
  5
3FB
  8
0
  6
CONTINUOUS
 62
     7
 10
-105.4541431970324
 20
218.9426018946342
 30
0.0
  0
VERTEX
  5
3FC
  8
0
  6
CONTINUOUS
 62
     7
 10
-105.6851553443692
 20
219.3748023712963
 30
0.0
  0
VERTEX
  5
3FD
  8
0
  6
CONTINUOUS
 62
     7
 10
-105.9960466142802
 20
219.7536265412978
 30
0.0
  0
VERTEX
  5
3FE
  8
0
  6
CONTINUOUS
 62
     7
 10
-106.3748707842817
 20
220.0645178112088
 30
0.0
  0
VERTEX
  5
3FF
  8
0
  6
CONTINUOUS
 62
     7
 10
-106.8070712609438
 20
220.2955299585457
 30
0.0
  0
VERTEX
  5
400
  8
0
  6
CONTINUOUS
 62
     7
 10
-107.2760404275482
 20
220.4377861740326
 30
0.0
  0
VERTEX
  5
401
  8
0
  6
CONTINUOUS
 62
     7
 10
-107.7637578038035
 20
220.485820159435
 30
0.0
  0
SEQEND
  5
41E
  8
0
  6
CONTINUOUS
 62
     7
  0
LINE
  5
25E
  8
0
  6
CONTINUOUS
 62
     7
 10
-182.2681973908456
 20
122.235820159435
 30
0.0
 11
-177.2595086014406
 21
122.235820159435
 31
0.0
  0
CIRCLE
  5
25F
  8
0
  6
CONTINUOUS
 62
     7
 10
-179.7638529961431
 20
124.4858201594349
 30
0.0
 40
1.249999999999973
  0
LINE
  5
260
  8
0
  6
CONTINUOUS
 62
     7
 10
-237.7638529961431
 20
223.235820159435
 30
0.0
 11
-237.7638529961431
 21
222.985840159435
 31
0.0
  0
LINE
  5
261
  8
0
  6
CONTINUOUS
 62
     7
 10
-237.7638529961431
 20
222.985820159435
 30
0.0
 11
-237.7638529961431
 21
210.985820159435
 31
0.0
  0
LINE
  5
262
  8
0
  6
CONTINUOUS
 62
     7
 10
-237.7638529961431
 20
210.985800159435
 30
0.0
 11
-237.7638529961431
 21
195.3239836497892
 31
0.0
  0
LINE
  5
263
  8
0
  6
CONTINUOUS
 62
     7
 10
-237.7638529961431
 20
186.1476566690807
 30
0.0
 11
-237.7638529961431
 21
175.235820159435
 31
0.0
  0
ARC
  5
264
  8
0
  6
CONTINUOUS
 62
     7
 10
-232.7638529961431
 20
223.235820159435
 30
0.0
 40
4.999999999999977
 50
90.0
 51
180.0
  0
LINE
  5
265
  8
0
  6
CONTINUOUS
 62
     7
 10
-223.7551642067381
 20
228.235820159435
 30
0.0
 11
-232.7638529961431
 21
228.235820159435
 31
0.0
  0
LINE
  5
266
  8
0
  6
CONTINUOUS
 62
     7
 10
-235.1138529961431
 20
210.985820159435
 30
0.0
 11
-235.1138529961431
 21
205.235820159435
 31
0.0
  0
LINE
  5
267
  8
0
  6
CONTINUOUS
 62
     7
 10
-235.1138529961431
 20
205.235820159435
 30
0.0
 11
-234.6138529961431
 21
205.235820159435
 31
0.0
  0
LINE
  5
268
  8
0
  6
CONTINUOUS
 62
     7
 10
-234.6138529961431
 20
145.235820159435
 30
0.0
 11
-235.1138529961431
 21
145.235820159435
 31
0.0
  0
LINE
  5
269
  8
0
  6
CONTINUOUS
 62
     7
 10
-235.1138529961431
 20
145.235820159435
 30
0.0
 11
-235.1138529961431
 21
139.485820159435
 31
0.0
  0
LINE
  5
26A
  8
0
  6
CONTINUOUS
 62
     7
 10
-232.7638529961431
 20
122.235820159435
 30
0.0
 11
-223.7551642067381
 21
122.235820159435
 31
0.0
  0
ARC
  5
26B
  8
0
  6
CONTINUOUS
 62
     7
 10
-232.7638529961431
 20
127.235820159435
 30
0.0
 40
5.000000000000004
 50
180.0
 51
270.0
  0
LINE
  5
26C
  8
0
  6
CONTINUOUS
 62
     7
 10
-237.7638529961431
 20
175.235820159435
 30
0.0
 11
-237.7638529961431
 21
164.3239836497892
 31
0.0
  0
LINE
  5
26D
  8
0
  6
CONTINUOUS
 62
     7
 10
-237.7638529961431
 20
155.1476566690807
 30
0.0
 11
-237.7638529961431
 21
139.4858401594349
 31
0.0
  0
LINE
  5
26E
  8
0
  6
CONTINUOUS
 62
     7
 10
-237.7638529961431
 20
139.485820159435
 30
0.0
 11
-237.7638529961431
 21
127.4858201594349
 31
0.0
  0
LINE
  5
26F
  8
0
  6
CONTINUOUS
 62
     7
 10
-237.7638529961431
 20
127.4858001594349
 30
0.0
 11
-237.7638529961431
 21
127.235820159435
 31
0.0
  0
LINE
  5
270
  8
0
  6
CONTINUOUS
 62
     7
 10
-235.1138529961431
 20
180.235820159435
 30
0.0
 11
-234.6138529961431
 21
180.235820159435
 31
0.0
  0
LINE
  5
271
  8
0
  6
CONTINUOUS
 62
     7
 10
-234.6138529961431
 20
195.235820159435
 30
0.0
 11
-235.1138529961431
 21
195.235820159435
 31
0.0
  0
LINE
  5
272
  8
0
  6
CONTINUOUS
 62
     7
 10
-235.1138529961431
 20
155.235820159435
 30
0.0
 11
-234.6138529961431
 21
155.235820159435
 31
0.0
  0
LINE
  5
273
  8
0
  6
CONTINUOUS
 62
     7
 10
-234.6138529961431
 20
170.235820159435
 30
0.0
 11
-235.1138529961431
 21
170.235820159435
 31
0.0
  0
LINE
  5
274
  8
0
  6
CONTINUOUS
 62
     7
 10
-105.2638529961431
 20
132.4857249670954
 30
0.0
 11
-105.2638529961431
 21
133.485820159435
 31
0.0
  0
LINE
  5
275
  8
0
  6
CONTINUOUS
 62
     7
 10
-208.2638529961431
 20
133.485820159435
 30
0.0
 11
-208.2638529961431
 21
132.4857249670954
 31
0.0
  0
LINE
  5
276
  8
0
  6
CONTINUOUS
 62
     7
 10
-107.7637578038035
 20
220.485820159435
 30
0.0
 11
-113.7639481884826
 21
220.485820159435
 31
0.0
  0
CIRCLE
  5
277
  8
0
  6
CONTINUOUS
 62
     7
 10
-110.7638529961431
 20
216.985820159435
 30
0.0
 40
3.099999999999992
  0
ARC
  5
278
  8
0
  6
CONTINUOUS
 62
     7
 10
-202.7638529961431
 20
216.985820159435
 30
0.0
 40
5.500000000000004
 50
294.6199773286568
 51
0.0
  0
LINE
  5
279
  8
0
  6
CONTINUOUS
 62
     7
 10
-200.4725651486652
 20
211.985820159435
 30
0.0
 11
-205.055140843621
 21
211.985820159435
 31
0.0
  0
LINE
  5
27A
  8
0
  6
CONTINUOUS
 62
     7
 10
-205.7639481884827
 20
220.485820159435
 30
0.0
 11
-199.7637578038035
 21
220.485820159435
 31
0.0
  0
CIRCLE
  5
27B
  8
0
  6
CONTINUOUS
 62
     7
 10
-202.7638529961431
 20
216.985820159435
 30
0.0
 40
3.099999999999992
  0
LINE
  5
27C
  8
0
  6
CONTINUOUS
 62
     7
 10
-159.7639481884827
 20
129.9858201594349
 30
0.0
 11
-153.7637578038035
 21
129.9858201594349
 31
0.0
  0
LINE
  5
27D
  8
0
  6
CONTINUOUS
 62
     7
 10
-78.44003359951537
 20
210.985820159435
 30
0.0
 11
-78.44003359951537
 21
139.485820159435
 31
0.0
  0
LINE
  5
27E
  8
0
  6
CONTINUOUS
 62
     7
 10
-78.41385299614309
 20
139.485820159435
 30
0.0
 11
-78.41385299614309
 21
210.985820159435
 31
0.0
  0
LINE
  5
27F
  8
0
  6
CONTINUOUS
 62
     7
 10
-235.0876723927708
 20
210.985820159435
 30
0.0
 11
-235.0876723927708
 21
205.235820159435
 31
0.0
  0
POLYLINE
  5
280
  8
0
  6
CONTINUOUS
 62
     7
 66
     1
 10
0.0
 20
0.0
 30
0.0
  0
VERTEX
  5
402
  8
0
  6
CONTINUOUS
 62
     7
 10
-107.7637578038035
 20
129.9858201594349
 30
0.0
  0
VERTEX
  5
403
  8
0
  6
CONTINUOUS
 62
     7
 10
-107.2760404275482
 20
130.0338541448372
 30
0.0
  0
VERTEX
  5
404
  8
0
  6
CONTINUOUS
 62
     7
 10
-106.8070712609438
 20
130.1761103603242
 30
0.0
  0
VERTEX
  5
405
  8
0
  6
CONTINUOUS
 62
     7
 10
-106.3748707842817
 20
130.407122507661
 30
0.0
  0
VERTEX
  5
406
  8
0
  6
CONTINUOUS
 62
     7
 10
-105.9960466142802
 20
130.718013777572
 30
0.0
  0
VERTEX
  5
407
  8
0
  6
CONTINUOUS
 62
     7
 10
-105.6851553443692
 20
131.0968379475735
 30
0.0
  0
VERTEX
  5
408
  8
0
  6
CONTINUOUS
 62
     7
 10
-105.4541431970323
 20
131.5290384242356
 30
0.0
  0
VERTEX
  5
409
  8
0
  6
CONTINUOUS
 62
     7
 10
-105.3118869815454
 20
131.99800759084
 30
0.0
  0
VERTEX
  5
40A
  8
0
  6
CONTINUOUS
 62
     7
 10
-105.2638529961431
 20
132.4857249670953
 30
0.0
  0
SEQEND
  5
41F
  8
0
  6
CONTINUOUS
 62
     7
  0
LINE
  5
281
  8
0
  6
CONTINUOUS
 62
     7
 10
-222.7552022836739
 20
122.235820159435
 30
0.0
 11
-223.7551642067381
 21
122.235820159435
 31
0.0
  0
LINE
  5
282
  8
0
  6
CONTINUOUS
 62
     7
 10
-234.1138529961431
 20
180.235820159435
 30
0.0
 11
-234.1138529961431
 21
170.235820159435
 31
0.0
  0
LINE
  5
283
  8
0
  6
CONTINUOUS
 62
     7
 10
-234.6138529961431
 20
180.235820159435
 30
0.0
 11
-234.1138529961431
 21
180.235820159435
 31
0.0
  0
LINE
  5
284
  8
0
  6
CONTINUOUS
 62
     7
 10
-234.1138529961431
 20
170.235820159435
 30
0.0
 11
-234.6138529961431
 21
170.235820159435
 31
0.0
  0
LINE
  5
285
  8
0
  6
CONTINUOUS
 62
     7
 10
-234.1138529961431
 20
155.235820159435
 30
0.0
 11
-234.1138529961431
 21
145.235820159435
 31
0.0
  0
LINE
  5
286
  8
0
  6
CONTINUOUS
 62
     7
 10
-234.1138529961431
 20
145.235820159435
 30
0.0
 11
-234.6138529961431
 21
145.235820159435
 31
0.0
  0
LINE
  5
287
  8
0
  6
CONTINUOUS
 62
     7
 10
-234.6138529961431
 20
155.235820159435
 30
0.0
 11
-234.1138529961431
 21
155.235820159435
 31
0.0
  0
LINE
  5
288
  8
0
  6
CONTINUOUS
 62
     7
 10
-136.2681973908456
 20
122.235820159435
 30
0.0
 11
-136.7681783523777
 21
122.235820159435
 31
0.0
  0
LINE
  5
289
  8
0
  6
CONTINUOUS
 62
     7
 10
-205.7639481884827
 20
129.9858201594349
 30
0.0
 11
-199.7637578038035
 21
129.9858201594349
 31
0.0
  0
CIRCLE
  5
28A
  8
0
  6
CONTINUOUS
 62
     7
 10
-202.7638529961431
 20
133.485820159435
 30
0.0
 40
3.099999999999992
  0
LINE
  5
28B
  8
0
  6
CONTINUOUS
 62
     7
 10
-136.7681783523777
 20
228.235820159435
 30
0.0
 11
-136.2681973908456
 21
228.235820159435
 31
0.0
  0
CIRCLE
  5
28C
  8
0
  6
CONTINUOUS
 62
     7
 10
-156.7638529961431
 20
133.485820159435
 30
0.0
 40
3.099999999999992
  0
LINE
  5
28D
  8
0
  6
CONTINUOUS
 62
     7
 10
-136.2681973908456
 20
122.235820159435
 30
0.0
 11
-131.2595086014406
 21
122.235820159435
 31
0.0
  0
CIRCLE
  5
28E
  8
0
  6
CONTINUOUS
 62
     7
 10
-133.7638529961431
 20
124.4858201594349
 30
0.0
 40
1.250000000000001
  0
LINE
  5
28F
  8
0
  6
CONTINUOUS
 62
     7
 10
-182.2681973908456
 20
122.235820159435
 30
0.0
 11
-182.7681783523777
 21
122.235820159435
 31
0.0
  0
LINE
  5
290
  8
0
  6
CONTINUOUS
 62
     7
 10
-223.7551642067381
 20
228.235820159435
 30
0.0
 11
-222.7552022836739
 21
228.235820159435
 31
0.0
  0
LINE
  5
291
  8
0
  6
CONTINUOUS
 62
     7
 10
-116.2638529961431
 20
133.485820159435
 30
0.0
 11
-116.2638529961431
 21
132.4857249670954
 31
0.0
  0
LINE
  5
292
  8
0
  6
CONTINUOUS
 62
     7
 10
-177.2595086014406
 20
228.235820159435
 30
0.0
 11
-182.2681973908456
 21
228.235820159435
 31
0.0
  0
CIRCLE
  5
293
  8
0
  6
CONTINUOUS
 62
     7
 10
-179.7638529961431
 20
225.985820159435
 30
0.0
 40
1.250000000000001
  0
CIRCLE
  5
294
  8
0
  6
CONTINUOUS
 62
     7
 10
-133.7638529961431
 20
225.985820159435
 30
0.0
 40
1.250000000000029
  0
LINE
  5
295
  8
0
  6
CONTINUOUS
 62
     7
 10
-131.2595086014406
 20
228.235820159435
 30
0.0
 11
-136.2681973908456
 21
228.235820159435
 31
0.0
  0
LINE
  5
296
  8
0
  6
CONTINUOUS
 62
     7
 10
-80.7638529961431
 20
228.235820159435
 30
0.0
 11
-89.77254178554811
 21
228.235820159435
 31
0.0
  0
LINE
  5
297
  8
0
  6
CONTINUOUS
 62
     7
 10
-89.7725417855481
 20
122.235820159435
 30
0.0
 11
-80.7638529961431
 21
122.235820159435
 31
0.0
  0
ARC
  5
298
  8
0
  6
CONTINUOUS
 62
     7
 10
-80.7638529961431
 20
223.2358201594349
 30
0.0
 40
5.000000000000004
 50
0.0
 51
90.0
  0
ARC
  5
299
  8
0
  6
CONTINUOUS
 62
     7
 10
-80.7638529961431
 20
127.2358201594349
 30
0.0
 40
4.99999999999999
 50
270.0
 51
0.0
  0
LINE
  5
29A
  8
0
  6
CONTINUOUS
 62
     7
 10
-75.76385299614309
 20
127.2358201594349
 30
0.0
 11
-75.76385299614309
 21
127.4858001594349
 31
0.0
  0
LINE
  5
29B
  8
0
  6
CONTINUOUS
 62
     7
 10
-75.76385299614309
 20
127.4858201594349
 30
0.0
 11
-75.76385299614309
 21
139.485820159435
 31
0.0
  0
LINE
  5
29C
  8
0
  6
CONTINUOUS
 62
     7
 10
-75.76385299614309
 20
139.4858401594349
 30
0.0
 11
-75.76385299614309
 21
175.235820159435
 31
0.0
  0
LINE
  5
29D
  8
0
  6
CONTINUOUS
 62
     7
 10
-75.76385299614309
 20
175.235820159435
 30
0.0
 11
-75.76385299614309
 21
210.985800159435
 31
0.0
  0
LINE
  5
29E
  8
0
  6
CONTINUOUS
 62
     7
 10
-75.76385299614309
 20
210.985820159435
 30
0.0
 11
-75.76385299614309
 21
222.985820159435
 31
0.0
  0
LINE
  5
29F
  8
0
  6
CONTINUOUS
 62
     7
 10
-75.76385299614309
 20
222.985840159435
 30
0.0
 11
-75.76385299614309
 21
223.2358201594349
 31
0.0
  0
LINE
  5
2A0
  8
0
  6
CONTINUOUS
 62
     7
 10
-130.7595276399085
 20
122.235820159435
 30
0.0
 11
-131.2595086014406
 21
122.235820159435
 31
0.0
  0
LINE
  5
2A1
  8
0
  6
CONTINUOUS
 62
     7
 10
-89.7725417855481
 20
122.235820159435
 30
0.0
 11
-90.77250370861228
 21
122.235820159435
 31
0.0
  0
LINE
  5
2A2
  8
0
  6
CONTINUOUS
 62
     7
 10
-176.7595276399085
 20
122.235820159435
 30
0.0
 11
-177.2595086014406
 21
122.235820159435
 31
0.0
  0
LINE
  5
2A3
  8
0
  6
CONTINUOUS
 62
     7
 10
-177.2595086014406
 20
228.235820159435
 30
0.0
 11
-176.7595276399085
 21
228.235820159435
 31
0.0
  0
LINE
  5
2A4
  8
0
  6
CONTINUOUS
 62
     7
 10
-131.2595086014406
 20
228.235820159435
 30
0.0
 11
-130.7595276399085
 21
228.235820159435
 31
0.0
  0
LINE
  5
2A5
  8
0
  6
CONTINUOUS
 62
     7
 10
-235.0876723927708
 20
139.485820159435
 30
0.0
 11
-235.0876723927708
 21
145.235820159435
 31
0.0
  0
LINE
  5
2A6
  8
0
  6
CONTINUOUS
 62
     7
 10
-182.7681783523777
 20
228.235820159435
 30
0.0
 11
-182.2681973908456
 21
228.235820159435
 31
0.0
  0
LINE
  5
2A7
  8
0
  6
CONTINUOUS
 62
     7
 10
-130.7484785010031
 20
228.235820159435
 30
0.0
 11
-130.7595276399085
 21
228.235820159435
 31
0.0
  0
LINE
  5
2A8
  8
0
  6
CONTINUOUS
 62
     7
 10
-176.7595276399085
 20
228.235820159435
 30
0.0
 11
-176.7484785010031
 21
228.235820159435
 31
0.0
  0
LINE
  5
2A9
  8
0
  6
CONTINUOUS
 62
     7
 10
-136.7792274912831
 20
122.235820159435
 30
0.0
 11
-136.7681783523777
 21
122.235820159435
 31
0.0
  0
LINE
  5
2AA
  8
0
  6
CONTINUOUS
 62
     7
 10
-136.7792274912831
 20
228.235820159435
 30
0.0
 11
-136.7681783523777
 21
228.235820159435
 31
0.0
  0
LINE
  5
2AB
  8
0
  6
CONTINUOUS
 62
     7
 10
-182.7681783523777
 20
122.235820159435
 30
0.0
 11
-182.7792274912831
 21
122.235820159435
 31
0.0
  0
LINE
  5
2AC
  8
0
  6
CONTINUOUS
 62
     7
 10
-176.7595276399085
 20
122.235820159435
 30
0.0
 11
-176.7484785010031
 21
122.235820159435
 31
0.0
  0
LINE
  5
2AD
  8
0
  6
CONTINUOUS
 62
     7
 10
-182.7681783523777
 20
228.235820159435
 30
0.0
 11
-182.7792274912831
 21
228.235820159435
 31
0.0
  0
LINE
  5
2AE
  8
0
  6
CONTINUOUS
 62
     7
 10
-130.7484785010031
 20
122.235820159435
 30
0.0
 11
-130.7595276399085
 21
122.235820159435
 31
0.0
  0
LINE
  5
2AF
  8
0
  6
CONTINUOUS
 62
     7
 10
-222.7376723927708
 20
122.235820159435
 30
0.0
 11
-222.7552022836739
 21
122.235820159435
 31
0.0
  0
LINE
  5
2B0
  8
0
  6
CONTINUOUS
 62
     7
 10
-90.77250370861223
 20
122.235820159435
 30
0.0
 11
-90.79003359951533
 21
122.235820159435
 31
0.0
  0
LINE
  5
2B1
  8
0
  6
CONTINUOUS
 62
     7
 10
-83.44876046730613
 20
150.270575317055
 30
0.0
 11
-83.44876046730613
 21
150.2358201594349
 31
0.0
  0
LINE
  5
2B2
  8
0
  6
CONTINUOUS
 62
     7
 10
-83.44876046730613
 20
200.235820159435
 30
0.0
 11
-83.44876046730613
 21
200.2010650018149
 31
0.0
  0
LINE
  5
2B3
  8
0
  6
CONTINUOUS
 62
     7
 10
-83.44868431198455
 20
139.485820159435
 30
0.0
 11
-83.44868431198455
 21
210.985820159435
 31
0.0
  0
LINE
  5
2B4
  8
0
  6
CONTINUOUS
 62
     7
 10
-229.8228119553213
 20
210.985820159435
 30
0.0
 11
-229.8228119553213
 21
202.4308656545584
 31
0.0
  0
LINE
  5
2B5
  8
0
  6
CONTINUOUS
 62
     7
 10
-229.8228119553213
 20
202.4308656545584
 30
0.0
 11
-230.0005560255063
 21
202.2531215843734
 31
0.0
  0
LINE
  5
2B6
  8
0
  6
CONTINUOUS
 62
     7
 10
-230.0178574504447
 20
200.253197738245
 30
0.0
 11
-230.0005560255063
 21
202.2531215843734
 31
0.0
  0
LINE
  5
2B7
  8
0
  6
CONTINUOUS
 62
     7
 10
-230.0178574504447
 20
200.253197738245
 30
0.0
 11
-230.0178574504447
 21
200.2184425806249
 31
0.0
  0
LINE
  5
2B8
  8
0
  6
CONTINUOUS
 62
     7
 10
-230.0005560255063
 20
198.2185187344966
 30
0.0
 11
-230.0178574504447
 21
200.2184425806249
 31
0.0
  0
LINE
  5
2B9
  8
0
  6
CONTINUOUS
 62
     7
 10
-230.0005560255063
 20
198.2185187344966
 30
0.0
 11
-229.8228119553213
 21
198.0407746643115
 31
0.0
  0
LINE
  5
2BA
  8
0
  6
CONTINUOUS
 62
     7
 10
-229.8228119553213
 20
198.0407746643115
 30
0.0
 11
-229.8228119553213
 21
194.735820159435
 31
0.0
  0
LINE
  5
2BB
  8
0
  6
CONTINUOUS
 62
     7
 10
-229.831538823112
 20
193.735820159435
 30
0.0
 11
-229.8228119553213
 21
194.735820159435
 31
0.0
  0
LINE
  5
2BC
  8
0
  6
CONTINUOUS
 62
     7
 10
-229.831538823112
 20
193.735820159435
 30
0.0
 11
-229.831538823112
 21
156.735820159435
 31
0.0
  0
LINE
  5
2BD
  8
0
  6
CONTINUOUS
 62
     7
 10
-229.8228119553213
 20
155.735820159435
 30
0.0
 11
-229.831538823112
 21
156.735820159435
 31
0.0
  0
LINE
  5
2BE
  8
0
  6
CONTINUOUS
 62
     7
 10
-229.8228119553213
 20
155.735820159435
 30
0.0
 11
-229.8228119553213
 21
152.4308656545584
 31
0.0
  0
LINE
  5
2BF
  8
0
  6
CONTINUOUS
 62
     7
 10
-229.8228119553213
 20
152.4308656545584
 30
0.0
 11
-230.0005560255063
 21
152.2531215843733
 31
0.0
  0
LINE
  5
2C0
  8
0
  6
CONTINUOUS
 62
     7
 10
-230.0178574504447
 20
150.253197738245
 30
0.0
 11
-230.0005560255063
 21
152.2531215843733
 31
0.0
  0
LINE
  5
2C1
  8
0
  6
CONTINUOUS
 62
     7
 10
-230.0178574504447
 20
150.253197738245
 30
0.0
 11
-230.0178574504447
 21
150.2184425806249
 31
0.0
  0
LINE
  5
2C2
  8
0
  6
CONTINUOUS
 62
     7
 10
-230.0005560255063
 20
148.2185187344966
 30
0.0
 11
-230.0178574504447
 21
150.2184425806249
 31
0.0
  0
LINE
  5
2C3
  8
0
  6
CONTINUOUS
 62
     7
 10
-230.0005560255063
 20
148.2185187344966
 30
0.0
 11
-229.8228119553213
 21
148.0407746643115
 31
0.0
  0
LINE
  5
2C4
  8
0
  6
CONTINUOUS
 62
     7
 10
-229.8228119553213
 20
148.0407746643115
 30
0.0
 11
-229.8228119553213
 21
139.485820159435
 31
0.0
  0
LINE
  5
2C5
  8
0
  6
CONTINUOUS
 62
     7
 10
-222.7376723927709
 20
228.235820159435
 30
0.0
 11
-222.755202283674
 21
228.235820159435
 31
0.0
  0
LINE
  5
2C6
  8
0
  6
CONTINUOUS
 62
     7
 10
-90.77250370861228
 20
228.235820159435
 30
0.0
 11
-90.79003359951537
 21
228.235820159435
 31
0.0
  0
LINE
  5
2C7
  8
0
  6
CONTINUOUS
 62
     7
 10
-176.7484785010031
 20
228.235820159435
 30
0.0
 11
-172.6751295567642
 21
228.235820159435
 31
0.0
  0
LINE
  5
2C8
  8
0
  6
CONTINUOUS
 62
     7
 10
-176.7484785010031
 20
122.235820159435
 30
0.0
 11
-172.6751295567642
 21
122.235820159435
 31
0.0
  0
LINE
  5
2C9
  8
0
  6
CONTINUOUS
 62
     7
 10
-140.852576435522
 20
122.235820159435
 30
0.0
 11
-136.7792274912831
 21
122.235820159435
 31
0.0
  0
LINE
  5
2CA
  8
0
  6
CONTINUOUS
 62
     7
 10
-140.852576435522
 20
228.235820159435
 30
0.0
 11
-136.7792274912831
 21
228.235820159435
 31
0.0
  0
LINE
  5
2CB
  8
0
  6
CONTINUOUS
 62
     7
 10
-126.6751295567641
 20
228.235820159435
 30
0.0
 11
-130.7484785010031
 21
228.235820159435
 31
0.0
  0
LINE
  5
2CC
  8
0
  6
CONTINUOUS
 62
     7
 10
-182.7792274912831
 20
122.235820159435
 30
0.0
 11
-186.8525764355221
 21
122.235820159435
 31
0.0
  0
LINE
  5
2CD
  8
0
  6
CONTINUOUS
 62
     7
 10
-182.7792274912831
 20
228.235820159435
 30
0.0
 11
-186.8525764355221
 21
228.235820159435
 31
0.0
  0
LINE
  5
2CE
  8
0
  6
CONTINUOUS
 62
     7
 10
-126.6751295567641
 20
122.235820159435
 30
0.0
 11
-130.7484785010031
 21
122.235820159435
 31
0.0
  0
LINE
  5
2CF
  8
0
  6
CONTINUOUS
 62
     7
 10
-172.6751295567642
 20
122.235820159435
 30
0.0
 11
-156.7638529961431
 21
122.235820159435
 31
0.0
  0
LINE
  5
2D0
  8
0
  6
CONTINUOUS
 62
     7
 10
-156.7638529961431
 20
122.235820159435
 30
0.0
 11
-140.852576435522
 21
122.235820159435
 31
0.0
  0
LINE
  5
2D1
  8
0
  6
CONTINUOUS
 62
     7
 10
-156.7638529961431
 20
228.235820159435
 30
0.0
 11
-140.852576435522
 21
228.235820159435
 31
0.0
  0
LINE
  5
2D2
  8
0
  6
CONTINUOUS
 62
     7
 10
-172.6751295567642
 20
228.235820159435
 30
0.0
 11
-156.7638529961431
 21
228.235820159435
 31
0.0
  0
LINE
  5
2D3
  8
0
  6
CONTINUOUS
 62
     7
 10
-90.79003359951533
 20
122.235820159435
 30
0.0
 11
-126.6751295567641
 21
122.235820159435
 31
0.0
  0
LINE
  5
2D4
  8
0
  6
CONTINUOUS
 62
     7
 10
-90.79003359951537
 20
228.235820159435
 30
0.0
 11
-126.6751295567641
 21
228.235820159435
 31
0.0
  0
LINE
  5
2D5
  8
0
  6
CONTINUOUS
 62
     7
 10
-186.8525764355221
 20
122.235820159435
 30
0.0
 11
-222.7376723927708
 21
122.235820159435
 31
0.0
  0
LINE
  5
2D6
  8
0
  6
CONTINUOUS
 62
     7
 10
-186.8525764355221
 20
228.235820159435
 30
0.0
 11
-222.7376723927709
 21
228.235820159435
 31
0.0
  0
LINE
  5
2D7
  8
0
  6
CONTINUOUS
 62
     7
 10
-255.0508317673664
 20
183.1489960706015
 30
0.0
 11
-255.0508317673664
 21
167.3226442482684
 31
0.0
  0
ENDBLK
  8
0
  0
ENDSEC
  0
SECTION
  2
ENTITIES
  0
LINE
  5
6F
  8
0
  6
CONTINUOUS
 62
     7
 10
-95.7638529961431
 20
59.96626908570372
 30
0.0
 11
-84.2638529961431
 21
59.96626908570372
 31
0.0
  0
LINE
  5
70
  8
0
  6
CONTINUOUS
 62
     7
 10
-176.4638529961431
 20
127.4858201594349
 30
0.0
 11
-126.6751295567641
 21
127.4858201594349
 31
0.0
  0
ARC
  5
71
  8
0
  6
CONTINUOUS
 62
     7
 10
-95.7638529961431
 20
71.96626908570371
 30
0.0
 40
12.00000000000002
 50
188.3855386470813
 51
270.0
  0
LINE
  5
72
  8
0
  6
CONTINUOUS
 62
     7
 10
-144.7638529961431
 20
63.56626908570373
 30
0.0
 11
-134.2638529961431
 21
63.56626908570373
 31
0.0
  0
ARC
  5
73
  8
0
  6
CONTINUOUS
 62
     7
 10
-122.7638529961431
 20
71.96626908570371
 30
0.0
 40
8.400000000000006
 50
270.0
 51
90.0
  0
LINE
  5
74
  8
0
  6
CONTINUOUS
 62
     7
 10
-126.6751295567641
 20
122.235820159435
 30
0.0
 11
-126.6751295567641
 21
127.4858201594349
 31
0.0
  0
LINE
  5
75
  8
0
  6
CONTINUOUS
 62
     7
 10
-176.7484785010031
 20
228.235820159435
 30
0.0
 11
-176.7484785010031
 21
222.985820159435
 31
0.0
  0
LINE
  5
76
  8
0
  6
CONTINUOUS
 62
     7
 10
-140.852576435522
 20
122.235820159435
 30
0.0
 11
-140.852576435522
 21
127.4858201594349
 31
0.0
  0
LINE
  5
77
  8
0
  6
CONTINUOUS
 62
     7
 10
-136.7792274912831
 20
228.235820159435
 30
0.0
 11
-136.7792274912831
 21
222.985820159435
 31
0.0
  0
LINE
  5
78
  8
0
  6
CONTINUOUS
 62
     7
 10
-130.7484785010031
 20
228.235820159435
 30
0.0
 11
-130.7484785010031
 21
222.985820159435
 31
0.0
  0
LINE
  5
79
  8
0
  6
CONTINUOUS
 62
     7
 10
-172.6751295567642
 20
222.985820159435
 30
0.0
 11
-237.7638529961431
 21
222.985820159435
 31
0.0
  0
LINE
  5
7A
  8
0
  6
CONTINUOUS
 62
     7
 10
-180.2638529961431
 20
63.56626908570373
 30
0.0
 11
-190.7638529961431
 21
63.56626908570373
 31
0.0
  0
LINE
  5
7B
  8
0
  6
CONTINUOUS
 62
     7
 10
-182.7792274912831
 20
228.235820159435
 30
0.0
 11
-182.7792274912831
 21
222.985820159435
 31
0.0
  0
LINE
  5
7C
  8
0
  6
CONTINUOUS
 62
     7
 10
-217.7638529961431
 20
83.96626908570371
 30
0.0
 11
-229.2638529961431
 21
83.96626908570373
 31
0.0
  0
LINE
  5
7D
  8
0
  6
CONTINUOUS
 62
     7
 10
-186.8525764355221
 20
228.235820159435
 30
0.0
 11
-186.8525764355221
 21
222.985820159435
 31
0.0
  0
LINE
  5
7E
  8
0
  6
CONTINUOUS
 62
     7
 10
-229.2638529961431
 20
59.96626908570372
 30
0.0
 11
-217.7638529961431
 21
59.96626908570372
 31
0.0
  0
LINE
  5
7F
  8
0
  6
CONTINUOUS
 62
     7
 10
-176.7484785010031
 20
122.235820159435
 30
0.0
 11
-176.7484785010031
 21
127.4858201594349
 31
0.0
  0
ARC
  5
80
  8
0
  6
CONTINUOUS
 62
     7
 10
-190.7638529961431
 20
71.96626908570371
 30
0.0
 40
8.400000000000006
 50
90.0
 51
270.0
  0
LINE
  5
81
  8
0
  6
CONTINUOUS
 62
     7
 10
-168.7638529961431
 20
63.56626908570373
 30
0.0
 11
-179.2638529961431
 21
63.56626908570373
 31
0.0
  0
LINE
  5
82
  8
0
  6
CONTINUOUS
 62
     7
 10
-179.2638529961431
 20
80.36626908570372
 30
0.0
 11
-168.7638529961431
 21
80.3662690857037
 31
0.0
  0
LINE
  5
83
  8
0
  6
CONTINUOUS
 62
     7
 10
-186.8525764355221
 20
122.235820159435
 30
0.0
 11
-186.8525764355221
 21
127.4858201594349
 31
0.0
  0
LINE
  5
84
  8
0
  6
CONTINUOUS
 62
     7
 10
-126.6751295567641
 20
222.985820159435
 30
0.0
 11
-176.4638529961431
 21
222.985820159435
 31
0.0
  0
LINE
  5
85
  8
0
  6
CONTINUOUS
 62
     7
 10
-134.2638529961431
 20
80.36626908570372
 30
0.0
 11
-144.7638529961431
 21
80.3662690857037
 31
0.0
  0
ARC
  5
86
  8
0
  6
CONTINUOUS
 62
     7
 10
-95.7638529961431
 20
71.96626908570371
 30
0.0
 40
12.00000000000001
 50
90.00000000000011
 51
171.6144613529187
  0
ARC
  5
87
  8
0
  6
CONTINUOUS
 62
     7
 10
-217.7638529961431
 20
71.96626908570371
 30
0.0
 40
12.0
 50
8.385538647081365
 51
90.00000000000001
  0
LINE
  5
88
  8
0
  6
CONTINUOUS
 62
     7
 10
-133.2638529961431
 20
63.56626908570373
 30
0.0
 11
-122.7638529961431
 21
63.56626908570373
 31
0.0
  0
LINE
  5
89
  8
0
  6
CONTINUOUS
 62
     7
 10
-172.6751295567642
 20
122.235820159435
 30
0.0
 11
-172.6751295567642
 21
127.4858201594349
 31
0.0
  0
ARC
  5
8A
  8
0
  6
CONTINUOUS
 62
     7
 10
-144.7638529961431
 20
71.96626908570371
 30
0.0
 40
8.400000000000006
 50
90.0
 51
270.0
  0
LINE
  5
8B
  8
0
  6
CONTINUOUS
 62
     7
 10
-140.852576435522
 20
228.235820159435
 30
0.0
 11
-140.852576435522
 21
222.985820159435
 31
0.0
  0
LINE
  5
8C
  8
0
  6
CONTINUOUS
 62
     7
 10
-172.6751295567642
 20
228.235820159435
 30
0.0
 11
-172.6751295567642
 21
222.985820159435
 31
0.0
  0
LINE
  5
8D
  8
0
  6
CONTINUOUS
 62
     7
 10
-130.7484785010031
 20
122.235820159435
 30
0.0
 11
-130.7484785010031
 21
127.4858201594349
 31
0.0
  0
ARC
  5
8E
  8
0
  6
CONTINUOUS
 62
     7
 10
-168.7638529961431
 20
71.96626908570371
 30
0.0
 40
8.40000000000001
 50
270.0000000000001
 51
90.0
  0
LINE
  5
8F
  8
0
  6
CONTINUOUS
 62
     7
 10
-190.7638529961431
 20
80.36626908570372
 30
0.0
 11
-180.2638529961431
 21
80.36626908570373
 31
0.0
  0
LINE
  5
90
  8
0
  6
CONTINUOUS
 62
     7
 10
-182.7792274912831
 20
122.235820159435
 30
0.0
 11
-182.7792274912831
 21
127.4858201594349
 31
0.0
  0
LINE
  5
91
  8
0
  6
CONTINUOUS
 62
     7
 10
-126.6751295567641
 20
228.235820159435
 30
0.0
 11
-126.6751295567641
 21
222.985820159435
 31
0.0
  0
ARC
  5
92
  8
0
  6
CONTINUOUS
 62
     7
 10
-217.7638529961431
 20
71.96626908570371
 30
0.0
 40
12.00000000000001
 50
270.0
 51
351.6144613529186
  0
LINE
  5
93
  8
0
  6
CONTINUOUS
 62
     7
 10
-122.7638529961431
 20
80.36626908570372
 30
0.0
 11
-133.2638529961431
 21
80.36626908570373
 31
0.0
  0
LINE
  5
94
  8
0
  6
CONTINUOUS
 62
     7
 10
-84.26385299614311
 20
83.96626908570371
 30
0.0
 11
-95.76385299614311
 21
83.9662690857037
 31
0.0
  0
LINE
  5
95
  8
0
  6
CONTINUOUS
 62
     7
 10
-136.7792274912831
 20
122.235820159435
 30
0.0
 11
-136.7792274912831
 21
127.4858201594349
 31
0.0
  0
LINE
  5
96
  8
0
  6
CONTINUOUS
 62
     7
 10
-237.7638529961431
 20
127.485820159435
 30
0.0
 11
-176.4638529961431
 21
127.4858201594349
 31
0.0
  0
LINE
  5
97
  8
0
  6
CENTER
 62
     1
 10
-179.7638529961431
 20
54.96626908570373
 30
0.0
 11
-179.7638529961431
 21
88.9662690857037
 31
0.0
  0
LINE
  5
99
  8
0
  6
CENTER
 62
     1
 10
-133.7638529961431
 20
54.96626908570373
 30
0.0
 11
-133.7638529961431
 21
88.9662690857037
 31
0.0
  0
LINE
  5
9A
  8
0
  6
CENTER
 62
     1
 10
-217.7638529961431
 20
55.96626908570372
 30
0.0
 11
-217.7638529961431
 21
87.96626908570371
 31
0.0
  0
LINE
  5
9B
  8
0
  6
CENTER
 62
     1
 10
-95.76385299614309
 20
55.96626908570372
 30
0.0
 11
-95.76385299614309
 21
87.96626908570371
 31
0.0
  0
CIRCLE
  5
9C
  8
0
  6
CONTINUOUS
 62
     7
 10
-156.7638529961431
 20
175.235820159435
 30
0.0
 40
8.2
  0
POINT
  5
9D
  8
0
 62
     7
 10
-156.7638529961431
 20
175.235820159435
 30
0.0
  0
LINE
  5
9E
  8
0
  6
CENTER
 62
     1
 10
-156.7638529961431
 20
122.235820159435
 30
0.0
 11
-156.7638529961431
 21
228.235820159435
 31
0.0
  0
LINE
  5
9F
  8
0
  6
CENTER
 62
     1
 10
-255.0508317673664
 20
175.235820159435
 30
0.0
 11
-75.76385299614309
 21
175.235820159435
 31
0.0
  0
LINE
  5
A0
  8
0
  6
CENTER
 62
     1
 10
-110.7638529961431
 20
90.96626908570373
 30
0.0
 11
-110.7638529961431
 21
54.96626908570373
 31
0.0
  0
LINE
  5
A1
  8
0
  6
CENTER
 62
     1
 10
-202.7638529961431
 20
90.96626908570373
 30
0.0
 11
-202.7638529961431
 21
54.96626908570373
 31
0.0
  0
LINE
  5
A2
  8
0
  6
CENTER
 62
     1
 10
-208.2638529961431
 20
216.985820159435
 30
0.0
 11
-105.2638529961431
 21
216.985820159435
 31
0.0
  0
LINE
  5
A3
  8
0
  6
CENTER
 62
     1
 10
-179.7638529961431
 20
122.235820159435
 30
0.0
 11
-179.7638529961431
 21
228.235820159435
 31
0.0
  0
LINE
  5
A4
  8
0
  6
CENTER
 62
     1
 10
-208.2638529961431
 20
133.485820159435
 30
0.0
 11
-105.2638529961431
 21
133.485820159435
 31
0.0
  0
LINE
  5
A5
  8
0
  6
CENTER
 62
     1
 10
-133.7638529961431
 20
122.235820159435
 30
0.0
 11
-133.7638529961431
 21
228.235820159435
 31
0.0
  0
LINE
  5
A6
  8
0
  6
CENTER
 62
     1
 10
-156.7638529961431
 20
90.96626908570373
 30
0.0
 11
-156.7638529961431
 21
54.96626908570373
 31
0.0
  0
LINE
  5
A7
  8
0
  6
CENTER
 62
     1
 10
-110.7638529961431
 20
122.235820159435
 30
0.0
 11
-110.7638529961431
 21
228.235820159435
 31
0.0
  0
LINE
  5
A8
  8
0
  6
CENTER
 62
     1
 10
-202.7638529961431
 20
122.235820159435
 30
0.0
 11
-202.7638529961431
 21
228.235820159435
 31
0.0
  0
LINE
  5
A9
  8
0
  6
CENTER
 62
     1
 10
-229.2638529961431
 20
71.96626908570371
 30
0.0
 11
-84.26385299614309
 21
71.96626908570371
 31
0.0
  0
TEXT
  5
AA
  8
0
  6
CONTINUOUS
 62
     7
 10
-187.5598883582789
 20
22.93384736850455
 30
0.0
 40
5.0
  1
ＳＢ－ＫＭＡ３Ｇ
  0
INSERT
  5
1FD
  8
0
  6
CONTINUOUS
 62
     7
  2
D_FRAME_VIEW_4070
 10
0.0
 20
0.0
 30
0.0
  0
INSERT
  5
2D8
  8
0
  6
CONTINUOUS
 62
     7
  2
D_FRAME_VIEW_1489
 10
0.0
 20
0.0
 30
0.0
  0
ENDSEC
  0
EOF
