  0
SECTION
  2
HEADER
  9
$ACADVER
  1
AC1006
  9
$DWGCODEPAGE
  3
ansi_932
  9
$INSBASE
 10
0.0
 20
0.0
 30
0.0
  9
$EXTMIN
 10
-459.28083912783
 20
-29.53440991152269
  9
$EXTMAX
 10
-222.28083912783
 20
170.4539395672267
  9
$LIMMIN
 10
0.0
 20
0.0
  9
$LIMMAX
 10
12.0
 20
9.0
  9
$ORTHOMODE
 70
     0
  9
$REGENMODE
 70
     1
  9
$FILLMODE
 70
     1
  9
$QTEXTMODE
 70
     0
  9
$MIRRTEXT
 70
     1
  9
$DRAGMODE
 70
     2
  9
$LTSCALE
 40
1.0
  9
$OSMODE
 70
    37
  9
$ATTMODE
 70
     1
  9
$TEXTSIZE
 40
0.2
  9
$TRACEWID
 40
0.05
  9
$TEXTSTYLE
  7
STANDARD
  9
$CLAYER
  8
0
  9
$CELTYPE
  6
BYLAYER
  9
$CECOLOR
 62
   256
  9
$DIMSCALE
 40
1.0
  9
$DIMASZ
 40
3.0
  9
$DIMEXO
 40
0.0625
  9
$DIMDLI
 40
0.38
  9
$DIMRND
 40
0.0
  9
$DIMDLE
 40
0.0
  9
$DIMEXE
 40
1.5
  9
$DIMTP
 40
0.0
  9
$DIMTM
 40
0.0
  9
$DIMTXT
 40
3.0
  9
$DIMCEN
 40
0.09
  9
$DIMTSZ
 40
0.0
  9
$DIMTOL
 70
     0
  9
$DIMLIM
 70
     0
  9
$DIMTIH
 70
     1
  9
$DIMTOH
 70
     1
  9
$DIMSE1
 70
     0
  9
$DIMSE2
 70
     0
  9
$DIMTAD
 70
     1
  9
$DIMZIN
 70
     0
  9
$DIMBLK
  1

  9
$DIMASO
 70
     1
  9
$DIMSHO
 70
     1
  9
$DIMPOST
  1

  9
$DIMAPOST
  1

  9
$DIMALT
 70
     0
  9
$DIMALTD
 70
     2
  9
$DIMALTF
 40
25.4
  9
$DIMLFAC
 40
1.0
  9
$DIMTOFL
 70
     0
  9
$DIMTVP
 40
0.0
  9
$DIMTIX
 70
     0
  9
$DIMSOXD
 70
     0
  9
$DIMSAH
 70
     0
  9
$DIMBLK1
  1

  9
$DIMBLK2
  1

  9
$LUNITS
 70
     2
  9
$LUPREC
 70
     4
  9
$SKETCHINC
 40
0.1
  9
$FILLETRAD
 40
0.5
  9
$AUNITS
 70
     0
  9
$AUPREC
 70
     0
  9
$MENU
  1
.
  9
$ELEVATION
 40
0.0
  9
$THICKNESS
 40
0.0
  9
$LIMCHECK
 70
     0
  9
$CHAMFERA
 40
0.0
  9
$CHAMFERB
 40
0.0
  9
$SKPOLY
 70
     0
  9
$TDCREATE
 40
2460427.646121655
  9
$TDUPDATE
 40
2460427.646121933
  9
$TDINDWG
 40
0.0000000116
  9
$TDUSRTIMER
 40
0.0000000116
  9
$USRTIMER
 70
     1
  9
$ANGBASE
 50
0.0
  9
$ANGDIR
 70
     0
  9
$PDMODE
 70
     0
  9
$PDSIZE
 40
0.0
  9
$PLINEWID
 40
0.0
  9
$COORDS
 70
     1
  9
$SPLFRAME
 70
     0
  9
$SPLINETYPE
 70
     6
  9
$SPLINESEGS
 70
     8
  9
$ATTDIA
 70
     0
  9
$ATTREQ
 70
     1
  9
$HANDLING
 70
     1
  9
$HANDSEED
  5
505
  9
$SURFTAB1
 70
     6
  9
$SURFTAB2
 70
     6
  9
$SURFTYPE
 70
     6
  9
$SURFU
 70
     6
  9
$SURFV
 70
     6
  9
$UCSNAME
  2

  9
$UCSORG
 10
0.0
 20
0.0
 30
0.0
  9
$UCSXDIR
 10
1.0
 20
0.0
 30
0.0
  9
$UCSYDIR
 10
0.0
 20
1.0
 30
0.0
  9
$USERI1
 70
     0
  9
$USERI2
 70
     0
  9
$USERI3
 70
     0
  9
$USERI4
 70
     0
  9
$USERI5
 70
     0
  9
$USERR1
 40
0.0
  9
$USERR2
 40
0.0
  9
$USERR3
 40
0.0
  9
$USERR4
 40
0.0
  9
$USERR5
 40
0.0
  9
$WORLDVIEW
 70
     1
  0
ENDSEC
  0
SECTION
  2
TABLES
  0
TABLE
  2
VPORT
 70
     1
  0
VPORT
  2
*ACTIVE
 70
     0
 10
0.0
 20
0.0
 11
1.0
 21
1.0
 12
-340.78083912783
 22
70.45976482785201
 13
0.0
 23
0.0
 14
0.5
 24
0.5
 15
0.5
 25
0.5
 16
0.0
 26
0.0
 36
1.0
 17
0.0
 27
0.0
 37
0.0
 40
199.9883494787494
 41
1.6
 42
50.0
 43
0.0
 44
0.0
 50
0.0
 51
0.0
 71
     0
 72
   100
 73
     1
 74
     3
 75
     0
 76
     0
 77
     0
 78
     0
  0
ENDTAB
  0
TABLE
  2
LTYPE
 70
     2
  0
LTYPE
  2
CONTINUOUS
 70
     0
  3
Solid line
 72
    65
 73
     0
 40
0.0
  0
LTYPE
  2
CENTER
 70
     0
  3

 72
    65
 73
     0
 40
0.0
  0
ENDTAB
  0
TABLE
  2
LAYER
 70
     1
  0
LAYER
  2
0
 70
     0
 62
     7
  6
CONTINUOUS
  0
ENDTAB
  0
TABLE
  2
STYLE
 70
     2
  0
STYLE
  2
STANDARD
 70
     0
 40
0.0
 41
1.0
 50
0.0
 71
     0
 42
0.2
  3
txt
  4

  0
STYLE
  2
ＭＳ_ゴシック
 70
     0
 40
0.0
 41
1.0
 50
0.0
 71
     0
 42
0.2
  3
ＭＳ ゴシック.shx
  4

  0
ENDTAB
  0
TABLE
  2
VIEW
 70
     0
  0
ENDTAB
  0
TABLE
  2
UCS
 70
     0
  0
ENDTAB
  0
ENDSEC
  0
SECTION
  2
BLOCKS
  0
BLOCK
  8
0
  2
D_FRAME_VIEW_12066
 70
     0
 10
0.0
 20
0.0
 30
0.0
  0
LINE
  5
8A
  8
0
  6
CONTINUOUS
 62
     7
 10
-234.28083912783
 20
22.72695372484096
 30
0.0
 11
-229.28083912783
 21
22.72695372484096
 31
0.0
  0
LINE
  5
8B
  8
0
  6
CONTINUOUS
 62
     7
 10
-229.28083912783
 20
22.72695372484096
 30
0.0
 11
-229.28083912783
 21
20.22695372484096
 31
0.0
  0
LINE
  5
8C
  8
0
  6
CONTINUOUS
 62
     7
 10
-229.28083912783
 20
20.22695372484096
 30
0.0
 11
-234.28083912783
 21
20.22695372484096
 31
0.0
  0
LINE
  5
8D
  8
0
  6
CONTINUOUS
 62
     7
 10
-332.28083912783
 20
21.1983589344971
 30
0.0
 11
-332.28083912783
 21
22.22695372484096
 31
0.0
  0
ARC
  5
8E
  8
0
  6
CONTINUOUS
 62
     7
 10
-331.7808391278301
 20
22.22695372484096
 30
0.0
 40
0.5000000000000004
 50
90.0
 51
180.0
  0
LINE
  5
8F
  8
0
  6
CONTINUOUS
 62
     7
 10
-331.2808391278301
 20
22.72695372484096
 30
0.0
 11
-331.7808391278301
 21
22.72695372484096
 31
0.0
  0
ARC
  5
90
  8
0
  6
CONTINUOUS
 62
     7
 10
-331.2808391278301
 20
21.72695372484096
 30
0.0
 40
1.000000000000001
 50
0.0
 51
90.0
  0
LINE
  5
91
  8
0
  6
CONTINUOUS
 62
     7
 10
-330.2808391278301
 20
20.96789337440763
 30
0.0
 11
-330.2808391278301
 21
21.72695372484096
 31
0.0
  0
ARC
  5
92
  8
0
  6
CONTINUOUS
 62
     7
 10
-333.28083912783
 20
3.726953724840956
 30
0.0
 40
17.5
 50
66.1044918138386
 51
80.12911039386051
  0
LINE
  5
93
  8
0
  6
CONTINUOUS
 62
     7
 10
-326.1921156884512
 20
19.72695372484096
 30
0.0
 11
-294.369562567209
 21
19.72695372484096
 31
0.0
  0
ARC
  5
94
  8
0
  6
CONTINUOUS
 62
     7
 10
-287.2808391278301
 20
3.726953724840956
 30
0.0
 40
17.50000000000001
 50
99.8708896061395
 51
113.8955081861615
  0
LINE
  5
95
  8
0
  6
CONTINUOUS
 62
     7
 10
-290.2808391278301
 20
20.96789337440763
 30
0.0
 11
-290.2808391278301
 21
21.72695372484096
 31
0.0
  0
ARC
  5
96
  8
0
  6
CONTINUOUS
 62
     7
 10
-289.2808391278301
 20
21.72695372484096
 30
0.0
 40
1.000000000000001
 50
90.0
 51
180.0
  0
LINE
  5
97
  8
0
  6
CONTINUOUS
 62
     7
 10
-288.78083912783
 20
22.72695372484096
 30
0.0
 11
-289.28083912783
 21
22.72695372484096
 31
0.0
  0
ARC
  5
98
  8
0
  6
CONTINUOUS
 62
     7
 10
-288.78083912783
 20
22.22695372484096
 30
0.0
 40
0.5000000000000004
 50
0.0
 51
90.0
  0
LINE
  5
99
  8
0
  6
CONTINUOUS
 62
     7
 10
-288.2808391278301
 20
21.1983589344971
 30
0.0
 11
-288.2808391278301
 21
22.22695372484096
 31
0.0
  0
ARC
  5
9A
  8
0
  6
CONTINUOUS
 62
     7
 10
-287.2808391278301
 20
3.726953724840956
 30
0.0
 40
17.5
 50
86.72417104020154
 51
93.27582895979826
  0
LINE
  5
9B
  8
0
  6
CONTINUOUS
 62
     7
 10
-286.2808391278301
 20
21.1983589344971
 30
0.0
 11
-286.2808391278301
 21
22.22695372484096
 31
0.0
  0
ARC
  5
9C
  8
0
  6
CONTINUOUS
 62
     7
 10
-285.78083912783
 20
22.22695372484096
 30
0.0
 40
0.5000000000000004
 50
90.0
 51
180.0
  0
LINE
  5
9D
  8
0
  6
CONTINUOUS
 62
     7
 10
-285.2808391278301
 20
22.72695372484096
 30
0.0
 11
-285.7808391278301
 21
22.72695372484096
 31
0.0
  0
ARC
  5
9E
  8
0
  6
CONTINUOUS
 62
     7
 10
-285.2808391278301
 20
21.72695372484096
 30
0.0
 40
1.000000000000001
 50
0.0
 51
90.0
  0
LINE
  5
9F
  8
0
  6
CONTINUOUS
 62
     7
 10
-284.2808391278301
 20
20.96789337440763
 30
0.0
 11
-284.2808391278301
 21
21.72695372484096
 31
0.0
  0
LINE
  5
A0
  8
0
  6
CONTINUOUS
 62
     7
 10
-280.1921156884512
 20
19.72695372484096
 30
0.0
 11
-244.3070197312023
 21
19.72695372484096
 31
0.0
  0
LINE
  5
A1
  8
0
  6
CONTINUOUS
 62
     7
 10
-244.2894898402992
 20
21.73568026033933
 30
0.0
 11
-244.3070197312023
 21
19.72695372484096
 31
0.0
  0
LINE
  5
A2
  8
0
  6
CONTINUOUS
 62
     7
 10
-260.2808391278301
 20
18.47695372484095
 30
0.0
 11
-260.2808391278301
 21
17.72695372484095
 31
0.0
  0
LINE
  5
A3
  8
0
  6
CONTINUOUS
 62
     7
 10
-268.2808391278301
 20
17.72695372484095
 30
0.0
 11
-268.2808391278301
 21
18.47695372484095
 31
0.0
  0
LINE
  5
A4
  8
0
  6
CONTINUOUS
 62
     7
 10
-306.2808391278301
 20
17.72695372484095
 30
0.0
 11
-292.6660039349646
 21
17.72695372484095
 31
0.0
  0
LINE
  5
A5
  8
0
  6
CONTINUOUS
 62
     7
 10
-306.2808391278301
 20
18.47695372484095
 30
0.0
 11
-306.2808391278301
 21
17.72695372484095
 31
0.0
  0
LINE
  5
A6
  8
0
  6
CONTINUOUS
 62
     7
 10
-314.2808391278301
 20
18.47695372484095
 30
0.0
 11
-306.2808391278301
 21
18.47695372484095
 31
0.0
  0
LINE
  5
A7
  8
0
  6
CONTINUOUS
 62
     7
 10
-314.2808391278301
 20
17.72695372484095
 30
0.0
 11
-314.2808391278301
 21
18.47695372484095
 31
0.0
  0
LINE
  5
A8
  8
0
  6
CONTINUOUS
 62
     7
 10
-327.8956743206955
 20
17.72695372484095
 30
0.0
 11
-314.2808391278301
 21
17.72695372484095
 31
0.0
  0
ARC
  5
A9
  8
0
  6
CONTINUOUS
 62
     7
 10
-333.2808391278301
 20
3.726953724840956
 30
0.0
 40
14.99999999999999
 50
68.96053021868283
 51
111.0394697813172
  0
LINE
  5
AA
  8
0
  6
CONTINUOUS
 62
     7
 10
-352.28083912783
 20
17.72695372484095
 30
0.0
 11
-338.6660039349645
 21
17.72695372484095
 31
0.0
  0
LINE
  5
AB
  8
0
  6
CONTINUOUS
 62
     7
 10
-352.28083912783
 20
18.47695372484095
 30
0.0
 11
-352.28083912783
 21
17.72695372484095
 31
0.0
  0
LINE
  5
AC
  8
0
  6
CONTINUOUS
 62
     7
 10
-360.2808391278301
 20
18.47695372484095
 30
0.0
 11
-352.28083912783
 21
18.47695372484095
 31
0.0
  0
LINE
  5
AD
  8
0
  6
CONTINUOUS
 62
     7
 10
-360.2808391278301
 20
17.72695372484095
 30
0.0
 11
-360.2808391278301
 21
18.47695372484095
 31
0.0
  0
LINE
  5
AE
  8
0
  6
CONTINUOUS
 62
     7
 10
-373.8956743206956
 20
17.72695372484095
 30
0.0
 11
-360.2808391278301
 21
17.72695372484095
 31
0.0
  0
ARC
  5
AF
  8
0
  6
CONTINUOUS
 62
     7
 10
-379.2808391278301
 20
3.726953724840956
 30
0.0
 40
15.0
 50
68.96053021868283
 51
111.0394697813172
  0
LINE
  5
B0
  8
0
  6
CONTINUOUS
 62
     7
 10
-398.2808391278301
 20
17.72695372484095
 30
0.0
 11
-384.6660039349646
 21
17.72695372484095
 31
0.0
  0
LINE
  5
B1
  8
0
  6
CONTINUOUS
 62
     7
 10
-398.2808391278301
 20
18.47695372484095
 30
0.0
 11
-398.2808391278301
 21
17.72695372484095
 31
0.0
  0
LINE
  5
B2
  8
0
  6
CONTINUOUS
 62
     7
 10
-406.2808391278301
 20
18.47695372484095
 30
0.0
 11
-398.2808391278301
 21
18.47695372484095
 31
0.0
  0
LINE
  5
B3
  8
0
  6
CONTINUOUS
 62
     7
 10
-406.2808391278301
 20
17.72695372484095
 30
0.0
 11
-406.2808391278301
 21
18.47695372484095
 31
0.0
  0
LINE
  5
B4
  8
0
  6
CONTINUOUS
 62
     7
 10
-424.7808391278301
 20
17.72695372484095
 30
0.0
 11
-406.28083912783
 21
17.72695372484095
 31
0.0
  0
LINE
  5
B5
  8
0
  6
CONTINUOUS
 62
     7
 10
-424.7808391278301
 20
17.72695372484095
 30
0.0
 11
-424.7808391278301
 21
20.22695372484096
 31
0.0
  0
LINE
  5
B6
  8
0
  6
CONTINUOUS
 62
     7
 10
-424.7808391278301
 20
20.22695372484096
 30
0.0
 11
-432.2808391278301
 21
20.22695372484096
 31
0.0
  0
LINE
  5
B7
  8
0
  6
CONTINUOUS
 62
     7
 10
-432.2808391278301
 20
22.72695372484096
 30
0.0
 11
-423.272150338425
 21
22.72695372484096
 31
0.0
  0
ARC
  5
B8
  8
0
  6
CONTINUOUS
 62
     7
 10
-423.272150338425
 20
21.72695372484096
 30
0.0
 40
1.000000000000003
 50
0.4999999999999942
 51
90.0
  0
LINE
  5
B9
  8
0
  6
CONTINUOUS
 62
     7
 10
-422.2721884153609
 20
21.73568026033933
 30
0.0
 11
-422.2546585244577
 21
19.72695372484096
 31
0.0
  0
LINE
  5
BA
  8
0
  6
CONTINUOUS
 62
     7
 10
-422.2546585244578
 20
19.72695372484096
 30
0.0
 11
-386.369562567209
 21
19.72695372484096
 31
0.0
  0
ARC
  5
BB
  8
0
  6
CONTINUOUS
 62
     7
 10
-379.2808391278301
 20
3.726953724840956
 30
0.0
 40
17.5
 50
99.87088960613954
 51
113.8955081861615
  0
LINE
  5
BC
  8
0
  6
CONTINUOUS
 62
     7
 10
-382.2808391278301
 20
20.96789337440763
 30
0.0
 11
-382.2808391278301
 21
21.72695372484096
 31
0.0
  0
ARC
  5
BD
  8
0
  6
CONTINUOUS
 62
     7
 10
-381.2808391278301
 20
21.72695372484096
 30
0.0
 40
1.000000000000001
 50
90.0
 51
180.0
  0
LINE
  5
BE
  8
0
  6
CONTINUOUS
 62
     7
 10
-380.7808391278301
 20
22.72695372484096
 30
0.0
 11
-381.2808391278301
 21
22.72695372484096
 31
0.0
  0
ARC
  5
BF
  8
0
  6
CONTINUOUS
 62
     7
 10
-380.7808391278301
 20
22.22695372484096
 30
0.0
 40
0.5000000000000004
 50
0.0
 51
90.0
  0
LINE
  5
C0
  8
0
  6
CONTINUOUS
 62
     7
 10
-380.2808391278301
 20
21.1983589344971
 30
0.0
 11
-380.2808391278301
 21
22.22695372484096
 31
0.0
  0
ARC
  5
C1
  8
0
  6
CONTINUOUS
 62
     7
 10
-379.2808391278301
 20
3.726953724840956
 30
0.0
 40
17.5
 50
86.72417104020167
 51
93.27582895979843
  0
LINE
  5
C2
  8
0
  6
CONTINUOUS
 62
     7
 10
-378.2808391278301
 20
21.1983589344971
 30
0.0
 11
-378.2808391278301
 21
22.22695372484096
 31
0.0
  0
ARC
  5
C3
  8
0
  6
CONTINUOUS
 62
     7
 10
-377.7808391278301
 20
22.22695372484096
 30
0.0
 40
0.5000000000000004
 50
90.0
 51
180.0
  0
LINE
  5
C4
  8
0
  6
CONTINUOUS
 62
     7
 10
-377.2808391278301
 20
22.72695372484096
 30
0.0
 11
-377.7808391278301
 21
22.72695372484096
 31
0.0
  0
ARC
  5
C5
  8
0
  6
CONTINUOUS
 62
     7
 10
-377.2808391278301
 20
21.72695372484096
 30
0.0
 40
1.000000000000001
 50
0.0
 51
90.0
  0
LINE
  5
C6
  8
0
  6
CONTINUOUS
 62
     7
 10
-376.2808391278301
 20
20.96789337440763
 30
0.0
 11
-376.2808391278301
 21
21.72695372484096
 31
0.0
  0
ARC
  5
C7
  8
0
  6
CONTINUOUS
 62
     7
 10
-379.2808391278301
 20
3.726953724840956
 30
0.0
 40
17.50000000000001
 50
66.1044918138386
 51
80.12911039386051
  0
LINE
  5
C8
  8
0
  6
CONTINUOUS
 62
     7
 10
-372.1921156884511
 20
19.72695372484096
 30
0.0
 11
-340.369562567209
 21
19.72695372484096
 31
0.0
  0
ARC
  5
C9
  8
0
  6
CONTINUOUS
 62
     7
 10
-333.28083912783
 20
3.726953724840956
 30
0.0
 40
17.5
 50
99.87088960613954
 51
113.8955081861615
  0
LINE
  5
CA
  8
0
  6
CONTINUOUS
 62
     7
 10
-336.28083912783
 20
20.96789337440763
 30
0.0
 11
-336.28083912783
 21
21.72695372484096
 31
0.0
  0
ARC
  5
CB
  8
0
  6
CONTINUOUS
 62
     7
 10
-335.2808391278301
 20
21.72695372484096
 30
0.0
 40
1.000000000000001
 50
90.0
 51
180.0
  0
LINE
  5
CC
  8
0
  6
CONTINUOUS
 62
     7
 10
-334.7808391278301
 20
22.72695372484096
 30
0.0
 11
-335.2808391278301
 21
22.72695372484096
 31
0.0
  0
ARC
  5
CD
  8
0
  6
CONTINUOUS
 62
     7
 10
-334.7808391278301
 20
22.22695372484096
 30
0.0
 40
0.5000000000000004
 50
0.0
 51
90.0
  0
LINE
  5
CE
  8
0
  6
CONTINUOUS
 62
     7
 10
-334.2808391278301
 20
21.1983589344971
 30
0.0
 11
-334.2808391278301
 21
22.22695372484096
 31
0.0
  0
ARC
  5
CF
  8
0
  6
CONTINUOUS
 62
     7
 10
-333.28083912783
 20
3.726953724840956
 30
0.0
 40
17.5
 50
86.72417104020167
 51
93.27582895979843
  0
LINE
  5
D0
  8
0
  6
CONTINUOUS
 62
     7
 10
-268.2808391278301
 20
18.47695372484095
 30
0.0
 11
-260.2808391278301
 21
18.47695372484095
 31
0.0
  0
LINE
  5
D1
  8
0
  6
CONTINUOUS
 62
     7
 10
-281.8956743206955
 20
17.72695372484095
 30
0.0
 11
-268.2808391278301
 21
17.72695372484095
 31
0.0
  0
ARC
  5
D2
  8
0
  6
CONTINUOUS
 62
     7
 10
-287.2808391278301
 20
3.726953724840956
 30
0.0
 40
17.50000000000001
 50
66.10449181383854
 51
80.12911039386044
  0
LINE
  5
D3
  8
0
  6
CONTINUOUS
 62
     7
 10
-243.2895279172351
 20
22.72695372484096
 30
0.0
 11
-234.28083912783
 21
22.72695372484096
 31
0.0
  0
LINE
  5
D4
  8
0
  6
CONTINUOUS
 62
     7
 10
-260.2808391278301
 20
17.72695372484095
 30
0.0
 11
-241.78083912783
 21
17.72695372484095
 31
0.0
  0
ARC
  5
D5
  8
0
  6
CONTINUOUS
 62
     7
 10
-287.2808391278301
 20
3.726953724840956
 30
0.0
 40
15.0
 50
68.9605302186828
 51
111.0394697813172
  0
ARC
  5
D6
  8
0
  6
CONTINUOUS
 62
     7
 10
-243.2895279172351
 20
21.72695372484096
 30
0.0
 40
1.000000000000001
 50
90.0
 51
179.5
  0
LINE
  5
D7
  8
0
  6
CONTINUOUS
 62
     7
 10
-241.78083912783
 20
20.22695372484096
 30
0.0
 11
-234.28083912783
 21
20.22695372484096
 31
0.0
  0
LINE
  5
D8
  8
0
  6
CONTINUOUS
 62
     7
 10
-241.78083912783
 20
17.72695372484095
 30
0.0
 11
-241.78083912783
 21
20.22695372484096
 31
0.0
  0
LINE
  5
D9
  8
0
  6
CONTINUOUS
 62
     7
 10
-437.2808391278301
 20
20.22695372484096
 30
0.0
 11
-437.2808391278301
 21
22.72695372484096
 31
0.0
  0
LINE
  5
DA
  8
0
  6
CONTINUOUS
 62
     7
 10
-432.2808391278301
 20
20.22695372484096
 30
0.0
 11
-437.2808391278301
 21
20.22695372484096
 31
0.0
  0
LINE
  5
DB
  8
0
  6
CONTINUOUS
 62
     7
 10
-437.2808391278301
 20
22.72695372484096
 30
0.0
 11
-432.2808391278301
 21
22.72695372484096
 31
0.0
  0
ARC
  5
DC
  8
0
  6
CONTINUOUS
 62
     7
 10
-249.2808391278301
 20
3.726953724840956
 30
0.0
 40
14.00000000000001
 50
180.0
 51
269.9999999999999
  0
ARC
  5
DD
  8
0
  6
CONTINUOUS
 62
     7
 10
-249.2808391278301
 20
3.726953724840956
 30
0.0
 40
14.0
 50
90.0
 51
180.0
  0
ARC
  5
DE
  8
0
  6
CONTINUOUS
 62
     7
 10
-417.28083912783
 20
3.726953724840956
 30
0.0
 40
14.0
 50
270.0000000000001
 51
90.0
  0
ARC
  5
DF
  8
0
  6
CONTINUOUS
 62
     7
 10
-287.2808391278301
 20
3.726953724841053
 30
0.0
 40
15.00000000000009
 50
249.8030374421745
 51
290.1969625578255
  0
ARC
  5
E0
  8
0
  6
CONTINUOUS
 62
     7
 10
-333.2808391278301
 20
3.726953724841053
 30
0.0
 40
15.00000000000009
 50
249.8030374421745
 51
290.1969625578255
  0
ARC
  5
E1
  8
0
  6
CONTINUOUS
 62
     7
 10
-379.2808391278301
 20
3.726953724840929
 30
0.0
 40
14.99999999999998
 50
249.8030374421743
 51
290.1969625578257
  0
ARC
  5
E2
  8
0
  6
CONTINUOUS
 62
     7
 10
-287.2808391278301
 20
3.726953724840956
 30
0.0
 40
15.0
 50
111.0394697813172
 51
129.9445051898149
  0
ARC
  5
E3
  8
0
  6
CONTINUOUS
 62
     7
 10
-333.28083912783
 20
3.726953724840956
 30
0.0
 40
15.0
 50
111.0394697813172
 51
129.9445051898149
  0
ARC
  5
E4
  8
0
  6
CONTINUOUS
 62
     7
 10
-379.2808391278301
 20
3.726953724840956
 30
0.0
 40
15.0
 50
111.0394697813172
 51
129.9445051898148
  0
ARC
  5
E5
  8
0
  6
CONTINUOUS
 62
     7
 10
-287.2808391278301
 20
3.726953724840956
 30
0.0
 40
15.0
 50
50.05549481018516
 51
68.9605302186828
  0
ARC
  5
E6
  8
0
  6
CONTINUOUS
 62
     7
 10
-333.2808391278301
 20
3.726953724840956
 30
0.0
 40
15.0
 50
50.05549481018514
 51
68.96053021868278
  0
ARC
  5
E7
  8
0
  6
CONTINUOUS
 62
     7
 10
-379.2808391278301
 20
3.726953724840956
 30
0.0
 40
14.99999999999998
 50
50.05549481018514
 51
68.96053021868282
  0
LINE
  5
E8
  8
0
  6
CONTINUOUS
 62
     7
 10
-268.2808391278301
 20
15.98632272661341
 30
0.0
 11
-260.2808391278301
 21
15.98632272661341
 31
0.0
  0
LINE
  5
E9
  8
0
  6
CONTINUOUS
 62
     7
 10
-268.2808391278301
 20
17.72695372484095
 30
0.0
 11
-268.2808391278301
 21
15.98632272661341
 31
0.0
  0
LINE
  5
EA
  8
0
  6
CONTINUOUS
 62
     7
 10
-260.2808391278301
 20
17.72695372484095
 30
0.0
 11
-260.2808391278301
 21
15.98632272661341
 31
0.0
  0
ARC
  5
EB
  8
0
  6
CONTINUOUS
 62
     7
 10
-236.78083912783
 20
-10.77304627515904
 30
0.0
 40
2.500000000000002
 50
270.0
 51
0.0
  0
LINE
  5
EC
  8
0
  6
CONTINUOUS
 62
     7
 10
-314.2808391278301
 20
15.98632272661341
 30
0.0
 11
-306.2808391278301
 21
15.98632272661341
 31
0.0
  0
ARC
  5
ED
  8
0
  6
CONTINUOUS
 62
     7
 10
-287.2808391278301
 20
3.726953724840956
 30
0.0
 40
15.0
 50
290.1969625578257
 51
309.9445051898148
  0
LINE
  5
EE
  8
0
  6
CONTINUOUS
 62
     7
 10
-249.2808391278301
 20
-10.27304627515904
 30
0.0
 11
-236.78083912783
 21
-10.27304627515904
 31
0.0
  0
LINE
  5
EF
  8
0
  6
CONTINUOUS
 62
     7
 10
-314.2808391278301
 20
17.72695372484095
 30
0.0
 11
-314.2808391278301
 21
15.98632272661341
 31
0.0
  0
LINE
  5
F0
  8
0
  6
CONTINUOUS
 62
     7
 10
-306.2808391278301
 20
17.72695372484095
 30
0.0
 11
-306.2808391278301
 21
15.98632272661341
 31
0.0
  0
LINE
  5
F1
  8
0
  6
CONTINUOUS
 62
     7
 10
-236.78083912783
 20
-10.27304627515904
 30
0.0
 11
-234.78083912783
 21
-10.27304627515904
 31
0.0
  0
ARC
  5
F2
  8
0
  6
CONTINUOUS
 62
     7
 10
-234.78083912783
 20
-10.77304627515904
 30
0.0
 40
0.5000000000000004
 50
359.9999999999993
 51
90.0
  0
ARC
  5
F3
  8
0
  6
CONTINUOUS
 62
     7
 10
-234.78083912783
 20
18.22695372484095
 30
0.0
 40
0.5000000000000004
 50
270.0
 51
0.0
  0
LINE
  5
F4
  8
0
  6
CONTINUOUS
 62
     7
 10
-234.78083912783
 20
17.72695372484095
 30
0.0
 11
-236.78083912783
 21
17.72695372484095
 31
0.0
  0
LINE
  5
F5
  8
0
  6
CONTINUOUS
 62
     7
 10
-277.650158985701
 20
-7.773046275159054
 30
0.0
 11
-276.2808391278301
 21
-7.77304627515904
 31
0.0
  0
LINE
  5
F6
  8
0
  6
CONTINUOUS
 62
     7
 10
-236.78083912783
 20
17.72695372484095
 30
0.0
 11
-241.78083912783
 21
17.72695372484095
 31
0.0
  0
ARC
  5
F7
  8
0
  6
CONTINUOUS
 62
     7
 10
-276.2808391278301
 20
3.726953724840956
 30
0.0
 40
11.5
 50
270.0
 51
90.0
  0
LINE
  5
F8
  8
0
  6
CONTINUOUS
 62
     7
 10
-276.2808391278301
 20
15.22695372484095
 30
0.0
 11
-277.650158985701
 21
15.22695372484095
 31
0.0
  0
LINE
  5
F9
  8
0
  6
CONTINUOUS
 62
     7
 10
-236.78083912783
 20
-13.27304627515904
 30
0.0
 11
-283.5015793585258
 21
-13.27304627515904
 31
0.0
  0
LINE
  5
FA
  8
0
  6
CONTINUOUS
 62
     7
 10
-283.5015793585258
 20
-13.27304627515904
 30
0.0
 11
-283.501715766754
 21
-13.25741544042044
 31
0.0
  0
LINE
  5
FB
  8
0
  6
CONTINUOUS
 62
     7
 10
-283.501715766754
 20
-13.25741544042044
 30
0.0
 11
-291.0599624889061
 21
-13.25741544042044
 31
0.0
  0
LINE
  5
FC
  8
0
  6
CONTINUOUS
 62
     7
 10
-291.0599624889061
 20
-13.25741544042044
 30
0.0
 11
-291.0600988971344
 21
-13.27304627515904
 31
0.0
  0
LINE
  5
FD
  8
0
  6
CONTINUOUS
 62
     7
 10
-291.0600988971344
 20
-13.27304627515904
 30
0.0
 11
-329.5015793585258
 21
-13.27304627515904
 31
0.0
  0
LINE
  5
FE
  8
0
  6
CONTINUOUS
 62
     7
 10
-329.5015793585258
 20
-13.27304627515904
 30
0.0
 11
-329.5017157667539
 21
-13.25741544042044
 31
0.0
  0
LINE
  5
FF
  8
0
  6
CONTINUOUS
 62
     7
 10
-329.501715766754
 20
-13.25741544042043
 30
0.0
 11
-337.0599624889061
 21
-13.25741544042044
 31
0.0
  0
LINE
  5
100
  8
0
  6
CONTINUOUS
 62
     7
 10
-337.0599624889061
 20
-13.25741544042044
 30
0.0
 11
-337.0600988971343
 21
-13.27304627515904
 31
0.0
  0
LINE
  5
101
  8
0
  6
CONTINUOUS
 62
     7
 10
-337.0600988971343
 20
-13.27304627515904
 30
0.0
 11
-375.5015793585258
 21
-13.27304627515904
 31
0.0
  0
LINE
  5
102
  8
0
  6
CONTINUOUS
 62
     7
 10
-375.5015793585258
 20
-13.27304627515904
 30
0.0
 11
-375.501715766754
 21
-13.25741544042044
 31
0.0
  0
LINE
  5
103
  8
0
  6
CONTINUOUS
 62
     7
 10
-375.501715766754
 20
-13.25741544042043
 30
0.0
 11
-383.0599624889061
 21
-13.25741544042044
 31
0.0
  0
LINE
  5
104
  8
0
  6
CONTINUOUS
 62
     7
 10
-383.0599624889061
 20
-13.25741544042044
 30
0.0
 11
-383.0600988971343
 21
-13.27304627515904
 31
0.0
  0
LINE
  5
105
  8
0
  6
CONTINUOUS
 62
     7
 10
-383.0600988971343
 20
-13.27304627515904
 30
0.0
 11
-429.7808391278301
 21
-13.27304627515904
 31
0.0
  0
LINE
  5
106
  8
0
  6
CONTINUOUS
 62
     7
 10
-234.28083912783
 20
20.22695372484096
 30
0.0
 11
-234.28083912783
 21
18.22695372484095
 31
0.0
  0
ARC
  5
107
  8
0
  6
CONTINUOUS
 62
     7
 10
-322.2808391278301
 20
3.726953724840956
 30
0.0
 40
11.5
 50
270.0
 51
90.0
  0
LINE
  5
108
  8
0
  6
CONTINUOUS
 62
     7
 10
-323.6501589857009
 20
-7.77304627515904
 30
0.0
 11
-322.2808391278301
 21
-7.77304627515904
 31
0.0
  0
LINE
  5
109
  8
0
  6
CONTINUOUS
 62
     7
 10
-360.2808391278301
 20
15.98632272661341
 30
0.0
 11
-352.28083912783
 21
15.98632272661341
 31
0.0
  0
LINE
  5
10A
  8
0
  6
CONTINUOUS
 62
     7
 10
-406.2808391278301
 20
17.72695372484095
 30
0.0
 11
-406.2808391278301
 21
15.98632272661341
 31
0.0
  0
LINE
  5
10B
  8
0
  6
CONTINUOUS
 62
     7
 10
-406.2808391278301
 20
15.98632272661341
 30
0.0
 11
-398.2808391278301
 21
15.98632272661341
 31
0.0
  0
LINE
  5
10C
  8
0
  6
CONTINUOUS
 62
     7
 10
-398.2808391278301
 20
17.72695372484095
 30
0.0
 11
-398.2808391278301
 21
15.98632272661341
 31
0.0
  0
ARC
  5
10D
  8
0
  6
CONTINUOUS
 62
     7
 10
-287.2808391278301
 20
3.726953724840956
 30
0.0
 40
15.0
 50
230.0554948101851
 51
249.8030374421743
  0
ARC
  5
10E
  8
0
  6
CONTINUOUS
 62
     7
 10
-333.28083912783
 20
3.726953724840956
 30
0.0
 40
15.0
 50
230.0554948101851
 51
249.8030374421743
  0
LINE
  5
10F
  8
0
  6
CONTINUOUS
 62
     7
 10
-298.2808391278301
 20
-7.77304627515904
 30
0.0
 11
-296.9115192699592
 21
-7.77304627515904
 31
0.0
  0
LINE
  5
110
  8
0
  6
CONTINUOUS
 62
     7
 10
-360.2808391278301
 20
17.72695372484095
 30
0.0
 11
-360.2808391278301
 21
15.98632272661341
 31
0.0
  0
LINE
  5
111
  8
0
  6
CONTINUOUS
 62
     7
 10
-352.28083912783
 20
17.72695372484095
 30
0.0
 11
-352.28083912783
 21
15.98632272661341
 31
0.0
  0
ARC
  5
112
  8
0
  6
CONTINUOUS
 62
     7
 10
-333.2808391278301
 20
3.726953724840956
 30
0.0
 40
15.0
 50
290.1969625578257
 51
309.9445051898149
  0
LINE
  5
113
  8
0
  6
CONTINUOUS
 62
     7
 10
-322.2808391278301
 20
15.22695372484095
 30
0.0
 11
-323.6501589857009
 21
15.22695372484095
 31
0.0
  0
LINE
  5
114
  8
0
  6
CONTINUOUS
 62
     7
 10
-296.9115192699592
 20
15.22695372484095
 30
0.0
 11
-298.2808391278301
 21
15.22695372484095
 31
0.0
  0
ARC
  5
115
  8
0
  6
CONTINUOUS
 62
     7
 10
-298.2808391278301
 20
3.726953724840956
 30
0.0
 40
11.50000000000001
 50
180.0
 51
270.0
  0
ARC
  5
116
  8
0
  6
CONTINUOUS
 62
     7
 10
-298.2808391278301
 20
3.726953724840956
 30
0.0
 40
11.5
 50
90.0
 51
180.0
  0
LINE
  5
117
  8
0
  6
CONTINUOUS
 62
     7
 10
-342.9115192699592
 20
15.22695372484095
 30
0.0
 11
-344.28083912783
 21
15.22695372484095
 31
0.0
  0
LINE
  5
118
  8
0
  6
CONTINUOUS
 62
     7
 10
-388.9115192699591
 20
15.22695372484095
 30
0.0
 11
-390.2808391278301
 21
15.22695372484095
 31
0.0
  0
ARC
  5
119
  8
0
  6
CONTINUOUS
 62
     7
 10
-379.2808391278301
 20
3.726953724840956
 30
0.0
 40
15.0
 50
290.1969625578257
 51
309.9445051898149
  0
ARC
  5
11A
  8
0
  6
CONTINUOUS
 62
     7
 10
-390.2808391278301
 20
3.726953724840956
 30
0.0
 40
11.5
 50
180.0
 51
269.9999999999999
  0
ARC
  5
11B
  8
0
  6
CONTINUOUS
 62
     7
 10
-390.2808391278301
 20
3.726953724840956
 30
0.0
 40
11.5
 50
90.0
 51
180.0
  0
LINE
  5
11C
  8
0
  6
CONTINUOUS
 62
     7
 10
-369.650158985701
 20
-7.77304627515904
 30
0.0
 11
-368.2808391278301
 21
-7.77304627515904
 31
0.0
  0
ARC
  5
11D
  8
0
  6
CONTINUOUS
 62
     7
 10
-379.2808391278301
 20
3.726953724840956
 30
0.0
 40
15.0
 50
230.0554948101851
 51
249.8030374421743
  0
ARC
  5
11E
  8
0
  6
CONTINUOUS
 62
     7
 10
-368.2808391278301
 20
3.726953724840956
 30
0.0
 40
11.5
 50
270.0
 51
90.0
  0
ARC
  5
11F
  8
0
  6
CONTINUOUS
 62
     7
 10
-344.28083912783
 20
3.726953724840956
 30
0.0
 40
11.49999999999998
 50
180.0
 51
270.0
  0
ARC
  5
120
  8
0
  6
CONTINUOUS
 62
     7
 10
-344.28083912783
 20
3.726953724840956
 30
0.0
 40
11.5
 50
90.0
 51
180.0
  0
LINE
  5
121
  8
0
  6
CONTINUOUS
 62
     7
 10
-368.2808391278301
 20
15.22695372484095
 30
0.0
 11
-369.650158985701
 21
15.22695372484095
 31
0.0
  0
LINE
  5
122
  8
0
  6
CONTINUOUS
 62
     7
 10
-344.28083912783
 20
-7.77304627515904
 30
0.0
 11
-342.9115192699592
 21
-7.77304627515904
 31
0.0
  0
LINE
  5
123
  8
0
  6
CONTINUOUS
 62
     7
 10
-390.2808391278301
 20
-7.77304627515904
 30
0.0
 11
-388.9115192699591
 21
-7.773046275159054
 31
0.0
  0
LINE
  5
124
  8
0
  6
CONTINUOUS
 62
     7
 10
-424.7808391278301
 20
17.72695372484095
 30
0.0
 11
-429.7808391278301
 21
17.72695372484095
 31
0.0
  0
LINE
  5
125
  8
0
  6
CONTINUOUS
 62
     7
 10
-429.7808391278301
 20
-10.27304627515904
 30
0.0
 11
-417.28083912783
 21
-10.27304627515904
 31
0.0
  0
LINE
  5
126
  8
0
  6
CONTINUOUS
 62
     7
 10
-431.7808391278301
 20
-10.27304627515904
 30
0.0
 11
-429.7808391278301
 21
-10.27304627515904
 31
0.0
  0
ARC
  5
127
  8
0
  6
CONTINUOUS
 62
     7
 10
-431.7808391278301
 20
-10.77304627515904
 30
0.0
 40
0.5000000000000004
 50
90.0
 51
180.0000000000008
  0
ARC
  5
128
  8
0
  6
CONTINUOUS
 62
     7
 10
-431.7808391278301
 20
18.22695372484095
 30
0.0
 40
0.5000000000000004
 50
180.0
 51
270.0
  0
LINE
  5
129
  8
0
  6
CONTINUOUS
 62
     7
 10
-429.7808391278301
 20
17.72695372484095
 30
0.0
 11
-431.7808391278301
 21
17.72695372484095
 31
0.0
  0
LINE
  5
12A
  8
0
  6
CONTINUOUS
 62
     7
 10
-432.2808391278301
 20
18.22695372484095
 30
0.0
 11
-432.2808391278301
 21
20.22695372484096
 31
0.0
  0
ARC
  5
12B
  8
0
  6
CONTINUOUS
 62
     7
 10
-429.7808391278301
 20
-10.77304627515904
 30
0.0
 40
2.500000000000002
 50
180.0
 51
270.0
  0
LINE
  5
12C
  8
0
  6
CONTINUOUS
 62
     7
 10
-287.78083912783
 20
22.72695372484096
 30
0.0
 11
-288.78083912783
 21
22.72695372484096
 31
0.0
  0
LINE
  5
12D
  8
0
  6
CONTINUOUS
 62
     7
 10
-331.7808391278301
 20
22.72695372484096
 30
0.0
 11
-332.7808391278301
 21
22.72695372484096
 31
0.0
  0
LINE
  5
12E
  8
0
  6
CONTINUOUS
 62
     7
 10
-333.7808391278301
 20
22.72695372484096
 30
0.0
 11
-334.7808391278301
 21
22.72695372484096
 31
0.0
  0
LINE
  5
12F
  8
0
  6
CONTINUOUS
 62
     7
 10
-285.78083912783
 20
22.72695372484096
 30
0.0
 11
-286.78083912783
 21
22.72695372484096
 31
0.0
  0
LINE
  5
130
  8
0
  6
CONTINUOUS
 62
     7
 10
-377.7808391278301
 20
22.72695372484096
 30
0.0
 11
-378.7808391278301
 21
22.72695372484096
 31
0.0
  0
LINE
  5
131
  8
0
  6
CONTINUOUS
 62
     7
 10
-379.7808391278301
 20
22.72695372484096
 30
0.0
 11
-380.7808391278301
 21
22.72695372484096
 31
0.0
  0
LINE
  5
132
  8
0
  6
CONTINUOUS
 62
     7
 10
-240.28083912783
 20
10.05150904517771
 30
0.0
 11
-240.28083912783
 21
9.135280638036953
 31
0.0
  0
LINE
  5
133
  8
0
  6
CONTINUOUS
 62
     7
 10
-240.28083912783
 20
-1.68137318835504
 30
0.0
 11
-240.28083912783
 21
-2.59760159549581
 31
0.0
  0
LINE
  5
134
  8
0
  6
CONTINUOUS
 62
     7
 10
-426.2808391278301
 20
-1.68137318835504
 30
0.0
 11
-426.2808391278301
 21
-2.59760159549581
 31
0.0
  0
LINE
  5
135
  8
0
  6
CONTINUOUS
 62
     7
 10
-426.2808391278301
 20
10.05150904517771
 30
0.0
 11
-426.2808391278301
 21
9.135280638036953
 31
0.0
  0
LINE
  5
136
  8
0
  6
CONTINUOUS
 62
     7
 10
-239.78083912783
 20
13.12695372484096
 30
0.0
 11
-240.28083912783
 21
13.12695372484096
 31
0.0
  0
LINE
  5
137
  8
0
  6
CONTINUOUS
 62
     7
 10
-238.28083912783
 20
13.12695372484096
 30
0.0
 11
-237.78083912783
 21
11.12695372484096
 31
0.0
  0
LINE
  5
138
  8
0
  6
CONTINUOUS
 62
     7
 10
-240.28083912783
 20
11.12695372484096
 30
0.0
 11
-240.28083912783
 21
13.12695372484096
 31
0.0
  0
LINE
  5
139
  8
0
  6
CONTINUOUS
 62
     7
 10
-323.5603975060284
 20
11.47225318646169
 30
0.0
 11
-323.5600057944968
 21
11.47695372484096
 31
0.0
  0
LINE
  5
13A
  8
0
  6
CONTINUOUS
 62
     7
 10
-297.0012807496317
 20
11.47225318646169
 30
0.0
 11
-297.0016724611634
 21
11.47695372484096
 31
0.0
  0
ARC
  5
13B
  8
0
  6
CONTINUOUS
 62
     7
 10
-276.28083912783
 20
3.726953724840956
 30
0.0
 40
8.900000000000023
 50
302.574017822591
 51
57.42598217740908
  0
LINE
  5
13C
  8
0
  6
CONTINUOUS
 62
     7
 10
-271.4891797075457
 20
-3.773046275159051
 30
0.0
 11
-271.2455170227931
 21
-3.773046275159051
 31
0.0
  0
LINE
  5
13D
  8
0
  6
CONTINUOUS
 62
     7
 10
-271.3823975428566
 20
11.22695372484095
 30
0.0
 11
-271.4891797075457
 21
11.22695372484095
 31
0.0
  0
LINE
  5
13E
  8
0
  6
CONTINUOUS
 62
     7
 10
-237.78083912783
 20
11.12695372484096
 30
0.0
 11
-237.78083912783
 21
-3.673046275159047
 31
0.0
  0
LINE
  5
13F
  8
0
  6
CONTINUOUS
 62
     7
 10
-240.28083912783
 20
10.05150904517771
 30
0.0
 11
-240.28083912783
 21
11.12695372484096
 31
0.0
  0
LINE
  5
140
  8
0
  6
CONTINUOUS
 62
     7
 10
-240.28083912783
 20
-3.673046275159047
 30
0.0
 11
-240.28083912783
 21
-2.59760159549581
 31
0.0
  0
LINE
  5
141
  8
0
  6
CONTINUOUS
 62
     7
 10
-283.571034013186
 20
-5.314331152448864
 30
0.0
 11
-283.5740645817207
 21
-4.967062394922839
 31
0.0
  0
LINE
  5
142
  8
0
  6
CONTINUOUS
 62
     7
 10
-283.5740645817207
 20
-4.967062394922839
 30
0.0
 11
-286.8248552475938
 21
-4.967062394922839
 31
0.0
  0
LINE
  5
143
  8
0
  6
CONTINUOUS
 62
     7
 10
-240.28083912783
 20
-5.67304627515905
 30
0.0
 11
-239.78083912783
 21
-5.67304627515905
 31
0.0
  0
LINE
  5
144
  8
0
  6
CONTINUOUS
 62
     7
 10
-237.78083912783
 20
-3.673046275159047
 30
0.0
 11
-238.28083912783
 21
-5.67304627515905
 31
0.0
  0
LINE
  5
145
  8
0
  6
CONTINUOUS
 62
     7
 10
-240.28083912783
 20
-3.673046275159047
 30
0.0
 11
-240.28083912783
 21
-5.67304627515905
 31
0.0
  0
LINE
  5
146
  8
0
  6
CONTINUOUS
 62
     7
 10
-283.7265760631341
 20
12.50902238945326
 30
0.0
 11
-283.728047104654
 21
12.6775870515054
 31
0.0
  0
LINE
  5
147
  8
0
  6
CONTINUOUS
 62
     7
 10
-286.9129077924424
 20
12.50902238945326
 30
0.0
 11
-283.7265760631341
 21
12.50902238945326
 31
0.0
  0
LINE
  5
148
  8
0
  6
CONTINUOUS
 62
     7
 10
-290.835102192526
 20
12.50902238945326
 30
0.0
 11
-287.6487704632178
 21
12.50902238945326
 31
0.0
  0
LINE
  5
149
  8
0
  6
CONTINUOUS
 62
     7
 10
-290.833631151006
 20
12.6775870515054
 30
0.0
 11
-290.835102192526
 21
12.50902238945326
 31
0.0
  0
LINE
  5
14A
  8
0
  6
CONTINUOUS
 62
     7
 10
-287.7368230080663
 20
-4.967062394922839
 30
0.0
 11
-290.9876136739393
 21
-4.967062394922839
 31
0.0
  0
LINE
  5
14B
  8
0
  6
CONTINUOUS
 62
     7
 10
-290.9876136739393
 20
-4.967062394922839
 30
0.0
 11
-290.9906442424741
 21
-5.314331152448864
 31
0.0
  0
LINE
  5
14C
  8
0
  6
CONTINUOUS
 62
     7
 10
-329.5740645817208
 20
-4.967062394922839
 30
0.0
 11
-332.8248552475939
 21
-4.967062394922839
 31
0.0
  0
LINE
  5
14D
  8
0
  6
CONTINUOUS
 62
     7
 10
-329.571034013186
 20
-5.314331152448864
 30
0.0
 11
-329.5740645817208
 21
-4.967062394922839
 31
0.0
  0
ARC
  5
14E
  8
0
  6
CONTINUOUS
 62
     7
 10
-298.2808391278301
 20
3.726953724840956
 30
0.0
 40
8.900000000000038
 50
122.574017822591
 51
237.4259821774089
  0
LINE
  5
14F
  8
0
  6
CONTINUOUS
 62
     7
 10
-303.0724985481145
 20
11.22695372484095
 30
0.0
 11
-303.1792807128036
 21
11.22695372484095
 31
0.0
  0
LINE
  5
150
  8
0
  6
CONTINUOUS
 62
     7
 10
-303.3161612328671
 20
-3.773046275159051
 30
0.0
 11
-303.0724985481145
 21
-3.773046275159051
 31
0.0
  0
LINE
  5
151
  8
0
  6
CONTINUOUS
 62
     7
 10
-332.9129077924424
 20
12.50902238945326
 30
0.0
 11
-329.7265760631341
 21
12.50902238945326
 31
0.0
  0
LINE
  5
152
  8
0
  6
CONTINUOUS
 62
     7
 10
-329.7265760631341
 20
12.50902238945326
 30
0.0
 11
-329.728047104654
 21
12.6775870515054
 31
0.0
  0
LINE
  5
153
  8
0
  6
CONTINUOUS
 62
     7
 10
-333.7368230080663
 20
-4.967062394922839
 30
0.0
 11
-336.9876136739393
 21
-4.967062394922839
 31
0.0
  0
LINE
  5
154
  8
0
  6
CONTINUOUS
 62
     7
 10
-336.9876136739393
 20
-4.967062394922839
 30
0.0
 11
-336.9906442424742
 21
-5.314331152448864
 31
0.0
  0
ARC
  5
155
  8
0
  6
CONTINUOUS
 62
     7
 10
-322.28083912783
 20
3.726953724840956
 30
0.0
 40
8.900000000000027
 50
302.574017822591
 51
57.42598217740902
  0
LINE
  5
156
  8
0
  6
CONTINUOUS
 62
     7
 10
-317.4891797075456
 20
-3.773046275159051
 30
0.0
 11
-317.245517022793
 21
-3.773046275159051
 31
0.0
  0
LINE
  5
157
  8
0
  6
CONTINUOUS
 62
     7
 10
-317.3823975428565
 20
11.22695372484095
 30
0.0
 11
-317.4891797075456
 21
11.22695372484095
 31
0.0
  0
LINE
  5
158
  8
0
  6
CONTINUOUS
 62
     7
 10
-286.8248552475939
 20
-4.967062394922839
 30
0.0
 11
-286.9129077924423
 21
12.50902238945326
 31
0.0
  0
LINE
  5
159
  8
0
  6
CONTINUOUS
 62
     7
 10
-287.6487704632178
 20
12.50902238945326
 30
0.0
 11
-287.7368230080663
 21
-4.967062394922839
 31
0.0
  0
LINE
  5
15A
  8
0
  6
CONTINUOUS
 62
     7
 10
-285.78083912783
 20
17.72695372484095
 30
0.0
 11
-285.78083912783
 21
16.72695372484095
 31
0.0
  0
LINE
  5
15B
  8
0
  6
CONTINUOUS
 62
     7
 10
-288.78083912783
 20
17.72695372484095
 30
0.0
 11
-288.78083912783
 21
16.72695372484095
 31
0.0
  0
ARC
  5
15C
  8
0
  6
CONTINUOUS
 62
     7
 10
-330.7808391278301
 20
16.22695372484095
 30
0.0
 40
1.000000000000001
 50
180.0
 51
270.0
  0
LINE
  5
15D
  8
0
  6
CONTINUOUS
 62
     7
 10
-330.7808391278301
 20
15.22695372484095
 30
0.0
 11
-329.2808391278301
 21
15.22695372484095
 31
0.0
  0
LINE
  5
15E
  8
0
  6
CONTINUOUS
 62
     7
 10
-329.2808391278301
 20
13.12695372484095
 30
0.0
 11
-337.28083912783
 21
13.12695372484095
 31
0.0
  0
ARC
  5
15F
  8
0
  6
CONTINUOUS
 62
     7
 10
-335.7808391278301
 20
16.22695372484095
 30
0.0
 40
1.000000000000001
 50
270.0
 51
0.0
  0
LINE
  5
160
  8
0
  6
CONTINUOUS
 62
     7
 10
-331.7808391278301
 20
16.72695372484095
 30
0.0
 11
-331.7808391278301
 21
16.22695372484095
 31
0.0
  0
LINE
  5
161
  8
0
  6
CONTINUOUS
 62
     7
 10
-334.7808391278301
 20
16.22695372484095
 30
0.0
 11
-334.7808391278301
 21
16.72695372484095
 31
0.0
  0
LINE
  5
162
  8
0
  6
CONTINUOUS
 62
     7
 10
-337.28083912783
 20
15.22695372484095
 30
0.0
 11
-335.7808391278301
 21
15.22695372484095
 31
0.0
  0
LINE
  5
163
  8
0
  6
CONTINUOUS
 62
     7
 10
-331.7808391278301
 20
17.72695372484095
 30
0.0
 11
-331.7808391278301
 21
16.72695372484095
 31
0.0
  0
LINE
  5
164
  8
0
  6
CONTINUOUS
 62
     7
 10
-334.7808391278301
 20
17.72695372484095
 30
0.0
 11
-334.7808391278301
 21
16.72695372484095
 31
0.0
  0
LINE
  5
165
  8
0
  6
CONTINUOUS
 62
     7
 10
-332.8248552475939
 20
-4.967062394922839
 30
0.0
 11
-332.9129077924424
 21
12.50902238945326
 31
0.0
  0
LINE
  5
166
  8
0
  6
CONTINUOUS
 62
     7
 10
-389.0012807496317
 20
-4.018345736779782
 30
0.0
 11
-389.0016724611634
 21
-4.023046275159051
 31
0.0
  0
LINE
  5
167
  8
0
  6
CONTINUOUS
 62
     7
 10
-369.5603975060283
 20
11.47225318646169
 30
0.0
 11
-369.5600057944967
 21
11.47695372484096
 31
0.0
  0
LINE
  5
168
  8
0
  6
CONTINUOUS
 62
     7
 10
-369.5603975060283
 20
-4.018345736779782
 30
0.0
 11
-369.5600057944967
 21
-4.023046275159051
 31
0.0
  0
LINE
  5
169
  8
0
  6
CONTINUOUS
 62
     7
 10
-336.835102192526
 20
12.50902238945326
 30
0.0
 11
-333.6487704632177
 21
12.50902238945326
 31
0.0
  0
LINE
  5
16A
  8
0
  6
CONTINUOUS
 62
     7
 10
-336.833631151006
 20
12.6775870515054
 30
0.0
 11
-336.835102192526
 21
12.50902238945326
 31
0.0
  0
LINE
  5
16B
  8
0
  6
CONTINUOUS
 62
     7
 10
-285.78083912783
 20
16.72695372484095
 30
0.0
 11
-285.78083912783
 21
16.22695372484095
 31
0.0
  0
LINE
  5
16C
  8
0
  6
CONTINUOUS
 62
     7
 10
-288.78083912783
 20
16.22695372484095
 30
0.0
 11
-288.78083912783
 21
16.72695372484095
 31
0.0
  0
ARC
  5
16D
  8
0
  6
CONTINUOUS
 62
     7
 10
-284.78083912783
 20
16.22695372484095
 30
0.0
 40
1.000000000000001
 50
180.0
 51
270.0
  0
LINE
  5
16E
  8
0
  6
CONTINUOUS
 62
     7
 10
-291.2808391278301
 20
15.22695372484095
 30
0.0
 11
-289.7808391278301
 21
15.22695372484095
 31
0.0
  0
ARC
  5
16F
  8
0
  6
CONTINUOUS
 62
     7
 10
-289.78083912783
 20
16.22695372484095
 30
0.0
 40
1.000000000000001
 50
270.0
 51
0.0
  0
LINE
  5
170
  8
0
  6
CONTINUOUS
 62
     7
 10
-283.2808391278301
 20
13.12695372484095
 30
0.0
 11
-291.2808391278301
 21
13.12695372484095
 31
0.0
  0
LINE
  5
171
  8
0
  6
CONTINUOUS
 62
     7
 10
-284.78083912783
 20
15.22695372484095
 30
0.0
 11
-283.28083912783
 21
15.22695372484095
 31
0.0
  0
LINE
  5
172
  8
0
  6
CONTINUOUS
 62
     7
 10
-333.6487704632177
 20
12.50902238945326
 30
0.0
 11
-333.7368230080662
 21
-4.967062394922839
 31
0.0
  0
LINE
  5
173
  8
0
  6
CONTINUOUS
 62
     7
 10
-377.7808391278301
 20
16.72695372484095
 30
0.0
 11
-377.7808391278301
 21
16.22695372484095
 31
0.0
  0
ARC
  5
174
  8
0
  6
CONTINUOUS
 62
     7
 10
-376.7808391278301
 20
16.22695372484095
 30
0.0
 40
1.000000000000001
 50
180.0
 51
270.0
  0
LINE
  5
175
  8
0
  6
CONTINUOUS
 62
     7
 10
-376.7808391278301
 20
15.22695372484095
 30
0.0
 11
-375.2808391278301
 21
15.22695372484095
 31
0.0
  0
LINE
  5
176
  8
0
  6
CONTINUOUS
 62
     7
 10
-375.2808391278301
 20
13.12695372484095
 30
0.0
 11
-383.2808391278301
 21
13.12695372484095
 31
0.0
  0
ARC
  5
177
  8
0
  6
CONTINUOUS
 62
     7
 10
-381.7808391278301
 20
16.22695372484095
 30
0.0
 40
1.000000000000001
 50
270.0
 51
0.0
  0
LINE
  5
178
  8
0
  6
CONTINUOUS
 62
     7
 10
-380.7808391278301
 20
16.22695372484095
 30
0.0
 11
-380.7808391278301
 21
16.72695372484095
 31
0.0
  0
LINE
  5
179
  8
0
  6
CONTINUOUS
 62
     7
 10
-383.2808391278301
 20
15.22695372484095
 30
0.0
 11
-381.7808391278301
 21
15.22695372484095
 31
0.0
  0
LINE
  5
17A
  8
0
  6
CONTINUOUS
 62
     7
 10
-378.9129077924424
 20
12.50902238945326
 30
0.0
 11
-375.7265760631341
 21
12.50902238945326
 31
0.0
  0
LINE
  5
17B
  8
0
  6
CONTINUOUS
 62
     7
 10
-375.7265760631341
 20
12.50902238945326
 30
0.0
 11
-375.728047104654
 21
12.6775870515054
 31
0.0
  0
LINE
  5
17C
  8
0
  6
CONTINUOUS
 62
     7
 10
-375.5740645817207
 20
-4.967062394922839
 30
0.0
 11
-378.8248552475939
 21
-4.967062394922839
 31
0.0
  0
LINE
  5
17D
  8
0
  6
CONTINUOUS
 62
     7
 10
-375.571034013186
 20
-5.314331152448864
 30
0.0
 11
-375.5740645817207
 21
-4.967062394922839
 31
0.0
  0
ARC
  5
17E
  8
0
  6
CONTINUOUS
 62
     7
 10
-368.2808391278301
 20
3.726953724840956
 30
0.0
 40
8.900000000000027
 50
302.574017822591
 51
57.42598217740902
  0
LINE
  5
17F
  8
0
  6
CONTINUOUS
 62
     7
 10
-363.4891797075457
 20
-3.773046275159051
 30
0.0
 11
-363.2455170227931
 21
-3.773046275159051
 31
0.0
  0
LINE
  5
180
  8
0
  6
CONTINUOUS
 62
     7
 10
-363.3823975428565
 20
11.22695372484095
 30
0.0
 11
-363.4891797075457
 21
11.22695372484095
 31
0.0
  0
ARC
  5
181
  8
0
  6
CONTINUOUS
 62
     7
 10
-390.2808391278301
 20
3.726953724840956
 30
0.0
 40
8.90000000000003
 50
122.574017822591
 51
237.425982177409
  0
LINE
  5
182
  8
0
  6
CONTINUOUS
 62
     7
 10
-395.0724985481144
 20
11.22695372484095
 30
0.0
 11
-395.1792807128036
 21
11.22695372484095
 31
0.0
  0
LINE
  5
183
  8
0
  6
CONTINUOUS
 62
     7
 10
-395.316161232867
 20
-3.773046275159051
 30
0.0
 11
-395.0724985481144
 21
-3.773046275159051
 31
0.0
  0
ARC
  5
184
  8
0
  6
CONTINUOUS
 62
     7
 10
-344.2808391278301
 20
3.726953724840956
 30
0.0
 40
8.900000000000023
 50
122.574017822591
 51
237.425982177409
  0
LINE
  5
185
  8
0
  6
CONTINUOUS
 62
     7
 10
-349.0724985481144
 20
11.22695372484095
 30
0.0
 11
-349.1792807128036
 21
11.22695372484095
 31
0.0
  0
LINE
  5
186
  8
0
  6
CONTINUOUS
 62
     7
 10
-349.316161232867
 20
-3.773046275159051
 30
0.0
 11
-349.0724985481144
 21
-3.773046275159051
 31
0.0
  0
LINE
  5
187
  8
0
  6
CONTINUOUS
 62
     7
 10
-379.6487704632178
 20
12.50902238945326
 30
0.0
 11
-379.7368230080662
 21
-4.967062394922839
 31
0.0
  0
LINE
  5
188
  8
0
  6
CONTINUOUS
 62
     7
 10
-378.8248552475939
 20
-4.967062394922839
 30
0.0
 11
-378.9129077924424
 21
12.50902238945326
 31
0.0
  0
LINE
  5
189
  8
0
  6
CONTINUOUS
 62
     7
 10
-382.8336311510061
 20
12.6775870515054
 30
0.0
 11
-382.835102192526
 21
12.50902238945326
 31
0.0
  0
LINE
  5
18A
  8
0
  6
CONTINUOUS
 62
     7
 10
-382.835102192526
 20
12.50902238945326
 30
0.0
 11
-379.6487704632178
 21
12.50902238945326
 31
0.0
  0
LINE
  5
18B
  8
0
  6
CONTINUOUS
 62
     7
 10
-377.7808391278301
 20
17.72695372484095
 30
0.0
 11
-377.7808391278301
 21
16.72695372484095
 31
0.0
  0
LINE
  5
18C
  8
0
  6
CONTINUOUS
 62
     7
 10
-380.7808391278301
 20
17.72695372484095
 30
0.0
 11
-380.7808391278301
 21
16.72695372484095
 31
0.0
  0
LINE
  5
18D
  8
0
  6
CONTINUOUS
 62
     7
 10
-287.78083912783
 20
22.72695372484096
 30
0.0
 11
-286.78083912783
 21
22.72695372484096
 31
0.0
  0
LINE
  5
18E
  8
0
  6
CONTINUOUS
 62
     7
 10
-333.7808391278301
 20
22.72695372484096
 30
0.0
 11
-332.7808391278301
 21
22.72695372484096
 31
0.0
  0
LINE
  5
18F
  8
0
  6
CONTINUOUS
 62
     7
 10
-382.9876136739393
 20
-4.967062394922839
 30
0.0
 11
-382.9906442424742
 21
-5.314331152448864
 31
0.0
  0
LINE
  5
190
  8
0
  6
CONTINUOUS
 62
     7
 10
-379.7368230080662
 20
-4.967062394922839
 30
0.0
 11
-382.9876136739393
 21
-4.967062394922839
 31
0.0
  0
LINE
  5
191
  8
0
  6
CONTINUOUS
 62
     7
 10
-426.7808391278301
 20
13.12695372484096
 30
0.0
 11
-426.2808391278301
 21
13.12695372484096
 31
0.0
  0
LINE
  5
192
  8
0
  6
CONTINUOUS
 62
     7
 10
-428.2808391278301
 20
13.12695372484096
 30
0.0
 11
-428.7808391278301
 21
11.12695372484096
 31
0.0
  0
LINE
  5
193
  8
0
  6
CONTINUOUS
 62
     7
 10
-426.2808391278301
 20
11.12695372484096
 30
0.0
 11
-426.2808391278301
 21
13.12695372484096
 31
0.0
  0
LINE
  5
194
  8
0
  6
CONTINUOUS
 62
     7
 10
-428.7808391278301
 20
11.12695372484096
 30
0.0
 11
-428.7808391278301
 21
-3.673046275159047
 31
0.0
  0
LINE
  5
195
  8
0
  6
CONTINUOUS
 62
     7
 10
-426.2808391278301
 20
-3.673046275159047
 30
0.0
 11
-426.2808391278301
 21
-2.59760159549581
 31
0.0
  0
LINE
  5
196
  8
0
  6
CONTINUOUS
 62
     7
 10
-426.2808391278301
 20
10.05150904517771
 30
0.0
 11
-426.2808391278301
 21
11.12695372484096
 31
0.0
  0
LINE
  5
197
  8
0
  6
CONTINUOUS
 62
     7
 10
-379.7808391278301
 20
22.72695372484096
 30
0.0
 11
-378.7808391278301
 21
22.72695372484096
 31
0.0
  0
LINE
  5
198
  8
0
  6
CONTINUOUS
 62
     7
 10
-426.2808391278301
 20
-5.67304627515905
 30
0.0
 11
-426.7808391278301
 21
-5.67304627515905
 31
0.0
  0
LINE
  5
199
  8
0
  6
CONTINUOUS
 62
     7
 10
-428.7808391278301
 20
-3.673046275159047
 30
0.0
 11
-428.2808391278301
 21
-5.67304627515905
 31
0.0
  0
LINE
  5
19A
  8
0
  6
CONTINUOUS
 62
     7
 10
-426.2808391278301
 20
-3.673046275159047
 30
0.0
 11
-426.2808391278301
 21
-5.67304627515905
 31
0.0
  0
LINE
  5
19B
  8
0
  6
CONTINUOUS
 62
     7
 10
-239.78083912783
 20
-5.67304627515905
 30
0.0
 11
-239.6664797738853
 21
-5.67304627515905
 31
0.0
  0
LINE
  5
19C
  8
0
  6
CONTINUOUS
 62
     7
 10
-238.28083912783
 20
-5.67304627515905
 30
0.0
 11
-238.28083912783
 21
-7.77304627515904
 31
0.0
  0
LINE
  5
19D
  8
0
  6
CONTINUOUS
 62
     7
 10
-239.6664797738853
 20
-5.67304627515905
 30
0.0
 11
-238.28083912783
 21
-5.67304627515905
 31
0.0
  0
LINE
  5
19E
  8
0
  6
CONTINUOUS
 62
     7
 10
-239.78083912783
 20
13.12695372484096
 30
0.0
 11
-239.6664797738853
 21
13.12695372484096
 31
0.0
  0
LINE
  5
19F
  8
0
  6
CONTINUOUS
 62
     7
 10
-238.28083912783
 20
15.22695372484095
 30
0.0
 11
-238.28083912783
 21
13.12695372484096
 31
0.0
  0
LINE
  5
1A0
  8
0
  6
CONTINUOUS
 62
     7
 10
-238.28083912783
 20
13.12695372484096
 30
0.0
 11
-239.6664797738853
 21
13.12695372484096
 31
0.0
  0
LINE
  5
1A1
  8
0
  6
CONTINUOUS
 62
     7
 10
-428.2808391278301
 20
15.22695372484095
 30
0.0
 11
-428.2808391278301
 21
13.12695372484096
 31
0.0
  0
LINE
  5
1A2
  8
0
  6
CONTINUOUS
 62
     7
 10
-428.2808391278301
 20
-5.67304627515905
 30
0.0
 11
-428.2808391278301
 21
-7.77304627515904
 31
0.0
  0
LINE
  5
1A3
  8
0
  6
CONTINUOUS
 62
     7
 10
-428.2808391278301
 20
-5.67304627515905
 30
0.0
 11
-426.8951984817748
 21
-5.67304627515905
 31
0.0
  0
LINE
  5
1A4
  8
0
  6
CONTINUOUS
 62
     7
 10
-426.7808391278301
 20
-5.67304627515905
 30
0.0
 11
-426.8951984817748
 21
-5.67304627515905
 31
0.0
  0
ARC
  5
1A5
  8
0
  6
CONTINUOUS
 62
     7
 10
-333.2808391278301
 20
3.72695372484097
 30
0.0
 40
13.0
 50
252.0797868606077
 51
287.9202131393923
  0
ARC
  5
1A6
  8
0
  6
CONTINUOUS
 62
     7
 10
-287.2808391278301
 20
3.72695372484097
 30
0.0
 40
13.0
 50
252.0797868606077
 51
287.9202131393923
  0
ARC
  5
1A7
  8
0
  6
CONTINUOUS
 62
     7
 10
-379.2808391278301
 20
3.72695372484097
 30
0.0
 40
13.00000000000001
 50
252.0797868606078
 51
287.9202131393923
  0
ARC
  5
1A8
  8
0
  6
CONTINUOUS
 62
     7
 10
-287.2808391278301
 20
3.72695372484097
 30
0.0
 40
12.99999999999999
 50
226.3091047207152
 51
252.0797868606077
  0
ARC
  5
1A9
  8
0
  6
CONTINUOUS
 62
     7
 10
-333.2808391278301
 20
3.72695372484097
 30
0.0
 40
12.99999999999999
 50
226.3091047207152
 51
252.0797868606077
  0
ARC
  5
1AA
  8
0
  6
CONTINUOUS
 62
     7
 10
-379.2808391278301
 20
3.72695372484097
 30
0.0
 40
13.0
 50
226.3091047207151
 51
252.0797868606078
  0
ARC
  5
1AB
  8
0
  6
CONTINUOUS
 62
     7
 10
-333.2808391278301
 20
3.72695372484097
 30
0.0
 40
13.00000000000002
 50
287.9202131393923
 51
313.6908952792849
  0
ARC
  5
1AC
  8
0
  6
CONTINUOUS
 62
     7
 10
-287.2808391278301
 20
3.72695372484097
 30
0.0
 40
13.0
 50
287.9202131393922
 51
313.6908952792849
  0
ARC
  5
1AD
  8
0
  6
CONTINUOUS
 62
     7
 10
-379.2808391278301
 20
3.72695372484097
 30
0.0
 40
13.0
 50
287.9202131393924
 51
313.6908952792849
  0
LINE
  5
1AE
  8
0
  6
CONTINUOUS
 62
     7
 10
-246.78083912783
 20
13.12695372484095
 30
0.0
 11
-240.28083912783
 21
13.12695372484095
 31
0.0
  0
ARC
  5
1AF
  8
0
  6
CONTINUOUS
 62
     7
 10
-246.78083912783
 20
3.726953724840942
 30
0.0
 40
9.399999999999963
 50
90.0
 51
180.0
  0
ARC
  5
1B0
  8
0
  6
CONTINUOUS
 62
     7
 10
-246.78083912783
 20
3.726953724840942
 30
0.0
 40
9.399999999999991
 50
180.0
 51
270.0
  0
POLYLINE
  5
1B1
  8
0
  6
CONTINUOUS
 62
     7
 66
     1
 10
0.0
 20
0.0
 30
0.0
  0
VERTEX
  5
3D1
  8
0
  6
CONTINUOUS
 62
     7
 10
-237.78083912783
 20
-8.773046275159041
 30
0.0
  0
VERTEX
  5
3D2
  8
0
  6
CONTINUOUS
 62
     7
 10
-237.7814413997274
 20
-8.748512437995334
 30
0.0
  0
VERTEX
  5
3D3
  8
0
  6
CONTINUOUS
 62
     7
 10
-237.783246764494
 20
-8.724037704994261
 30
0.0
  0
VERTEX
  5
3D4
  8
0
  6
CONTINUOUS
 62
     7
 10
-237.7862508728477
 20
-8.699681037931366
 30
0.0
  0
VERTEX
  5
3D5
  8
0
  6
CONTINUOUS
 62
     7
 10
-237.7904464876284
 20
-8.675501114150983
 30
0.0
  0
VERTEX
  5
3D6
  8
0
  6
CONTINUOUS
 62
     7
 10
-237.7958235012328
 20
-8.65155618520741
 30
0.0
  0
VERTEX
  5
3D7
  8
0
  6
CONTINUOUS
 62
     7
 10
-237.802368959964
 20
-8.627903936531817
 30
0.0
  0
VERTEX
  5
3D8
  8
0
  6
CONTINUOUS
 62
     7
 10
-237.8100670952385
 20
-8.604601348462943
 30
0.0
  0
VERTEX
  5
3D9
  8
0
  6
CONTINUOUS
 62
     7
 10
-237.8188993615744
 20
-8.581704558976499
 30
0.0
  0
VERTEX
  5
3DA
  8
0
  6
CONTINUOUS
 62
     7
 10
-237.8288444812683
 20
-8.559268728443897
 30
0.0
  0
VERTEX
  5
3DB
  8
0
  6
CONTINUOUS
 62
     7
 10
-237.8398784956559
 20
-8.53734790674604
 30
0.0
  0
VERTEX
  5
3DC
  8
0
  6
CONTINUOUS
 62
     7
 10
-237.8519748228299
 20
-8.515994903062444
 30
0.0
  0
VERTEX
  5
3DD
  8
0
  6
CONTINUOUS
 62
     7
 10
-237.8651043216788
 20
-8.49526115864925
 30
0.0
  0
VERTEX
  5
3DE
  8
0
  6
CONTINUOUS
 62
     7
 10
-237.8792353620897
 20
-8.475196622912836
 30
0.0
  0
VERTEX
  5
3DF
  8
0
  6
CONTINUOUS
 62
     7
 10
-237.8943339011487
 20
-8.45584963307723
 30
0.0
  0
VERTEX
  5
3E0
  8
0
  6
CONTINUOUS
 62
     7
 10
-237.9103635651526
 20
-8.437266797735543
 30
0.0
  0
VERTEX
  5
3E1
  8
0
  6
CONTINUOUS
 62
     7
 10
-237.9272857372368
 20
-8.419492884565782
 30
0.0
  0
VERTEX
  5
3E2
  8
0
  6
CONTINUOUS
 62
     7
 10
-237.9450596504066
 20
-8.402570712481571
 30
0.0
  0
VERTEX
  5
3E3
  8
0
  6
CONTINUOUS
 62
     7
 10
-237.9636424857482
 20
-8.386541048477678
 30
0.0
  0
VERTEX
  5
3E4
  8
0
  6
CONTINUOUS
 62
     7
 10
-237.9829894755838
 20
-8.371442509418737
 30
0.0
  0
VERTEX
  5
3E5
  8
0
  6
CONTINUOUS
 62
     7
 10
-238.0030540113203
 20
-8.357311469007783
 30
0.0
  0
VERTEX
  5
3E6
  8
0
  6
CONTINUOUS
 62
     7
 10
-238.0237877557334
 20
-8.344181970158917
 30
0.0
  0
VERTEX
  5
3E7
  8
0
  6
CONTINUOUS
 62
     7
 10
-238.0451407594171
 20
-8.332085642984877
 30
0.0
  0
VERTEX
  5
3E8
  8
0
  6
CONTINUOUS
 62
     7
 10
-238.0670615811149
 20
-8.321051628597322
 30
0.0
  0
VERTEX
  5
3E9
  8
0
  6
CONTINUOUS
 62
     7
 10
-238.0894974116475
 20
-8.311106508903404
 30
0.0
  0
VERTEX
  5
3EA
  8
0
  6
CONTINUOUS
 62
     7
 10
-238.112394201134
 20
-8.302274242567533
 30
0.0
  0
VERTEX
  5
3EB
  8
0
  6
CONTINUOUS
 62
     7
 10
-238.1356967892028
 20
-8.29457610729295
 30
0.0
  0
VERTEX
  5
3EC
  8
0
  6
CONTINUOUS
 62
     7
 10
-238.1593490378784
 20
-8.288030648561776
 30
0.0
  0
VERTEX
  5
3ED
  8
0
  6
CONTINUOUS
 62
     7
 10
-238.183293966822
 20
-8.282653634957434
 30
0.0
  0
VERTEX
  5
3EE
  8
0
  6
CONTINUOUS
 62
     7
 10
-238.2074738906024
 20
-8.278458020176654
 30
0.0
  0
VERTEX
  5
3EF
  8
0
  6
CONTINUOUS
 62
     7
 10
-238.2318305576653
 20
-8.275453911822952
 30
0.0
  0
VERTEX
  5
3F0
  8
0
  6
CONTINUOUS
 62
     7
 10
-238.2563052906663
 20
-8.273648547056464
 30
0.0
  0
VERTEX
  5
3F1
  8
0
  6
CONTINUOUS
 62
     7
 10
-238.28083912783
 20
-8.273046275159041
 30
0.0
  0
SEQEND
  5
4FC
  8
0
  6
CONTINUOUS
 62
     7
  0
LINE
  5
1B2
  8
0
  6
CONTINUOUS
 62
     7
 10
-237.78083912783
 20
-10.27304627515904
 30
0.0
 11
-237.78083912783
 21
-8.773046275159041
 31
0.0
  0
LINE
  5
1B3
  8
0
  6
CONTINUOUS
 62
     7
 10
-240.28083912783
 20
-5.673046275159035
 30
0.0
 11
-246.78083912783
 21
-5.67304627515905
 31
0.0
  0
LINE
  5
1B4
  8
0
  6
CONTINUOUS
 62
     7
 10
-237.78083912783
 20
16.22695372484095
 30
0.0
 11
-237.78083912783
 21
17.72695372484095
 31
0.0
  0
POLYLINE
  5
1B5
  8
0
  6
CONTINUOUS
 62
     7
 66
     1
 10
0.0
 20
0.0
 30
0.0
  0
VERTEX
  5
3F2
  8
0
  6
CONTINUOUS
 62
     7
 10
-238.28083912783
 20
15.72695372484097
 30
0.0
  0
VERTEX
  5
3F3
  8
0
  6
CONTINUOUS
 62
     7
 10
-238.2563052906663
 20
15.72755599673838
 30
0.0
  0
VERTEX
  5
3F4
  8
0
  6
CONTINUOUS
 62
     7
 10
-238.2318305576653
 20
15.72936136150486
 30
0.0
  0
VERTEX
  5
3F5
  8
0
  6
CONTINUOUS
 62
     7
 10
-238.2074738906024
 20
15.73236546985857
 30
0.0
  0
VERTEX
  5
3F6
  8
0
  6
CONTINUOUS
 62
     7
 10
-238.183293966822
 20
15.73656108463935
 30
0.0
  0
VERTEX
  5
3F7
  8
0
  6
CONTINUOUS
 62
     7
 10
-238.1593490378784
 20
15.74193809824369
 30
0.0
  0
VERTEX
  5
3F8
  8
0
  6
CONTINUOUS
 62
     7
 10
-238.1356967892028
 20
15.74848355697486
 30
0.0
  0
VERTEX
  5
3F9
  8
0
  6
CONTINUOUS
 62
     7
 10
-238.112394201134
 20
15.75618169224946
 30
0.0
  0
VERTEX
  5
3FA
  8
0
  6
CONTINUOUS
 62
     7
 10
-238.0894974116475
 20
15.76501395858532
 30
0.0
  0
VERTEX
  5
3FB
  8
0
  6
CONTINUOUS
 62
     7
 10
-238.0670615811149
 20
15.77495907827925
 30
0.0
  0
VERTEX
  5
3FC
  8
0
  6
CONTINUOUS
 62
     7
 10
-238.0451407594171
 20
15.78599309266679
 30
0.0
  0
VERTEX
  5
3FD
  8
0
  6
CONTINUOUS
 62
     7
 10
-238.0237877557335
 20
15.79808941984083
 30
0.0
  0
VERTEX
  5
3FE
  8
0
  6
CONTINUOUS
 62
     7
 10
-238.0030540113203
 20
15.8112189186897
 30
0.0
  0
VERTEX
  5
3FF
  8
0
  6
CONTINUOUS
 62
     7
 10
-237.9829894755838
 20
15.82534995910065
 30
0.0
  0
VERTEX
  5
400
  8
0
  6
CONTINUOUS
 62
     7
 10
-237.9636424857482
 20
15.8404484981596
 30
0.0
  0
VERTEX
  5
401
  8
0
  6
CONTINUOUS
 62
     7
 10
-237.9450596504066
 20
15.85647816216348
 30
0.0
  0
VERTEX
  5
402
  8
0
  6
CONTINUOUS
 62
     7
 10
-237.9272857372368
 20
15.87340033424769
 30
0.0
  0
VERTEX
  5
403
  8
0
  6
CONTINUOUS
 62
     7
 10
-237.9103635651526
 20
15.89117424741745
 30
0.0
  0
VERTEX
  5
404
  8
0
  6
CONTINUOUS
 62
     7
 10
-237.8943339011487
 20
15.90975708275914
 30
0.0
  0
VERTEX
  5
405
  8
0
  6
CONTINUOUS
 62
     7
 10
-237.8792353620898
 20
15.92910407259475
 30
0.0
  0
VERTEX
  5
406
  8
0
  6
CONTINUOUS
 62
     7
 10
-237.8651043216788
 20
15.94916860833116
 30
0.0
  0
VERTEX
  5
407
  8
0
  6
CONTINUOUS
 62
     7
 10
-237.8519748228299
 20
15.96990235274436
 30
0.0
  0
VERTEX
  5
408
  8
0
  6
CONTINUOUS
 62
     7
 10
-237.8398784956559
 20
15.99125535642797
 30
0.0
  0
VERTEX
  5
409
  8
0
  6
CONTINUOUS
 62
     7
 10
-237.8288444812683
 20
16.01317617812582
 30
0.0
  0
VERTEX
  5
40A
  8
0
  6
CONTINUOUS
 62
     7
 10
-237.8188993615744
 20
16.03561200865841
 30
0.0
  0
VERTEX
  5
40B
  8
0
  6
CONTINUOUS
 62
     7
 10
-237.8100670952385
 20
16.05850879814485
 30
0.0
  0
VERTEX
  5
40C
  8
0
  6
CONTINUOUS
 62
     7
 10
-237.802368959964
 20
16.08181138621373
 30
0.0
  0
VERTEX
  5
40D
  8
0
  6
CONTINUOUS
 62
     7
 10
-237.7958235012328
 20
16.10546363488934
 30
0.0
  0
VERTEX
  5
40E
  8
0
  6
CONTINUOUS
 62
     7
 10
-237.7904464876284
 20
16.12940856383289
 30
0.0
  0
VERTEX
  5
40F
  8
0
  6
CONTINUOUS
 62
     7
 10
-237.7862508728477
 20
16.15358848761328
 30
0.0
  0
VERTEX
  5
410
  8
0
  6
CONTINUOUS
 62
     7
 10
-237.783246764494
 20
16.17794515467617
 30
0.0
  0
VERTEX
  5
411
  8
0
  6
CONTINUOUS
 62
     7
 10
-237.7814413997274
 20
16.20241988767725
 30
0.0
  0
VERTEX
  5
412
  8
0
  6
CONTINUOUS
 62
     7
 10
-237.78083912783
 20
16.22695372484095
 30
0.0
  0
SEQEND
  5
4FD
  8
0
  6
CONTINUOUS
 62
     7
  0
LINE
  5
1B6
  8
0
  6
CONTINUOUS
 62
     7
 10
-283.2808391278301
 20
15.22695372484095
 30
0.0
 11
-277.650158985701
 21
15.22695372484095
 31
0.0
  0
LINE
  5
1B7
  8
0
  6
CONTINUOUS
 62
     7
 10
-238.28083912783
 20
-7.77304627515904
 30
0.0
 11
-238.28083912783
 21
-8.273046275159041
 31
0.0
  0
LINE
  5
1B8
  8
0
  6
CONTINUOUS
 62
     7
 10
-238.28083912783
 20
15.22695372484095
 30
0.0
 11
-238.28083912783
 21
15.72695372484095
 31
0.0
  0
LINE
  5
1B9
  8
0
  6
CONTINUOUS
 62
     7
 10
-331.7808391278301
 20
18.65176528144025
 30
0.0
 11
-331.7808391278301
 21
17.72695372484095
 31
0.0
  0
LINE
  5
1BA
  8
0
  6
CONTINUOUS
 62
     7
 10
-334.7808391278301
 20
17.72695372484095
 30
0.0
 11
-334.7808391278301
 21
18.65176528144026
 31
0.0
  0
LINE
  5
1BB
  8
0
  6
CONTINUOUS
 62
     7
 10
-329.2808391278301
 20
15.22695372484095
 30
0.0
 11
-323.650158985701
 21
15.22695372484095
 31
0.0
  0
LINE
  5
1BC
  8
0
  6
CONTINUOUS
 62
     7
 10
-285.78083912783
 20
18.65176528144026
 30
0.0
 11
-285.78083912783
 21
17.72695372484095
 31
0.0
  0
LINE
  5
1BD
  8
0
  6
CONTINUOUS
 62
     7
 10
-288.78083912783
 20
17.72695372484095
 30
0.0
 11
-288.78083912783
 21
18.65176528144026
 31
0.0
  0
LINE
  5
1BE
  8
0
  6
CONTINUOUS
 62
     7
 10
-296.9115192699592
 20
15.22695372484095
 30
0.0
 11
-291.2808391278301
 21
15.22695372484095
 31
0.0
  0
LINE
  5
1BF
  8
0
  6
CONTINUOUS
 62
     7
 10
-342.9115192699592
 20
15.22695372484095
 30
0.0
 11
-337.2808391278301
 21
15.22695372484095
 31
0.0
  0
LINE
  5
1C0
  8
0
  6
CONTINUOUS
 62
     7
 10
-375.2808391278301
 20
15.22695372484095
 30
0.0
 11
-369.650158985701
 21
15.22695372484095
 31
0.0
  0
LINE
  5
1C1
  8
0
  6
CONTINUOUS
 62
     7
 10
-388.9115192699591
 20
15.22695372484095
 30
0.0
 11
-383.2808391278301
 21
15.22695372484095
 31
0.0
  0
LINE
  5
1C2
  8
0
  6
CONTINUOUS
 62
     7
 10
-377.7808391278301
 20
18.65176528144025
 30
0.0
 11
-377.7808391278301
 21
17.72695372484095
 31
0.0
  0
LINE
  5
1C3
  8
0
  6
CONTINUOUS
 62
     7
 10
-380.7808391278301
 20
17.72695372484095
 30
0.0
 11
-380.7808391278301
 21
18.65176528144025
 31
0.0
  0
POLYLINE
  5
1C4
  8
0
  6
CONTINUOUS
 62
     7
 66
     1
 10
0.0
 20
0.0
 30
0.0
  0
VERTEX
  5
413
  8
0
  6
CONTINUOUS
 62
     7
 10
-428.2808391278301
 20
15.72695372484097
 30
0.0
  0
VERTEX
  5
414
  8
0
  6
CONTINUOUS
 62
     7
 10
-428.3053729649938
 20
15.72755599673838
 30
0.0
  0
VERTEX
  5
415
  8
0
  6
CONTINUOUS
 62
     7
 10
-428.3298476979949
 20
15.72936136150486
 30
0.0
  0
VERTEX
  5
416
  8
0
  6
CONTINUOUS
 62
     7
 10
-428.3542043650577
 20
15.73236546985857
 30
0.0
  0
VERTEX
  5
417
  8
0
  6
CONTINUOUS
 62
     7
 10
-428.3783842888381
 20
15.73656108463935
 30
0.0
  0
VERTEX
  5
418
  8
0
  6
CONTINUOUS
 62
     7
 10
-428.4023292177817
 20
15.74193809824369
 30
0.0
  0
VERTEX
  5
419
  8
0
  6
CONTINUOUS
 62
     7
 10
-428.4259814664572
 20
15.74848355697486
 30
0.0
  0
VERTEX
  5
41A
  8
0
  6
CONTINUOUS
 62
     7
 10
-428.4492840545262
 20
15.75618169224946
 30
0.0
  0
VERTEX
  5
41B
  8
0
  6
CONTINUOUS
 62
     7
 10
-428.4721808440126
 20
15.76501395858532
 30
0.0
  0
VERTEX
  5
41C
  8
0
  6
CONTINUOUS
 62
     7
 10
-428.4946166745452
 20
15.77495907827925
 30
0.0
  0
VERTEX
  5
41D
  8
0
  6
CONTINUOUS
 62
     7
 10
-428.5165374962431
 20
15.78599309266679
 30
0.0
  0
VERTEX
  5
41E
  8
0
  6
CONTINUOUS
 62
     7
 10
-428.5378904999266
 20
15.79808941984083
 30
0.0
  0
VERTEX
  5
41F
  8
0
  6
CONTINUOUS
 62
     7
 10
-428.5586242443399
 20
15.8112189186897
 30
0.0
  0
VERTEX
  5
420
  8
0
  6
CONTINUOUS
 62
     7
 10
-428.5786887800763
 20
15.82534995910065
 30
0.0
  0
VERTEX
  5
421
  8
0
  6
CONTINUOUS
 62
     7
 10
-428.5980357699119
 20
15.8404484981596
 30
0.0
  0
VERTEX
  5
422
  8
0
  6
CONTINUOUS
 62
     7
 10
-428.6166186052536
 20
15.85647816216348
 30
0.0
  0
VERTEX
  5
423
  8
0
  6
CONTINUOUS
 62
     7
 10
-428.6343925184233
 20
15.87340033424769
 30
0.0
  0
VERTEX
  5
424
  8
0
  6
CONTINUOUS
 62
     7
 10
-428.6513146905075
 20
15.89117424741745
 30
0.0
  0
VERTEX
  5
425
  8
0
  6
CONTINUOUS
 62
     7
 10
-428.6673443545114
 20
15.90975708275914
 30
0.0
  0
VERTEX
  5
426
  8
0
  6
CONTINUOUS
 62
     7
 10
-428.6824428935704
 20
15.92910407259475
 30
0.0
  0
VERTEX
  5
427
  8
0
  6
CONTINUOUS
 62
     7
 10
-428.6965739339813
 20
15.94916860833116
 30
0.0
  0
VERTEX
  5
428
  8
0
  6
CONTINUOUS
 62
     7
 10
-428.7097034328302
 20
15.96990235274436
 30
0.0
  0
VERTEX
  5
429
  8
0
  6
CONTINUOUS
 62
     7
 10
-428.7217997600042
 20
15.99125535642797
 30
0.0
  0
VERTEX
  5
42A
  8
0
  6
CONTINUOUS
 62
     7
 10
-428.7328337743917
 20
16.01317617812582
 30
0.0
  0
VERTEX
  5
42B
  8
0
  6
CONTINUOUS
 62
     7
 10
-428.7427788940857
 20
16.03561200865841
 30
0.0
  0
VERTEX
  5
42C
  8
0
  6
CONTINUOUS
 62
     7
 10
-428.7516111604215
 20
16.05850879814485
 30
0.0
  0
VERTEX
  5
42D
  8
0
  6
CONTINUOUS
 62
     7
 10
-428.7593092956961
 20
16.08181138621373
 30
0.0
  0
VERTEX
  5
42E
  8
0
  6
CONTINUOUS
 62
     7
 10
-428.7658547544273
 20
16.10546363488934
 30
0.0
  0
VERTEX
  5
42F
  8
0
  6
CONTINUOUS
 62
     7
 10
-428.7712317680317
 20
16.12940856383289
 30
0.0
  0
VERTEX
  5
430
  8
0
  6
CONTINUOUS
 62
     7
 10
-428.7754273828124
 20
16.15358848761328
 30
0.0
  0
VERTEX
  5
431
  8
0
  6
CONTINUOUS
 62
     7
 10
-428.7784314911661
 20
16.17794515467617
 30
0.0
  0
VERTEX
  5
432
  8
0
  6
CONTINUOUS
 62
     7
 10
-428.7802368559326
 20
16.20241988767725
 30
0.0
  0
VERTEX
  5
433
  8
0
  6
CONTINUOUS
 62
     7
 10
-428.7808391278301
 20
16.22695372484095
 30
0.0
  0
SEQEND
  5
4FE
  8
0
  6
CONTINUOUS
 62
     7
  0
LINE
  5
1C5
  8
0
  6
CONTINUOUS
 62
     7
 10
-428.7808391278301
 20
16.22695372484095
 30
0.0
 11
-428.7808391278301
 21
17.72695372484095
 31
0.0
  0
ARC
  5
1C6
  8
0
  6
CONTINUOUS
 62
     7
 10
-419.78083912783
 20
3.726953724840942
 30
0.0
 40
9.399999999999991
 50
270.0
 51
90.0
  0
LINE
  5
1C7
  8
0
  6
CONTINUOUS
 62
     7
 10
-426.2808391278301
 20
-5.673046275159035
 30
0.0
 11
-419.78083912783
 21
-5.67304627515905
 31
0.0
  0
LINE
  5
1C8
  8
0
  6
CONTINUOUS
 62
     7
 10
-428.7808391278301
 20
-10.27304627515904
 30
0.0
 11
-428.7808391278301
 21
-8.773046275159041
 31
0.0
  0
POLYLINE
  5
1C9
  8
0
  6
CONTINUOUS
 62
     7
 66
     1
 10
0.0
 20
0.0
 30
0.0
  0
VERTEX
  5
434
  8
0
  6
CONTINUOUS
 62
     7
 10
-428.7808391278301
 20
-8.773046275159041
 30
0.0
  0
VERTEX
  5
435
  8
0
  6
CONTINUOUS
 62
     7
 10
-428.7802368559326
 20
-8.748512437995334
 30
0.0
  0
VERTEX
  5
436
  8
0
  6
CONTINUOUS
 62
     7
 10
-428.7784314911661
 20
-8.724037704994261
 30
0.0
  0
VERTEX
  5
437
  8
0
  6
CONTINUOUS
 62
     7
 10
-428.7754273828124
 20
-8.699681037931366
 30
0.0
  0
VERTEX
  5
438
  8
0
  6
CONTINUOUS
 62
     7
 10
-428.7712317680317
 20
-8.675501114150983
 30
0.0
  0
VERTEX
  5
439
  8
0
  6
CONTINUOUS
 62
     7
 10
-428.7658547544273
 20
-8.65155618520741
 30
0.0
  0
VERTEX
  5
43A
  8
0
  6
CONTINUOUS
 62
     7
 10
-428.7593092956961
 20
-8.627903936531817
 30
0.0
  0
VERTEX
  5
43B
  8
0
  6
CONTINUOUS
 62
     7
 10
-428.7516111604215
 20
-8.604601348462943
 30
0.0
  0
VERTEX
  5
43C
  8
0
  6
CONTINUOUS
 62
     7
 10
-428.7427788940857
 20
-8.581704558976499
 30
0.0
  0
VERTEX
  5
43D
  8
0
  6
CONTINUOUS
 62
     7
 10
-428.7328337743917
 20
-8.559268728443897
 30
0.0
  0
VERTEX
  5
43E
  8
0
  6
CONTINUOUS
 62
     7
 10
-428.7217997600042
 20
-8.53734790674604
 30
0.0
  0
VERTEX
  5
43F
  8
0
  6
CONTINUOUS
 62
     7
 10
-428.7097034328302
 20
-8.515994903062444
 30
0.0
  0
VERTEX
  5
440
  8
0
  6
CONTINUOUS
 62
     7
 10
-428.6965739339813
 20
-8.49526115864925
 30
0.0
  0
VERTEX
  5
441
  8
0
  6
CONTINUOUS
 62
     7
 10
-428.6824428935704
 20
-8.475196622912836
 30
0.0
  0
VERTEX
  5
442
  8
0
  6
CONTINUOUS
 62
     7
 10
-428.6673443545114
 20
-8.45584963307723
 30
0.0
  0
VERTEX
  5
443
  8
0
  6
CONTINUOUS
 62
     7
 10
-428.6513146905075
 20
-8.437266797735543
 30
0.0
  0
VERTEX
  5
444
  8
0
  6
CONTINUOUS
 62
     7
 10
-428.6343925184233
 20
-8.419492884565782
 30
0.0
  0
VERTEX
  5
445
  8
0
  6
CONTINUOUS
 62
     7
 10
-428.6166186052536
 20
-8.402570712481571
 30
0.0
  0
VERTEX
  5
446
  8
0
  6
CONTINUOUS
 62
     7
 10
-428.5980357699119
 20
-8.386541048477678
 30
0.0
  0
VERTEX
  5
447
  8
0
  6
CONTINUOUS
 62
     7
 10
-428.5786887800763
 20
-8.371442509418737
 30
0.0
  0
VERTEX
  5
448
  8
0
  6
CONTINUOUS
 62
     7
 10
-428.5586242443399
 20
-8.357311469007783
 30
0.0
  0
VERTEX
  5
449
  8
0
  6
CONTINUOUS
 62
     7
 10
-428.5378904999267
 20
-8.344181970158917
 30
0.0
  0
VERTEX
  5
44A
  8
0
  6
CONTINUOUS
 62
     7
 10
-428.5165374962431
 20
-8.332085642984877
 30
0.0
  0
VERTEX
  5
44B
  8
0
  6
CONTINUOUS
 62
     7
 10
-428.4946166745452
 20
-8.321051628597322
 30
0.0
  0
VERTEX
  5
44C
  8
0
  6
CONTINUOUS
 62
     7
 10
-428.4721808440126
 20
-8.311106508903404
 30
0.0
  0
VERTEX
  5
44D
  8
0
  6
CONTINUOUS
 62
     7
 10
-428.4492840545262
 20
-8.302274242567533
 30
0.0
  0
VERTEX
  5
44E
  8
0
  6
CONTINUOUS
 62
     7
 10
-428.4259814664572
 20
-8.29457610729295
 30
0.0
  0
VERTEX
  5
44F
  8
0
  6
CONTINUOUS
 62
     7
 10
-428.4023292177817
 20
-8.288030648561776
 30
0.0
  0
VERTEX
  5
450
  8
0
  6
CONTINUOUS
 62
     7
 10
-428.3783842888381
 20
-8.282653634957434
 30
0.0
  0
VERTEX
  5
451
  8
0
  6
CONTINUOUS
 62
     7
 10
-428.3542043650578
 20
-8.278458020176654
 30
0.0
  0
VERTEX
  5
452
  8
0
  6
CONTINUOUS
 62
     7
 10
-428.3298476979949
 20
-8.275453911822952
 30
0.0
  0
VERTEX
  5
453
  8
0
  6
CONTINUOUS
 62
     7
 10
-428.3053729649938
 20
-8.273648547056464
 30
0.0
  0
VERTEX
  5
454
  8
0
  6
CONTINUOUS
 62
     7
 10
-428.2808391278301
 20
-8.273046275159041
 30
0.0
  0
SEQEND
  5
4FF
  8
0
  6
CONTINUOUS
 62
     7
  0
LINE
  5
1CA
  8
0
  6
CONTINUOUS
 62
     7
 10
-428.2808391278301
 20
-7.77304627515904
 30
0.0
 11
-428.2808391278301
 21
-8.273046275159041
 31
0.0
  0
LINE
  5
1CB
  8
0
  6
CONTINUOUS
 62
     7
 10
-428.2808391278301
 20
15.22695372484095
 30
0.0
 11
-428.2808391278301
 21
15.72695372484095
 31
0.0
  0
LINE
  5
1CC
  8
0
  6
CONTINUOUS
 62
     7
 10
-419.78083912783
 20
13.12695372484095
 30
0.0
 11
-426.2808391278301
 21
13.12695372484095
 31
0.0
  0
LINE
  5
1CD
  8
0
  6
CONTINUOUS
 62
     7
 10
-240.28083912783
 20
9.135280638036953
 30
0.0
 11
-240.28083912783
 21
-1.68137318835504
 31
0.0
  0
LINE
  5
1CE
  8
0
  6
CONTINUOUS
 62
     7
 10
-426.2808391278301
 20
9.135280638036953
 30
0.0
 11
-426.2808391278301
 21
-1.68137318835504
 31
0.0
  0
LINE
  5
1CF
  8
0
  6
CONTINUOUS
 62
     7
 10
-336.7808391278301
 20
-13.27304627515904
 30
0.0
 11
-336.7808391278301
 21
-13.25741544042044
 31
0.0
  0
LINE
  5
1D0
  8
0
  6
CONTINUOUS
 62
     7
 10
-336.7808391278301
 20
-13.27304627515904
 30
0.0
 11
-329.5015793585258
 21
-13.27304627515904
 31
0.0
  0
LINE
  5
1D1
  8
0
  6
CONTINUOUS
 62
     7
 10
-290.78083912783
 20
-13.27304627515904
 30
0.0
 11
-290.78083912783
 21
-13.25741544042044
 31
0.0
  0
LINE
  5
1D2
  8
0
  6
CONTINUOUS
 62
     7
 10
-283.5015793585258
 20
-13.27304627515904
 30
0.0
 11
-290.7808391278301
 21
-13.27304627515904
 31
0.0
  0
LINE
  5
1D3
  8
0
  6
CONTINUOUS
 62
     7
 10
-382.7808391278301
 20
-13.27304627515904
 30
0.0
 11
-382.7808391278301
 21
-13.25741544042044
 31
0.0
  0
LINE
  5
1D4
  8
0
  6
CONTINUOUS
 62
     7
 10
-382.7808391278301
 20
-13.27304627515904
 30
0.0
 11
-375.5015793585258
 21
-13.27304627515904
 31
0.0
  0
ARC
  5
1D5
  8
0
  6
CONTINUOUS
 62
     7
 10
-238.416430613607
 20
-9.773752386104409
 30
0.0
 40
4.149741003222746
 50
4.73283570119446
 51
28.82447406072629
  0
LINE
  5
1D6
  8
0
  6
CONTINUOUS
 62
     7
 10
-234.28083912783
 20
-10.77304627515904
 30
0.0
 11
-234.28083912783
 21
-9.431358670336731
 31
0.0
  0
LINE
  5
1D7
  8
0
  6
CONTINUOUS
 62
     7
 10
-236.9744734667838
 20
17.72695372484095
 30
0.0
 11
-236.9962906362608
 21
15.22695372484095
 31
0.0
  0
LINE
  5
1D8
  8
0
  6
CONTINUOUS
 62
     7
 10
-237.1970085954482
 20
-7.77304627515904
 30
0.0
 11
-237.2188257649251
 21
-10.27304627515904
 31
0.0
  0
ARC
  5
1D9
  8
0
  6
CONTINUOUS
 62
     7
 10
-238.4164306136071
 20
17.22765983578636
 30
0.0
 40
4.149741003222863
 50
331.1755259392739
 51
355.2671642988053
  0
LINE
  5
1DA
  8
0
  6
CONTINUOUS
 62
     7
 10
-234.28083912783
 20
16.88526612001866
 30
0.0
 11
-234.28083912783
 21
18.22695372484095
 31
0.0
  0
LINE
  5
1DB
  8
0
  6
CONTINUOUS
 62
     7
 10
-429.5653876193993
 20
15.22695372484095
 30
0.0
 11
-429.5872047888762
 21
17.72695372484095
 31
0.0
  0
LINE
  5
1DC
  8
0
  6
CONTINUOUS
 62
     7
 10
-429.342852490735
 20
-10.27304627515904
 30
0.0
 11
-429.3646696602119
 21
-7.77304627515904
 31
0.0
  0
ARC
  5
1DD
  8
0
  6
CONTINUOUS
 62
     7
 10
-428.1452476420548
 20
17.22765983578582
 30
0.0
 40
4.149741003221046
 50
184.7328357011893
 51
208.8244740607313
  0
LINE
  5
1DE
  8
0
  6
CONTINUOUS
 62
     7
 10
-432.2808391278301
 20
18.22695372484095
 30
0.0
 11
-432.2808391278301
 21
16.88526612001866
 31
0.0
  0
LINE
  5
1DF
  8
0
  6
CONTINUOUS
 62
     7
 10
-432.2808391278301
 20
-9.431358670336731
 30
0.0
 11
-432.2808391278301
 21
-10.77304627515904
 31
0.0
  0
ARC
  5
1E0
  8
0
  6
CONTINUOUS
 62
     7
 10
-428.1452476420549
 20
-9.773752386103867
 30
0.0
 40
4.149741003220906
 50
151.1755259392683
 51
175.2671642988109
  0
LINE
  5
1E1
  8
0
  6
CONTINUOUS
 62
     7
 10
-237.0355615413192
 20
10.72695372484096
 30
0.0
 11
-237.0311981074238
 21
11.22695372484096
 31
0.0
  0
LINE
  5
1E2
  8
0
  6
CONTINUOUS
 62
     7
 10
-229.28083912783
 20
11.22695372484096
 30
0.0
 11
-229.28083912783
 21
10.72695372484096
 31
0.0
  0
LINE
  5
1E3
  8
0
  6
CONTINUOUS
 62
     7
 10
-237.0311981074238
 20
11.22695372484096
 30
0.0
 11
-237.0268346735284
 21
11.72695372484096
 31
0.0
  0
LINE
  5
1E4
  8
0
  6
CONTINUOUS
 62
     7
 10
-229.28083912783
 20
11.72695372484096
 30
0.0
 11
-229.28083912783
 21
11.22695372484096
 31
0.0
  0
LINE
  5
1E5
  8
0
  6
CONTINUOUS
 62
     7
 10
-429.5304801482363
 20
11.22695372484096
 30
0.0
 11
-429.526116714341
 21
10.72695372484096
 31
0.0
  0
LINE
  5
1E6
  8
0
  6
CONTINUOUS
 62
     7
 10
-437.2808391278301
 20
10.72695372484096
 30
0.0
 11
-437.2808391278301
 21
11.22695372484096
 31
0.0
  0
LINE
  5
1E7
  8
0
  6
CONTINUOUS
 62
     7
 10
-429.5348435821317
 20
11.72695372484096
 30
0.0
 11
-429.5304801482363
 21
11.22695372484096
 31
0.0
  0
LINE
  5
1E8
  8
0
  6
CONTINUOUS
 62
     7
 10
-437.2808391278301
 20
11.22695372484096
 30
0.0
 11
-437.2808391278301
 21
11.72695372484096
 31
0.0
  0
ARC
  5
1E9
  8
0
  6
CONTINUOUS
 62
     7
 10
-230.28083912783
 20
-12.27304627515904
 30
0.0
 40
1.000000000000001
 50
270.0
 51
0.0
  0
LINE
  5
1EA
  8
0
  6
CONTINUOUS
 62
     7
 10
-237.0355615413192
 20
10.72695372484096
 30
0.0
 11
-237.1970085954482
 21
-7.77304627515904
 31
0.0
  0
LINE
  5
1EB
  8
0
  6
CONTINUOUS
 62
     7
 10
-229.28083912783
 20
10.72695372484096
 30
0.0
 11
-229.28083912783
 21
-12.27304627515904
 31
0.0
  0
LINE
  5
1EC
  8
0
  6
CONTINUOUS
 62
     7
 10
-230.28083912783
 20
-13.27304627515904
 30
0.0
 11
-236.78083912783
 21
-13.27304627515904
 31
0.0
  0
LINE
  5
1ED
  8
0
  6
CONTINUOUS
 62
     7
 10
-236.9962906362608
 20
15.22695372484095
 30
0.0
 11
-237.0268346735284
 21
11.72695372484096
 31
0.0
  0
LINE
  5
1EE
  8
0
  6
CONTINUOUS
 62
     7
 10
-229.28083912783
 20
20.22695372484096
 30
0.0
 11
-229.28083912783
 21
11.72695372484096
 31
0.0
  0
ARC
  5
1EF
  8
0
  6
CONTINUOUS
 62
     7
 10
-436.2808391278301
 20
-12.27304627515904
 30
0.0
 40
1.000000000000001
 50
180.0
 51
270.0
  0
LINE
  5
1F0
  8
0
  6
CONTINUOUS
 62
     7
 10
-429.3646696602119
 20
-7.77304627515904
 30
0.0
 11
-429.5261167143409
 21
10.72695372484096
 31
0.0
  0
LINE
  5
1F1
  8
0
  6
CONTINUOUS
 62
     7
 10
-437.2808391278301
 20
10.72695372484096
 30
0.0
 11
-437.2808391278301
 21
-12.27304627515904
 31
0.0
  0
LINE
  5
1F2
  8
0
  6
CONTINUOUS
 62
     7
 10
-436.2808391278301
 20
-13.27304627515904
 30
0.0
 11
-429.7808391278301
 21
-13.27304627515904
 31
0.0
  0
LINE
  5
1F3
  8
0
  6
CONTINUOUS
 62
     7
 10
-429.5348435821317
 20
11.72695372484096
 30
0.0
 11
-429.5653876193994
 21
15.22695372484095
 31
0.0
  0
LINE
  5
1F4
  8
0
  6
CONTINUOUS
 62
     7
 10
-437.2808391278301
 20
20.22695372484096
 30
0.0
 11
-437.2808391278301
 21
11.72695372484096
 31
0.0
  0
LINE
  5
1F5
  8
0
  6
CONTINUOUS
 62
     7
 10
-290.78083912783
 20
-13.27304627515904
 30
0.0
 11
-291.0600988971344
 21
-13.27304627515904
 31
0.0
  0
LINE
  5
1F6
  8
0
  6
CONTINUOUS
 62
     7
 10
-336.7808391278301
 20
-13.27304627515904
 30
0.0
 11
-337.0600988971344
 21
-13.27304627515904
 31
0.0
  0
LINE
  5
1F7
  8
0
  6
CONTINUOUS
 62
     7
 10
-382.78083912783
 20
-13.27304627515904
 30
0.0
 11
-383.0600988971343
 21
-13.27304627515904
 31
0.0
  0
LINE
  5
1F8
  8
0
  6
CONTINUOUS
 62
     7
 10
-446.28083912783
 20
23.22695372484096
 30
0.0
 11
-437.28083912783
 21
23.22695372484096
 31
0.0
  0
LINE
  5
1F9
  8
0
  6
CONTINUOUS
 62
     7
 10
-446.28083912783
 20
23.22695372484096
 30
0.0
 11
-445.9458311338273
 21
27.81377781367442
 31
0.0
  0
LINE
  5
1FA
  8
0
  6
CONTINUOUS
 62
     7
 10
-435.5896199704549
 20
27.81377781367442
 30
0.0
 11
-434.6926756374758
 21
22.72695372484096
 31
0.0
  0
LINE
  5
1FB
  8
0
  6
CONTINUOUS
 62
     7
 10
-437.2808391278301
 20
23.22695372484096
 30
0.0
 11
-437.2808391278301
 21
22.72695372484096
 31
0.0
  0
LINE
  5
1FC
  8
0
  6
CONTINUOUS
 62
     7
 10
-455.2808391278301
 20
23.22695372484096
 30
0.0
 11
-454.4720582852052
 21
27.81377781367442
 31
0.0
  0
LINE
  5
1FD
  8
0
  6
CONTINUOUS
 62
     7
 10
-455.2808391278301
 20
23.22695372484096
 30
0.0
 11
-446.28083912783
 21
23.22695372484096
 31
0.0
  0
POLYLINE
  5
1FE
  8
0
  6
CONTINUOUS
 62
     7
 66
     1
 10
0.0
 20
0.0
 30
0.0
  0
VERTEX
  5
455
  8
0
  6
CONTINUOUS
 62
     7
 10
-445.9458311338273
 20
27.81377781367442
 30
0.0
  0
VERTEX
  5
456
  8
0
  6
CONTINUOUS
 62
     7
 10
-445.9437849517943
 20
27.83821419181912
 30
0.0
  0
VERTEX
  5
457
  8
0
  6
CONTINUOUS
 62
     7
 10
-445.9412367792913
 20
27.86237395891246
 30
0.0
  0
VERTEX
  5
458
  8
0
  6
CONTINUOUS
 62
     7
 10
-445.9381929514767
 20
27.8861970499668
 30
0.0
  0
VERTEX
  5
459
  8
0
  6
CONTINUOUS
 62
     7
 10
-445.9346610357862
 20
27.90962423702416
 30
0.0
  0
VERTEX
  5
45A
  8
0
  6
CONTINUOUS
 62
     7
 10
-445.9306498131184
 20
27.93259727640626
 30
0.0
  0
VERTEX
  5
45B
  8
0
  6
CONTINUOUS
 62
     7
 10
-445.926169256005
 20
27.95505905351754
 30
0.0
  0
VERTEX
  5
45C
  8
0
  6
CONTINUOUS
 62
     7
 10
-445.9212305038169
 20
27.97695372484096
 30
0.0
  0
VERTEX
  5
45D
  8
0
  6
CONTINUOUS
 62
     7
 10
-445.9158458350703
 20
27.99822685677383
 30
0.0
  0
VERTEX
  5
45E
  8
0
  6
CONTINUOUS
 62
     7
 10
-445.9100286369002
 20
28.01882556095836
 30
0.0
  0
VERTEX
  5
45F
  8
0
  6
CONTINUOUS
 62
     7
 10
-445.9037933717776
 20
28.03869862577033
 30
0.0
  0
VERTEX
  5
460
  8
0
  6
CONTINUOUS
 62
     7
 10
-445.8971555415542
 20
28.05779664363939
 30
0.0
  0
VERTEX
  5
461
  8
0
  6
CONTINUOUS
 62
     7
 10
-445.8901316489217
 20
28.07607213388399
 30
0.0
  0
VERTEX
  5
462
  8
0
  6
CONTINUOUS
 62
     7
 10
-445.8827391563839
 20
28.09347966075587
 30
0.0
  0
VERTEX
  5
463
  8
0
  6
CONTINUOUS
 62
     7
 10
-445.8749964428421
 20
28.10997594640045
 30
0.0
  0
VERTEX
  5
464
  8
0
  6
CONTINUOUS
 62
     7
 10
-445.8669227579021
 20
28.12551997845242
 30
0.0
  0
VERTEX
  5
465
  8
0
  6
CONTINUOUS
 62
     7
 10
-445.8585381740168
 20
28.14007311199895
 30
0.0
  0
VERTEX
  5
466
  8
0
  6
CONTINUOUS
 62
     7
 10
-445.8498635365826
 20
28.15359916565705
 30
0.0
  0
VERTEX
  5
467
  8
0
  6
CONTINUOUS
 62
     7
 10
-445.8409204121153
 20
28.16606451152608
 30
0.0
  0
VERTEX
  5
468
  8
0
  6
CONTINUOUS
 62
     7
 10
-445.8317310346312
 20
28.17743815879217
 30
0.0
  0
VERTEX
  5
469
  8
0
  6
CONTINUOUS
 62
     7
 10
-445.8223182503706
 20
28.18769183077616
 30
0.0
  0
VERTEX
  5
46A
  8
0
  6
CONTINUOUS
 62
     7
 10
-445.8127054609985
 20
28.19680003523392
 30
0.0
  0
VERTEX
  5
46B
  8
0
  6
CONTINUOUS
 62
     7
 10
-445.8029165654237
 20
28.20474012773402
 30
0.0
  0
VERTEX
  5
46C
  8
0
  6
CONTINUOUS
 62
     7
 10
-445.7929759003829
 20
28.2114923679555
 30
0.0
  0
VERTEX
  5
46D
  8
0
  6
CONTINUOUS
 62
     7
 10
-445.7829081799359
 20
28.21703996876523
 30
0.0
  0
VERTEX
  5
46E
  8
0
  6
CONTINUOUS
 62
     7
 10
-445.7727384340218
 20
28.22136913795352
 30
0.0
  0
VERTEX
  5
46F
  8
0
  6
CONTINUOUS
 62
     7
 10
-445.7624919462315
 20
28.22446911252366
 30
0.0
  0
VERTEX
  5
470
  8
0
  6
CONTINUOUS
 62
     7
 10
-445.7521941909479
 20
28.22633218545042
 30
0.0
  0
VERTEX
  5
471
  8
0
  6
CONTINUOUS
 62
     7
 10
-445.7418707700133
 20
28.22695372484096
 30
0.0
  0
SEQEND
  5
500
  8
0
  6
CONTINUOUS
 62
     7
  0
LINE
  5
1FF
  8
0
  6
CONTINUOUS
 62
     7
 10
-445.7418707700133
 20
28.22695372484096
 30
0.0
 11
-436.082023846961
 21
28.22695372484096
 31
0.0
  0
POLYLINE
  5
200
  8
0
  6
CONTINUOUS
 62
     7
 66
     1
 10
0.0
 20
0.0
 30
0.0
  0
VERTEX
  5
472
  8
0
  6
CONTINUOUS
 62
     7
 10
-435.5896199704549
 20
27.81377781367442
 30
0.0
  0
VERTEX
  5
473
  8
0
  6
CONTINUOUS
 62
     7
 10
-435.5945598908701
 20
27.83821419181912
 30
0.0
  0
VERTEX
  5
474
  8
0
  6
CONTINUOUS
 62
     7
 10
-435.600711723486
 20
27.86237395891246
 30
0.0
  0
VERTEX
  5
475
  8
0
  6
CONTINUOUS
 62
     7
 10
-435.6080601738774
 20
27.8861970499668
 30
0.0
  0
VERTEX
  5
476
  8
0
  6
CONTINUOUS
 62
     7
 10
-435.6165869726389
 20
27.90962423702416
 30
0.0
  0
VERTEX
  5
477
  8
0
  6
CONTINUOUS
 62
     7
 10
-435.6262709208052
 20
27.93259727640626
 30
0.0
  0
VERTEX
  5
478
  8
0
  6
CONTINUOUS
 62
     7
 10
-435.6370879425553
 20
27.95505905351754
 30
0.0
  0
VERTEX
  5
479
  8
0
  6
CONTINUOUS
 62
     7
 10
-435.6490111450688
 20
27.97695372484096
 30
0.0
  0
VERTEX
  5
47A
  8
0
  6
CONTINUOUS
 62
     7
 10
-435.6620108853857
 20
27.99822685677383
 30
0.0
  0
VERTEX
  5
47B
  8
0
  6
CONTINUOUS
 62
     7
 10
-435.6760548441031
 20
28.01882556095834
 30
0.0
  0
VERTEX
  5
47C
  8
0
  6
CONTINUOUS
 62
     7
 10
-435.691108105727
 20
28.03869862577033
 30
0.0
  0
VERTEX
  5
47D
  8
0
  6
CONTINUOUS
 62
     7
 10
-435.7071332454772
 20
28.05779664363939
 30
0.0
  0
VERTEX
  5
47E
  8
0
  6
CONTINUOUS
 62
     7
 10
-435.7240904223312
 20
28.07607213388399
 30
0.0
  0
VERTEX
  5
47F
  8
0
  6
CONTINUOUS
 62
     7
 10
-435.7419374780756
 20
28.09347966075587
 30
0.0
  0
VERTEX
  5
480
  8
0
  6
CONTINUOUS
 62
     7
 10
-435.7606300421177
 20
28.10997594640044
 30
0.0
  0
VERTEX
  5
481
  8
0
  6
CONTINUOUS
 62
     7
 10
-435.7801216417982
 20
28.12551997845242
 30
0.0
  0
VERTEX
  5
482
  8
0
  6
CONTINUOUS
 62
     7
 10
-435.8003638179292
 20
28.14007311199895
 30
0.0
  0
VERTEX
  5
483
  8
0
  6
CONTINUOUS
 62
     7
 10
-435.8213062452713
 20
28.15359916565703
 30
0.0
  0
VERTEX
  5
484
  8
0
  6
CONTINUOUS
 62
     7
 10
-435.8428968576503
 20
28.16606451152608
 30
0.0
  0
VERTEX
  5
485
  8
0
  6
CONTINUOUS
 62
     7
 10
-435.8650819774023
 20
28.17743815879217
 30
0.0
  0
VERTEX
  5
486
  8
0
  6
CONTINUOUS
 62
     7
 10
-435.8878064488236
 20
28.18769183077616
 30
0.0
  0
VERTEX
  5
487
  8
0
  6
CONTINUOUS
 62
     7
 10
-435.9110137752982
 20
28.19680003523391
 30
0.0
  0
VERTEX
  5
488
  8
0
  6
CONTINUOUS
 62
     7
 10
-435.9346462597555
 20
28.20474012773402
 30
0.0
  0
VERTEX
  5
489
  8
0
  6
CONTINUOUS
 62
     7
 10
-435.9586451481159
 20
28.21149236795549
 30
0.0
  0
VERTEX
  5
48A
  8
0
  6
CONTINUOUS
 62
     7
 10
-435.9829507753613
 20
28.21703996876523
 30
0.0
  0
VERTEX
  5
48B
  8
0
  6
CONTINUOUS
 62
     7
 10
-436.0075027138729
 20
28.22136913795352
 30
0.0
  0
VERTEX
  5
48C
  8
0
  6
CONTINUOUS
 62
     7
 10
-436.0322399236631
 20
28.22446911252366
 30
0.0
  0
VERTEX
  5
48D
  8
0
  6
CONTINUOUS
 62
     7
 10
-436.0571009041306
 20
28.22633218545042
 30
0.0
  0
VERTEX
  5
48E
  8
0
  6
CONTINUOUS
 62
     7
 10
-436.082023846961
 20
28.22695372484096
 30
0.0
  0
SEQEND
  5
501
  8
0
  6
CONTINUOUS
 62
     7
  0
POLYLINE
  5
201
  8
0
  6
CONTINUOUS
 62
     7
 66
     1
 10
0.0
 20
0.0
 30
0.0
  0
VERTEX
  5
48F
  8
0
  6
CONTINUOUS
 62
     7
 10
-454.4720582852052
 20
27.81377781367442
 30
0.0
  0
VERTEX
  5
490
  8
0
  6
CONTINUOUS
 62
     7
 10
-454.4671183647901
 20
27.83821419181912
 30
0.0
  0
VERTEX
  5
491
  8
0
  6
CONTINUOUS
 62
     7
 10
-454.4609665321741
 20
27.86237395891246
 30
0.0
  0
VERTEX
  5
492
  8
0
  6
CONTINUOUS
 62
     7
 10
-454.4536180817826
 20
27.8861970499668
 30
0.0
  0
VERTEX
  5
493
  8
0
  6
CONTINUOUS
 62
     7
 10
-454.4450912830212
 20
27.90962423702416
 30
0.0
  0
VERTEX
  5
494
  8
0
  6
CONTINUOUS
 62
     7
 10
-454.4354073348549
 20
27.93259727640626
 30
0.0
  0
VERTEX
  5
495
  8
0
  6
CONTINUOUS
 62
     7
 10
-454.4245903131048
 20
27.95505905351754
 30
0.0
  0
VERTEX
  5
496
  8
0
  6
CONTINUOUS
 62
     7
 10
-454.4126671105913
 20
27.97695372484095
 30
0.0
  0
VERTEX
  5
497
  8
0
  6
CONTINUOUS
 62
     7
 10
-454.3996673702745
 20
27.99822685677383
 30
0.0
  0
VERTEX
  5
498
  8
0
  6
CONTINUOUS
 62
     7
 10
-454.385623411557
 20
28.01882556095834
 30
0.0
  0
VERTEX
  5
499
  8
0
  6
CONTINUOUS
 62
     7
 10
-454.3705701499331
 20
28.03869862577033
 30
0.0
  0
VERTEX
  5
49A
  8
0
  6
CONTINUOUS
 62
     7
 10
-454.354545010183
 20
28.05779664363939
 30
0.0
  0
VERTEX
  5
49B
  8
0
  6
CONTINUOUS
 62
     7
 10
-454.3375878333289
 20
28.07607213388399
 30
0.0
  0
VERTEX
  5
49C
  8
0
  6
CONTINUOUS
 62
     7
 10
-454.3197407775845
 20
28.09347966075587
 30
0.0
  0
VERTEX
  5
49D
  8
0
  6
CONTINUOUS
 62
     7
 10
-454.3010482135423
 20
28.10997594640044
 30
0.0
  0
VERTEX
  5
49E
  8
0
  6
CONTINUOUS
 62
     7
 10
-454.2815566138618
 20
28.12551997845242
 30
0.0
  0
VERTEX
  5
49F
  8
0
  6
CONTINUOUS
 62
     7
 10
-454.2613144377308
 20
28.14007311199895
 30
0.0
  0
VERTEX
  5
4A0
  8
0
  6
CONTINUOUS
 62
     7
 10
-454.2403720103888
 20
28.15359916565703
 30
0.0
  0
VERTEX
  5
4A1
  8
0
  6
CONTINUOUS
 62
     7
 10
-454.2187813980098
 20
28.16606451152608
 30
0.0
  0
VERTEX
  5
4A2
  8
0
  6
CONTINUOUS
 62
     7
 10
-454.1965962782579
 20
28.17743815879217
 30
0.0
  0
VERTEX
  5
4A3
  8
0
  6
CONTINUOUS
 62
     7
 10
-454.1738718068364
 20
28.18769183077616
 30
0.0
  0
VERTEX
  5
4A4
  8
0
  6
CONTINUOUS
 62
     7
 10
-454.1506644803619
 20
28.19680003523391
 30
0.0
  0
VERTEX
  5
4A5
  8
0
  6
CONTINUOUS
 62
     7
 10
-454.1270319959045
 20
28.20474012773402
 30
0.0
  0
VERTEX
  5
4A6
  8
0
  6
CONTINUOUS
 62
     7
 10
-454.1030331075442
 20
28.21149236795549
 30
0.0
  0
VERTEX
  5
4A7
  8
0
  6
CONTINUOUS
 62
     7
 10
-454.0787274802988
 20
28.21703996876523
 30
0.0
  0
VERTEX
  5
4A8
  8
0
  6
CONTINUOUS
 62
     7
 10
-454.0541755417872
 20
28.22136913795352
 30
0.0
  0
VERTEX
  5
4A9
  8
0
  6
CONTINUOUS
 62
     7
 10
-454.029438331997
 20
28.22446911252366
 30
0.0
  0
VERTEX
  5
4AA
  8
0
  6
CONTINUOUS
 62
     7
 10
-454.0045773515294
 20
28.22633218545042
 30
0.0
  0
VERTEX
  5
4AB
  8
0
  6
CONTINUOUS
 62
     7
 10
-453.979654408699
 20
28.22695372484096
 30
0.0
  0
SEQEND
  5
502
  8
0
  6
CONTINUOUS
 62
     7
  0
LINE
  5
202
  8
0
  6
CONTINUOUS
 62
     7
 10
-453.979654408699
 20
28.22695372484096
 30
0.0
 11
-445.7418707700133
 21
28.22695372484096
 31
0.0
  0
LINE
  5
203
  8
0
  6
CONTINUOUS
 62
     7
 10
-243.2895279172351
 20
22.72695372484096
 30
0.0
 11
-285.2808391278301
 21
22.72695372484096
 31
0.0
  0
LINE
  5
204
  8
0
  6
CONTINUOUS
 62
     7
 10
-289.28083912783
 20
22.72695372484096
 30
0.0
 11
-310.2808391278301
 21
22.72695372484096
 31
0.0
  0
LINE
  5
205
  8
0
  6
CONTINUOUS
 62
     7
 10
-310.28085912783
 20
22.72695372484096
 30
0.0
 11
-331.28083912783
 21
22.72695372484096
 31
0.0
  0
LINE
  5
206
  8
0
  6
CONTINUOUS
 62
     7
 10
-335.28083912783
 20
22.72695372484096
 30
0.0
 11
-377.2808391278301
 21
22.72695372484096
 31
0.0
  0
LINE
  5
207
  8
0
  6
CONTINUOUS
 62
     7
 10
-381.2808391278301
 20
22.72695372484096
 30
0.0
 11
-423.272150338425
 21
22.72695372484096
 31
0.0
  0
LINE
  5
208
  8
0
  6
CONTINUOUS
 62
     7
 10
-310.2808391278301
 20
22.72695372484096
 30
0.0
 11
-289.28083912783
 21
22.72695372484096
 31
0.0
  0
LINE
  5
209
  8
0
  6
CONTINUOUS
 62
     7
 10
-285.2808391278301
 20
22.72695372484096
 30
0.0
 11
-243.2895279172351
 21
22.72695372484096
 31
0.0
  0
LINE
  5
20A
  8
0
  6
CONTINUOUS
 62
     7
 10
-258.7546585244578
 20
19.72695372484096
 30
0.0
 11
-258.7808391278301
 21
22.72695372484096
 31
0.0
  0
LINE
  5
20B
  8
0
  6
CONTINUOUS
 62
     7
 10
-269.7808391278301
 20
22.72695372484096
 30
0.0
 11
-269.8070197312023
 21
19.72695372484096
 31
0.0
  0
LINE
  5
20C
  8
0
  6
CONTINUOUS
 62
     7
 10
-304.7546585244578
 20
19.72695372484096
 30
0.0
 11
-304.7808391278301
 21
22.72695372484096
 31
0.0
  0
LINE
  5
20D
  8
0
  6
CONTINUOUS
 62
     7
 10
-315.7808391278301
 20
22.72695372484096
 30
0.0
 11
-315.8070197312023
 21
19.72695372484096
 31
0.0
  0
LINE
  5
20E
  8
0
  6
CONTINUOUS
 62
     7
 10
-361.7808391278301
 20
22.72695372484096
 30
0.0
 11
-361.8070197312023
 21
19.72695372484096
 31
0.0
  0
LINE
  5
20F
  8
0
  6
CONTINUOUS
 62
     7
 10
-350.7546585244577
 20
19.72695372484096
 30
0.0
 11
-350.78083912783
 21
22.72695372484096
 31
0.0
  0
LINE
  5
210
  8
0
  6
CONTINUOUS
 62
     7
 10
-396.7546585244578
 20
19.72695372484096
 30
0.0
 11
-396.7808391278301
 21
22.72695372484096
 31
0.0
  0
LINE
  5
211
  8
0
  6
CONTINUOUS
 62
     7
 10
-407.78083912783
 20
22.72695372484096
 30
0.0
 11
-407.8070197312023
 21
19.72695372484096
 31
0.0
  0
LINE
  5
212
  8
0
  6
CONTINUOUS
 62
     7
 10
-242.7515913303048
 20
4.22006681864942
 30
0.0
 11
-242.7570240198469
 21
4.218132886918857
 31
0.0
  0
ENDBLK
  8
0
  0
BLOCK
  8
0
  2
D_FRAME_VIEW_6845
 70
     0
 10
0.0
 20
0.0
 30
0.0
  0
LINE
  5
249
  8
0
  6
CONTINUOUS
 62
     7
 10
-437.2808391278301
 20
104.7039395672267
 30
0.0
 11
-442.5529170664722
 21
104.7039395672267
 31
0.0
  0
LINE
  5
24A
  8
0
  6
CONTINUOUS
 62
     7
 10
-437.2808391278301
 20
104.7039395672267
 30
0.0
 11
-437.2808391278301
 21
104.792103057581
 31
0.0
  0
LINE
  5
24B
  8
0
  6
CONTINUOUS
 62
     7
 10
-434.6926756374758
 20
104.792103057581
 30
0.0
 11
-437.2808391278301
 21
104.792103057581
 31
0.0
  0
LINE
  5
24C
  8
0
  6
CONTINUOUS
 62
     7
 10
-455.2808391278301
 20
126.7039395672267
 30
0.0
 11
-455.2808391278301
 21
123.7039395672267
 31
0.0
  0
LINE
  5
24D
  8
0
  6
CONTINUOUS
 62
     7
 10
-455.2808391278301
 20
107.7039395672267
 30
0.0
 11
-455.2808391278301
 21
104.7039395672268
 31
0.0
  0
LINE
  5
24E
  8
0
  6
CONTINUOUS
 62
     7
 10
-437.2808391278301
 20
95.61577607687249
 30
0.0
 11
-434.6926756374758
 21
95.61577607687249
 31
0.0
  0
LINE
  5
24F
  8
0
  6
CONTINUOUS
 62
     7
 10
-437.2808391278301
 20
95.70393956722673
 30
0.0
 11
-437.2808391278301
 21
95.61577607687249
 31
0.0
  0
LINE
  5
250
  8
0
  6
CONTINUOUS
 62
     7
 10
-446.28083912783
 20
95.70393956722674
 30
0.0
 11
-437.28083912783
 21
95.70393956722673
 31
0.0
  0
LINE
  5
251
  8
0
  6
CONTINUOUS
 62
     7
 10
-442.5529170664722
 20
104.7039395672267
 30
0.0
 11
-446.2808391278301
 21
108.4318616285846
 31
0.0
  0
LINE
  5
252
  8
0
  6
CONTINUOUS
 62
     7
 10
-446.2808391278301
 20
122.9760175058688
 30
0.0
 11
-442.5529170664722
 21
126.7039395672267
 31
0.0
  0
LINE
  5
253
  8
0
  6
CONTINUOUS
 62
     7
 10
-437.2808391278301
 20
126.6157760768725
 30
0.0
 11
-434.6926756374758
 21
126.6157760768725
 31
0.0
  0
LINE
  5
254
  8
0
  6
CONTINUOUS
 62
     7
 10
-437.2808391278301
 20
126.7039395672267
 30
0.0
 11
-437.2808391278301
 21
126.6157760768725
 31
0.0
  0
LINE
  5
255
  8
0
  6
CONTINUOUS
 62
     7
 10
-442.5529170664722
 20
126.7039395672267
 30
0.0
 11
-437.2808391278301
 21
126.7039395672267
 31
0.0
  0
LINE
  5
256
  8
0
  6
CONTINUOUS
 62
     7
 10
-446.28083912783
 20
135.7039395672267
 30
0.0
 11
-455.28083912783
 21
126.7039395672267
 31
0.0
  0
LINE
  5
257
  8
0
  6
CONTINUOUS
 62
     7
 10
-455.2808391278301
 20
104.7039395672268
 30
0.0
 11
-446.2808391278301
 21
95.70393956722674
 31
0.0
  0
LINE
  5
258
  8
0
  6
CONTINUOUS
 62
     7
 10
-437.2808391278301
 20
135.7039395672267
 30
0.0
 11
-446.28083912783
 21
135.7039395672267
 31
0.0
  0
LINE
  5
259
  8
0
  6
CONTINUOUS
 62
     7
 10
-437.2808391278301
 20
135.7039395672267
 30
0.0
 11
-437.2808391278301
 21
135.792103057581
 31
0.0
  0
LINE
  5
25A
  8
0
  6
CONTINUOUS
 62
     7
 10
-434.6926756374758
 20
135.792103057581
 30
0.0
 11
-437.2808391278301
 21
135.792103057581
 31
0.0
  0
LINE
  5
25B
  8
0
  6
CONTINUOUS
 62
     7
 10
-446.5453295988927
 20
120.2039395672267
 30
0.0
 11
-446.4571661085385
 21
120.7039395672267
 31
0.0
  0
LINE
  5
25C
  8
0
  6
CONTINUOUS
 62
     7
 10
-446.5453295988927
 20
111.2039395672267
 30
0.0
 11
-446.5453295988927
 21
120.2039395672267
 31
0.0
  0
LINE
  5
25D
  8
0
  6
CONTINUOUS
 62
     7
 10
-446.4571661085385
 20
110.7039395672267
 30
0.0
 11
-446.5453295988927
 21
111.2039395672267
 31
0.0
  0
LINE
  5
25E
  8
0
  6
CONTINUOUS
 62
     7
 10
-446.3690026181843
 20
110.7039395672267
 30
0.0
 11
-446.4571661085385
 21
110.7039395672267
 31
0.0
  0
LINE
  5
25F
  8
0
  6
CONTINUOUS
 62
     7
 10
-446.2808391278301
 20
110.2039395672267
 30
0.0
 11
-446.3690026181843
 21
110.7039395672267
 31
0.0
  0
LINE
  5
260
  8
0
  6
CONTINUOUS
 62
     7
 10
-446.2808391278301
 20
108.4318616285846
 30
0.0
 11
-446.2808391278301
 21
110.2039395672267
 31
0.0
  0
LINE
  5
261
  8
0
  6
CONTINUOUS
 62
     7
 10
-446.2808391278301
 20
121.2039395672267
 30
0.0
 11
-446.2808391278301
 21
122.9760175058688
 31
0.0
  0
LINE
  5
262
  8
0
  6
CONTINUOUS
 62
     7
 10
-446.3690026181843
 20
120.7039395672267
 30
0.0
 11
-446.2808391278301
 21
121.2039395672267
 31
0.0
  0
LINE
  5
263
  8
0
  6
CONTINUOUS
 62
     7
 10
-446.3690026181843
 20
120.7039395672267
 30
0.0
 11
-446.4571661085385
 21
120.7039395672267
 31
0.0
  0
LINE
  5
264
  8
0
  6
CONTINUOUS
 62
     7
 10
-434.6926756374758
 20
126.6157760768725
 30
0.0
 11
-434.6926756374758
 21
135.792103057581
 31
0.0
  0
LINE
  5
265
  8
0
  6
CONTINUOUS
 62
     7
 10
-434.6926756374758
 20
95.61577607687249
 30
0.0
 11
-434.6926756374758
 21
104.792103057581
 31
0.0
  0
POLYLINE
  5
266
  8
0
  6
CONTINUOUS
 62
     7
 66
     1
 10
0.0
 20
0.0
 30
0.0
  0
VERTEX
  5
4AE
  8
0
  6
CONTINUOUS
 62
     7
 10
-455.28083912783
 20
123.7039395672267
 30
0.0
  0
VERTEX
  5
4AF
  8
0
  6
CONTINUOUS
 62
     7
 10
-455.2801213681325
 20
123.679405730063
 30
0.0
  0
VERTEX
  5
4B0
  8
0
  6
CONTINUOUS
 62
     7
 10
-455.2779698181862
 20
123.654930997062
 30
0.0
  0
VERTEX
  5
4B1
  8
0
  6
CONTINUOUS
 62
     7
 10
-455.2743896612631
 20
123.630574329999
 30
0.0
  0
VERTEX
  5
4B2
  8
0
  6
CONTINUOUS
 62
     7
 10
-455.2693895222749
 20
123.6063944062187
 30
0.0
  0
VERTEX
  5
4B3
  8
0
  6
CONTINUOUS
 62
     7
 10
-455.2629814469946
 20
123.5824494772751
 30
0.0
  0
VERTEX
  5
4B4
  8
0
  6
CONTINUOUS
 62
     7
 10
-455.2551808730365
 20
123.5587972285995
 30
0.0
  0
VERTEX
  5
4B5
  8
0
  6
CONTINUOUS
 62
     7
 10
-455.2460065926668
 20
123.5354946405306
 30
0.0
  0
VERTEX
  5
4B6
  8
0
  6
CONTINUOUS
 62
     7
 10
-455.2354807075302
 20
123.5125978510442
 30
0.0
  0
VERTEX
  5
4B7
  8
0
  6
CONTINUOUS
 62
     7
 10
-455.2236285754062
 20
123.4901620205116
 30
0.0
  0
VERTEX
  5
4B8
  8
0
  6
CONTINUOUS
 62
     7
 10
-455.2104787491191
 20
123.4682411988137
 30
0.0
  0
VERTEX
  5
4B9
  8
0
  6
CONTINUOUS
 62
     7
 10
-455.1960629077523
 20
123.4468881951301
 30
0.0
  0
VERTEX
  5
4BA
  8
0
  6
CONTINUOUS
 62
     7
 10
-455.1804157803302
 20
123.426154450717
 30
0.0
  0
VERTEX
  5
4BB
  8
0
  6
CONTINUOUS
 62
     7
 10
-455.1635750621533
 20
123.4060899149805
 30
0.0
  0
VERTEX
  5
4BC
  8
0
  6
CONTINUOUS
 62
     7
 10
-455.1455813239868
 20
123.3867429251449
 30
0.0
  0
VERTEX
  5
4BD
  8
0
  6
CONTINUOUS
 62
     7
 10
-455.1264779143222
 20
123.3681600898032
 30
0.0
  0
VERTEX
  5
4BE
  8
0
  6
CONTINUOUS
 62
     7
 10
-455.1063108549463
 20
123.3503861766335
 30
0.0
  0
VERTEX
  5
4BF
  8
0
  6
CONTINUOUS
 62
     7
 10
-455.0851287300718
 20
123.3334640045493
 30
0.0
  0
VERTEX
  5
4C0
  8
0
  6
CONTINUOUS
 62
     7
 10
-455.0629825692928
 20
123.3174343405454
 30
0.0
  0
VERTEX
  5
4C1
  8
0
  6
CONTINUOUS
 62
     7
 10
-455.0399257246503
 20
123.3023358014864
 30
0.0
  0
VERTEX
  5
4C2
  8
0
  6
CONTINUOUS
 62
     7
 10
-455.0160137421026
 20
123.2882047610755
 30
0.0
  0
VERTEX
  5
4C3
  8
0
  6
CONTINUOUS
 62
     7
 10
-454.9913042277103
 20
123.2750752622266
 30
0.0
  0
VERTEX
  5
4C4
  8
0
  6
CONTINUOUS
 62
     7
 10
-454.9658567088577
 20
123.2629789350526
 30
0.0
  0
VERTEX
  5
4C5
  8
0
  6
CONTINUOUS
 62
     7
 10
-454.9397324908467
 20
123.251944920665
 30
0.0
  0
VERTEX
  5
4C6
  8
0
  6
CONTINUOUS
 62
     7
 10
-454.9129945092066
 20
123.2419998009711
 30
0.0
  0
VERTEX
  5
4C7
  8
0
  6
CONTINUOUS
 62
     7
 10
-454.8857071780773
 20
123.2331675346352
 30
0.0
  0
VERTEX
  5
4C8
  8
0
  6
CONTINUOUS
 62
     7
 10
-454.8579362350295
 20
123.2254693993606
 30
0.0
  0
VERTEX
  5
4C9
  8
0
  6
CONTINUOUS
 62
     7
 10
-454.8297485826974
 20
123.2189239406295
 30
0.0
  0
VERTEX
  5
4CA
  8
0
  6
CONTINUOUS
 62
     7
 10
-454.8012121276045
 20
123.2135469270251
 30
0.0
  0
VERTEX
  5
4CB
  8
0
  6
CONTINUOUS
 62
     7
 10
-454.7723956165706
 20
123.2093513122443
 30
0.0
  0
VERTEX
  5
4CC
  8
0
  6
CONTINUOUS
 62
     7
 10
-454.7433684710948
 20
123.2063472038906
 30
0.0
  0
VERTEX
  5
4CD
  8
0
  6
CONTINUOUS
 62
     7
 10
-454.7142006201129
 20
123.2045418391242
 30
0.0
  0
VERTEX
  5
4CE
  8
0
  6
CONTINUOUS
 62
     7
 10
-454.6849623315329
 20
123.2039395672267
 30
0.0
  0
SEQEND
  5
503
  8
0
  6
CONTINUOUS
 62
     7
  0
LINE
  5
267
  8
0
  6
CONTINUOUS
 62
     7
 10
-454.5678178990533
 20
123.2039395672267
 30
0.0
 11
-454.6849623315329
 21
123.2039395672267
 31
0.0
  0
POLYLINE
  5
268
  8
0
  6
CONTINUOUS
 62
     7
 66
     1
 10
0.0
 20
0.0
 30
0.0
  0
VERTEX
  5
4CF
  8
0
  6
CONTINUOUS
 62
     7
 10
-455.28083912783
 20
107.7039395672267
 30
0.0
  0
VERTEX
  5
4D0
  8
0
  6
CONTINUOUS
 62
     7
 10
-455.2801213681325
 20
107.7284734043904
 30
0.0
  0
VERTEX
  5
4D1
  8
0
  6
CONTINUOUS
 62
     7
 10
-455.2779698181862
 20
107.7529481373915
 30
0.0
  0
VERTEX
  5
4D2
  8
0
  6
CONTINUOUS
 62
     7
 10
-455.2743896612631
 20
107.7773048044544
 30
0.0
  0
VERTEX
  5
4D3
  8
0
  6
CONTINUOUS
 62
     7
 10
-455.2693895222749
 20
107.8014847282348
 30
0.0
  0
VERTEX
  5
4D4
  8
0
  6
CONTINUOUS
 62
     7
 10
-455.2629814469946
 20
107.8254296571784
 30
0.0
  0
VERTEX
  5
4D5
  8
0
  6
CONTINUOUS
 62
     7
 10
-455.2551808730365
 20
107.849081905854
 30
0.0
  0
VERTEX
  5
4D6
  8
0
  6
CONTINUOUS
 62
     7
 10
-455.2460065926668
 20
107.8723844939228
 30
0.0
  0
VERTEX
  5
4D7
  8
0
  6
CONTINUOUS
 62
     7
 10
-455.2354807075302
 20
107.8952812834093
 30
0.0
  0
VERTEX
  5
4D8
  8
0
  6
CONTINUOUS
 62
     7
 10
-455.2236285754062
 20
107.9177171139419
 30
0.0
  0
VERTEX
  5
4D9
  8
0
  6
CONTINUOUS
 62
     7
 10
-455.2104787491191
 20
107.9396379356397
 30
0.0
  0
VERTEX
  5
4DA
  8
0
  6
CONTINUOUS
 62
     7
 10
-455.1960629077523
 20
107.9609909393234
 30
0.0
  0
VERTEX
  5
4DB
  8
0
  6
CONTINUOUS
 62
     7
 10
-455.1804157803302
 20
107.9817246837365
 30
0.0
  0
VERTEX
  5
4DC
  8
0
  6
CONTINUOUS
 62
     7
 10
-455.1635750621533
 20
108.001789219473
 30
0.0
  0
VERTEX
  5
4DD
  8
0
  6
CONTINUOUS
 62
     7
 10
-455.1455813239868
 20
108.0211362093086
 30
0.0
  0
VERTEX
  5
4DE
  8
0
  6
CONTINUOUS
 62
     7
 10
-455.1264779143222
 20
108.0397190446502
 30
0.0
  0
VERTEX
  5
4DF
  8
0
  6
CONTINUOUS
 62
     7
 10
-455.1063108549463
 20
108.05749295782
 30
0.0
  0
VERTEX
  5
4E0
  8
0
  6
CONTINUOUS
 62
     7
 10
-455.0851287300718
 20
108.0744151299042
 30
0.0
  0
VERTEX
  5
4E1
  8
0
  6
CONTINUOUS
 62
     7
 10
-455.0629825692928
 20
108.0904447939081
 30
0.0
  0
VERTEX
  5
4E2
  8
0
  6
CONTINUOUS
 62
     7
 10
-455.0399257246503
 20
108.1055433329671
 30
0.0
  0
VERTEX
  5
4E3
  8
0
  6
CONTINUOUS
 62
     7
 10
-455.0160137421026
 20
108.119674373378
 30
0.0
  0
VERTEX
  5
4E4
  8
0
  6
CONTINUOUS
 62
     7
 10
-454.9913042277103
 20
108.1328038722269
 30
0.0
  0
VERTEX
  5
4E5
  8
0
  6
CONTINUOUS
 62
     7
 10
-454.9658567088577
 20
108.1449001994009
 30
0.0
  0
VERTEX
  5
4E6
  8
0
  6
CONTINUOUS
 62
     7
 10
-454.9397324908467
 20
108.1559342137885
 30
0.0
  0
VERTEX
  5
4E7
  8
0
  6
CONTINUOUS
 62
     7
 10
-454.9129945092066
 20
108.1658793334824
 30
0.0
  0
VERTEX
  5
4E8
  8
0
  6
CONTINUOUS
 62
     7
 10
-454.8857071780773
 20
108.1747115998183
 30
0.0
  0
VERTEX
  5
4E9
  8
0
  6
CONTINUOUS
 62
     7
 10
-454.8579362350295
 20
108.1824097350928
 30
0.0
  0
VERTEX
  5
4EA
  8
0
  6
CONTINUOUS
 62
     7
 10
-454.8297485826974
 20
108.188955193824
 30
0.0
  0
VERTEX
  5
4EB
  8
0
  6
CONTINUOUS
 62
     7
 10
-454.8012121276045
 20
108.1943322074284
 30
0.0
  0
VERTEX
  5
4EC
  8
0
  6
CONTINUOUS
 62
     7
 10
-454.7723956165706
 20
108.1985278222091
 30
0.0
  0
VERTEX
  5
4ED
  8
0
  6
CONTINUOUS
 62
     7
 10
-454.7433684710948
 20
108.2015319305628
 30
0.0
  0
VERTEX
  5
4EE
  8
0
  6
CONTINUOUS
 62
     7
 10
-454.7142006201129
 20
108.2033372953293
 30
0.0
  0
VERTEX
  5
4EF
  8
0
  6
CONTINUOUS
 62
     7
 10
-454.6849623315329
 20
108.2039395672267
 30
0.0
  0
SEQEND
  5
504
  8
0
  6
CONTINUOUS
 62
     7
  0
LINE
  5
269
  8
0
  6
CONTINUOUS
 62
     7
 10
-454.6849623315329
 20
108.2039395672267
 30
0.0
 11
-454.5678178990533
 21
108.2039395672267
 31
0.0
  0
ARC
  5
26A
  8
0
  6
CONTINUOUS
 62
     7
 10
-356.28083912783
 20
157.4539395672267
 30
0.0
 40
5.500000000000005
 50
160.5274938529535
 51
245.3800226713429
  0
CIRCLE
  5
26B
  8
0
  6
CONTINUOUS
 62
     7
 10
-310.2808391278301
 20
157.4539395672267
 30
0.0
 40
3.100000000000019
  0
LINE
  5
26C
  8
0
  6
CONTINUOUS
 62
     7
 10
-288.2808391278301
 20
64.8539395672267
 30
0.0
 11
-288.2808391278301
 21
62.70393956722673
 31
0.0
  0
LINE
  5
26D
  8
0
  6
CONTINUOUS
 62
     7
 10
-288.2808391278301
 20
62.70393956722673
 30
0.0
 11
-288.7808391278301
 21
62.70393956722673
 31
0.0
  0
LINE
  5
26E
  8
0
  6
CONTINUOUS
 62
     7
 10
-243.2895279172351
 20
62.70393956722671
 30
0.0
 11
-244.2894898402992
 21
62.70393956722671
 31
0.0
  0
ARC
  5
26F
  8
0
  6
CONTINUOUS
 62
     7
 10
-313.109295947817
 20
158.4539815625057
 30
0.0
 40
2.49995800500401
 50
90.00086208923544
 51
160.5266317637188
  0
ARC
  5
270
  8
0
  6
CONTINUOUS
 62
     7
 10
-307.4523823078649
 20
158.4539815624749
 30
0.0
 40
2.499958005034799
 50
19.47336823678008
 51
89.99913791026523
  0
ARC
  5
271
  8
0
  6
CONTINUOUS
 62
     7
 10
-333.7808391278301
 20
166.5539395672267
 30
0.0
 40
0.5000000000000004
 50
179.9999999999992
 51
270.0000000000005
  0
LINE
  5
272
  8
0
  6
CONTINUOUS
 62
     7
 10
-334.28083912783
 20
168.7039395672267
 30
0.0
 11
-334.78083912783
 21
168.7039395672267
 31
0.0
  0
LINE
  5
273
  8
0
  6
CONTINUOUS
 62
     7
 10
-334.28083912783
 20
166.5539395672267
 30
0.0
 11
-334.28083912783
 21
168.7039395672267
 31
0.0
  0
ARC
  5
274
  8
0
  6
CONTINUOUS
 62
     7
 10
-379.7808391278301
 20
64.85393956722672
 30
0.0
 40
0.5000000000000004
 50
90.0
 51
180.0000000000008
  0
LINE
  5
275
  8
0
  6
CONTINUOUS
 62
     7
 10
-380.2808391278301
 20
64.8539395672267
 30
0.0
 11
-380.2808391278301
 21
62.70393956722673
 31
0.0
  0
LINE
  5
276
  8
0
  6
CONTINUOUS
 62
     7
 10
-380.2808391278301
 20
62.70393956722673
 30
0.0
 11
-380.7808391278301
 21
62.70393956722673
 31
0.0
  0
ARC
  5
277
  8
0
  6
CONTINUOUS
 62
     7
 10
-310.2808391278301
 20
157.4539395672267
 30
0.0
 40
5.499999999999993
 50
294.619977328657
 51
19.47250614704643
  0
LINE
  5
278
  8
0
  6
CONTINUOUS
 62
     7
 10
-307.9895512803521
 20
152.4539395672267
 30
0.0
 11
-312.5721269753079
 21
152.4539395672267
 31
0.0
  0
ARC
  5
279
  8
0
  6
CONTINUOUS
 62
     7
 10
-310.2808391278301
 20
157.4539395672267
 30
0.0
 40
5.500000000000005
 50
160.5274938529535
 51
245.3800226713429
  0
LINE
  5
27A
  8
0
  6
CONTINUOUS
 62
     7
 10
-313.1093335629241
 20
160.9539395672267
 30
0.0
 11
-307.4523446927359
 21
160.9539395672267
 31
0.0
  0
LINE
  5
27B
  8
0
  6
CONTINUOUS
 62
     7
 10
-231.9308391278301
 20
151.4539395672267
 30
0.0
 11
-231.9308391278301
 21
79.95393956722671
 31
0.0
  0
LINE
  5
27C
  8
0
  6
CONTINUOUS
 62
     7
 10
-231.9570197312023
 20
151.4539395672267
 30
0.0
 11
-231.9570197312023
 21
79.95393956722671
 31
0.0
  0
LINE
  5
27D
  8
0
  6
CONTINUOUS
 62
     7
 10
-399.9895512803522
 20
78.95393956722674
 30
0.0
 11
-404.572126975308
 21
78.95393956722674
 31
0.0
  0
LINE
  5
27E
  8
0
  6
CONTINUOUS
 62
     7
 10
-286.28083912783
 20
168.7039395672267
 30
0.0
 11
-286.2808391278301
 21
166.5539395672267
 31
0.0
  0
LINE
  5
27F
  8
0
  6
CONTINUOUS
 62
     7
 10
-285.78083912783
 20
168.7039395672267
 30
0.0
 11
-286.28083912783
 21
168.7039395672267
 31
0.0
  0
ARC
  5
280
  8
0
  6
CONTINUOUS
 62
     7
 10
-402.2808391278301
 20
157.4539395672267
 30
0.0
 40
5.49999999999998
 50
160.5274938529535
 51
245.3800226713429
  0
ARC
  5
281
  8
0
  6
CONTINUOUS
 62
     7
 10
-310.2808391278301
 20
73.95393956722671
 30
0.0
 40
5.499999999999993
 50
340.5274938529535
 51
65.38002267134311
  0
ARC
  5
282
  8
0
  6
CONTINUOUS
 62
     7
 10
-310.2808391278301
 20
73.95393956722671
 30
0.0
 40
5.499999999999995
 50
114.6199773286569
 51
199.4725061470465
  0
LINE
  5
283
  8
0
  6
CONTINUOUS
 62
     7
 10
-307.9895512803521
 20
78.95393956722671
 30
0.0
 11
-310.2808391278301
 21
78.95393956722671
 31
0.0
  0
LINE
  5
284
  8
0
  6
CONTINUOUS
 62
     7
 10
-310.2808391278301
 20
78.95393956722671
 30
0.0
 11
-312.5721269753079
 21
78.95393956722671
 31
0.0
  0
LINE
  5
285
  8
0
  6
CONTINUOUS
 62
     7
 10
-290.2808391278301
 20
62.70393956722673
 30
0.0
 11
-290.2808391278301
 21
64.8539395672267
 31
0.0
  0
LINE
  5
286
  8
0
  6
CONTINUOUS
 62
     7
 10
-289.2808391278301
 20
62.70393956722673
 30
0.0
 11
-290.2808391278301
 21
62.70393956722673
 31
0.0
  0
ARC
  5
287
  8
0
  6
CONTINUOUS
 62
     7
 10
-356.28083912783
 20
73.95393956722671
 30
0.0
 40
5.500000000000019
 50
340.5274938529535
 51
65.38002267134317
  0
LINE
  5
288
  8
0
  6
CONTINUOUS
 62
     7
 10
-332.7808391278301
 20
166.0539395672267
 30
0.0
 11
-333.7808391278301
 21
166.0539395672267
 31
0.0
  0
LINE
  5
289
  8
0
  6
CONTINUOUS
 62
     7
 10
-286.2808391278301
 20
62.70393956722673
 30
0.0
 11
-286.2808391278301
 21
64.8539395672267
 31
0.0
  0
LINE
  5
28A
  8
0
  6
CONTINUOUS
 62
     7
 10
-285.78083912783
 20
62.70393956722673
 30
0.0
 11
-286.28083912783
 21
62.70393956722673
 31
0.0
  0
LINE
  5
28B
  8
0
  6
CONTINUOUS
 62
     7
 10
-313.1093335629241
 20
70.45393956722671
 30
0.0
 11
-310.28083912783
 21
70.45393956722671
 31
0.0
  0
LINE
  5
28C
  8
0
  6
CONTINUOUS
 62
     7
 10
-310.2808391278301
 20
70.45393956722671
 30
0.0
 11
-307.4523446927359
 21
70.45393956722671
 31
0.0
  0
ARC
  5
28D
  8
0
  6
CONTINUOUS
 62
     7
 10
-313.1092959477953
 20
72.9538975719785
 30
0.0
 40
2.499958005034768
 50
199.47336823678
 51
269.9991379102659
  0
ARC
  5
28E
  8
0
  6
CONTINUOUS
 62
     7
 10
-307.452382307843
 20
72.9538975719477
 30
0.0
 40
2.499958005003968
 50
270.0008620892341
 51
340.5266317637189
  0
ARC
  5
28F
  8
0
  6
CONTINUOUS
 62
     7
 10
-310.2808391278301
 20
73.95393956722671
 30
0.0
 40
3.099999999999992
 50
90.0
 51
180.0
  0
ARC
  5
290
  8
0
  6
CONTINUOUS
 62
     7
 10
-310.2808391278301
 20
73.95393956722671
 30
0.0
 40
3.099999999999992
 50
270.0
 51
90.00000000000006
  0
ARC
  5
291
  8
0
  6
CONTINUOUS
 62
     7
 10
-310.2808391278301
 20
73.95393956722671
 30
0.0
 40
3.099999999999992
 50
180.0
 51
270.0
  0
LINE
  5
292
  8
0
  6
CONTINUOUS
 62
     7
 10
-378.7808391278301
 20
166.0539395672267
 30
0.0
 11
-379.7808391278301
 21
166.0539395672267
 31
0.0
  0
ARC
  5
293
  8
0
  6
CONTINUOUS
 62
     7
 10
-353.4523823078649
 20
158.4539815624749
 30
0.0
 40
2.499958005034799
 50
19.47336823678008
 51
89.99913791026584
  0
ARC
  5
294
  8
0
  6
CONTINUOUS
 62
     7
 10
-356.28083912783
 20
157.4539395672267
 30
0.0
 40
5.499999999999993
 50
294.619977328657
 51
19.47250614704643
  0
LINE
  5
295
  8
0
  6
CONTINUOUS
 62
     7
 10
-353.9895512803521
 20
152.4539395672267
 30
0.0
 11
-358.5721269753079
 21
152.4539395672267
 31
0.0
  0
ARC
  5
296
  8
0
  6
CONTINUOUS
 62
     7
 10
-359.109295947817
 20
158.4539815625057
 30
0.0
 40
2.49995800500401
 50
90.00086208923608
 51
160.5266317637188
  0
LINE
  5
297
  8
0
  6
CONTINUOUS
 62
     7
 10
-359.1093335629242
 20
160.9539395672267
 30
0.0
 11
-353.452344692736
 21
160.9539395672267
 31
0.0
  0
CIRCLE
  5
298
  8
0
  6
CONTINUOUS
 62
     7
 10
-356.28083912783
 20
157.4539395672267
 30
0.0
 40
3.099999999999992
  0
CIRCLE
  5
299
  8
0
  6
CONTINUOUS
 62
     7
 10
-402.2808391278301
 20
73.95393956722671
 30
0.0
 40
3.099999999999992
  0
ARC
  5
29A
  8
0
  6
CONTINUOUS
 62
     7
 10
-356.28083912783
 20
73.95393956722671
 30
0.0
 40
5.499999999999995
 50
114.6199773286569
 51
199.4725061470464
  0
LINE
  5
29B
  8
0
  6
CONTINUOUS
 62
     7
 10
-353.9895512803521
 20
78.95393956722673
 30
0.0
 11
-358.5721269753079
 21
78.95393956722673
 31
0.0
  0
ARC
  5
29C
  8
0
  6
CONTINUOUS
 62
     7
 10
-287.78083912783
 20
166.5539395672267
 30
0.0
 40
2.500000000000002
 50
179.9999999999998
 51
270.0000000000001
  0
LINE
  5
29D
  8
0
  6
CONTINUOUS
 62
     7
 10
-287.78083912783
 20
164.0539395672267
 30
0.0
 11
-286.78083912783
 21
164.0539395672267
 31
0.0
  0
ARC
  5
29E
  8
0
  6
CONTINUOUS
 62
     7
 10
-286.78083912783
 20
166.5539395672267
 30
0.0
 40
2.500000000000002
 50
270.0
 51
0.0000000000001705
  0
ARC
  5
29F
  8
0
  6
CONTINUOUS
 62
     7
 10
-402.2808391278301
 20
73.95393956722671
 30
0.0
 40
5.500000000000007
 50
114.6199773286568
 51
199.4725061470465
  0
ARC
  5
2A0
  8
0
  6
CONTINUOUS
 62
     7
 10
-286.78083912783
 20
166.5539395672267
 30
0.0
 40
0.5000000000000004
 50
270.0
 51
0.0000000000007958
  0
ARC
  5
2A1
  8
0
  6
CONTINUOUS
 62
     7
 10
-399.4523823078648
 20
158.453981562475
 30
0.0
 40
2.499958005034728
 50
19.47336823677928
 51
89.9991379102668
  0
ARC
  5
2A2
  8
0
  6
CONTINUOUS
 62
     7
 10
-402.2808391278301
 20
157.4539395672267
 30
0.0
 40
5.499999999999993
 50
294.6199773286571
 51
19.47250614704643
  0
LINE
  5
2A3
  8
0
  6
CONTINUOUS
 62
     7
 10
-399.9895512803521
 20
152.4539395672267
 30
0.0
 11
-404.572126975308
 21
152.4539395672267
 31
0.0
  0
ARC
  5
2A4
  8
0
  6
CONTINUOUS
 62
     7
 10
-405.109295947817
 20
158.4539815625057
 30
0.0
 40
2.49995800500401
 50
90.00086208923544
 51
160.5266317637187
  0
LINE
  5
2A5
  8
0
  6
CONTINUOUS
 62
     7
 10
-405.1093335629242
 20
160.9539395672267
 30
0.0
 11
-399.452344692736
 21
160.9539395672267
 31
0.0
  0
CIRCLE
  5
2A6
  8
0
  6
CONTINUOUS
 62
     7
 10
-402.2808391278301
 20
157.4539395672267
 30
0.0
 40
3.099999999999992
  0
ARC
  5
2A7
  8
0
  6
CONTINUOUS
 62
     7
 10
-359.1092959477953
 20
72.95389757197847
 30
0.0
 40
2.499958005034733
 50
199.4733682367796
 51
269.9991379102671
  0
ARC
  5
2A8
  8
0
  6
CONTINUOUS
 62
     7
 10
-353.452382307843
 20
72.95389757194768
 30
0.0
 40
2.499958005003927
 50
270.0008620892341
 51
340.5266317637194
  0
LINE
  5
2A9
  8
0
  6
CONTINUOUS
 62
     7
 10
-359.1093335629242
 20
70.45393956722673
 30
0.0
 11
-353.452344692736
 21
70.45393956722673
 31
0.0
  0
CIRCLE
  5
2AA
  8
0
  6
CONTINUOUS
 62
     7
 10
-356.28083912783
 20
73.95393956722671
 30
0.0
 40
3.099999999999992
  0
ARC
  5
2AB
  8
0
  6
CONTINUOUS
 62
     7
 10
-287.78083912783
 20
64.8539395672267
 30
0.0
 40
2.500000000000002
 50
89.99999999999994
 51
180.0000000000002
  0
LINE
  5
2AC
  8
0
  6
CONTINUOUS
 62
     7
 10
-267.1093335629242
 20
70.4539395672267
 30
0.0
 11
-261.452344692736
 21
70.4539395672267
 31
0.0
  0
ARC
  5
2AD
  8
0
  6
CONTINUOUS
 62
     7
 10
-267.1092959477953
 20
72.95389757197852
 30
0.0
 40
2.499958005034808
 50
199.4733682367807
 51
269.9991379102659
  0
ARC
  5
2AE
  8
0
  6
CONTINUOUS
 62
     7
 10
-264.2808391278301
 20
73.95393956722671
 30
0.0
 40
5.499999999999995
 50
114.6199773286569
 51
199.4725061470465
  0
LINE
  5
2AF
  8
0
  6
CONTINUOUS
 62
     7
 10
-261.9895512803521
 20
78.95393956722671
 30
0.0
 11
-266.572126975308
 21
78.95393956722671
 31
0.0
  0
ARC
  5
2B0
  8
0
  6
CONTINUOUS
 62
     7
 10
-264.2808391278301
 20
73.95393956722671
 30
0.0
 40
5.499999999999993
 50
340.5274938529535
 51
65.38002267134311
  0
ARC
  5
2B1
  8
0
  6
CONTINUOUS
 62
     7
 10
-261.452382307843
 20
72.95389757194766
 30
0.0
 40
2.49995800500394
 50
270.0008620892348
 51
340.5266317637199
  0
CIRCLE
  5
2B2
  8
0
  6
CONTINUOUS
 62
     7
 10
-264.2808391278301
 20
73.95393956722671
 30
0.0
 40
3.100000000000019
  0
LINE
  5
2B3
  8
0
  6
CONTINUOUS
 62
     7
 10
-267.1093335629242
 20
160.9539395672267
 30
0.0
 11
-261.452344692736
 21
160.9539395672267
 31
0.0
  0
ARC
  5
2B4
  8
0
  6
CONTINUOUS
 62
     7
 10
-267.1092959478171
 20
158.4539815625057
 30
0.0
 40
2.49995800500401
 50
90.0008620892348
 51
160.5266317637179
  0
ARC
  5
2B5
  8
0
  6
CONTINUOUS
 62
     7
 10
-261.4523823078648
 20
158.453981562475
 30
0.0
 40
2.499958005034737
 50
19.47336823677991
 51
89.99913791026717
  0
LINE
  5
2B6
  8
0
  6
CONTINUOUS
 62
     7
 10
-331.28083912783
 20
168.7039395672267
 30
0.0
 11
-331.78083912783
 21
168.7039395672267
 31
0.0
  0
LINE
  5
2B7
  8
0
  6
CONTINUOUS
 62
     7
 10
-334.7808391278301
 20
168.7039395672267
 30
0.0
 11
-335.2808391278301
 21
168.7039395672267
 31
0.0
  0
LINE
  5
2B8
  8
0
  6
CONTINUOUS
 62
     7
 10
-377.2808391278301
 20
62.70393956722673
 30
0.0
 11
-377.7808391278301
 21
62.70393956722673
 31
0.0
  0
LINE
  5
2B9
  8
0
  6
CONTINUOUS
 62
     7
 10
-380.7808391278301
 20
62.70393956722673
 30
0.0
 11
-381.2808391278301
 21
62.70393956722673
 31
0.0
  0
LINE
  5
2BA
  8
0
  6
CONTINUOUS
 62
     7
 10
-382.2808391278301
 20
62.70393956722673
 30
0.0
 11
-382.2808391278301
 21
64.8539395672267
 31
0.0
  0
LINE
  5
2BB
  8
0
  6
CONTINUOUS
 62
     7
 10
-381.2808391278301
 20
62.70393956722673
 30
0.0
 11
-382.2808391278301
 21
62.70393956722673
 31
0.0
  0
ARC
  5
2BC
  8
0
  6
CONTINUOUS
 62
     7
 10
-379.7808391278301
 20
64.85393956722672
 30
0.0
 40
2.500000000000002
 50
90.0
 51
180.0000000000002
  0
LINE
  5
2BD
  8
0
  6
CONTINUOUS
 62
     7
 10
-379.7808391278301
 20
67.35393956722672
 30
0.0
 11
-378.7808391278301
 21
67.35393956722672
 31
0.0
  0
LINE
  5
2BE
  8
0
  6
CONTINUOUS
 62
     7
 10
-376.2808391278301
 20
64.8539395672267
 30
0.0
 11
-376.2808391278301
 21
62.70393956722673
 31
0.0
  0
LINE
  5
2BF
  8
0
  6
CONTINUOUS
 62
     7
 10
-376.2808391278301
 20
62.70393956722673
 30
0.0
 11
-377.2808391278301
 21
62.70393956722673
 31
0.0
  0
ARC
  5
2C0
  8
0
  6
CONTINUOUS
 62
     7
 10
-378.7808391278301
 20
64.85393956722672
 30
0.0
 40
2.500000000000002
 50
359.9999999999998
 51
90.0
  0
LINE
  5
2C1
  8
0
  6
CONTINUOUS
 62
     7
 10
-378.2808391278301
 20
62.70393956722673
 30
0.0
 11
-378.2808391278301
 21
64.8539395672267
 31
0.0
  0
LINE
  5
2C2
  8
0
  6
CONTINUOUS
 62
     7
 10
-377.7808391278301
 20
62.70393956722673
 30
0.0
 11
-378.2808391278301
 21
62.70393956722673
 31
0.0
  0
ARC
  5
2C3
  8
0
  6
CONTINUOUS
 62
     7
 10
-378.7808391278301
 20
64.85393956722672
 30
0.0
 40
0.5000000000000004
 50
359.9999999999993
 51
90.0
  0
LINE
  5
2C4
  8
0
  6
CONTINUOUS
 62
     7
 10
-378.7808391278301
 20
65.35393956722672
 30
0.0
 11
-379.7808391278301
 21
65.35393956722672
 31
0.0
  0
LINE
  5
2C5
  8
0
  6
CONTINUOUS
 62
     7
 10
-336.28083912783
 20
62.70393956722673
 30
0.0
 11
-336.28083912783
 21
64.8539395672267
 31
0.0
  0
LINE
  5
2C6
  8
0
  6
CONTINUOUS
 62
     7
 10
-335.2808391278301
 20
62.70393956722673
 30
0.0
 11
-336.2808391278301
 21
62.70393956722673
 31
0.0
  0
ARC
  5
2C7
  8
0
  6
CONTINUOUS
 62
     7
 10
-432.2808391278301
 20
163.7039395672267
 30
0.0
 40
5.000000000000004
 50
90.0
 51
180.0
  0
ARC
  5
2C8
  8
0
  6
CONTINUOUS
 62
     7
 10
-432.2808391278301
 20
67.70393956722673
 30
0.0
 40
5.000000000000004
 50
180.0
 51
270.0
  0
LINE
  5
2C9
  8
0
  6
CONTINUOUS
 62
     7
 10
-423.272150338425
 20
168.7039395672267
 30
0.0
 11
-432.28083912783
 21
168.7039395672267
 31
0.0
  0
LINE
  5
2CA
  8
0
  6
CONTINUOUS
 62
     7
 10
-432.2808391278301
 20
62.70393956722673
 30
0.0
 11
-423.272150338425
 21
62.70393956722673
 31
0.0
  0
LINE
  5
2CB
  8
0
  6
CONTINUOUS
 62
     7
 10
-437.2808391278301
 20
163.7039395672267
 30
0.0
 11
-437.2808391278301
 21
163.4539595672267
 31
0.0
  0
LINE
  5
2CC
  8
0
  6
CONTINUOUS
 62
     7
 10
-437.2808391278301
 20
163.4539395672267
 30
0.0
 11
-437.2808391278301
 21
151.4539395672267
 31
0.0
  0
LINE
  5
2CD
  8
0
  6
CONTINUOUS
 62
     7
 10
-437.2808391278301
 20
151.4539195672267
 30
0.0
 11
-437.2808391278301
 21
135.792103057581
 31
0.0
  0
LINE
  5
2CE
  8
0
  6
CONTINUOUS
 62
     7
 10
-437.2808391278301
 20
126.6157760768725
 30
0.0
 11
-437.2808391278301
 21
115.7039395672267
 31
0.0
  0
LINE
  5
2CF
  8
0
  6
CONTINUOUS
 62
     7
 10
-437.2808391278301
 20
115.7039395672267
 30
0.0
 11
-437.2808391278301
 21
104.792103057581
 31
0.0
  0
LINE
  5
2D0
  8
0
  6
CONTINUOUS
 62
     7
 10
-437.2808391278301
 20
95.61577607687249
 30
0.0
 11
-437.2808391278301
 21
79.9539595672267
 31
0.0
  0
LINE
  5
2D1
  8
0
  6
CONTINUOUS
 62
     7
 10
-437.2808391278301
 20
79.95393956722671
 30
0.0
 11
-437.2808391278301
 21
67.9539395672267
 31
0.0
  0
LINE
  5
2D2
  8
0
  6
CONTINUOUS
 62
     7
 10
-437.2808391278301
 20
67.9539195672267
 30
0.0
 11
-437.2808391278301
 21
67.70393956722673
 31
0.0
  0
LINE
  5
2D3
  8
0
  6
CONTINUOUS
 62
     7
 10
-330.2808391278301
 20
64.8539395672267
 30
0.0
 11
-330.2808391278301
 21
62.70393956722673
 31
0.0
  0
LINE
  5
2D4
  8
0
  6
CONTINUOUS
 62
     7
 10
-330.2808391278301
 20
62.70393956722673
 30
0.0
 11
-331.2808391278301
 21
62.70393956722673
 31
0.0
  0
ARC
  5
2D5
  8
0
  6
CONTINUOUS
 62
     7
 10
-332.7808391278301
 20
64.8539395672267
 30
0.0
 40
2.500000000000002
 50
359.9999999999998
 51
90.0
  0
LINE
  5
2D6
  8
0
  6
CONTINUOUS
 62
     7
 10
-288.78083912783
 20
62.70393956722673
 30
0.0
 11
-289.28083912783
 21
62.70393956722673
 31
0.0
  0
LINE
  5
2D7
  8
0
  6
CONTINUOUS
 62
     7
 10
-285.2808391278301
 20
62.70393956722673
 30
0.0
 11
-285.7808391278301
 21
62.70393956722673
 31
0.0
  0
LINE
  5
2D8
  8
0
  6
CONTINUOUS
 62
     7
 10
-423.272150338425
 20
168.7039395672267
 30
0.0
 11
-422.2721884153609
 21
168.7039395672267
 31
0.0
  0
LINE
  5
2D9
  8
0
  6
CONTINUOUS
 62
     7
 10
-422.2721884153609
 20
62.70393956722673
 30
0.0
 11
-423.272150338425
 21
62.70393956722673
 31
0.0
  0
LINE
  5
2DA
  8
0
  6
CONTINUOUS
 62
     7
 10
-286.78083912783
 20
65.3539395672267
 30
0.0
 11
-287.78083912783
 21
65.3539395672267
 31
0.0
  0
ARC
  5
2DB
  8
0
  6
CONTINUOUS
 62
     7
 10
-378.7808391278301
 20
166.5539395672267
 30
0.0
 40
0.5000000000000004
 50
270.0
 51
0.0000000000007958
  0
ARC
  5
2DC
  8
0
  6
CONTINUOUS
 62
     7
 10
-287.78083912783
 20
64.8539395672267
 30
0.0
 40
0.5000000000000004
 50
89.99999999999962
 51
180.0000000000008
  0
ARC
  5
2DD
  8
0
  6
CONTINUOUS
 62
     7
 10
-379.7808391278301
 20
166.5539395672267
 30
0.0
 40
0.5000000000000004
 50
179.9999999999992
 51
270.0
  0
LINE
  5
2DE
  8
0
  6
CONTINUOUS
 62
     7
 10
-380.2808391278301
 20
166.5539395672267
 30
0.0
 11
-380.2808391278301
 21
168.7039395672267
 31
0.0
  0
LINE
  5
2DF
  8
0
  6
CONTINUOUS
 62
     7
 10
-380.2808391278301
 20
168.7039395672267
 30
0.0
 11
-380.7808391278301
 21
168.7039395672267
 31
0.0
  0
LINE
  5
2E0
  8
0
  6
CONTINUOUS
 62
     7
 10
-288.78083912783
 20
168.7039395672267
 30
0.0
 11
-289.2808391278299
 21
168.7039395672267
 31
0.0
  0
LINE
  5
2E1
  8
0
  6
CONTINUOUS
 62
     7
 10
-285.2808391278301
 20
168.7039395672267
 30
0.0
 11
-285.7808391278301
 21
168.7039395672267
 31
0.0
  0
LINE
  5
2E2
  8
0
  6
CONTINUOUS
 62
     7
 10
-290.28083912783
 20
168.7039395672267
 30
0.0
 11
-290.28083912783
 21
166.5539395672267
 31
0.0
  0
LINE
  5
2E3
  8
0
  6
CONTINUOUS
 62
     7
 10
-289.28083912783
 20
168.7039395672267
 30
0.0
 11
-290.28083912783
 21
168.7039395672267
 31
0.0
  0
LINE
  5
2E4
  8
0
  6
CONTINUOUS
 62
     7
 10
-284.2808391278301
 20
166.5539395672267
 30
0.0
 11
-284.2808391278301
 21
168.7039395672267
 31
0.0
  0
LINE
  5
2E5
  8
0
  6
CONTINUOUS
 62
     7
 10
-284.2808391278301
 20
168.7039395672267
 30
0.0
 11
-285.2808391278301
 21
168.7039395672267
 31
0.0
  0
LINE
  5
2E6
  8
0
  6
CONTINUOUS
 62
     7
 10
-331.2808391278301
 20
62.70393956722673
 30
0.0
 11
-331.7808391278301
 21
62.70393956722673
 31
0.0
  0
LINE
  5
2E7
  8
0
  6
CONTINUOUS
 62
     7
 10
-334.7808391278301
 20
62.70393956722673
 30
0.0
 11
-335.2808391278301
 21
62.70393956722673
 31
0.0
  0
LINE
  5
2E8
  8
0
  6
CONTINUOUS
 62
     7
 10
-332.28083912783
 20
62.70393956722673
 30
0.0
 11
-332.28083912783
 21
64.8539395672267
 31
0.0
  0
LINE
  5
2E9
  8
0
  6
CONTINUOUS
 62
     7
 10
-331.7808391278301
 20
62.70393956722673
 30
0.0
 11
-332.2808391278301
 21
62.70393956722673
 31
0.0
  0
ARC
  5
2EA
  8
0
  6
CONTINUOUS
 62
     7
 10
-332.7808391278301
 20
64.8539395672267
 30
0.0
 40
0.5000000000000004
 50
359.9999999999993
 51
90.0
  0
LINE
  5
2EB
  8
0
  6
CONTINUOUS
 62
     7
 10
-332.7808391278301
 20
65.3539395672267
 30
0.0
 11
-333.7808391278301
 21
65.3539395672267
 31
0.0
  0
ARC
  5
2EC
  8
0
  6
CONTINUOUS
 62
     7
 10
-333.7808391278301
 20
64.8539395672267
 30
0.0
 40
0.5000000000000004
 50
89.99999999999962
 51
180.0000000000008
  0
LINE
  5
2ED
  8
0
  6
CONTINUOUS
 62
     7
 10
-334.2808391278301
 20
64.8539395672267
 30
0.0
 11
-334.2808391278301
 21
62.70393956722673
 31
0.0
  0
LINE
  5
2EE
  8
0
  6
CONTINUOUS
 62
     7
 10
-334.2808391278301
 20
62.70393956722673
 30
0.0
 11
-334.7808391278301
 21
62.70393956722673
 31
0.0
  0
LINE
  5
2EF
  8
0
  6
CONTINUOUS
 62
     7
 10
-288.2808391278301
 20
166.5539395672267
 30
0.0
 11
-288.2808391278301
 21
168.7039395672267
 31
0.0
  0
LINE
  5
2F0
  8
0
  6
CONTINUOUS
 62
     7
 10
-288.2808391278301
 20
168.7039395672267
 30
0.0
 11
-288.7808391278301
 21
168.7039395672267
 31
0.0
  0
LINE
  5
2F1
  8
0
  6
CONTINUOUS
 62
     7
 10
-261.9895512803521
 20
152.4539395672267
 30
0.0
 11
-266.572126975308
 21
152.4539395672267
 31
0.0
  0
ARC
  5
2F2
  8
0
  6
CONTINUOUS
 62
     7
 10
-264.2808391278301
 20
157.4539395672267
 30
0.0
 40
5.499999999999993
 50
294.619977328657
 51
19.47250614704643
  0
ARC
  5
2F3
  8
0
  6
CONTINUOUS
 62
     7
 10
-402.2808391278301
 20
73.95393956722671
 30
0.0
 40
5.499999999999993
 50
340.5274938529535
 51
65.38002267134323
  0
ARC
  5
2F4
  8
0
  6
CONTINUOUS
 62
     7
 10
-286.78083912783
 20
64.8539395672267
 30
0.0
 40
2.500000000000002
 50
359.9999999999998
 51
90.0
  0
LINE
  5
2F5
  8
0
  6
CONTINUOUS
 62
     7
 10
-376.2808391278301
 20
166.5539395672267
 30
0.0
 11
-376.2808391278301
 21
168.7039395672267
 31
0.0
  0
LINE
  5
2F6
  8
0
  6
CONTINUOUS
 62
     7
 10
-376.2808391278301
 20
168.7039395672267
 30
0.0
 11
-377.2808391278301
 21
168.7039395672267
 31
0.0
  0
LINE
  5
2F7
  8
0
  6
CONTINUOUS
 62
     7
 10
-336.28083912783
 20
168.7039395672267
 30
0.0
 11
-336.28083912783
 21
166.5539395672267
 31
0.0
  0
LINE
  5
2F8
  8
0
  6
CONTINUOUS
 62
     7
 10
-335.28083912783
 20
168.7039395672267
 30
0.0
 11
-336.28083912783
 21
168.7039395672267
 31
0.0
  0
ARC
  5
2F9
  8
0
  6
CONTINUOUS
 62
     7
 10
-333.7808391278301
 20
166.5539395672267
 30
0.0
 40
2.500000000000002
 50
179.9999999999998
 51
270.0000000000001
  0
ARC
  5
2FA
  8
0
  6
CONTINUOUS
 62
     7
 10
-234.28083912783
 20
67.7039395672267
 30
0.0
 40
4.99999999999999
 50
270.0
 51
0.0
  0
ARC
  5
2FB
  8
0
  6
CONTINUOUS
 62
     7
 10
-234.28083912783
 20
163.7039395672267
 30
0.0
 40
5.000000000000004
 50
0.0
 51
90.0
  0
LINE
  5
2FC
  8
0
  6
CONTINUOUS
 62
     7
 10
-229.28083912783
 20
115.7039395672267
 30
0.0
 11
-229.28083912783
 21
151.4539195672267
 31
0.0
  0
LINE
  5
2FD
  8
0
  6
CONTINUOUS
 62
     7
 10
-229.28083912783
 20
151.4539395672267
 30
0.0
 11
-229.28083912783
 21
163.4539395672267
 31
0.0
  0
LINE
  5
2FE
  8
0
  6
CONTINUOUS
 62
     7
 10
-229.28083912783
 20
163.4539595672267
 30
0.0
 11
-229.28083912783
 21
163.7039395672267
 31
0.0
  0
LINE
  5
2FF
  8
0
  6
CONTINUOUS
 62
     7
 10
-229.28083912783
 20
67.7039395672267
 30
0.0
 11
-229.28083912783
 21
67.9539195672267
 31
0.0
  0
LINE
  5
300
  8
0
  6
CONTINUOUS
 62
     7
 10
-229.28083912783
 20
67.95393956722671
 30
0.0
 11
-229.28083912783
 21
79.95393956722671
 31
0.0
  0
LINE
  5
301
  8
0
  6
CONTINUOUS
 62
     7
 10
-229.28083912783
 20
79.95395956722672
 30
0.0
 11
-229.28083912783
 21
115.7039395672267
 31
0.0
  0
LINE
  5
302
  8
0
  6
CONTINUOUS
 62
     7
 10
-234.28083912783
 20
168.7039395672267
 30
0.0
 11
-243.2895279172351
 21
168.7039395672267
 31
0.0
  0
LINE
  5
303
  8
0
  6
CONTINUOUS
 62
     7
 10
-243.2895279172351
 20
62.70393956722671
 30
0.0
 11
-234.28083912783
 21
62.70393956722671
 31
0.0
  0
ARC
  5
304
  8
0
  6
CONTINUOUS
 62
     7
 10
-332.7808391278301
 20
166.5539395672267
 30
0.0
 40
2.500000000000002
 50
270.0
 51
0.0000000000001705
  0
LINE
  5
305
  8
0
  6
CONTINUOUS
 62
     7
 10
-332.28083912783
 20
168.7039395672267
 30
0.0
 11
-332.28083912783
 21
166.5539395672267
 31
0.0
  0
LINE
  5
306
  8
0
  6
CONTINUOUS
 62
     7
 10
-331.7808391278301
 20
168.7039395672267
 30
0.0
 11
-332.2808391278301
 21
168.7039395672267
 31
0.0
  0
ARC
  5
307
  8
0
  6
CONTINUOUS
 62
     7
 10
-332.7808391278301
 20
166.5539395672267
 30
0.0
 40
0.5000000000000004
 50
270.0
 51
0.0000000000007958
  0
LINE
  5
308
  8
0
  6
CONTINUOUS
 62
     7
 10
-379.7808391278301
 20
164.0539395672267
 30
0.0
 11
-378.7808391278301
 21
164.0539395672267
 31
0.0
  0
ARC
  5
309
  8
0
  6
CONTINUOUS
 62
     7
 10
-286.78083912783
 20
64.8539395672267
 30
0.0
 40
0.5000000000000004
 50
359.9999999999993
 51
90.0
  0
LINE
  5
30A
  8
0
  6
CONTINUOUS
 62
     7
 10
-378.2808391278301
 20
168.7039395672267
 30
0.0
 11
-378.2808391278301
 21
166.5539395672267
 31
0.0
  0
LINE
  5
30B
  8
0
  6
CONTINUOUS
 62
     7
 10
-377.7808391278301
 20
168.7039395672267
 30
0.0
 11
-378.2808391278301
 21
168.7039395672267
 31
0.0
  0
LINE
  5
30C
  8
0
  6
CONTINUOUS
 62
     7
 10
-377.2808391278301
 20
168.7039395672267
 30
0.0
 11
-377.7808391278301
 21
168.7039395672267
 31
0.0
  0
LINE
  5
30D
  8
0
  6
CONTINUOUS
 62
     7
 10
-380.7808391278301
 20
168.7039395672267
 30
0.0
 11
-381.2808391278301
 21
168.7039395672267
 31
0.0
  0
LINE
  5
30E
  8
0
  6
CONTINUOUS
 62
     7
 10
-284.2808391278301
 20
64.8539395672267
 30
0.0
 11
-284.2808391278301
 21
62.70393956722673
 31
0.0
  0
LINE
  5
30F
  8
0
  6
CONTINUOUS
 62
     7
 10
-284.2808391278301
 20
62.70393956722673
 30
0.0
 11
-285.2808391278301
 21
62.70393956722673
 31
0.0
  0
ARC
  5
310
  8
0
  6
CONTINUOUS
 62
     7
 10
-379.7808391278301
 20
166.5539395672267
 30
0.0
 40
2.500000000000002
 50
179.9999999999998
 51
270.0
  0
LINE
  5
311
  8
0
  6
CONTINUOUS
 62
     7
 10
-287.78083912783
 20
67.3539395672267
 30
0.0
 11
-286.78083912783
 21
67.3539395672267
 31
0.0
  0
ARC
  5
312
  8
0
  6
CONTINUOUS
 62
     7
 10
-378.7808391278301
 20
166.5539395672267
 30
0.0
 40
2.500000000000002
 50
270.0
 51
0.0000000000001705
  0
ARC
  5
313
  8
0
  6
CONTINUOUS
 62
     7
 10
-333.7808391278301
 20
64.8539395672267
 30
0.0
 40
2.500000000000002
 50
89.99999999999994
 51
180.0000000000002
  0
ARC
  5
314
  8
0
  6
CONTINUOUS
 62
     7
 10
-399.4523823078431
 20
72.9538975719477
 30
0.0
 40
2.499958005003968
 50
270.0008620892348
 51
340.5266317637191
  0
LINE
  5
315
  8
0
  6
CONTINUOUS
 62
     7
 10
-286.78083912783
 20
166.0539395672267
 30
0.0
 11
-287.78083912783
 21
166.0539395672267
 31
0.0
  0
LINE
  5
316
  8
0
  6
CONTINUOUS
 62
     7
 10
-330.28083912783
 20
166.5539395672267
 30
0.0
 11
-330.28083912783
 21
168.7039395672267
 31
0.0
  0
LINE
  5
317
  8
0
  6
CONTINUOUS
 62
     7
 10
-330.28083912783
 20
168.7039395672267
 30
0.0
 11
-331.28083912783
 21
168.7039395672267
 31
0.0
  0
LINE
  5
318
  8
0
  6
CONTINUOUS
 62
     7
 10
-405.1093335629242
 20
70.45393956722673
 30
0.0
 11
-399.452344692736
 21
70.45393956722673
 31
0.0
  0
CIRCLE
  5
319
  8
0
  6
CONTINUOUS
 62
     7
 10
-264.2808391278301
 20
157.4539395672267
 30
0.0
 40
3.099999999999992
  0
ARC
  5
31A
  8
0
  6
CONTINUOUS
 62
     7
 10
-287.78083912783
 20
166.5539395672267
 30
0.0
 40
0.5000000000000004
 50
179.9999999999992
 51
270.0000000000005
  0
ARC
  5
31B
  8
0
  6
CONTINUOUS
 62
     7
 10
-405.1092959477953
 20
72.95389757197847
 30
0.0
 40
2.49995800503472
 50
199.4733682367797
 51
269.9991379102671
  0
LINE
  5
31C
  8
0
  6
CONTINUOUS
 62
     7
 10
-382.2808391278301
 20
168.7039395672267
 30
0.0
 11
-382.2808391278301
 21
166.5539395672267
 31
0.0
  0
LINE
  5
31D
  8
0
  6
CONTINUOUS
 62
     7
 10
-381.2808391278301
 20
168.7039395672267
 30
0.0
 11
-382.2808391278301
 21
168.7039395672267
 31
0.0
  0
ARC
  5
31E
  8
0
  6
CONTINUOUS
 62
     7
 10
-264.2808391278301
 20
157.4539395672267
 30
0.0
 40
5.500000000000005
 50
160.5274938529535
 51
245.3800226713429
  0
LINE
  5
31F
  8
0
  6
CONTINUOUS
 62
     7
 10
-244.2894898402992
 20
168.7039395672267
 30
0.0
 11
-243.2895279172351
 21
168.7039395672267
 31
0.0
  0
LINE
  5
320
  8
0
  6
CONTINUOUS
 62
     7
 10
-429.3397980870083
 20
151.4539395672267
 30
0.0
 11
-429.3397980870083
 21
142.8989850623502
 31
0.0
  0
LINE
  5
321
  8
0
  6
CONTINUOUS
 62
     7
 10
-429.3397980870082
 20
142.8989850623502
 30
0.0
 11
-429.5175421571933
 21
142.7212409921651
 31
0.0
  0
LINE
  5
322
  8
0
  6
CONTINUOUS
 62
     7
 10
-429.5348435821317
 20
140.7213171460368
 30
0.0
 11
-429.5175421571933
 21
142.7212409921651
 31
0.0
  0
LINE
  5
323
  8
0
  6
CONTINUOUS
 62
     7
 10
-429.5348435821317
 20
140.7213171460368
 30
0.0
 11
-429.5348435821317
 21
140.6865619884167
 31
0.0
  0
LINE
  5
324
  8
0
  6
CONTINUOUS
 62
     7
 10
-429.5175421571933
 20
138.6866381422884
 30
0.0
 11
-429.5348435821317
 21
140.6865619884167
 31
0.0
  0
LINE
  5
325
  8
0
  6
CONTINUOUS
 62
     7
 10
-429.5175421571933
 20
138.6866381422884
 30
0.0
 11
-429.3397980870082
 21
138.5088940721033
 31
0.0
  0
LINE
  5
326
  8
0
  6
CONTINUOUS
 62
     7
 10
-429.3397980870082
 20
138.5088940721033
 30
0.0
 11
-429.3397980870082
 21
92.89898506235019
 31
0.0
  0
LINE
  5
327
  8
0
  6
CONTINUOUS
 62
     7
 10
-429.3397980870082
 20
92.89898506235019
 30
0.0
 11
-429.5175421571933
 21
92.72124099216511
 31
0.0
  0
LINE
  5
328
  8
0
  6
CONTINUOUS
 62
     7
 10
-429.5348435821317
 20
90.72131714603677
 30
0.0
 11
-429.5175421571933
 21
92.72124099216511
 31
0.0
  0
LINE
  5
329
  8
0
  6
CONTINUOUS
 62
     7
 10
-429.5348435821317
 20
90.72131714603677
 30
0.0
 11
-429.5348435821317
 21
90.68656198841668
 31
0.0
  0
LINE
  5
32A
  8
0
  6
CONTINUOUS
 62
     7
 10
-429.5175421571933
 20
88.68663814228833
 30
0.0
 11
-429.5348435821317
 21
90.68656198841668
 31
0.0
  0
LINE
  5
32B
  8
0
  6
CONTINUOUS
 62
     7
 10
-429.5175421571933
 20
88.68663814228833
 30
0.0
 11
-429.3397980870082
 21
88.50889407210327
 31
0.0
  0
LINE
  5
32C
  8
0
  6
CONTINUOUS
 62
     7
 10
-429.3397980870082
 20
88.50889407210327
 30
0.0
 11
-429.3397980870082
 21
79.95393956722671
 31
0.0
  0
LINE
  5
32D
  8
0
  6
CONTINUOUS
 62
     7
 10
-429.5960078119886
 20
151.4539395672267
 30
0.0
 11
-429.5960078119886
 21
145.6952507778217
 31
0.0
  0
LINE
  5
32E
  8
0
  6
CONTINUOUS
 62
     7
 10
-237.2218801686519
 20
79.95393956722671
 30
0.0
 11
-237.2218801686519
 21
86.7039395672267
 31
0.0
  0
LINE
  5
32F
  8
0
  6
CONTINUOUS
 62
     7
 10
-237.2218801686519
 20
86.7039395672267
 30
0.0
 11
-237.0006540701561
 21
86.7039395672267
 31
0.0
  0
LINE
  5
330
  8
0
  6
CONTINUOUS
 62
     7
 10
-236.965746598993
 20
90.70393956722671
 30
0.0
 11
-237.0006540701561
 21
86.7039395672267
 31
0.0
  0
LINE
  5
331
  8
0
  6
CONTINUOUS
 62
     7
 10
-237.0006540701561
 20
94.70393956722671
 30
0.0
 11
-236.965746598993
 21
90.70393956722671
 31
0.0
  0
LINE
  5
332
  8
0
  6
CONTINUOUS
 62
     7
 10
-237.0006540701561
 20
94.70393956722671
 30
0.0
 11
-237.2218801686519
 21
94.70393956722671
 31
0.0
  0
LINE
  5
333
  8
0
  6
CONTINUOUS
 62
     7
 10
-237.2218801686519
 20
94.70393956722671
 30
0.0
 11
-237.2218801686519
 21
111.7039395672267
 31
0.0
  0
LINE
  5
334
  8
0
  6
CONTINUOUS
 62
     7
 10
-237.2218801686519
 20
111.7039395672267
 30
0.0
 11
-237.0006540701561
 21
111.7039395672267
 31
0.0
  0
LINE
  5
335
  8
0
  6
CONTINUOUS
 62
     7
 10
-236.965746598993
 20
115.7039395672267
 30
0.0
 11
-237.0006540701561
 21
111.7039395672267
 31
0.0
  0
LINE
  5
336
  8
0
  6
CONTINUOUS
 62
     7
 10
-237.0006540701561
 20
119.7039395672267
 30
0.0
 11
-236.965746598993
 21
115.7039395672267
 31
0.0
  0
LINE
  5
337
  8
0
  6
CONTINUOUS
 62
     7
 10
-237.0006540701561
 20
119.7039395672267
 30
0.0
 11
-237.2218801686519
 21
119.7039395672267
 31
0.0
  0
LINE
  5
338
  8
0
  6
CONTINUOUS
 62
     7
 10
-237.2218801686519
 20
119.7039395672267
 30
0.0
 11
-237.2218801686519
 21
136.7039395672267
 31
0.0
  0
LINE
  5
339
  8
0
  6
CONTINUOUS
 62
     7
 10
-237.2218801686519
 20
136.7039395672267
 30
0.0
 11
-237.0006540701561
 21
136.7039395672267
 31
0.0
  0
LINE
  5
33A
  8
0
  6
CONTINUOUS
 62
     7
 10
-236.965746598993
 20
140.7039395672267
 30
0.0
 11
-237.0006540701561
 21
136.7039395672267
 31
0.0
  0
LINE
  5
33B
  8
0
  6
CONTINUOUS
 62
     7
 10
-237.0006540701561
 20
144.7039395672267
 30
0.0
 11
-236.965746598993
 21
140.7039395672267
 31
0.0
  0
LINE
  5
33C
  8
0
  6
CONTINUOUS
 62
     7
 10
-237.0006540701561
 20
144.7039395672267
 30
0.0
 11
-237.2218801686519
 21
144.7039395672267
 31
0.0
  0
LINE
  5
33D
  8
0
  6
CONTINUOUS
 62
     7
 10
-237.2218801686519
 20
144.7039395672267
 30
0.0
 11
-237.2218801686519
 21
151.4539395672267
 31
0.0
  0
LINE
  5
33E
  8
0
  6
CONTINUOUS
 62
     7
 10
-244.2894898402992
 20
62.70393956722671
 30
0.0
 11
-244.3070197312023
 21
62.70393956722671
 31
0.0
  0
LINE
  5
33F
  8
0
  6
CONTINUOUS
 62
     7
 10
-422.2721884153609
 20
168.7039395672267
 30
0.0
 11
-422.2546585244577
 21
168.7039395672267
 31
0.0
  0
LINE
  5
340
  8
0
  6
CONTINUOUS
 62
     7
 10
-244.2894898402992
 20
168.7039395672267
 30
0.0
 11
-244.3070197312023
 21
168.7039395672267
 31
0.0
  0
LINE
  5
341
  8
0
  6
CONTINUOUS
 62
     7
 10
-422.2721884153609
 20
62.70393956722673
 30
0.0
 11
-422.2546585244577
 21
62.70393956722673
 31
0.0
  0
LINE
  5
342
  8
0
  6
CONTINUOUS
 62
     7
 10
-340.369562567209
 20
168.7039395672267
 30
0.0
 11
-336.28083912783
 21
168.7039395672267
 31
0.0
  0
LINE
  5
343
  8
0
  6
CONTINUOUS
 62
     7
 10
-286.2808391278301
 20
62.70393956722673
 30
0.0
 11
-288.2808391278301
 21
62.70393956722673
 31
0.0
  0
LINE
  5
344
  8
0
  6
CONTINUOUS
 62
     7
 10
-340.369562567209
 20
62.70393956722673
 30
0.0
 11
-336.28083912783
 21
62.70393956722673
 31
0.0
  0
LINE
  5
345
  8
0
  6
CONTINUOUS
 62
     7
 10
-286.28083912783
 20
168.7039395672267
 30
0.0
 11
-288.2808391278299
 21
168.7039395672267
 31
0.0
  0
LINE
  5
346
  8
0
  6
CONTINUOUS
 62
     7
 10
-334.28083912783
 20
168.7039395672267
 30
0.0
 11
-332.28083912783
 21
168.7039395672267
 31
0.0
  0
LINE
  5
347
  8
0
  6
CONTINUOUS
 62
     7
 10
-380.2808391278301
 20
62.70393956722673
 30
0.0
 11
-378.2808391278301
 21
62.70393956722673
 31
0.0
  0
LINE
  5
348
  8
0
  6
CONTINUOUS
 62
     7
 10
-330.28083912783
 20
168.7039395672267
 30
0.0
 11
-326.1921156884511
 21
168.7039395672267
 31
0.0
  0
LINE
  5
349
  8
0
  6
CONTINUOUS
 62
     7
 10
-280.1921156884512
 20
168.7039395672267
 30
0.0
 11
-284.2808391278301
 21
168.7039395672267
 31
0.0
  0
LINE
  5
34A
  8
0
  6
CONTINUOUS
 62
     7
 10
-386.369562567209
 20
168.7039395672267
 30
0.0
 11
-382.2808391278301
 21
168.7039395672267
 31
0.0
  0
LINE
  5
34B
  8
0
  6
CONTINUOUS
 62
     7
 10
-280.1921156884512
 20
62.70393956722673
 30
0.0
 11
-284.2808391278301
 21
62.70393956722673
 31
0.0
  0
LINE
  5
34C
  8
0
  6
CONTINUOUS
 62
     7
 10
-380.2808391278301
 20
168.7039395672267
 30
0.0
 11
-378.2808391278301
 21
168.7039395672267
 31
0.0
  0
LINE
  5
34D
  8
0
  6
CONTINUOUS
 62
     7
 10
-386.369562567209
 20
62.70393956722673
 30
0.0
 11
-382.2808391278301
 21
62.70393956722673
 31
0.0
  0
LINE
  5
34E
  8
0
  6
CONTINUOUS
 62
     7
 10
-376.2808391278301
 20
62.70393956722673
 30
0.0
 11
-372.1921156884511
 21
62.70393956722673
 31
0.0
  0
LINE
  5
34F
  8
0
  6
CONTINUOUS
 62
     7
 10
-290.28083912783
 20
168.7039395672267
 30
0.0
 11
-294.3695625672089
 21
168.7039395672267
 31
0.0
  0
LINE
  5
350
  8
0
  6
CONTINUOUS
 62
     7
 10
-376.2808391278301
 20
168.7039395672267
 30
0.0
 11
-372.1921156884511
 21
168.7039395672267
 31
0.0
  0
LINE
  5
351
  8
0
  6
CONTINUOUS
 62
     7
 10
-334.2808391278301
 20
62.70393956722673
 30
0.0
 11
-332.2808391278301
 21
62.70393956722673
 31
0.0
  0
LINE
  5
352
  8
0
  6
CONTINUOUS
 62
     7
 10
-330.2808391278301
 20
62.70393956722673
 30
0.0
 11
-326.1921156884512
 21
62.70393956722673
 31
0.0
  0
LINE
  5
353
  8
0
  6
CONTINUOUS
 62
     7
 10
-290.28083912783
 20
62.70393956722673
 30
0.0
 11
-294.369562567209
 21
62.70393956722673
 31
0.0
  0
LINE
  5
354
  8
0
  6
CONTINUOUS
 62
     7
 10
-386.7808391278301
 20
164.0014944172363
 30
0.0
 11
-386.7808391278301
 21
164.0009725753566
 31
0.0
  0
LINE
  5
355
  8
0
  6
CONTINUOUS
 62
     7
 10
-294.7808391278301
 20
164.0014944172363
 30
0.0
 11
-294.7808391278301
 21
164.0009725753566
 31
0.0
  0
LINE
  5
356
  8
0
  6
CONTINUOUS
 62
     7
 10
-340.7808391278301
 20
164.0014944172363
 30
0.0
 11
-340.7808391278301
 21
164.0009725753566
 31
0.0
  0
LINE
  5
357
  8
0
  6
CONTINUOUS
 62
     7
 10
-294.7808391278301
 20
67.40638471721716
 30
0.0
 11
-294.7808391278301
 21
67.40690655909681
 31
0.0
  0
LINE
  5
358
  8
0
  6
CONTINUOUS
 62
     7
 10
-371.7808391278301
 20
164.0009725753566
 30
0.0
 11
-371.7808391278301
 21
164.0014944172363
 31
0.0
  0
LINE
  5
359
  8
0
  6
CONTINUOUS
 62
     7
 10
-325.7808391278301
 20
164.0009725753566
 30
0.0
 11
-325.7808391278301
 21
164.0014944172363
 31
0.0
  0
LINE
  5
35A
  8
0
  6
CONTINUOUS
 62
     7
 10
-372.1921156884511
 20
168.7039395672267
 30
0.0
 11
-340.369562567209
 21
168.7039395672267
 31
0.0
  0
LINE
  5
35B
  8
0
  6
CONTINUOUS
 62
     7
 10
-326.1921156884511
 20
168.7039395672267
 30
0.0
 11
-294.369562567209
 21
168.7039395672267
 31
0.0
  0
LINE
  5
35C
  8
0
  6
CONTINUOUS
 62
     7
 10
-372.1921156884511
 20
62.70393956722673
 30
0.0
 11
-340.369562567209
 21
62.70393956722673
 31
0.0
  0
LINE
  5
35D
  8
0
  6
CONTINUOUS
 62
     7
 10
-326.1921156884512
 20
62.70393956722673
 30
0.0
 11
-294.369562567209
 21
62.70393956722673
 31
0.0
  0
LINE
  5
35E
  8
0
  6
CONTINUOUS
 62
     7
 10
-422.2546585244577
 20
168.7039395672267
 30
0.0
 11
-386.3695625672089
 21
168.7039395672267
 31
0.0
  0
LINE
  5
35F
  8
0
  6
CONTINUOUS
 62
     7
 10
-280.1921156884512
 20
62.70393956722671
 30
0.0
 11
-244.3070197312023
 21
62.70393956722671
 31
0.0
  0
LINE
  5
360
  8
0
  6
CONTINUOUS
 62
     7
 10
-280.1921156884512
 20
168.7039395672267
 30
0.0
 11
-244.3070197312023
 21
168.7039395672267
 31
0.0
  0
LINE
  5
361
  8
0
  6
CONTINUOUS
 62
     7
 10
-422.2546585244578
 20
62.70393956722673
 30
0.0
 11
-386.369562567209
 21
62.70393956722673
 31
0.0
  0
LINE
  5
362
  8
0
  6
CONTINUOUS
 62
     7
 10
-342.2608168560875
 20
163.8092269814196
 30
0.0
 11
-342.2608168560875
 21
163.8060965219692
 31
0.0
  0
LINE
  5
363
  8
0
  6
CONTINUOUS
 62
     7
 10
-229.28083912783
 20
163.4539395672267
 30
0.0
 11
-332.2808391278301
 21
163.4539395672267
 31
0.0
  0
LINE
  5
364
  8
0
  6
CONTINUOUS
 62
     7
 10
-332.28083912783
 20
163.4539395672267
 30
0.0
 11
-334.28083912783
 21
163.4539395672267
 31
0.0
  0
LINE
  5
365
  8
0
  6
CONTINUOUS
 62
     7
 10
-334.28083912783
 20
163.4539395672267
 30
0.0
 11
-437.28083912783
 21
163.4539395672267
 31
0.0
  0
LINE
  5
366
  8
0
  6
CONTINUOUS
 62
     7
 10
-229.28083912783
 20
151.4539395672267
 30
0.0
 11
-229.28083912783
 21
163.4539395672267
 31
0.0
  0
LINE
  5
367
  8
0
  6
CONTINUOUS
 62
     7
 10
-229.28083912783
 20
151.4539395672267
 30
0.0
 11
-332.2808391278301
 21
151.4539395672267
 31
0.0
  0
LINE
  5
368
  8
0
  6
CONTINUOUS
 62
     7
 10
-332.28083912783
 20
151.4539395672267
 30
0.0
 11
-334.28083912783
 21
151.4539395672267
 31
0.0
  0
LINE
  5
369
  8
0
  6
CONTINUOUS
 62
     7
 10
-334.28083912783
 20
151.4539395672267
 30
0.0
 11
-437.28083912783
 21
151.4539395672267
 31
0.0
  0
LINE
  5
36A
  8
0
  6
CONTINUOUS
 62
     7
 10
-437.2808391278301
 20
151.4539395672267
 30
0.0
 11
-437.2808391278301
 21
163.4539395672267
 31
0.0
  0
LINE
  5
36B
  8
0
  6
CONTINUOUS
 62
     7
 10
-229.28083912783
 20
79.95393956722671
 30
0.0
 11
-310.2808391278301
 21
79.95393956722671
 31
0.0
  0
LINE
  5
36C
  8
0
  6
CONTINUOUS
 62
     7
 10
-310.28085912783
 20
79.95393956722671
 30
0.0
 11
-332.28083912783
 21
79.95393956722671
 31
0.0
  0
LINE
  5
36D
  8
0
  6
CONTINUOUS
 62
     7
 10
-332.28083912783
 20
79.95393956722671
 30
0.0
 11
-334.28083912783
 21
79.95393956722671
 31
0.0
  0
LINE
  5
36E
  8
0
  6
CONTINUOUS
 62
     7
 10
-334.28083912783
 20
79.95393956722671
 30
0.0
 11
-437.28083912783
 21
79.95393956722671
 31
0.0
  0
LINE
  5
36F
  8
0
  6
CONTINUOUS
 62
     7
 10
-229.28083912783
 20
67.95393956722671
 30
0.0
 11
-229.28083912783
 21
79.95393956722671
 31
0.0
  0
LINE
  5
370
  8
0
  6
CONTINUOUS
 62
     7
 10
-229.28083912783
 20
67.95393956722671
 30
0.0
 11
-310.2808391278301
 21
67.95393956722671
 31
0.0
  0
LINE
  5
371
  8
0
  6
CONTINUOUS
 62
     7
 10
-310.28085912783
 20
67.95393956722671
 30
0.0
 11
-332.28083912783
 21
67.95393956722671
 31
0.0
  0
LINE
  5
372
  8
0
  6
CONTINUOUS
 62
     7
 10
-332.28083912783
 20
67.95393956722671
 30
0.0
 11
-334.28083912783
 21
67.95393956722671
 31
0.0
  0
LINE
  5
373
  8
0
  6
CONTINUOUS
 62
     7
 10
-334.28083912783
 20
67.95393956722671
 30
0.0
 11
-437.28083912783
 21
67.95393956722671
 31
0.0
  0
LINE
  5
374
  8
0
  6
CONTINUOUS
 62
     7
 10
-437.2808391278301
 20
67.95393956722671
 30
0.0
 11
-437.2808391278301
 21
79.95393956722671
 31
0.0
  0
LINE
  5
375
  8
0
  6
CONTINUOUS
 62
     7
 10
-229.28083912783
 20
67.95393956722671
 30
0.0
 11
-229.28083912783
 21
79.95393956722671
 31
0.0
  0
LINE
  5
376
  8
0
  6
CONTINUOUS
 62
     7
 10
-310.2808391278301
 20
67.95393956722671
 30
0.0
 11
-229.28083912783
 21
67.95393956722671
 31
0.0
  0
LINE
  5
377
  8
0
  6
CONTINUOUS
 62
     7
 10
-310.2808391278301
 20
79.95393956722671
 30
0.0
 11
-229.28083912783
 21
79.95393956722671
 31
0.0
  0
LINE
  5
378
  8
0
  6
CONTINUOUS
 62
     7
 10
-334.28083912783
 20
67.3539395672267
 30
0.0
 11
-332.28083912783
 21
67.3539395672267
 31
0.0
  0
LINE
  5
379
  8
0
  6
CONTINUOUS
 62
     7
 10
-334.28083912783
 20
164.0539395672268
 30
0.0
 11
-332.28083912783
 21
164.0539395672268
 31
0.0
  0
LINE
  5
37A
  8
0
  6
CONTINUOUS
 62
     7
 10
-332.28083912783
 20
163.4539395672267
 30
0.0
 11
-332.28083912783
 21
151.4539395672267
 31
0.0
  0
LINE
  5
37B
  8
0
  6
CONTINUOUS
 62
     7
 10
-332.28083912783
 20
151.4539395672267
 30
0.0
 11
-332.28083912783
 21
79.95393956722671
 31
0.0
  0
LINE
  5
37C
  8
0
  6
CONTINUOUS
 62
     7
 10
-332.28083912783
 20
79.95393956722671
 30
0.0
 11
-332.28083912783
 21
67.95393956722673
 31
0.0
  0
LINE
  5
37D
  8
0
  6
CONTINUOUS
 62
     7
 10
-334.28083912783
 20
163.4539395672267
 30
0.0
 11
-334.28083912783
 21
151.4539395672267
 31
0.0
  0
LINE
  5
37E
  8
0
  6
CONTINUOUS
 62
     7
 10
-334.28083912783
 20
151.4539395672267
 30
0.0
 11
-334.28083912783
 21
79.95393956722671
 31
0.0
  0
LINE
  5
37F
  8
0
  6
CONTINUOUS
 62
     7
 10
-334.28083912783
 20
79.95393956722671
 30
0.0
 11
-334.28083912783
 21
67.95393956722673
 31
0.0
  0
ENDBLK
  8
0
  0
ENDSEC
  0
SECTION
  2
ENTITIES
  0
LINE
  5
6F
  8
0
  6
CONTINUOUS
 62
     7
 10
-344.28083912783
 20
13.12695372484095
 30
0.0
 11
-337.28083912783
 21
13.12695372484095
 31
0.0
  0
POLYLINE
  5
70
  8
0
  6
CONTINUOUS
 62
     7
 66
     1
 10
0.0
 20
0.0
 30
0.0
  0
VERTEX
  5
3A1
  8
0
  6
CONTINUOUS
 62
     7
 10
-349.3161612328674
 20
-3.773046275158833
 30
0.0
  0
VERTEX
  5
3A2
  8
0
  6
CONTINUOUS
 62
     7
 10
-347.7512049828219
 20
-4.6179825987779
 30
0.0
  0
VERTEX
  5
3A3
  8
0
  6
CONTINUOUS
 62
     7
 10
-346.0506084162193
 20
-5.138526092040539
 30
0.0
  0
VERTEX
  5
3A4
  8
0
  6
CONTINUOUS
 62
     7
 10
-344.2808398727876
 20
-5.314331152448865
 30
0.0
  0
SEQEND
  5
4F0
  8
0
  6
CONTINUOUS
 62
     7
  0
LINE
  5
71
  8
0
  6
CONTINUOUS
 62
     7
 10
-375.2808391278301
 20
13.12695372484095
 30
0.0
 11
-368.2808391278301
 21
13.12695372484095
 31
0.0
  0
POLYLINE
  5
72
  8
0
  6
CONTINUOUS
 62
     7
 66
     1
 10
0.0
 20
0.0
 30
0.0
  0
VERTEX
  5
3A5
  8
0
  6
CONTINUOUS
 62
     7
 10
-344.280839874522
 20
12.6775870515054
 30
0.0
  0
VERTEX
  5
3A6
  8
0
  6
CONTINUOUS
 62
     7
 10
-345.9969193882706
 20
12.51238521841675
 30
0.0
  0
VERTEX
  5
3A7
  8
0
  6
CONTINUOUS
 62
     7
 10
-347.6499707452448
 20
12.02284753320593
 30
0.0
  0
VERTEX
  5
3A8
  8
0
  6
CONTINUOUS
 62
     7
 10
-349.1792807128033
 20
11.22695372484117
 30
0.0
  0
SEQEND
  5
4F1
  8
0
  6
CONTINUOUS
 62
     7
  0
LINE
  5
73
  8
0
  6
CONTINUOUS
 62
     7
 10
-336.833631151006
 20
12.6775870515054
 30
0.0
 11
-344.2808398745224
 21
12.6775870515054
 31
0.0
  0
ARC
  5
74
  8
0
  6
CONTINUOUS
 62
     7
 10
-344.28083912783
 20
3.726953724840942
 30
0.0
 40
9.40000000000002
 50
90.0
 51
180.0
  0
ARC
  5
75
  8
0
  6
CONTINUOUS
 62
     7
 10
-390.28083912783
 20
3.726953724840942
 30
0.0
 40
9.400000000000006
 50
90.0
 51
180.0
  0
LINE
  5
76
  8
0
  6
CONTINUOUS
 62
     7
 10
-326.1921156884511
 20
168.7039395672267
 30
0.0
 11
-326.1921156884511
 21
163.4539395672267
 31
0.0
  0
LINE
  5
77
  8
0
  6
CONTINUOUS
 62
     7
 10
-386.369562567209
 20
168.7039395672267
 30
0.0
 11
-386.369562567209
 21
163.4539395672267
 31
0.0
  0
LINE
  5
78
  8
0
  6
CONTINUOUS
 62
     7
 10
-294.3695625672089
 20
168.7039395672267
 30
0.0
 11
-294.3695625672089
 21
163.4539395672267
 31
0.0
  0
LINE
  5
79
  8
0
  6
CONTINUOUS
 62
     7
 10
-390.28083912783
 20
13.12695372484095
 30
0.0
 11
-383.2808391278301
 21
13.12695372484095
 31
0.0
  0
LINE
  5
7A
  8
0
  6
CONTINUOUS
 62
     7
 10
-280.1921156884512
 20
168.7039395672267
 30
0.0
 11
-280.1921156884512
 21
163.4539395672267
 31
0.0
  0
LINE
  5
7B
  8
0
  6
CONTINUOUS
 62
     7
 10
-372.1921156884511
 20
168.7039395672267
 30
0.0
 11
-372.1921156884511
 21
163.4539395672267
 31
0.0
  0
LINE
  5
7C
  8
0
  6
CONTINUOUS
 62
     7
 10
-340.369562567209
 20
168.7039395672267
 30
0.0
 11
-340.369562567209
 21
163.4539395672267
 31
0.0
  0
POLYLINE
  5
7D
  8
0
  6
CONTINUOUS
 62
     7
 66
     1
 10
0.0
 20
0.0
 30
0.0
  0
VERTEX
  5
3A9
  8
0
  6
CONTINUOUS
 62
     7
 10
-390.2808398795964
 20
12.6775870515054
 30
0.0
  0
VERTEX
  5
3AA
  8
0
  6
CONTINUOUS
 62
     7
 10
-391.9969193915914
 20
12.5123852177714
 30
0.0
  0
VERTEX
  5
3AB
  8
0
  6
CONTINUOUS
 62
     7
 10
-393.6499707468132
 20
12.02284753257243
 30
0.0
  0
VERTEX
  5
3AC
  8
0
  6
CONTINUOUS
 62
     7
 10
-395.1792807128033
 20
11.22695372484116
 30
0.0
  0
SEQEND
  5
4F2
  8
0
  6
CONTINUOUS
 62
     7
  0
LINE
  5
7E
  8
0
  6
CONTINUOUS
 62
     7
 10
-386.369562567209
 20
67.95393956722671
 30
0.0
 11
-386.369562567209
 21
62.70393956722673
 31
0.0
  0
LINE
  5
7F
  8
0
  6
CONTINUOUS
 62
     7
 10
-426.7808391278301
 20
13.12695372484096
 30
0.0
 11
-428.2808391278301
 21
13.12695372484096
 31
0.0
  0
LINE
  5
80
  8
0
  6
CONTINUOUS
 62
     7
 10
-417.2808391278301
 20
15.72695372484095
 30
0.0
 11
-428.2808391278301
 21
15.72695372484095
 31
0.0
  0
LINE
  5
81
  8
0
  6
CONTINUOUS
 62
     7
 10
-294.369562567209
 20
67.95393956722671
 30
0.0
 11
-294.369562567209
 21
62.70393956722673
 31
0.0
  0
LINE
  5
82
  8
0
  6
CONTINUOUS
 62
     7
 10
-428.2808391278301
 20
-8.273046275159041
 30
0.0
 11
-417.2808391278301
 21
-8.273046275159041
 31
0.0
  0
LINE
  5
83
  8
0
  6
CONTINUOUS
 62
     7
 10
-340.369562567209
 20
67.95393956722671
 30
0.0
 11
-340.369562567209
 21
62.70393956722673
 31
0.0
  0
LINE
  5
84
  8
0
  6
CONTINUOUS
 62
     7
 10
-280.1921156884512
 20
67.95393956722671
 30
0.0
 11
-280.1921156884512
 21
62.70393956722671
 31
0.0
  0
ARC
  5
85
  8
0
  6
CONTINUOUS
 62
     7
 10
-417.2808391278301
 20
3.726953724840956
 30
0.0
 40
11.99999999999999
 50
270.0
 51
90.0
  0
LINE
  5
86
  8
0
  6
CONTINUOUS
 62
     7
 10
-372.1921156884511
 20
67.95393956722671
 30
0.0
 11
-372.1921156884511
 21
62.70393956722673
 31
0.0
  0
LINE
  5
87
  8
0
  6
CONTINUOUS
 62
     7
 10
-326.1921156884512
 20
67.95393956722671
 30
0.0
 11
-326.1921156884512
 21
62.70393956722673
 31
0.0
  0
LINE
  5
88
  8
0
  6
CONTINUOUS
 62
     7
 10
-382.8336311510061
 20
12.6775870515054
 30
0.0
 11
-390.2808398795968
 21
12.6775870515054
 31
0.0
  0
INSERT
  5
213
  8
0
  6
CONTINUOUS
 62
     7
  2
D_FRAME_VIEW_12066
 10
0.0
 20
0.0
 30
0.0
  0
ARC
  5
214
  8
0
  6
CONTINUOUS
 62
     7
 10
-344.28083912783
 20
3.726953724840942
 30
0.0
 40
9.4
 50
180.0
 51
270.0000000000017
  0
LINE
  5
215
  8
0
  6
CONTINUOUS
 62
     7
 10
-249.2808391278301
 20
15.72695372484095
 30
0.0
 11
-238.28083912783
 21
15.72695372484095
 31
0.0
  0
LINE
  5
216
  8
0
  6
CONTINUOUS
 62
     7
 10
-322.2808383675301
 20
12.6775870515054
 30
0.0
 11
-329.728047104654
 21
12.6775870515054
 31
0.0
  0
ARC
  5
217
  8
0
  6
CONTINUOUS
 62
     7
 10
-276.2808391278301
 20
3.726953724840942
 30
0.0
 40
9.400000000000007
 50
269.9999999999983
 51
90.0
  0
LINE
  5
218
  8
0
  6
CONTINUOUS
 62
     7
 10
-322.2808391278303
 20
-5.673046275159099
 30
0.0
 11
-324.3008613995725
 21
-5.673046275159035
 31
0.0
  0
ARC
  5
219
  8
0
  6
CONTINUOUS
 62
     7
 10
-249.2808391278301
 20
3.726953724840956
 30
0.0
 40
12.00000000000001
 50
90.0
 51
180.0
  0
POLYLINE
  5
21A
  8
0
  6
CONTINUOUS
 62
     7
 66
     1
 10
0.0
 20
0.0
 30
0.0
  0
VERTEX
  5
3AD
  8
0
  6
CONTINUOUS
 62
     7
 10
-322.280838382815
 20
-5.314331152448865
 30
0.0
  0
VERTEX
  5
3AE
  8
0
  6
CONTINUOUS
 62
     7
 10
-320.5110698394034
 20
-5.138526092033063
 30
0.0
  0
VERTEX
  5
3AF
  8
0
  6
CONTINUOUS
 62
     7
 10
-318.810473272821
 20
-4.617982598770718
 30
0.0
  0
VERTEX
  5
3B0
  8
0
  6
CONTINUOUS
 62
     7
 10
-317.2455170227933
 20
-3.773046275159264
 30
0.0
  0
SEQEND
  5
4F3
  8
0
  6
CONTINUOUS
 62
     7
  0
LINE
  5
21B
  8
0
  6
CONTINUOUS
 62
     7
 10
-276.2808391278303
 20
-5.673046275159099
 30
0.0
 11
-278.3008613995726
 21
-5.673046275159035
 31
0.0
  0
LINE
  5
21C
  8
0
  6
CONTINUOUS
 62
     7
 10
-283.2808391278301
 20
13.12695372484095
 30
0.0
 11
-276.2808391278301
 21
13.12695372484095
 31
0.0
  0
LINE
  5
21D
  8
0
  6
CONTINUOUS
 62
     7
 10
-238.28083912783
 20
-8.273046275159041
 30
0.0
 11
-249.2808391278301
 21
-8.273046275159041
 31
0.0
  0
ARC
  5
21E
  8
0
  6
CONTINUOUS
 62
     7
 10
-322.2808391278301
 20
3.726953724840942
 30
0.0
 40
9.400000000000011
 50
269.9999999999983
 51
90.0
  0
LINE
  5
21F
  8
0
  6
CONTINUOUS
 62
     7
 10
-329.2808391278301
 20
13.12695372484095
 30
0.0
 11
-322.2808391278301
 21
13.12695372484095
 31
0.0
  0
POLYLINE
  5
220
  8
0
  6
CONTINUOUS
 62
     7
 66
     1
 10
0.0
 20
0.0
 30
0.0
  0
VERTEX
  5
3B1
  8
0
  6
CONTINUOUS
 62
     7
 10
-303.3161612328674
 20
-3.773046275158838
 30
0.0
  0
VERTEX
  5
3B2
  8
0
  6
CONTINUOUS
 62
     7
 10
-301.751204982822
 20
-4.617982598777903
 30
0.0
  0
VERTEX
  5
3B3
  8
0
  6
CONTINUOUS
 62
     7
 10
-300.0506084162194
 20
-5.138526092040541
 30
0.0
  0
VERTEX
  5
3B4
  8
0
  6
CONTINUOUS
 62
     7
 10
-298.2808398727877
 20
-5.314331152448865
 30
0.0
  0
SEQEND
  5
4F4
  8
0
  6
CONTINUOUS
 62
     7
  0
ARC
  5
221
  8
0
  6
CONTINUOUS
 62
     7
 10
-249.2808391278301
 20
3.726953724840956
 30
0.0
 40
11.99999999999998
 50
180.0
 51
270.0
  0
POLYLINE
  5
222
  8
0
  6
CONTINUOUS
 62
     7
 66
     1
 10
0.0
 20
0.0
 30
0.0
  0
VERTEX
  5
3B5
  8
0
  6
CONTINUOUS
 62
     7
 10
-276.2808383828224
 20
-5.314331152448865
 30
0.0
  0
VERTEX
  5
3B6
  8
0
  6
CONTINUOUS
 62
     7
 10
-274.5110698394082
 20
-5.13852609203402
 30
0.0
  0
VERTEX
  5
3B7
  8
0
  6
CONTINUOUS
 62
     7
 10
-272.8104732728232
 20
-4.617982598771658
 30
0.0
  0
VERTEX
  5
3B8
  8
0
  6
CONTINUOUS
 62
     7
 10
-271.2455170227933
 20
-3.773046275159261
 30
0.0
  0
SEQEND
  5
4F5
  8
0
  6
CONTINUOUS
 62
     7
  0
LINE
  5
223
  8
0
  6
CONTINUOUS
 62
     7
 10
-276.2808383759772
 20
12.6775870515054
 30
0.0
 11
-283.728047104654
 21
12.6775870515054
 31
0.0
  0
ARC
  5
224
  8
0
  6
CONTINUOUS
 62
     7
 10
-298.2808391278301
 20
3.726953724840942
 30
0.0
 40
9.399999999999991
 50
90.0
 51
180.0
  0
POLYLINE
  5
225
  8
0
  6
CONTINUOUS
 62
     7
 66
     1
 10
0.0
 20
0.0
 30
0.0
  0
VERTEX
  5
3B9
  8
0
  6
CONTINUOUS
 62
     7
 10
-317.3823975428562
 20
11.22695372484075
 30
0.0
  0
VERTEX
  5
3BA
  8
0
  6
CONTINUOUS
 62
     7
 10
-318.9117075104401
 20
12.02284753321599
 30
0.0
  0
VERTEX
  5
3BB
  8
0
  6
CONTINUOUS
 62
     7
 10
-320.5647588674429
 20
12.51238521842714
 30
0.0
  0
VERTEX
  5
3BC
  8
0
  6
CONTINUOUS
 62
     7
 10
-322.2808383812202
 20
12.6775870515054
 30
0.0
  0
SEQEND
  5
4F6
  8
0
  6
CONTINUOUS
 62
     7
  0
LINE
  5
226
  8
0
  6
CONTINUOUS
 62
     7
 10
-342.2608168560876
 20
-5.673046275159035
 30
0.0
 11
-344.2808391278297
 21
-5.673046275159099
 31
0.0
  0
LINE
  5
227
  8
0
  6
CONTINUOUS
 62
     7
 10
-298.2808398727872
 20
-5.314331152448864
 30
0.0
 11
-290.9906442424741
 21
-5.314331152448864
 31
0.0
  0
LINE
  5
228
  8
0
  6
CONTINUOUS
 62
     7
 10
-296.2608168560875
 20
-5.673046275159035
 30
0.0
 11
-298.2808391278298
 21
-5.673046275159099
 31
0.0
  0
ARC
  5
229
  8
0
  6
CONTINUOUS
 62
     7
 10
-298.2808391278301
 20
3.726953724840942
 30
0.0
 40
9.399999999999999
 50
180.0
 51
270.0000000000015
  0
LINE
  5
22A
  8
0
  6
CONTINUOUS
 62
     7
 10
-344.2808398875075
 20
-5.314331152448864
 30
0.0
 11
-336.9906442424741
 21
-5.314331152448864
 31
0.0
  0
POLYLINE
  5
22B
  8
0
  6
CONTINUOUS
 62
     7
 66
     1
 10
0.0
 20
0.0
 30
0.0
  0
VERTEX
  5
3BD
  8
0
  6
CONTINUOUS
 62
     7
 10
-298.2808398795964
 20
12.6775870515054
 30
0.0
  0
VERTEX
  5
3BE
  8
0
  6
CONTINUOUS
 62
     7
 10
-299.9969193915915
 20
12.5123852177714
 30
0.0
  0
VERTEX
  5
3BF
  8
0
  6
CONTINUOUS
 62
     7
 10
-301.6499707468133
 20
12.02284753257243
 30
0.0
  0
VERTEX
  5
3C0
  8
0
  6
CONTINUOUS
 62
     7
 10
-303.1792807128033
 20
11.22695372484117
 30
0.0
  0
SEQEND
  5
4F7
  8
0
  6
CONTINUOUS
 62
     7
  0
LINE
  5
22C
  8
0
  6
CONTINUOUS
 62
     7
 10
-290.833631151006
 20
12.6775870515054
 30
0.0
 11
-298.2808398795968
 21
12.6775870515054
 31
0.0
  0
LINE
  5
22D
  8
0
  6
CONTINUOUS
 62
     7
 10
-283.571034013186
 20
-5.314331152448864
 30
0.0
 11
-276.280838382822
 21
-5.314331152448864
 31
0.0
  0
POLYLINE
  5
22E
  8
0
  6
CONTINUOUS
 62
     7
 66
     1
 10
0.0
 20
0.0
 30
0.0
  0
VERTEX
  5
3C1
  8
0
  6
CONTINUOUS
 62
     7
 10
-271.3823975428562
 20
11.22695372484075
 30
0.0
  0
VERTEX
  5
3C2
  8
0
  6
CONTINUOUS
 62
     7
 10
-272.9117075088196
 20
12.0228475325614
 30
0.0
  0
VERTEX
  5
3C3
  8
0
  6
CONTINUOUS
 62
     7
 10
-274.5647588640116
 20
12.51238521776031
 30
0.0
  0
VERTEX
  5
3C4
  8
0
  6
CONTINUOUS
 62
     7
 10
-276.2808383759768
 20
12.6775870515054
 30
0.0
  0
SEQEND
  5
4F8
  8
0
  6
CONTINUOUS
 62
     7
  0
LINE
  5
22F
  8
0
  6
CONTINUOUS
 62
     7
 10
-329.571034013186
 20
-5.314331152448864
 30
0.0
 11
-322.2808383828147
 21
-5.314331152448864
 31
0.0
  0
LINE
  5
230
  8
0
  6
CONTINUOUS
 62
     7
 10
-298.2808391278301
 20
13.12695372484095
 30
0.0
 11
-291.2808391278301
 21
13.12695372484095
 31
0.0
  0
TEXT
  5
231
  8
0
  6
CONTINUOUS
 62
     7
 10
-367.9331149812751
 20
-30.05713718424997
 30
0.0
 40
5.0
  1
ＳＢ－ＫＭＡ４
  0
POINT
  5
232
  8
0
 62
     7
 10
-402.2808391278301
 20
73.95393956722671
 30
0.0
  0
LINE
  5
233
  8
0
  6
CENTER
 62
     1
 10
-333.2808391278301
 20
170.4539395672267
 30
0.0
 11
-333.2808391278301
 21
60.9539395672267
 31
0.0
  0
LINE
  5
235
  8
0
  6
CENTER
 62
     1
 10
-440.28083912783
 20
3.726953724840956
 30
0.0
 11
-226.2808391278301
 21
3.726953724840956
 31
0.0
  0
LINE
  5
236
  8
0
  6
CENTER
 62
     1
 10
-333.2808391278301
 20
-18.27304627515903
 30
0.0
 11
-333.2808391278301
 21
25.72695372484095
 31
0.0
  0
LINE
  5
237
  8
0
  6
CENTER
 62
     1
 10
-402.2808391278293
 20
-13.27304627515905
 30
0.0
 11
-402.2808391278301
 21
22.72695372484096
 31
0.0
  0
LINE
  5
238
  8
0
  6
CENTER
 62
     1
 10
-310.2808391278285
 20
-13.27304627515904
 30
0.0
 11
-310.2808391278303
 21
22.72695372484096
 31
0.0
  0
LINE
  5
239
  8
0
  6
CENTER
 62
     1
 10
-356.28083912783
 20
-13.27304627515904
 30
0.0
 11
-356.28083912783
 21
22.72695372484096
 31
0.0
  0
LINE
  5
23A
  8
0
  6
CENTER
 62
     1
 10
-222.28083912783
 20
115.7039395672267
 30
0.0
 11
-459.28083912783
 21
115.7039395672267
 31
0.0
  0
LINE
  5
23B
  8
0
  6
CENTER
 62
     1
 10
-264.2808391278285
 20
-13.27304627515904
 30
0.0
 11
-264.2808391278303
 21
22.72695372484096
 31
0.0
  0
LINE
  5
23C
  8
0
  6
CONTINUOUS
 62
     7
 10
-390.280839883504
 20
-5.314331152448864
 30
0.0
 11
-382.9906442424742
 21
-5.314331152448864
 31
0.0
  0
POLYLINE
  5
23D
  8
0
  6
CONTINUOUS
 62
     7
 66
     1
 10
0.0
 20
0.0
 30
0.0
  0
VERTEX
  5
3C5
  8
0
  6
CONTINUOUS
 62
     7
 10
-395.3161612328674
 20
-3.773046275158833
 30
0.0
  0
VERTEX
  5
3C6
  8
0
  6
CONTINUOUS
 62
     7
 10
-393.7512049861177
 20
-4.617982597399797
 30
0.0
  0
VERTEX
  5
3C7
  8
0
  6
CONTINUOUS
 62
     7
 10
-392.0506084232243
 20
-5.138526090634969
 30
0.0
  0
VERTEX
  5
3C8
  8
0
  6
CONTINUOUS
 62
     7
 10
-390.2808398835044
 20
-5.314331152448863
 30
0.0
  0
SEQEND
  5
4F9
  8
0
  6
CONTINUOUS
 62
     7
  0
POLYLINE
  5
23E
  8
0
  6
CONTINUOUS
 62
     7
 66
     1
 10
0.0
 20
0.0
 30
0.0
  0
VERTEX
  5
3C9
  8
0
  6
CONTINUOUS
 62
     7
 10
-368.2808383828224
 20
-5.314331152448865
 30
0.0
  0
VERTEX
  5
3CA
  8
0
  6
CONTINUOUS
 62
     7
 10
-366.5110698394083
 20
-5.13852609203402
 30
0.0
  0
VERTEX
  5
3CB
  8
0
  6
CONTINUOUS
 62
     7
 10
-364.8104732728233
 20
-4.617982598771658
 30
0.0
  0
VERTEX
  5
3CC
  8
0
  6
CONTINUOUS
 62
     7
 10
-363.2455170227934
 20
-3.773046275159261
 30
0.0
  0
SEQEND
  5
4FA
  8
0
  6
CONTINUOUS
 62
     7
  0
ARC
  5
23F
  8
0
  6
CONTINUOUS
 62
     7
 10
-368.2808391278301
 20
3.726953724840942
 30
0.0
 40
9.400000000000007
 50
269.9999999999983
 51
90.0
  0
LINE
  5
240
  8
0
  6
CONTINUOUS
 62
     7
 10
-388.2608168560875
 20
-5.673046275159035
 30
0.0
 11
-390.2808391278297
 21
-5.673046275159099
 31
0.0
  0
LINE
  5
241
  8
0
  6
CONTINUOUS
 62
     7
 10
-368.2808391278303
 20
-5.673046275159099
 30
0.0
 11
-370.3008613995726
 21
-5.673046275159035
 31
0.0
  0
ARC
  5
242
  8
0
  6
CONTINUOUS
 62
     7
 10
-390.28083912783
 20
3.726953724840942
 30
0.0
 40
9.399999999999999
 50
180.0
 51
270.0000000000015
  0
LINE
  5
243
  8
0
  6
CONTINUOUS
 62
     7
 10
-375.571034013186
 20
-5.314331152448864
 30
0.0
 11
-368.280838382822
 21
-5.314331152448864
 31
0.0
  0
POLYLINE
  5
244
  8
0
  6
CONTINUOUS
 62
     7
 66
     1
 10
0.0
 20
0.0
 30
0.0
  0
VERTEX
  5
3CD
  8
0
  6
CONTINUOUS
 62
     7
 10
-363.3823975428562
 20
11.22695372484075
 30
0.0
  0
VERTEX
  5
3CE
  8
0
  6
CONTINUOUS
 62
     7
 10
-364.9117075088196
 20
12.0228475325614
 30
0.0
  0
VERTEX
  5
3CF
  8
0
  6
CONTINUOUS
 62
     7
 10
-366.5647588640117
 20
12.51238521776031
 30
0.0
  0
VERTEX
  5
3D0
  8
0
  6
CONTINUOUS
 62
     7
 10
-368.2808383759769
 20
12.6775870515054
 30
0.0
  0
SEQEND
  5
4FB
  8
0
  6
CONTINUOUS
 62
     7
  0
LINE
  5
245
  8
0
  6
CONTINUOUS
 62
     7
 10
-368.2808383759772
 20
12.6775870515054
 30
0.0
 11
-375.728047104654
 21
12.6775870515054
 31
0.0
  0
INSERT
  5
380
  8
0
  6
CONTINUOUS
 62
     7
  2
D_FRAME_VIEW_6845
 10
0.0
 20
0.0
 30
0.0
  0
LINE
  5
381
  8
0
  6
CENTER
 62
     1
 10
-287.2808391278301
 20
-13.27304627515904
 30
0.0
 11
-287.2808391278301
 21
20.72695372484095
 31
0.0
  0
LINE
  5
382
  8
0
  6
CENTER
 62
     1
 10
-264.2808391278301
 20
152.3539395672267
 30
0.0
 11
-264.2808391278301
 21
162.5539395672267
 31
0.0
  0
LINE
  5
383
  8
0
  6
CENTER
 62
     1
 10
-264.2808391278301
 20
68.85393956722669
 30
0.0
 11
-264.2808391278301
 21
79.05393956722672
 31
0.0
  0
LINE
  5
384
  8
0
  6
CENTER
 62
     1
 10
-402.2808391278301
 20
68.85393956722673
 30
0.0
 11
-402.2808391278301
 21
79.0539395672267
 31
0.0
  0
LINE
  5
385
  8
0
  6
CENTER
 62
     1
 10
-407.3808391278301
 20
73.95393956722671
 30
0.0
 11
-397.1808391278301
 21
73.95393956722671
 31
0.0
  0
LINE
  5
386
  8
0
  6
CENTER
 62
     1
 10
-249.2808391278301
 20
-12.27304627515904
 30
0.0
 11
-249.2808391278301
 21
19.72695372484096
 31
0.0
  0
LINE
  5
387
  8
0
  6
CENTER
 62
     1
 10
-356.28083912783
 20
68.85393956722672
 30
0.0
 11
-356.28083912783
 21
79.05393956722669
 31
0.0
  0
LINE
  5
388
  8
0
  6
CENTER
 62
     1
 10
-417.28083912783
 20
-12.27304627515904
 30
0.0
 11
-417.28083912783
 21
19.72695372484096
 31
0.0
  0
LINE
  5
389
  8
0
  6
CENTER
 62
     1
 10
-310.2808391278301
 20
152.3539395672267
 30
0.0
 11
-310.2808391278301
 21
162.5539395672267
 31
0.0
  0
LINE
  5
38A
  8
0
  6
CENTER
 62
     1
 10
-310.2808391278301
 20
68.85393956722672
 30
0.0
 11
-310.2808391278301
 21
79.05393956722669
 31
0.0
  0
LINE
  5
38B
  8
0
  6
CENTER
 62
     1
 10
-379.2808391278301
 20
-13.27304627515904
 30
0.0
 11
-379.2808391278301
 21
20.72695372484095
 31
0.0
  0
LINE
  5
38C
  8
0
  6
CENTER
 62
     1
 10
-269.38083912783
 20
73.95393956722671
 30
0.0
 11
-259.1808391278301
 21
73.95393956722671
 31
0.0
  0
LINE
  5
38D
  8
0
  6
CENTER
 62
     1
 10
-315.38083912783
 20
73.95393956722671
 30
0.0
 11
-305.18083912783
 21
73.95393956722671
 31
0.0
  0
LINE
  5
38E
  8
0
  6
CENTER
 62
     1
 10
-402.2808391278301
 20
152.3539395672267
 30
0.0
 11
-402.2808391278301
 21
162.5539395672267
 31
0.0
  0
LINE
  5
38F
  8
0
  6
CENTER
 62
     1
 10
-361.38083912783
 20
157.4539395672267
 30
0.0
 11
-351.18083912783
 21
157.4539395672267
 31
0.0
  0
LINE
  5
390
  8
0
  6
CENTER
 62
     1
 10
-356.28083912783
 20
152.3539395672267
 30
0.0
 11
-356.28083912783
 21
162.5539395672267
 31
0.0
  0
LINE
  5
391
  8
0
  6
CENTER
 62
     1
 10
-315.38083912783
 20
157.4539395672267
 30
0.0
 11
-305.18083912783
 21
157.4539395672267
 31
0.0
  0
LINE
  5
392
  8
0
  6
CENTER
 62
     1
 10
-407.3808391278301
 20
157.4539395672267
 30
0.0
 11
-397.1808391278301
 21
157.4539395672267
 31
0.0
  0
LINE
  5
393
  8
0
  6
CENTER
 62
     1
 10
-269.38083912783
 20
157.4539395672267
 30
0.0
 11
-259.1808391278301
 21
157.4539395672267
 31
0.0
  0
LINE
  5
394
  8
0
  6
CENTER
 62
     1
 10
-361.38083912783
 20
73.95393956722671
 30
0.0
 11
-351.18083912783
 21
73.95393956722671
 31
0.0
  0
LINE
  5
395
  8
0
  6
CONTINUOUS
 62
     7
 10
-454.5678178990533
 20
123.2039395672267
 30
0.0
 11
-454.5678178990533
 21
108.2039395672267
 31
0.0
  0
LINE
  5
396
  8
0
  6
CONTINUOUS
 62
     7
 10
-431.7808391278301
 20
15.22695372484095
 30
0.0
 11
-429.5653876193994
 21
15.22695372484095
 31
0.0
  0
LINE
  5
397
  8
0
  6
CONTINUOUS
 62
     7
 10
-237.1970085954482
 20
-7.77304627515904
 30
0.0
 11
-234.7808391278301
 21
-7.77304627515904
 31
0.0
  0
LINE
  5
398
  8
0
  6
CONTINUOUS
 62
     7
 10
-234.7808391278301
 20
15.22695372484095
 30
0.0
 11
-236.9962906362608
 21
15.22695372484095
 31
0.0
  0
LINE
  5
399
  8
0
  6
CONTINUOUS
 62
     7
 10
-431.7808391278301
 20
-7.77304627515904
 30
0.0
 11
-429.3646696602119
 21
-7.77304627515904
 31
0.0
  0
ENDSEC
  0
EOF
