  0
SECTION
  2
HEADER
  9
$ACADVER
  1
AC1006
  9
$DWGCODEPAGE
  3
ansi_932
  9
$INSBASE
 10
0.0
 20
0.0
 30
0.0
  9
$EXTMIN
 10
-615.0842913459514
 20
320.4886363636364
  9
$EXTMAX
 10
-521.3112044727254
 20
413.6229522634375
  9
$LIMMIN
 10
0.0
 20
0.0
  9
$LIMMAX
 10
12.0
 20
9.0
  9
$ORTHOMODE
 70
     0
  9
$REGENMODE
 70
     1
  9
$FILLMODE
 70
     1
  9
$QTEXTMODE
 70
     0
  9
$MIRRTEXT
 70
     1
  9
$DRAGMODE
 70
     2
  9
$LTSCALE
 40
1.0
  9
$OSMODE
 70
    37
  9
$ATTMODE
 70
     1
  9
$TEXTSIZE
 40
0.2
  9
$TRACEWID
 40
0.05
  9
$TEXTSTYLE
  7
STANDARD
  9
$CLAYER
  8
0
  9
$CELTYPE
  6
BYLAYER
  9
$CECOLOR
 62
   256
  9
$DIMSCALE
 40
1.0
  9
$DIMASZ
 40
3.0
  9
$DIMEXO
 40
0.0625
  9
$DIMDLI
 40
0.38
  9
$DIMRND
 40
0.0
  9
$DIMDLE
 40
0.0
  9
$DIMEXE
 40
1.5
  9
$DIMTP
 40
0.0
  9
$DIMTM
 40
0.0
  9
$DIMTXT
 40
3.0
  9
$DIMCEN
 40
0.09
  9
$DIMTSZ
 40
0.0
  9
$DIMTOL
 70
     0
  9
$DIMLIM
 70
     0
  9
$DIMTIH
 70
     1
  9
$DIMTOH
 70
     1
  9
$DIMSE1
 70
     0
  9
$DIMSE2
 70
     0
  9
$DIMTAD
 70
     1
  9
$DIMZIN
 70
     0
  9
$DIMBLK
  1

  9
$DIMASO
 70
     1
  9
$DIMSHO
 70
     1
  9
$DIMPOST
  1

  9
$DIMAPOST
  1

  9
$DIMALT
 70
     0
  9
$DIMALTD
 70
     2
  9
$DIMALTF
 40
25.4
  9
$DIMLFAC
 40
1.0
  9
$DIMTOFL
 70
     0
  9
$DIMTVP
 40
0.0
  9
$DIMTIX
 70
     0
  9
$DIMSOXD
 70
     0
  9
$DIMSAH
 70
     0
  9
$DIMBLK1
  1

  9
$DIMBLK2
  1

  9
$LUNITS
 70
     2
  9
$LUPREC
 70
     4
  9
$SKETCHINC
 40
0.1
  9
$FILLETRAD
 40
0.5
  9
$AUNITS
 70
     0
  9
$AUPREC
 70
     0
  9
$MENU
  1
.
  9
$ELEVATION
 40
0.0
  9
$THICKNESS
 40
0.0
  9
$LIMCHECK
 70
     0
  9
$CHAMFERA
 40
0.0
  9
$CHAMFERB
 40
0.0
  9
$SKPOLY
 70
     0
  9
$TDCREATE
 40
2459475.54269463
  9
$TDUPDATE
 40
2459475.542694988
  9
$TDINDWG
 40
0.0000000116
  9
$TDUSRTIMER
 40
0.0000000116
  9
$USRTIMER
 70
     1
  9
$ANGBASE
 50
0.0
  9
$ANGDIR
 70
     0
  9
$PDMODE
 70
     0
  9
$PDSIZE
 40
0.0
  9
$PLINEWID
 40
0.0
  9
$COORDS
 70
     1
  9
$SPLFRAME
 70
     0
  9
$SPLINETYPE
 70
     6
  9
$SPLINESEGS
 70
     8
  9
$ATTDIA
 70
     0
  9
$ATTREQ
 70
     1
  9
$HANDLING
 70
     1
  9
$HANDSEED
  5
919
  9
$SURFTAB1
 70
     6
  9
$SURFTAB2
 70
     6
  9
$SURFTYPE
 70
     6
  9
$SURFU
 70
     6
  9
$SURFV
 70
     6
  9
$UCSNAME
  2

  9
$UCSORG
 10
0.0
 20
0.0
 30
0.0
  9
$UCSXDIR
 10
1.0
 20
0.0
 30
0.0
  9
$UCSYDIR
 10
0.0
 20
1.0
 30
0.0
  9
$USERI1
 70
     0
  9
$USERI2
 70
     0
  9
$USERI3
 70
     0
  9
$USERI4
 70
     0
  9
$USERI5
 70
     0
  9
$USERR1
 40
0.0
  9
$USERR2
 40
0.0
  9
$USERR3
 40
0.0
  9
$USERR4
 40
0.0
  9
$USERR5
 40
0.0
  9
$WORLDVIEW
 70
     1
  0
ENDSEC
  0
SECTION
  2
TABLES
  0
TABLE
  2
VPORT
 70
     1
  0
VPORT
  2
*ACTIVE
 70
     0
 10
0.0
 20
0.0
 11
1.0
 21
1.0
 12
-568.1977479093384
 22
367.0557943135369
 13
0.0
 23
0.0
 14
0.5
 24
0.5
 15
0.5
 25
0.5
 16
0.0
 26
0.0
 36
1.0
 17
0.0
 27
0.0
 37
0.0
 40
93.13431589980115
 41
1.6
 42
50.0
 43
0.0
 44
0.0
 50
0.0
 51
0.0
 71
     0
 72
   100
 73
     1
 74
     3
 75
     0
 76
     0
 77
     0
 78
     0
  0
ENDTAB
  0
TABLE
  2
LTYPE
 70
     1
  0
LTYPE
  2
CONTINUOUS
 70
     0
  3
Solid line
 72
    65
 73
     0
 40
0.0
  0
ENDTAB
  0
TABLE
  2
LAYER
 70
     2
  0
LAYER
  2
0
 70
     0
 62
     7
  6
CONTINUOUS
  0
LAYER
  2
1
 70
     0
 62
     7
  6
CONTINUOUS
  0
ENDTAB
  0
TABLE
  2
STYLE
 70
     2
  0
STYLE
  2
STANDARD
 70
     0
 40
0.0
 41
1.0
 50
0.0
 71
     0
 42
0.2
  3
txt
  4

  0
STYLE
  2
ＭＳ_ゴシック
 70
     0
 40
0.0
 41
1.0
 50
0.0
 71
     0
 42
0.2
  3
ＭＳ ゴシック.shx
  4

  0
ENDTAB
  0
TABLE
  2
VIEW
 70
     0
  0
ENDTAB
  0
TABLE
  2
UCS
 70
     0
  0
ENDTAB
  0
ENDSEC
  0
SECTION
  2
BLOCKS
  0
BLOCK
  8
0
  2
D_FRAME_VIEW_1435
 70
     0
 10
0.0
 20
0.0
 30
0.0
  0
LINE
  5
71
  8
1
  6
CONTINUOUS
 62
     7
 10
-602.664570870517
 20
347.4163041862486
 30
0.0
 11
-600.1936553973567
 21
344.9453887130883
 31
0.0
  0
LINE
  5
72
  8
1
  6
CONTINUOUS
 62
     7
 10
-603.1539488702794
 20
347.8978325022328
 30
0.0
 11
-602.6645550539092
 21
347.4162880333558
 31
0.0
  0
LINE
  5
73
  8
1
  6
CONTINUOUS
 62
     7
 10
-602.10392513784
 20
348.947743674477
 30
0.0
 11
-603.1538931344834
 21
347.8977756778335
 31
0.0
  0
ARC
  5
74
  8
1
  6
CONTINUOUS
 62
     7
 10
-602.1196882969774
 20
345.75
 30
0.0
 40
3.200000000000005
 50
0.3211871879790326
 51
89.67884778114903
  0
LINE
  5
75
  8
1
  6
CONTINUOUS
 62
     7
 10
-599.9697765400326
 20
344.7179312416055
 30
0.0
 11
-598.9221458787234
 21
345.7655619029147
 31
0.0
  0
LINE
  5
76
  8
1
  6
CONTINUOUS
 62
     7
 10
-600.1936728177992
 20
344.9454057988053
 30
0.0
 11
-599.9697673090766
 21
344.7179221832951
 31
0.0
  0
LINE
  5
77
  8
1
  6
CONTINUOUS
 62
     7
 10
-600.1936728177992
 20
410.0545942011947
 30
0.0
 11
-599.9697673090766
 21
410.2820778167049
 31
0.0
  0
LINE
  5
78
  8
1
  6
CONTINUOUS
 62
     7
 10
-599.9697765400326
 20
410.2820687583945
 30
0.0
 11
-598.9221458787234
 21
409.2344380970853
 31
0.0
  0
ARC
  5
79
  8
1
  6
CONTINUOUS
 62
     7
 10
-602.1196882969774
 20
409.25
 30
0.0
 40
3.200000000000001
 50
270.3211522188509
 51
359.678812812021
  0
LINE
  5
7A
  8
1
  6
CONTINUOUS
 62
     7
 10
-602.10392513784
 20
406.052256325523
 30
0.0
 11
-603.1538931344834
 21
407.1022243221665
 31
0.0
  0
LINE
  5
7B
  8
1
  6
CONTINUOUS
 62
     7
 10
-603.1539488702794
 20
407.1021674977671
 30
0.0
 11
-602.6645550539092
 21
407.5837119666442
 31
0.0
  0
LINE
  5
7C
  8
1
  6
CONTINUOUS
 62
     7
 10
-602.664570870517
 20
407.5836958137514
 30
0.0
 11
-600.1936553973567
 21
410.0546112869117
 31
0.0
  0
LINE
  5
7D
  8
1
  6
CONTINUOUS
 62
     7
 10
-587.5748044822292
 20
407.5836945725426
 30
0.0
 11
-590.0457199575154
 21
410.0546100478288
 31
0.0
  0
LINE
  5
7E
  8
1
  6
CONTINUOUS
 62
     7
 10
-590.2696092848784
 20
344.7179221832951
 30
0.0
 11
-590.0457030935535
 21
344.9454064921001
 31
0.0
  0
LINE
  5
7F
  8
1
  6
CONTINUOUS
 62
     7
 10
-591.3172307152315
 20
345.7655619029147
 30
0.0
 11
-590.2696000539223
 21
344.7179312416055
 31
0.0
  0
ARC
  5
80
  8
1
  6
CONTINUOUS
 62
     7
 10
-588.1196882969774
 20
345.75
 30
0.0
 40
3.200000000000002
 50
90.32115221885095
 51
179.6788128120211
  0
LINE
  5
81
  8
1
  6
CONTINUOUS
 62
     7
 10
-587.0854834571188
 20
347.8977756754808
 30
0.0
 11
-588.1354514561149
 21
348.947743674477
 31
0.0
  0
LINE
  5
82
  8
1
  6
CONTINUOUS
 62
     7
 10
-587.5748208207856
 20
347.4162887415186
 30
0.0
 11
-587.0854275914338
 21
347.8978326323063
 31
0.0
  0
LINE
  5
83
  8
1
  6
CONTINUOUS
 62
     7
 10
-587.5748044822292
 20
347.4163054274574
 30
0.0
 11
-590.0457199575154
 21
344.9453899521712
 31
0.0
  0
LINE
  5
84
  8
1
  6
CONTINUOUS
 62
     7
 10
-587.5748208207856
 20
407.5837112584814
 30
0.0
 11
-587.0854275914338
 21
407.1021673676937
 31
0.0
  0
LINE
  5
85
  8
1
  6
CONTINUOUS
 62
     7
 10
-587.0854834571188
 20
407.1022243245191
 30
0.0
 11
-588.1354514561149
 21
406.052256325523
 31
0.0
  0
ARC
  5
86
  8
1
  6
CONTINUOUS
 62
     7
 10
-588.1196882969774
 20
409.25
 30
0.0
 40
3.200000000000002
 50
180.3211871879789
 51
269.678847781149
  0
LINE
  5
87
  8
1
  6
CONTINUOUS
 62
     7
 10
-591.3172307152315
 20
409.2344380970853
 30
0.0
 11
-590.2696000539223
 21
410.2820687583945
 31
0.0
  0
LINE
  5
88
  8
1
  6
CONTINUOUS
 62
     7
 10
-590.2696092848784
 20
410.2820778167049
 30
0.0
 11
-590.0457030935535
 21
410.0545935078999
 31
0.0
  0
LINE
  5
89
  8
1
  6
CONTINUOUS
 62
     7
 10
-587.0616808399745
 20
347.8739730583365
 30
0.0
 11
-590.243661355314
 21
344.691992542997
 31
0.0
  0
LINE
  5
8A
  8
1
  6
CONTINUOUS
 62
     7
 10
-587.0616808399745
 20
407.1260269416635
 30
0.0
 11
-590.243661355314
 21
410.3080074570029
 31
0.0
  0
LINE
  5
8B
  8
1
  6
CONTINUOUS
 62
     7
 10
-599.995715238641
 20
344.691992542997
 30
0.0
 11
-603.1776957539804
 21
347.8739730583365
 31
0.0
  0
LINE
  5
8C
  8
1
  6
CONTINUOUS
 62
     7
 10
-599.995715238641
 20
410.3080074570029
 30
0.0
 11
-603.1776957539804
 21
407.1260269416635
 31
0.0
  0
LINE
  5
8D
  8
1
  6
CONTINUOUS
 62
     7
 10
-607.6938623457854
 20
375.9589257176141
 30
0.0
 11
-602.5455142481695
 21
375.9589257176141
 31
0.0
  0
LINE
  5
8E
  8
1
  6
CONTINUOUS
 62
     7
 10
-582.5455142481694
 20
379.0410742823859
 30
0.0
 11
-587.6938623457854
 21
379.0410742823859
 31
0.0
  0
LINE
  5
8F
  8
1
  6
CONTINUOUS
 62
     7
 10
-589.6196882969775
 20
373.6026941868936
 30
0.0
 11
-589.6196882969775
 21
373.2235142663082
 31
0.0
  0
LINE
  5
90
  8
1
  6
CONTINUOUS
 62
     7
 10
-580.1196882969774
 20
373.2235142663082
 30
0.0
 11
-580.1196882969774
 21
373.6026941868936
 31
0.0
  0
LINE
  5
91
  8
1
  6
CONTINUOUS
 62
     7
 10
-610.1196882969775
 20
381.7764857336917
 30
0.0
 11
-610.1196882969775
 21
381.3973058131064
 31
0.0
  0
LINE
  5
92
  8
1
  6
CONTINUOUS
 62
     7
 10
-600.6196882969774
 20
381.3973058131064
 30
0.0
 11
-600.6196882969774
 21
381.7764857336917
 31
0.0
  0
LINE
  5
93
  8
1
  6
CONTINUOUS
 62
     7
 10
-609.1196882969775
 20
386.0
 30
0.0
 11
-607.1196882969775
 21
386.0
 31
0.0
  0
ARC
  5
94
  8
1
  6
CONTINUOUS
 62
     7
 10
-609.1196882969775
 20
385.0
 30
0.0
 40
1.0
 50
90.00000000000011
 51
180.0000000000001
  0
ARC
  5
95
  8
1
  6
CONTINUOUS
 62
     7
 10
-601.6196882969774
 20
385.0
 30
0.0
 40
1.0
 50
359.9999999999999
 51
90.00000000000016
  0
LINE
  5
96
  8
1
  6
CONTINUOUS
 62
     7
 10
-603.1196882969775
 20
386.0
 30
0.0
 11
-601.6196882969774
 21
386.0
 31
0.0
  0
LINE
  5
97
  8
1
  6
CONTINUOUS
 62
     7
 10
-600.6196882969774
 20
385.0
 30
0.0
 11
-600.6196882969774
 21
381.7764857336918
 31
0.0
  0
LINE
  5
98
  8
1
  6
CONTINUOUS
 62
     7
 10
-610.1196882969775
 20
381.7764857336917
 30
0.0
 11
-610.1196882969775
 21
384.9999999999999
 31
0.0
  0
LINE
  5
99
  8
1
  6
CONTINUOUS
 62
     7
 10
-581.1196882969774
 20
369.0
 30
0.0
 11
-583.1196882969774
 21
369.0
 31
0.0
  0
ARC
  5
9A
  8
1
  6
CONTINUOUS
 62
     7
 10
-581.1196882969774
 20
370.0
 30
0.0
 40
1.0
 50
269.999999999999
 51
0.0
  0
ARC
  5
9B
  8
1
  6
CONTINUOUS
 62
     7
 10
-588.6196882969775
 20
370.0
 30
0.0
 40
1.0
 50
179.9999999999999
 51
269.9999999999995
  0
LINE
  5
9C
  8
1
  6
CONTINUOUS
 62
     7
 10
-587.1196882969774
 20
369.0
 30
0.0
 11
-588.6196882969775
 21
369.0
 31
0.0
  0
LINE
  5
9D
  8
1
  6
CONTINUOUS
 62
     7
 10
-580.1196882969774
 20
373.2235142663082
 30
0.0
 11
-580.1196882969774
 21
370.0
 31
0.0
  0
LINE
  5
9E
  8
1
  6
CONTINUOUS
 62
     7
 10
-589.6196882969775
 20
370.0
 30
0.0
 11
-589.6196882969775
 21
373.2235142663082
 31
0.0
  0
LINE
  5
9F
  8
1
  6
CONTINUOUS
 62
     7
 10
-578.0062584494325
 20
378.8354453487531
 30
0.0
 11
-578.2753616971412
 21
379.1877379515602
 31
0.0
  0
LINE
  5
A0
  8
1
  6
CONTINUOUS
 62
     7
 10
-578.0062584494325
 20
376.1645546512469
 30
0.0
 11
-578.2753616971412
 21
375.8122620484398
 31
0.0
  0
LINE
  5
A1
  8
1
  6
CONTINUOUS
 62
     7
 10
-611.9645563945186
 20
379.1871460229259
 30
0.0
 11
-612.2331749683095
 21
378.8353554171462
 31
0.0
  0
LINE
  5
A2
  8
1
  6
CONTINUOUS
 62
     7
 10
-611.9645563945186
 20
375.8128539770741
 30
0.0
 11
-612.2331749683095
 21
376.1646445828537
 31
0.0
  0
POLYLINE
  5
A3
  8
1
  6
CONTINUOUS
 62
     7
 66
     1
 10
0.0
 20
0.0
 30
0.0
  0
VERTEX
  5
1F8
  8
1
  6
CONTINUOUS
 62
     7
 10
-610.8339740112632
 20
379.8957871187498
 30
0.0
  0
VERTEX
  5
1F9
  8
1
  6
CONTINUOUS
 62
     7
 10
-610.7894359854795
 20
379.9102364355471
 30
0.0
  0
VERTEX
  5
1FA
  8
1
  6
CONTINUOUS
 62
     7
 10
-610.7455878120508
 20
379.9267908946983
 30
0.0
  0
VERTEX
  5
1FB
  8
1
  6
CONTINUOUS
 62
     7
 10
-610.7025730921092
 20
379.9453619784033
 30
0.0
  0
VERTEX
  5
1FC
  8
1
  6
CONTINUOUS
 62
     7
 10
-610.660535426787
 20
379.9658611688616
 30
0.0
  0
VERTEX
  5
1FD
  8
1
  6
CONTINUOUS
 62
     7
 10
-610.6196184172164
 20
379.988199948273
 30
0.0
  0
VERTEX
  5
1FE
  8
1
  6
CONTINUOUS
 62
     7
 10
-610.5799656645298
 20
380.0122897988371
 30
0.0
  0
VERTEX
  5
1FF
  8
1
  6
CONTINUOUS
 62
     7
 10
-610.5417207698595
 20
380.0380422027537
 30
0.0
  0
VERTEX
  5
200
  8
1
  6
CONTINUOUS
 62
     7
 10
-610.5049197745095
 20
380.0654215628136
 30
0.0
  0
VERTEX
  5
201
  8
1
  6
CONTINUOUS
 62
     7
 10
-610.4694641643551
 20
380.0944383697084
 30
0.0
  0
VERTEX
  5
202
  8
1
  6
CONTINUOUS
 62
     7
 10
-610.4354427581319
 20
380.1249690900229
 30
0.0
  0
VERTEX
  5
203
  8
1
  6
CONTINUOUS
 62
     7
 10
-610.4029443745746
 20
380.1568901903422
 30
0.0
  0
VERTEX
  5
204
  8
1
  6
CONTINUOUS
 62
     7
 10
-610.3720578324189
 20
380.190078137251
 30
0.0
  0
VERTEX
  5
205
  8
1
  6
CONTINUOUS
 62
     7
 10
-610.3428719504
 20
380.2244093973342
 30
0.0
  0
VERTEX
  5
206
  8
1
  6
CONTINUOUS
 62
     7
 10
-610.315475547253
 20
380.259760437177
 30
0.0
  0
VERTEX
  5
207
  8
1
  6
CONTINUOUS
 62
     7
 10
-610.2847227970286
 20
380.3038419237997
 30
0.0
  0
VERTEX
  5
208
  8
1
  6
CONTINUOUS
 62
     7
 10
-610.2564878498057
 20
380.3493595598929
 30
0.0
  0
VERTEX
  5
209
  8
1
  6
CONTINUOUS
 62
     7
 10
-610.2308259108247
 20
380.3960947994491
 30
0.0
  0
VERTEX
  5
20A
  8
1
  6
CONTINUOUS
 62
     7
 10
-610.2077921853261
 20
380.4438290964606
 30
0.0
  0
VERTEX
  5
20B
  8
1
  6
CONTINUOUS
 62
     7
 10
-610.1874418785501
 20
380.4923439049199
 30
0.0
  0
VERTEX
  5
20C
  8
1
  6
CONTINUOUS
 62
     7
 10
-610.1698301957375
 20
380.5414206788197
 30
0.0
  0
VERTEX
  5
20D
  8
1
  6
CONTINUOUS
 62
     7
 10
-610.1544470338946
 20
380.5928080209343
 30
0.0
  0
VERTEX
  5
20E
  8
1
  6
CONTINUOUS
 62
     7
 10
-610.1418941918937
 20
380.6447489921341
 30
0.0
  0
VERTEX
  5
20F
  8
1
  6
CONTINUOUS
 62
     7
 10
-610.132156783468
 20
380.6970462323422
 30
0.0
  0
VERTEX
  5
210
  8
1
  6
CONTINUOUS
 62
     7
 10
-610.1252199223511
 20
380.7495023814819
 30
0.0
  0
VERTEX
  5
211
  8
1
  6
CONTINUOUS
 62
     7
 10
-610.1210687222764
 20
380.8019200794766
 30
0.0
  0
VERTEX
  5
212
  8
1
  6
CONTINUOUS
 62
     7
 10
-610.1196882969775
 20
380.8541019662497
 30
0.0
  0
SEQEND
  5
8D7
  8
1
  6
CONTINUOUS
 62
     7
  0
ARC
  5
A4
  8
1
  6
CONTINUOUS
 62
     7
 10
-610.1195887894627
 20
377.499841243411
 30
0.0
 40
2.500180570014911
 50
106.6026954433862
 51
137.5556983265043
  0
LINE
  5
A5
  8
1
  6
CONTINUOUS
 62
     7
 10
-610.1196882969775
 20
381.3973058131064
 30
0.0
 11
-610.1196882969775
 21
380.8541019662497
 31
0.0
  0
LINE
  5
A6
  8
1
  6
CONTINUOUS
 62
     7
 10
-611.7171159629232
 20
375.5769230769231
 30
0.0
 11
-611.9645563945186
 21
375.8128539770741
 31
0.0
  0
LINE
  5
A7
  8
1
  6
CONTINUOUS
 62
     7
 10
-611.7171159629232
 20
375.5769230769231
 30
0.0
 11
-610.3975018040984
 21
374.4807692307692
 31
0.0
  0
POLYLINE
  5
A8
  8
1
  6
CONTINUOUS
 62
     7
 66
     1
 10
0.0
 20
0.0
 30
0.0
  0
VERTEX
  5
213
  8
1
  6
CONTINUOUS
 62
     7
 10
-609.7585307377201
 20
374.25
 30
0.0
  0
VERTEX
  5
214
  8
1
  6
CONTINUOUS
 62
     7
 10
-609.7970416234309
 20
374.2507455113517
 30
0.0
  0
VERTEX
  5
215
  8
1
  6
CONTINUOUS
 62
     7
 10
-609.8355163348031
 20
374.252974378282
 30
0.0
  0
VERTEX
  5
216
  8
1
  6
CONTINUOUS
 62
     7
 10
-609.8738488157502
 20
374.2566751001044
 30
0.0
  0
VERTEX
  5
217
  8
1
  6
CONTINUOUS
 62
     7
 10
-609.9119330101868
 20
374.2618361761317
 30
0.0
  0
VERTEX
  5
218
  8
1
  6
CONTINUOUS
 62
     7
 10
-609.9508910107689
 20
374.2686794527584
 30
0.0
  0
VERTEX
  5
219
  8
1
  6
CONTINUOUS
 62
     7
 10
-609.9895136303397
 20
374.2770490597525
 30
0.0
  0
VERTEX
  5
21A
  8
1
  6
CONTINUOUS
 62
     7
 10
-610.0276965079507
 20
374.2869100454685
 30
0.0
  0
VERTEX
  5
21B
  8
1
  6
CONTINUOUS
 62
     7
 10
-610.0653352826533
 20
374.298227458261
 30
0.0
  0
VERTEX
  5
21C
  8
1
  6
CONTINUOUS
 62
     7
 10
-610.1012830922998
 20
374.3105771446745
 30
0.0
  0
VERTEX
  5
21D
  8
1
  6
CONTINUOUS
 62
     7
 10
-610.1366675124166
 20
374.3242555767214
 30
0.0
  0
VERTEX
  5
21E
  8
1
  6
CONTINUOUS
 62
     7
 10
-610.171410278831
 20
374.3392174034075
 30
0.0
  0
VERTEX
  5
21F
  8
1
  6
CONTINUOUS
 62
     7
 10
-610.2054331273706
 20
374.3554172737389
 30
0.0
  0
VERTEX
  5
220
  8
1
  6
CONTINUOUS
 62
     7
 10
-610.2395821958688
 20
374.373310432653
 30
0.0
  0
VERTEX
  5
221
  8
1
  6
CONTINUOUS
 62
     7
 10
-610.2729362748773
 20
374.3924580438511
 30
0.0
  0
VERTEX
  5
222
  8
1
  6
CONTINUOUS
 62
     7
 10
-610.3054294458636
 20
374.4128041597082
 30
0.0
  0
VERTEX
  5
223
  8
1
  6
CONTINUOUS
 62
     7
 10
-610.3369957902952
 20
374.434292832599
 30
0.0
  0
VERTEX
  5
224
  8
1
  6
CONTINUOUS
 62
     7
 10
-610.3677157349925
 20
374.4569718547882
 30
0.0
  0
VERTEX
  5
225
  8
1
  6
CONTINUOUS
 62
     7
 10
-610.3975018040984
 20
374.4807692307692
 30
0.0
  0
SEQEND
  5
8D8
  8
1
  6
CONTINUOUS
 62
     7
  0
LINE
  5
A9
  8
1
  6
CONTINUOUS
 62
     7
 10
-601.6196882969774
 20
374.25
 30
0.0
 11
-609.7585307377201
 21
374.25
 31
0.0
  0
ARC
  5
AA
  8
1
  6
CONTINUOUS
 62
     7
 10
-601.6201501957862
 20
375.2502928503367
 30
0.0
 40
1.000461941669625
 50
301.2780100658334
 51
359.9832286588214
  0
POLYLINE
  5
AB
  8
1
  6
CONTINUOUS
 62
     7
 66
     1
 10
0.0
 20
0.0
 30
0.0
  0
VERTEX
  5
226
  8
1
  6
CONTINUOUS
 62
     7
 10
-601.1007192246665
 20
374.3952398911751
 30
0.0
  0
VERTEX
  5
227
  8
1
  6
CONTINUOUS
 62
     7
 10
-601.2239577060197
 20
374.3317239469699
 30
0.0
  0
VERTEX
  5
228
  8
1
  6
CONTINUOUS
 62
     7
 10
-601.3473955891643
 20
374.2879200669987
 30
0.0
  0
VERTEX
  5
229
  8
1
  6
CONTINUOUS
 62
     7
 10
-601.4760187479254
 20
374.2603742825314
 30
0.0
  0
VERTEX
  5
22A
  8
1
  6
CONTINUOUS
 62
     7
 10
-601.5836392977417
 20
374.2506528159876
 30
0.0
  0
VERTEX
  5
22B
  8
1
  6
CONTINUOUS
 62
     7
 10
-601.6196882969774
 20
374.25
 30
0.0
  0
SEQEND
  5
8D9
  8
1
  6
CONTINUOUS
 62
     7
  0
LINE
  5
AC
  8
1
  6
CONTINUOUS
 62
     7
 10
-578.5222606310317
 20
379.4230769230769
 30
0.0
 11
-578.2753616971413
 21
379.1877379515602
 31
0.0
  0
LINE
  5
AD
  8
1
  6
CONTINUOUS
 62
     7
 10
-578.5222606310317
 20
379.4230769230769
 30
0.0
 11
-579.8418747898564
 21
380.5192307692308
 31
0.0
  0
POLYLINE
  5
AE
  8
1
  6
CONTINUOUS
 62
     7
 66
     1
 10
0.0
 20
0.0
 30
0.0
  0
VERTEX
  5
22C
  8
1
  6
CONTINUOUS
 62
     7
 10
-580.4808458562349
 20
380.7499999999999
 30
0.0
  0
VERTEX
  5
22D
  8
1
  6
CONTINUOUS
 62
     7
 10
-580.442334970524
 20
380.7492544886483
 30
0.0
  0
VERTEX
  5
22E
  8
1
  6
CONTINUOUS
 62
     7
 10
-580.4038602591519
 20
380.747025621718
 30
0.0
  0
VERTEX
  5
22F
  8
1
  6
CONTINUOUS
 62
     7
 10
-580.3655277782048
 20
380.7433248998956
 30
0.0
  0
VERTEX
  5
230
  8
1
  6
CONTINUOUS
 62
     7
 10
-580.3274435837682
 20
380.7381638238683
 30
0.0
  0
VERTEX
  5
231
  8
1
  6
CONTINUOUS
 62
     7
 10
-580.288485583186
 20
380.7313205472416
 30
0.0
  0
VERTEX
  5
232
  8
1
  6
CONTINUOUS
 62
     7
 10
-580.2498629636152
 20
380.7229509402475
 30
0.0
  0
VERTEX
  5
233
  8
1
  6
CONTINUOUS
 62
     7
 10
-580.2116800860042
 20
380.7130899545314
 30
0.0
  0
VERTEX
  5
234
  8
1
  6
CONTINUOUS
 62
     7
 10
-580.1740413113016
 20
380.701772541739
 30
0.0
  0
VERTEX
  5
235
  8
1
  6
CONTINUOUS
 62
     7
 10
-580.1380935016551
 20
380.6894228553255
 30
0.0
  0
VERTEX
  5
236
  8
1
  6
CONTINUOUS
 62
     7
 10
-580.1027090815384
 20
380.6757444232786
 30
0.0
  0
VERTEX
  5
237
  8
1
  6
CONTINUOUS
 62
     7
 10
-580.067966315124
 20
380.6607825965925
 30
0.0
  0
VERTEX
  5
238
  8
1
  6
CONTINUOUS
 62
     7
 10
-580.0339434665843
 20
380.644582726261
 30
0.0
  0
VERTEX
  5
239
  8
1
  6
CONTINUOUS
 62
     7
 10
-579.9997943980861
 20
380.626689567347
 30
0.0
  0
VERTEX
  5
23A
  8
1
  6
CONTINUOUS
 62
     7
 10
-579.9664403190776
 20
380.6075419561489
 30
0.0
  0
VERTEX
  5
23B
  8
1
  6
CONTINUOUS
 62
     7
 10
-579.9339471480913
 20
380.5871958402918
 30
0.0
  0
VERTEX
  5
23C
  8
1
  6
CONTINUOUS
 62
     7
 10
-579.9023808036598
 20
380.565707167401
 30
0.0
  0
VERTEX
  5
23D
  8
1
  6
CONTINUOUS
 62
     7
 10
-579.8716608589623
 20
380.5430281452118
 30
0.0
  0
VERTEX
  5
23E
  8
1
  6
CONTINUOUS
 62
     7
 10
-579.8418747898564
 20
380.5192307692308
 30
0.0
  0
SEQEND
  5
8DA
  8
1
  6
CONTINUOUS
 62
     7
  0
LINE
  5
AF
  8
1
  6
CONTINUOUS
 62
     7
 10
-588.6196882969775
 20
380.7499999999999
 30
0.0
 11
-580.4808458562349
 21
380.7499999999999
 31
0.0
  0
ARC
  5
B0
  8
1
  6
CONTINUOUS
 62
     7
 10
-588.6192263981687
 20
379.7497071496633
 30
0.0
 40
1.000461941669623
 50
121.2780100658334
 51
179.9832286588216
  0
POLYLINE
  5
B1
  8
1
  6
CONTINUOUS
 62
     7
 66
     1
 10
0.0
 20
0.0
 30
0.0
  0
VERTEX
  5
23F
  8
1
  6
CONTINUOUS
 62
     7
 10
-589.1386573692885
 20
380.6047601088248
 30
0.0
  0
VERTEX
  5
240
  8
1
  6
CONTINUOUS
 62
     7
 10
-589.0154188879352
 20
380.6682760530301
 30
0.0
  0
VERTEX
  5
241
  8
1
  6
CONTINUOUS
 62
     7
 10
-588.8919810047906
 20
380.7120799330013
 30
0.0
  0
VERTEX
  5
242
  8
1
  6
CONTINUOUS
 62
     7
 10
-588.7633578460295
 20
380.7396257174685
 30
0.0
  0
VERTEX
  5
243
  8
1
  6
CONTINUOUS
 62
     7
 10
-588.6557372962133
 20
380.7493471840124
 30
0.0
  0
VERTEX
  5
244
  8
1
  6
CONTINUOUS
 62
     7
 10
-588.6196882969775
 20
380.7499999999999
 30
0.0
  0
SEQEND
  5
8DB
  8
1
  6
CONTINUOUS
 62
     7
  0
LINE
  5
B2
  8
1
  6
CONTINUOUS
 62
     7
 10
-600.6196882969774
 20
375.25
 30
0.0
 11
-600.6196882969774
 21
381.3973058131065
 31
0.0
  0
LINE
  5
B3
  8
1
  6
CONTINUOUS
 62
     7
 10
-589.6196882969775
 20
379.75
 30
0.0
 11
-589.6196882969775
 21
373.6026941868936
 31
0.0
  0
POLYLINE
  5
B4
  8
1
  6
CONTINUOUS
 62
     7
 66
     1
 10
0.0
 20
0.0
 30
0.0
  0
VERTEX
  5
245
  8
1
  6
CONTINUOUS
 62
     7
 10
-579.4054025826917
 20
375.1042128812502
 30
0.0
  0
VERTEX
  5
246
  8
1
  6
CONTINUOUS
 62
     7
 10
-579.4499406084753
 20
375.0897635644529
 30
0.0
  0
VERTEX
  5
247
  8
1
  6
CONTINUOUS
 62
     7
 10
-579.4937887819042
 20
375.0732091053017
 30
0.0
  0
VERTEX
  5
248
  8
1
  6
CONTINUOUS
 62
     7
 10
-579.5368035018457
 20
375.0546380215967
 30
0.0
  0
VERTEX
  5
249
  8
1
  6
CONTINUOUS
 62
     7
 10
-579.578841167168
 20
375.0341388311384
 30
0.0
  0
VERTEX
  5
24A
  8
1
  6
CONTINUOUS
 62
     7
 10
-579.6197581767385
 20
375.011800051727
 30
0.0
  0
VERTEX
  5
24B
  8
1
  6
CONTINUOUS
 62
     7
 10
-579.6594109294251
 20
374.9877102011629
 30
0.0
  0
VERTEX
  5
24C
  8
1
  6
CONTINUOUS
 62
     7
 10
-579.6976558240955
 20
374.9619577972463
 30
0.0
  0
VERTEX
  5
24D
  8
1
  6
CONTINUOUS
 62
     7
 10
-579.7344568194454
 20
374.9345784371864
 30
0.0
  0
VERTEX
  5
24E
  8
1
  6
CONTINUOUS
 62
     7
 10
-579.7699124295997
 20
374.9055616302916
 30
0.0
  0
VERTEX
  5
24F
  8
1
  6
CONTINUOUS
 62
     7
 10
-579.803933835823
 20
374.8750309099771
 30
0.0
  0
VERTEX
  5
250
  8
1
  6
CONTINUOUS
 62
     7
 10
-579.8364322193803
 20
374.8431098096578
 30
0.0
  0
VERTEX
  5
251
  8
1
  6
CONTINUOUS
 62
     7
 10
-579.8673187615359
 20
374.809921862749
 30
0.0
  0
VERTEX
  5
252
  8
1
  6
CONTINUOUS
 62
     7
 10
-579.896504643555
 20
374.7755906026657
 30
0.0
  0
VERTEX
  5
253
  8
1
  6
CONTINUOUS
 62
     7
 10
-579.923901046702
 20
374.740239562823
 30
0.0
  0
VERTEX
  5
254
  8
1
  6
CONTINUOUS
 62
     7
 10
-579.9546537969263
 20
374.6961580762003
 30
0.0
  0
VERTEX
  5
255
  8
1
  6
CONTINUOUS
 62
     7
 10
-579.9828887441492
 20
374.6506404401071
 30
0.0
  0
VERTEX
  5
256
  8
1
  6
CONTINUOUS
 62
     7
 10
-580.0085506831302
 20
374.6039052005509
 30
0.0
  0
VERTEX
  5
257
  8
1
  6
CONTINUOUS
 62
     7
 10
-580.0315844086289
 20
374.5561709035394
 30
0.0
  0
VERTEX
  5
258
  8
1
  6
CONTINUOUS
 62
     7
 10
-580.0519347154047
 20
374.50765609508
 30
0.0
  0
VERTEX
  5
259
  8
1
  6
CONTINUOUS
 62
     7
 10
-580.0695463982174
 20
374.4585793211803
 30
0.0
  0
VERTEX
  5
25A
  8
1
  6
CONTINUOUS
 62
     7
 10
-580.0849295600603
 20
374.4071919790656
 30
0.0
  0
VERTEX
  5
25B
  8
1
  6
CONTINUOUS
 62
     7
 10
-580.0974824020612
 20
374.3552510078659
 30
0.0
  0
VERTEX
  5
25C
  8
1
  6
CONTINUOUS
 62
     7
 10
-580.107219810487
 20
374.3029537676579
 30
0.0
  0
VERTEX
  5
25D
  8
1
  6
CONTINUOUS
 62
     7
 10
-580.1141566716038
 20
374.2504976185181
 30
0.0
  0
VERTEX
  5
25E
  8
1
  6
CONTINUOUS
 62
     7
 10
-580.1183078716784
 20
374.1980799205234
 30
0.0
  0
VERTEX
  5
25F
  8
1
  6
CONTINUOUS
 62
     7
 10
-580.1196882969774
 20
374.1458980337503
 30
0.0
  0
SEQEND
  5
8DC
  8
1
  6
CONTINUOUS
 62
     7
  0
ARC
  5
B5
  8
1
  6
CONTINUOUS
 62
     7
 10
-580.1197878888402
 20
377.5001589478273
 30
0.0
 40
2.500180777381283
 50
286.6026960435325
 51
317.5373115933349
  0
LINE
  5
B6
  8
1
  6
CONTINUOUS
 62
     7
 10
-580.1196882969774
 20
373.6026941868936
 30
0.0
 11
-580.1196882969774
 21
374.1458980337503
 31
0.0
  0
ARC
  5
B7
  8
1
  6
CONTINUOUS
 62
     7
 10
-610.1196882969775
 20
377.5
 30
0.0
 40
2.499999999999988
 50
180.0
 51
212.2831344545568
  0
ARC
  5
B8
  8
1
  6
CONTINUOUS
 62
     7
 10
-610.1196882969775
 20
377.5
 30
0.0
 40
2.500000000000034
 50
147.7168655454435
 51
179.9999999999997
  0
ARC
  5
B9
  8
1
  6
CONTINUOUS
 62
     7
 10
-580.1196882969774
 20
377.5
 30
0.0
 40
2.499999999999968
 50
327.7143926596885
 51
0.0000000000001137
  0
ARC
  5
BA
  8
1
  6
CONTINUOUS
 62
     7
 10
-580.1196882969774
 20
377.5
 30
0.0
 40
2.49999999999996
 50
359.9999999999998
 51
32.28560734031156
  0
POLYLINE
  5
BB
  8
1
  6
CONTINUOUS
 62
     7
 66
     1
 10
0.0
 20
0.0
 30
0.0
  0
VERTEX
  5
260
  8
1
  6
CONTINUOUS
 62
     7
 10
-602.1196882969774
 20
376.1491201704812
 30
0.0
  0
VERTEX
  5
261
  8
1
  6
CONTINUOUS
 62
     7
 10
-602.1340733014697
 20
376.1328151363825
 30
0.0
  0
VERTEX
  5
262
  8
1
  6
CONTINUOUS
 62
     7
 10
-602.1491848888099
 20
376.1171282976768
 30
0.0
  0
VERTEX
  5
263
  8
1
  6
CONTINUOUS
 62
     7
 10
-602.1649727776235
 20
376.1020951757333
 30
0.0
  0
VERTEX
  5
264
  8
1
  6
CONTINUOUS
 62
     7
 10
-602.181386686535
 20
376.0877512919214
 30
0.0
  0
VERTEX
  5
265
  8
1
  6
CONTINUOUS
 62
     7
 10
-602.1989341701161
 20
376.0736997445439
 30
0.0
  0
VERTEX
  5
266
  8
1
  6
CONTINUOUS
 62
     7
 10
-602.2171004759819
 20
376.0603904938498
 30
0.0
  0
VERTEX
  5
267
  8
1
  6
CONTINUOUS
 62
     7
 10
-602.2358296524185
 20
376.047850500411
 30
0.0
  0
VERTEX
  5
268
  8
1
  6
CONTINUOUS
 62
     7
 10
-602.2550657477124
 20
376.0361067247997
 30
0.0
  0
VERTEX
  5
269
  8
1
  6
CONTINUOUS
 62
     7
 10
-602.2741851000794
 20
376.0254825067818
 30
0.0
  0
VERTEX
  5
26A
  8
1
  6
CONTINUOUS
 62
     7
 10
-602.2937411803405
 20
376.0156108541593
 30
0.0
  0
VERTEX
  5
26B
  8
1
  6
CONTINUOUS
 62
     7
 10
-602.313683896843
 20
376.006507872759
 30
0.0
  0
VERTEX
  5
26C
  8
1
  6
CONTINUOUS
 62
     7
 10
-602.3339631579342
 20
375.9981896684082
 30
0.0
  0
VERTEX
  5
26D
  8
1
  6
CONTINUOUS
 62
     7
 10
-602.3551015005988
 20
375.9904731102783
 30
0.0
  0
VERTEX
  5
26E
  8
1
  6
CONTINUOUS
 62
     7
 10
-602.3765558818009
 20
375.9835836913783
 30
0.0
  0
VERTEX
  5
26F
  8
1
  6
CONTINUOUS
 62
     7
 10
-602.3982736448378
 20
375.9775318056253
 30
0.0
  0
VERTEX
  5
270
  8
1
  6
CONTINUOUS
 62
     7
 10
-602.4202021330074
 20
375.9723278469367
 30
0.0
  0
VERTEX
  5
271
  8
1
  6
CONTINUOUS
 62
     7
 10
-602.4407058516333
 20
375.9682614444978
 30
0.0
  0
VERTEX
  5
272
  8
1
  6
CONTINUOUS
 62
     7
 10
-602.4613542508976
 20
375.9649245400835
 30
0.0
  0
VERTEX
  5
273
  8
1
  6
CONTINUOUS
 62
     7
 10
-602.4821061388931
 20
375.9623214989858
 30
0.0
  0
VERTEX
  5
274
  8
1
  6
CONTINUOUS
 62
     7
 10
-602.5031927365969
 20
375.9604359509802
 30
0.0
  0
VERTEX
  5
275
  8
1
  6
CONTINUOUS
 62
     7
 10
-602.5243429010558
 20
375.9593035252558
 30
0.0
  0
VERTEX
  5
276
  8
1
  6
CONTINUOUS
 62
     7
 10
-602.5455142481695
 20
375.9589257176141
 30
0.0
  0
SEQEND
  5
8DD
  8
1
  6
CONTINUOUS
 62
     7
  0
LINE
  5
BC
  8
1
  6
CONTINUOUS
 62
     7
 10
-602.1196882969774
 20
376.5080504579344
 30
0.0
 11
-602.1196882969774
 21
376.1491201704873
 31
0.0
  0
LINE
  5
BD
  8
1
  6
CONTINUOUS
 62
     7
 10
-608.1196882969775
 20
376.1491201705612
 30
0.0
 11
-608.1196882969775
 21
376.5080504579344
 31
0.0
  0
POLYLINE
  5
BE
  8
1
  6
CONTINUOUS
 62
     7
 66
     1
 10
0.0
 20
0.0
 30
0.0
  0
VERTEX
  5
277
  8
1
  6
CONTINUOUS
 62
     7
 10
-607.6938623457854
 20
375.9589257176141
 30
0.0
  0
VERTEX
  5
278
  8
1
  6
CONTINUOUS
 62
     7
 10
-607.7175716079905
 20
375.959400541735
 30
0.0
  0
VERTEX
  5
279
  8
1
  6
CONTINUOUS
 62
     7
 10
-607.7412610294709
 20
375.9608229169557
 30
0.0
  0
VERTEX
  5
27A
  8
1
  6
CONTINUOUS
 62
     7
 10
-607.7648709684726
 20
375.9631896975631
 30
0.0
  0
VERTEX
  5
27B
  8
1
  6
CONTINUOUS
 62
     7
 10
-607.7883417832412
 20
375.966497737844
 30
0.0
  0
VERTEX
  5
27C
  8
1
  6
CONTINUOUS
 62
     7
 10
-607.8123139069336
 20
375.9708841690436
 30
0.0
  0
VERTEX
  5
27D
  8
1
  6
CONTINUOUS
 62
     7
 10
-607.8360951780949
 20
375.9762664210089
 30
0.0
  0
VERTEX
  5
27E
  8
1
  6
CONTINUOUS
 62
     7
 10
-607.8596196111934
 20
375.982633722836
 30
0.0
  0
VERTEX
  5
27F
  8
1
  6
CONTINUOUS
 62
     7
 10
-607.8828212206971
 20
375.9899753036213
 30
0.0
  0
VERTEX
  5
280
  8
1
  6
CONTINUOUS
 62
     7
 10
-607.9050551041063
 20
375.9980527621316
 30
0.0
  0
VERTEX
  5
281
  8
1
  6
CONTINUOUS
 62
     7
 10
-607.9269390340888
 20
376.0070512351019
 30
0.0
  0
VERTEX
  5
282
  8
1
  6
CONTINUOUS
 62
     7
 10
-607.9484105524202
 20
376.0169525804968
 30
0.0
  0
VERTEX
  5
283
  8
1
  6
CONTINUOUS
 62
     7
 10
-607.9694072008758
 20
376.0277386562807
 30
0.0
  0
VERTEX
  5
284
  8
1
  6
CONTINUOUS
 62
     7
 10
-607.9905430626116
 20
376.039793835572
 30
0.0
  0
VERTEX
  5
285
  8
1
  6
CONTINUOUS
 62
     7
 10
-608.0111210542856
 20
376.0527865838293
 30
0.0
  0
VERTEX
  5
286
  8
1
  6
CONTINUOUS
 62
     7
 10
-608.0310709840605
 20
376.0666850013184
 30
0.0
  0
VERTEX
  5
287
  8
1
  6
CONTINUOUS
 62
     7
 10
-608.0503226600996
 20
376.0814571883048
 30
0.0
  0
VERTEX
  5
288
  8
1
  6
CONTINUOUS
 62
     7
 10
-608.0688002643658
 20
376.097057980955
 30
0.0
  0
VERTEX
  5
289
  8
1
  6
CONTINUOUS
 62
     7
 10
-608.086505634145
 20
376.1134968459668
 30
0.0
  0
VERTEX
  5
28A
  8
1
  6
CONTINUOUS
 62
     7
 10
-608.103540389909
 20
376.1309106930283
 30
0.0
  0
VERTEX
  5
28B
  8
1
  6
CONTINUOUS
 62
     7
 10
-608.1196882969775
 20
376.1491201705618
 30
0.0
  0
SEQEND
  5
8DE
  8
1
  6
CONTINUOUS
 62
     7
  0
POLYLINE
  5
BF
  8
1
  6
CONTINUOUS
 62
     7
 66
     1
 10
0.0
 20
0.0
 30
0.0
  0
VERTEX
  5
28C
  8
1
  6
CONTINUOUS
 62
     7
 10
-588.1196882969774
 20
378.8508798294947
 30
0.0
  0
VERTEX
  5
28D
  8
1
  6
CONTINUOUS
 62
     7
 10
-588.1053032924881
 20
378.8671848635952
 30
0.0
  0
VERTEX
  5
28E
  8
1
  6
CONTINUOUS
 62
     7
 10
-588.0901917051526
 20
378.8828717023047
 30
0.0
  0
VERTEX
  5
28F
  8
1
  6
CONTINUOUS
 62
     7
 10
-588.074403816344
 20
378.897904824252
 30
0.0
  0
VERTEX
  5
290
  8
1
  6
CONTINUOUS
 62
     7
 10
-588.0579899074353
 20
378.9122487080658
 30
0.0
  0
VERTEX
  5
291
  8
1
  6
CONTINUOUS
 62
     7
 10
-588.0404424238549
 20
378.9263002554438
 30
0.0
  0
VERTEX
  5
292
  8
1
  6
CONTINUOUS
 62
     7
 10
-588.0222761179899
 20
378.9396095061384
 30
0.0
  0
VERTEX
  5
293
  8
1
  6
CONTINUOUS
 62
     7
 10
-588.0035469415541
 20
378.9521494995777
 30
0.0
  0
VERTEX
  5
294
  8
1
  6
CONTINUOUS
 62
     7
 10
-587.9843108462609
 20
378.9638932751897
 30
0.0
  0
VERTEX
  5
295
  8
1
  6
CONTINUOUS
 62
     7
 10
-587.9651914938945
 20
378.9745174932081
 30
0.0
  0
VERTEX
  5
296
  8
1
  6
CONTINUOUS
 62
     7
 10
-587.9456354136341
 20
378.9843891458313
 30
0.0
  0
VERTEX
  5
297
  8
1
  6
CONTINUOUS
 62
     7
 10
-587.9256926971323
 20
378.9934921272322
 30
0.0
  0
VERTEX
  5
298
  8
1
  6
CONTINUOUS
 62
     7
 10
-587.9054134360415
 20
379.0018103315837
 30
0.0
  0
VERTEX
  5
299
  8
1
  6
CONTINUOUS
 62
     7
 10
-587.8842750933776
 20
379.0095268897143
 30
0.0
  0
VERTEX
  5
29A
  8
1
  6
CONTINUOUS
 62
     7
 10
-587.8628207121762
 20
379.0164163086151
 30
0.0
  0
VERTEX
  5
29B
  8
1
  6
CONTINUOUS
 62
     7
 10
-587.8411029491398
 20
379.0224681943688
 30
0.0
  0
VERTEX
  5
29C
  8
1
  6
CONTINUOUS
 62
     7
 10
-587.8191744609707
 20
379.0276721530583
 30
0.0
  0
VERTEX
  5
29D
  8
1
  6
CONTINUOUS
 62
     7
 10
-587.7986707423411
 20
379.0317385554986
 30
0.0
  0
VERTEX
  5
29E
  8
1
  6
CONTINUOUS
 62
     7
 10
-587.7780223430732
 20
379.0350754599142
 30
0.0
  0
VERTEX
  5
29F
  8
1
  6
CONTINUOUS
 62
     7
 10
-587.7572704550738
 20
379.0376785010129
 30
0.0
  0
VERTEX
  5
2A0
  8
1
  6
CONTINUOUS
 62
     7
 10
-587.736183857366
 20
379.0395640490192
 30
0.0
  0
VERTEX
  5
2A1
  8
1
  6
CONTINUOUS
 62
     7
 10
-587.7150336929031
 20
379.040696474744
 30
0.0
  0
VERTEX
  5
2A2
  8
1
  6
CONTINUOUS
 62
     7
 10
-587.6938623457854
 20
379.0410742823859
 30
0.0
  0
SEQEND
  5
8DF
  8
1
  6
CONTINUOUS
 62
     7
  0
LINE
  5
C0
  8
1
  6
CONTINUOUS
 62
     7
 10
-588.1196882969774
 20
378.4919495420656
 30
0.0
 11
-588.1196882969774
 21
378.8508798294906
 31
0.0
  0
LINE
  5
C1
  8
1
  6
CONTINUOUS
 62
     7
 10
-582.1196882969774
 20
378.8508798294388
 30
0.0
 11
-582.1196882969774
 21
378.4919495420656
 31
0.0
  0
POLYLINE
  5
C2
  8
1
  6
CONTINUOUS
 62
     7
 66
     1
 10
0.0
 20
0.0
 30
0.0
  0
VERTEX
  5
2A3
  8
1
  6
CONTINUOUS
 62
     7
 10
-582.5455142481694
 20
379.0410742823859
 30
0.0
  0
VERTEX
  5
2A4
  8
1
  6
CONTINUOUS
 62
     7
 10
-582.5218049859644
 20
379.040599458265
 30
0.0
  0
VERTEX
  5
2A5
  8
1
  6
CONTINUOUS
 62
     7
 10
-582.4981155644839
 20
379.0391770830443
 30
0.0
  0
VERTEX
  5
2A6
  8
1
  6
CONTINUOUS
 62
     7
 10
-582.4745056254824
 20
379.0368103024369
 30
0.0
  0
VERTEX
  5
2A7
  8
1
  6
CONTINUOUS
 62
     7
 10
-582.4510348107137
 20
379.033502262156
 30
0.0
  0
VERTEX
  5
2A8
  8
1
  6
CONTINUOUS
 62
     7
 10
-582.4270626870214
 20
379.0291158309564
 30
0.0
  0
VERTEX
  5
2A9
  8
1
  6
CONTINUOUS
 62
     7
 10
-582.4032814158601
 20
379.0237335789911
 30
0.0
  0
VERTEX
  5
2AA
  8
1
  6
CONTINUOUS
 62
     7
 10
-582.3797569827616
 20
379.017366277164
 30
0.0
  0
VERTEX
  5
2AB
  8
1
  6
CONTINUOUS
 62
     7
 10
-582.3565553732578
 20
379.0100246963787
 30
0.0
  0
VERTEX
  5
2AC
  8
1
  6
CONTINUOUS
 62
     7
 10
-582.3343214898487
 20
379.0019472378684
 30
0.0
  0
VERTEX
  5
2AD
  8
1
  6
CONTINUOUS
 62
     7
 10
-582.312437559866
 20
378.9929487648981
 30
0.0
  0
VERTEX
  5
2AE
  8
1
  6
CONTINUOUS
 62
     7
 10
-582.2909660415347
 20
378.9830474195032
 30
0.0
  0
VERTEX
  5
2AF
  8
1
  6
CONTINUOUS
 62
     7
 10
-582.2699693930791
 20
378.9722613437193
 30
0.0
  0
VERTEX
  5
2B0
  8
1
  6
CONTINUOUS
 62
     7
 10
-582.2488335313434
 20
378.960206164428
 30
0.0
  0
VERTEX
  5
2B1
  8
1
  6
CONTINUOUS
 62
     7
 10
-582.2282555396694
 20
378.9472134161707
 30
0.0
  0
VERTEX
  5
2B2
  8
1
  6
CONTINUOUS
 62
     7
 10
-582.2083056098944
 20
378.9333149986816
 30
0.0
  0
VERTEX
  5
2B3
  8
1
  6
CONTINUOUS
 62
     7
 10
-582.1890539338553
 20
378.9185428116951
 30
0.0
  0
VERTEX
  5
2B4
  8
1
  6
CONTINUOUS
 62
     7
 10
-582.1705763295915
 20
378.9029420190472
 30
0.0
  0
VERTEX
  5
2B5
  8
1
  6
CONTINUOUS
 62
     7
 10
-582.1528709598145
 20
378.8865031540378
 30
0.0
  0
VERTEX
  5
2B6
  8
1
  6
CONTINUOUS
 62
     7
 10
-582.1358362040528
 20
378.8690893069789
 30
0.0
  0
VERTEX
  5
2B7
  8
1
  6
CONTINUOUS
 62
     7
 10
-582.1196882969774
 20
378.8508798294382
 30
0.0
  0
SEQEND
  5
8E0
  8
1
  6
CONTINUOUS
 62
     7
  0
LINE
  5
C3
  8
1
  6
CONTINUOUS
 62
     7
 10
-607.5196882969774
 20
385.0225384036452
 30
0.0
 11
-607.5722328296154
 21
384.6643185966762
 31
0.0
  0
LINE
  5
C4
  8
1
  6
CONTINUOUS
 62
     7
 10
-607.5196882969774
 20
385.0225384036452
 30
0.0
 11
-607.5196882969774
 21
385.6082198069691
 31
0.0
  0
POLYLINE
  5
C5
  8
1
  6
CONTINUOUS
 62
     7
 66
     1
 10
0.0
 20
0.0
 30
0.0
  0
VERTEX
  5
2B8
  8
1
  6
CONTINUOUS
 62
     7
 10
-607.6764003741899
 20
386.0
 30
0.0
  0
VERTEX
  5
2B9
  8
1
  6
CONTINUOUS
 62
     7
 10
-607.6670219183726
 20
385.9994166924124
 30
0.0
  0
VERTEX
  5
2BA
  8
1
  6
CONTINUOUS
 62
     7
 10
-607.6577663453483
 20
385.9976681306407
 30
0.0
  0
VERTEX
  5
2BB
  8
1
  6
CONTINUOUS
 62
     7
 10
-607.648655250501
 20
385.9947583944822
 30
0.0
  0
VERTEX
  5
2BC
  8
1
  6
CONTINUOUS
 62
     7
 10
-607.6397098921136
 20
385.9906942730217
 30
0.0
  0
VERTEX
  5
2BD
  8
1
  6
CONTINUOUS
 62
     7
 10
-607.6309511417677
 20
385.9854852487907
 30
0.0
  0
VERTEX
  5
2BE
  8
1
  6
CONTINUOUS
 62
     7
 10
-607.6223994356455
 20
385.9791434756426
 30
0.0
  0
VERTEX
  5
2BF
  8
1
  6
CONTINUOUS
 62
     7
 10
-607.6140747268473
 20
385.9716837503949
 30
0.0
  0
VERTEX
  5
2C0
  8
1
  6
CONTINUOUS
 62
     7
 10
-607.6059964388365
 20
385.9631234783051
 30
0.0
  0
VERTEX
  5
2C1
  8
1
  6
CONTINUOUS
 62
     7
 10
-607.5981834201197
 20
385.9534826324599
 30
0.0
  0
VERTEX
  5
2C2
  8
1
  6
CONTINUOUS
 62
     7
 10
-607.590653900269
 20
385.9427837071732
 30
0.0
  0
VERTEX
  5
2C3
  8
1
  6
CONTINUOUS
 62
     7
 10
-607.5834254473892
 20
385.9310516655025
 30
0.0
  0
VERTEX
  5
2C4
  8
1
  6
CONTINUOUS
 62
     7
 10
-607.5765149271255
 20
385.9183138810032
 30
0.0
  0
VERTEX
  5
2C5
  8
1
  6
CONTINUOUS
 62
     7
 10
-607.5699384633137
 20
385.9046000738608
 30
0.0
  0
VERTEX
  5
2C6
  8
1
  6
CONTINUOUS
 62
     7
 10
-607.5637114003589
 20
385.8899422415464
 30
0.0
  0
VERTEX
  5
2C7
  8
1
  6
CONTINUOUS
 62
     7
 10
-607.5578482674331
 20
385.8743745841592
 30
0.0
  0
VERTEX
  5
2C8
  8
1
  6
CONTINUOUS
 62
     7
 10
-607.5523627445763
 20
385.8579334246299
 30
0.0
  0
VERTEX
  5
2C9
  8
1
  6
CONTINUOUS
 62
     7
 10
-607.5472676307764
 20
385.8406571239708
 30
0.0
  0
VERTEX
  5
2CA
  8
1
  6
CONTINUOUS
 62
     7
 10
-607.5425748141081
 20
385.8225859917711
 30
0.0
  0
VERTEX
  5
2CB
  8
1
  6
CONTINUOUS
 62
     7
 10
-607.5382952439935
 20
385.8037621921447
 30
0.0
  0
VERTEX
  5
2CC
  8
1
  6
CONTINUOUS
 62
     7
 10
-607.5344389056554
 20
385.7842296453525
 30
0.0
  0
VERTEX
  5
2CD
  8
1
  6
CONTINUOUS
 62
     7
 10
-607.5310147968195
 20
385.7640339253252
 30
0.0
  0
VERTEX
  5
2CE
  8
1
  6
CONTINUOUS
 62
     7
 10
-607.5280309067205
 20
385.7432221533298
 30
0.0
  0
VERTEX
  5
2CF
  8
1
  6
CONTINUOUS
 62
     7
 10
-607.5254941974613
 20
385.7218428880245
 30
0.0
  0
VERTEX
  5
2D0
  8
1
  6
CONTINUOUS
 62
     7
 10
-607.5234105877688
 20
385.6999460121598
 30
0.0
  0
VERTEX
  5
2D1
  8
1
  6
CONTINUOUS
 62
     7
 10
-607.5217849391846
 20
385.6775826161912
 30
0.0
  0
VERTEX
  5
2D2
  8
1
  6
CONTINUOUS
 62
     7
 10
-607.5206210447211
 20
385.6548048790728
 30
0.0
  0
VERTEX
  5
2D3
  8
1
  6
CONTINUOUS
 62
     7
 10
-607.5199216200124
 20
385.6316659465122
 30
0.0
  0
VERTEX
  5
2D4
  8
1
  6
CONTINUOUS
 62
     7
 10
-607.5196882969774
 20
385.6082198069691
 30
0.0
  0
SEQEND
  5
8E1
  8
1
  6
CONTINUOUS
 62
     7
  0
LINE
  5
C6
  8
1
  6
CONTINUOUS
 62
     7
 10
-608.1196882969775
 20
376.5080504579344
 30
0.0
 11
-608.1196882969775
 21
378.8396246960231
 31
0.0
  0
LINE
  5
C7
  8
1
  6
CONTINUOUS
 62
     7
 10
-608.0459261296555
 20
379.6754978975225
 30
0.0
 11
-608.1196882969774
 21
378.8396246960231
 31
0.0
  0
LINE
  5
C8
  8
1
  6
CONTINUOUS
 62
     7
 10
-608.0396882969775
 20
379.7998369700434
 30
0.0
 11
-608.0459261296556
 21
379.6754978975225
 31
0.0
  0
LINE
  5
C9
  8
1
  6
CONTINUOUS
 62
     7
 10
-608.0396882969775
 20
379.7998369700434
 30
0.0
 11
-608.0396882969775
 21
382.9764339805948
 31
0.0
  0
LINE
  5
CA
  8
1
  6
CONTINUOUS
 62
     7
 10
-607.9871437643395
 20
383.3346537875639
 30
0.0
 11
-608.0396882969774
 21
382.9764339805948
 31
0.0
  0
LINE
  5
CB
  8
1
  6
CONTINUOUS
 62
     7
 10
-607.9871437643395
 20
383.3346537875639
 30
0.0
 11
-607.5722328296155
 21
384.6643185966762
 31
0.0
  0
LINE
  5
CC
  8
1
  6
CONTINUOUS
 62
     7
 10
-602.1934504642993
 20
379.6754978975225
 30
0.0
 11
-602.1996882969775
 21
379.7998369700433
 31
0.0
  0
LINE
  5
CD
  8
1
  6
CONTINUOUS
 62
     7
 10
-602.1196882969775
 20
378.8396246960231
 30
0.0
 11
-602.1934504642994
 21
379.6754978975225
 31
0.0
  0
LINE
  5
CE
  8
1
  6
CONTINUOUS
 62
     7
 10
-602.1196882969774
 20
378.8396246960231
 30
0.0
 11
-602.1196882969774
 21
376.5080504579344
 31
0.0
  0
POLYLINE
  5
CF
  8
1
  6
CONTINUOUS
 62
     7
 66
     1
 10
0.0
 20
0.0
 30
0.0
  0
VERTEX
  5
2D5
  8
1
  6
CONTINUOUS
 62
     7
 10
-602.7196882969774
 20
385.6082198069691
 30
0.0
  0
VERTEX
  5
2D6
  8
1
  6
CONTINUOUS
 62
     7
 10
-602.7194549739424
 20
385.6316659465122
 30
0.0
  0
VERTEX
  5
2D7
  8
1
  6
CONTINUOUS
 62
     7
 10
-602.7187555492337
 20
385.6548048790728
 30
0.0
  0
VERTEX
  5
2D8
  8
1
  6
CONTINUOUS
 62
     7
 10
-602.7175916547703
 20
385.6775826161912
 30
0.0
  0
VERTEX
  5
2D9
  8
1
  6
CONTINUOUS
 62
     7
 10
-602.7159660061861
 20
385.6999460121599
 30
0.0
  0
VERTEX
  5
2DA
  8
1
  6
CONTINUOUS
 62
     7
 10
-602.7138823964937
 20
385.7218428880245
 30
0.0
  0
VERTEX
  5
2DB
  8
1
  6
CONTINUOUS
 62
     7
 10
-602.7113456872345
 20
385.7432221533298
 30
0.0
  0
VERTEX
  5
2DC
  8
1
  6
CONTINUOUS
 62
     7
 10
-602.7083617971354
 20
385.7640339253252
 30
0.0
  0
VERTEX
  5
2DD
  8
1
  6
CONTINUOUS
 62
     7
 10
-602.7049376882995
 20
385.7842296453525
 30
0.0
  0
VERTEX
  5
2DE
  8
1
  6
CONTINUOUS
 62
     7
 10
-602.7010813499614
 20
385.8037621921447
 30
0.0
  0
VERTEX
  5
2DF
  8
1
  6
CONTINUOUS
 62
     7
 10
-602.6968017798467
 20
385.8225859917711
 30
0.0
  0
VERTEX
  5
2E0
  8
1
  6
CONTINUOUS
 62
     7
 10
-602.6921089631785
 20
385.8406571239708
 30
0.0
  0
VERTEX
  5
2E1
  8
1
  6
CONTINUOUS
 62
     7
 10
-602.6870138493787
 20
385.8579334246299
 30
0.0
  0
VERTEX
  5
2E2
  8
1
  6
CONTINUOUS
 62
     7
 10
-602.6815283265217
 20
385.8743745841592
 30
0.0
  0
VERTEX
  5
2E3
  8
1
  6
CONTINUOUS
 62
     7
 10
-602.675665193596
 20
385.8899422415464
 30
0.0
  0
VERTEX
  5
2E4
  8
1
  6
CONTINUOUS
 62
     7
 10
-602.6694381306411
 20
385.9046000738608
 30
0.0
  0
VERTEX
  5
2E5
  8
1
  6
CONTINUOUS
 62
     7
 10
-602.6628616668294
 20
385.9183138810032
 30
0.0
  0
VERTEX
  5
2E6
  8
1
  6
CONTINUOUS
 62
     7
 10
-602.6559511465658
 20
385.9310516655025
 30
0.0
  0
VERTEX
  5
2E7
  8
1
  6
CONTINUOUS
 62
     7
 10
-602.6487226936858
 20
385.9427837071732
 30
0.0
  0
VERTEX
  5
2E8
  8
1
  6
CONTINUOUS
 62
     7
 10
-602.6411931738353
 20
385.9534826324599
 30
0.0
  0
VERTEX
  5
2E9
  8
1
  6
CONTINUOUS
 62
     7
 10
-602.6333801551184
 20
385.9631234783051
 30
0.0
  0
VERTEX
  5
2EA
  8
1
  6
CONTINUOUS
 62
     7
 10
-602.6253018671075
 20
385.9716837503949
 30
0.0
  0
VERTEX
  5
2EB
  8
1
  6
CONTINUOUS
 62
     7
 10
-602.6169771583094
 20
385.9791434756426
 30
0.0
  0
VERTEX
  5
2EC
  8
1
  6
CONTINUOUS
 62
     7
 10
-602.6084254521872
 20
385.9854852487907
 30
0.0
  0
VERTEX
  5
2ED
  8
1
  6
CONTINUOUS
 62
     7
 10
-602.5996667018413
 20
385.9906942730217
 30
0.0
  0
VERTEX
  5
2EE
  8
1
  6
CONTINUOUS
 62
     7
 10
-602.5907213434539
 20
385.9947583944822
 30
0.0
  0
VERTEX
  5
2EF
  8
1
  6
CONTINUOUS
 62
     7
 10
-602.5816102486066
 20
385.9976681306407
 30
0.0
  0
VERTEX
  5
2F0
  8
1
  6
CONTINUOUS
 62
     7
 10
-602.5723546755823
 20
385.9994166924124
 30
0.0
  0
VERTEX
  5
2F1
  8
1
  6
CONTINUOUS
 62
     7
 10
-602.562976219765
 20
386.0
 30
0.0
  0
SEQEND
  5
8E2
  8
1
  6
CONTINUOUS
 62
     7
  0
LINE
  5
D0
  8
1
  6
CONTINUOUS
 62
     7
 10
-602.7196882969776
 20
385.6082198069691
 30
0.0
 11
-602.7196882969776
 21
385.0225384036452
 31
0.0
  0
LINE
  5
D1
  8
1
  6
CONTINUOUS
 62
     7
 10
-602.6671437643395
 20
384.6643185966762
 30
0.0
 11
-602.7196882969774
 21
385.0225384036452
 31
0.0
  0
LINE
  5
D2
  8
1
  6
CONTINUOUS
 62
     7
 10
-602.6671437643395
 20
384.6643185966762
 30
0.0
 11
-602.2522328296154
 21
383.3346537875639
 31
0.0
  0
LINE
  5
D3
  8
1
  6
CONTINUOUS
 62
     7
 10
-602.1996882969775
 20
382.9764339805948
 30
0.0
 11
-602.2522328296153
 21
383.3346537875639
 31
0.0
  0
LINE
  5
D4
  8
1
  6
CONTINUOUS
 62
     7
 10
-602.1996882969775
 20
382.9764339805948
 30
0.0
 11
-602.1996882969775
 21
379.7998369700434
 31
0.0
  0
LINE
  5
D5
  8
1
  6
CONTINUOUS
 62
     7
 10
-588.0459261296556
 20
375.3245021024775
 30
0.0
 11
-588.0396882969775
 21
375.2001630299567
 31
0.0
  0
LINE
  5
D6
  8
1
  6
CONTINUOUS
 62
     7
 10
-588.1196882969774
 20
376.1603753039769
 30
0.0
 11
-588.0459261296555
 21
375.3245021024775
 31
0.0
  0
LINE
  5
D7
  8
1
  6
CONTINUOUS
 62
     7
 10
-588.1196882969774
 20
376.1603753039769
 30
0.0
 11
-588.1196882969774
 21
378.4919495420656
 31
0.0
  0
POLYLINE
  5
D8
  8
1
  6
CONTINUOUS
 62
     7
 66
     1
 10
0.0
 20
0.0
 30
0.0
  0
VERTEX
  5
2F2
  8
1
  6
CONTINUOUS
 62
     7
 10
-587.5196882969774
 20
369.3917801930309
 30
0.0
  0
VERTEX
  5
2F3
  8
1
  6
CONTINUOUS
 62
     7
 10
-587.5199216200125
 20
369.3683340534878
 30
0.0
  0
VERTEX
  5
2F4
  8
1
  6
CONTINUOUS
 62
     7
 10
-587.5206210447211
 20
369.3451951209271
 30
0.0
  0
VERTEX
  5
2F5
  8
1
  6
CONTINUOUS
 62
     7
 10
-587.5217849391846
 20
369.3224173838088
 30
0.0
  0
VERTEX
  5
2F6
  8
1
  6
CONTINUOUS
 62
     7
 10
-587.5234105877688
 20
369.3000539878402
 30
0.0
  0
VERTEX
  5
2F7
  8
1
  6
CONTINUOUS
 62
     7
 10
-587.5254941974613
 20
369.2781571119755
 30
0.0
  0
VERTEX
  5
2F8
  8
1
  6
CONTINUOUS
 62
     7
 10
-587.5280309067205
 20
369.2567778466702
 30
0.0
  0
VERTEX
  5
2F9
  8
1
  6
CONTINUOUS
 62
     7
 10
-587.5310147968195
 20
369.2359660746748
 30
0.0
  0
VERTEX
  5
2FA
  8
1
  6
CONTINUOUS
 62
     7
 10
-587.5344389056554
 20
369.2157703546475
 30
0.0
  0
VERTEX
  5
2FB
  8
1
  6
CONTINUOUS
 62
     7
 10
-587.5382952439935
 20
369.1962378078553
 30
0.0
  0
VERTEX
  5
2FC
  8
1
  6
CONTINUOUS
 62
     7
 10
-587.5425748141082
 20
369.1774140082289
 30
0.0
  0
VERTEX
  5
2FD
  8
1
  6
CONTINUOUS
 62
     7
 10
-587.5472676307764
 20
369.1593428760292
 30
0.0
  0
VERTEX
  5
2FE
  8
1
  6
CONTINUOUS
 62
     7
 10
-587.5523627445763
 20
369.1420665753701
 30
0.0
  0
VERTEX
  5
2FF
  8
1
  6
CONTINUOUS
 62
     7
 10
-587.5578482674332
 20
369.1256254158408
 30
0.0
  0
VERTEX
  5
300
  8
1
  6
CONTINUOUS
 62
     7
 10
-587.5637114003589
 20
369.1100577584535
 30
0.0
  0
VERTEX
  5
301
  8
1
  6
CONTINUOUS
 62
     7
 10
-587.5699384633139
 20
369.0953999261391
 30
0.0
  0
VERTEX
  5
302
  8
1
  6
CONTINUOUS
 62
     7
 10
-587.5765149271255
 20
369.0816861189967
 30
0.0
  0
VERTEX
  5
303
  8
1
  6
CONTINUOUS
 62
     7
 10
-587.5834254473891
 20
369.0689483344975
 30
0.0
  0
VERTEX
  5
304
  8
1
  6
CONTINUOUS
 62
     7
 10
-587.5906539002691
 20
369.0572162928267
 30
0.0
  0
VERTEX
  5
305
  8
1
  6
CONTINUOUS
 62
     7
 10
-587.5981834201195
 20
369.0465173675401
 30
0.0
  0
VERTEX
  5
306
  8
1
  6
CONTINUOUS
 62
     7
 10
-587.6059964388364
 20
369.0368765216949
 30
0.0
  0
VERTEX
  5
307
  8
1
  6
CONTINUOUS
 62
     7
 10
-587.6140747268474
 20
369.0283162496051
 30
0.0
  0
VERTEX
  5
308
  8
1
  6
CONTINUOUS
 62
     7
 10
-587.6223994356455
 20
369.0208565243574
 30
0.0
  0
VERTEX
  5
309
  8
1
  6
CONTINUOUS
 62
     7
 10
-587.6309511417677
 20
369.0145147512093
 30
0.0
  0
VERTEX
  5
30A
  8
1
  6
CONTINUOUS
 62
     7
 10
-587.6397098921135
 20
369.0093057269783
 30
0.0
  0
VERTEX
  5
30B
  8
1
  6
CONTINUOUS
 62
     7
 10
-587.6486552505011
 20
369.0052416055178
 30
0.0
  0
VERTEX
  5
30C
  8
1
  6
CONTINUOUS
 62
     7
 10
-587.6577663453484
 20
369.0023318693592
 30
0.0
  0
VERTEX
  5
30D
  8
1
  6
CONTINUOUS
 62
     7
 10
-587.6670219183726
 20
369.0005833075875
 30
0.0
  0
VERTEX
  5
30E
  8
1
  6
CONTINUOUS
 62
     7
 10
-587.6764003741898
 20
369.0
 30
0.0
  0
SEQEND
  5
8E3
  8
1
  6
CONTINUOUS
 62
     7
  0
LINE
  5
D9
  8
1
  6
CONTINUOUS
 62
     7
 10
-587.5196882969774
 20
369.3917801930309
 30
0.0
 11
-587.5196882969774
 21
369.9774615963547
 31
0.0
  0
LINE
  5
DA
  8
1
  6
CONTINUOUS
 62
     7
 10
-587.5722328296155
 20
370.3356814033238
 30
0.0
 11
-587.5196882969775
 21
369.9774615963547
 31
0.0
  0
LINE
  5
DB
  8
1
  6
CONTINUOUS
 62
     7
 10
-587.5722328296155
 20
370.3356814033238
 30
0.0
 11
-587.9871437643394
 21
371.6653462124361
 31
0.0
  0
LINE
  5
DC
  8
1
  6
CONTINUOUS
 62
     7
 10
-588.0396882969775
 20
372.0235660194052
 30
0.0
 11
-587.9871437643395
 21
371.6653462124361
 31
0.0
  0
LINE
  5
DD
  8
1
  6
CONTINUOUS
 62
     7
 10
-588.0396882969775
 20
372.0235660194052
 30
0.0
 11
-588.0396882969775
 21
375.2001630299566
 31
0.0
  0
LINE
  5
DE
  8
1
  6
CONTINUOUS
 62
     7
 10
-582.7196882969776
 20
369.9774615963547
 30
0.0
 11
-582.6671437643396
 21
370.3356814033238
 31
0.0
  0
LINE
  5
DF
  8
1
  6
CONTINUOUS
 62
     7
 10
-582.7196882969776
 20
369.9774615963547
 30
0.0
 11
-582.7196882969776
 21
369.3917801930309
 31
0.0
  0
POLYLINE
  5
E0
  8
1
  6
CONTINUOUS
 62
     7
 66
     1
 10
0.0
 20
0.0
 30
0.0
  0
VERTEX
  5
30F
  8
1
  6
CONTINUOUS
 62
     7
 10
-582.562976219765
 20
369.0
 30
0.0
  0
VERTEX
  5
310
  8
1
  6
CONTINUOUS
 62
     7
 10
-582.5723546755823
 20
369.0005833075875
 30
0.0
  0
VERTEX
  5
311
  8
1
  6
CONTINUOUS
 62
     7
 10
-582.5816102486066
 20
369.0023318693592
 30
0.0
  0
VERTEX
  5
312
  8
1
  6
CONTINUOUS
 62
     7
 10
-582.590721343454
 20
369.0052416055178
 30
0.0
  0
VERTEX
  5
313
  8
1
  6
CONTINUOUS
 62
     7
 10
-582.5996667018413
 20
369.0093057269783
 30
0.0
  0
VERTEX
  5
314
  8
1
  6
CONTINUOUS
 62
     7
 10
-582.6084254521872
 20
369.0145147512093
 30
0.0
  0
VERTEX
  5
315
  8
1
  6
CONTINUOUS
 62
     7
 10
-582.6169771583094
 20
369.0208565243574
 30
0.0
  0
VERTEX
  5
316
  8
1
  6
CONTINUOUS
 62
     7
 10
-582.6253018671076
 20
369.0283162496051
 30
0.0
  0
VERTEX
  5
317
  8
1
  6
CONTINUOUS
 62
     7
 10
-582.6333801551184
 20
369.0368765216949
 30
0.0
  0
VERTEX
  5
318
  8
1
  6
CONTINUOUS
 62
     7
 10
-582.6411931738353
 20
369.0465173675401
 30
0.0
  0
VERTEX
  5
319
  8
1
  6
CONTINUOUS
 62
     7
 10
-582.6487226936858
 20
369.0572162928267
 30
0.0
  0
VERTEX
  5
31A
  8
1
  6
CONTINUOUS
 62
     7
 10
-582.6559511465657
 20
369.0689483344975
 30
0.0
  0
VERTEX
  5
31B
  8
1
  6
CONTINUOUS
 62
     7
 10
-582.6628616668295
 20
369.0816861189967
 30
0.0
  0
VERTEX
  5
31C
  8
1
  6
CONTINUOUS
 62
     7
 10
-582.6694381306412
 20
369.0953999261391
 30
0.0
  0
VERTEX
  5
31D
  8
1
  6
CONTINUOUS
 62
     7
 10
-582.675665193596
 20
369.1100577584535
 30
0.0
  0
VERTEX
  5
31E
  8
1
  6
CONTINUOUS
 62
     7
 10
-582.6815283265219
 20
369.1256254158408
 30
0.0
  0
VERTEX
  5
31F
  8
1
  6
CONTINUOUS
 62
     7
 10
-582.6870138493787
 20
369.1420665753701
 30
0.0
  0
VERTEX
  5
320
  8
1
  6
CONTINUOUS
 62
     7
 10
-582.6921089631785
 20
369.1593428760292
 30
0.0
  0
VERTEX
  5
321
  8
1
  6
CONTINUOUS
 62
     7
 10
-582.6968017798469
 20
369.1774140082289
 30
0.0
  0
VERTEX
  5
322
  8
1
  6
CONTINUOUS
 62
     7
 10
-582.7010813499614
 20
369.1962378078553
 30
0.0
  0
VERTEX
  5
323
  8
1
  6
CONTINUOUS
 62
     7
 10
-582.7049376882995
 20
369.2157703546475
 30
0.0
  0
VERTEX
  5
324
  8
1
  6
CONTINUOUS
 62
     7
 10
-582.7083617971355
 20
369.2359660746748
 30
0.0
  0
VERTEX
  5
325
  8
1
  6
CONTINUOUS
 62
     7
 10
-582.7113456872345
 20
369.2567778466702
 30
0.0
  0
VERTEX
  5
326
  8
1
  6
CONTINUOUS
 62
     7
 10
-582.7138823964937
 20
369.2781571119755
 30
0.0
  0
VERTEX
  5
327
  8
1
  6
CONTINUOUS
 62
     7
 10
-582.7159660061861
 20
369.3000539878402
 30
0.0
  0
VERTEX
  5
328
  8
1
  6
CONTINUOUS
 62
     7
 10
-582.7175916547703
 20
369.3224173838088
 30
0.0
  0
VERTEX
  5
329
  8
1
  6
CONTINUOUS
 62
     7
 10
-582.7187555492338
 20
369.3451951209271
 30
0.0
  0
VERTEX
  5
32A
  8
1
  6
CONTINUOUS
 62
     7
 10
-582.7194549739423
 20
369.3683340534878
 30
0.0
  0
VERTEX
  5
32B
  8
1
  6
CONTINUOUS
 62
     7
 10
-582.7196882969776
 20
369.3917801930309
 30
0.0
  0
SEQEND
  5
8E4
  8
1
  6
CONTINUOUS
 62
     7
  0
LINE
  5
E1
  8
1
  6
CONTINUOUS
 62
     7
 10
-582.1196882969774
 20
378.4919495420656
 30
0.0
 11
-582.1196882969774
 21
376.1603753039769
 31
0.0
  0
LINE
  5
E2
  8
1
  6
CONTINUOUS
 62
     7
 10
-582.1934504642994
 20
375.3245021024775
 30
0.0
 11
-582.1196882969775
 21
376.1603753039769
 31
0.0
  0
LINE
  5
E3
  8
1
  6
CONTINUOUS
 62
     7
 10
-582.1996882969775
 20
375.2001630299567
 30
0.0
 11
-582.1934504642993
 21
375.3245021024775
 31
0.0
  0
LINE
  5
E4
  8
1
  6
CONTINUOUS
 62
     7
 10
-582.1996882969775
 20
375.2001630299567
 30
0.0
 11
-582.1996882969775
 21
372.0235660194052
 31
0.0
  0
LINE
  5
E5
  8
1
  6
CONTINUOUS
 62
     7
 10
-582.2522328296154
 20
371.6653462124361
 30
0.0
 11
-582.1996882969776
 21
372.0235660194052
 31
0.0
  0
LINE
  5
E6
  8
1
  6
CONTINUOUS
 62
     7
 10
-582.2522328296154
 20
371.6653462124361
 30
0.0
 11
-582.6671437643395
 21
370.3356814033238
 31
0.0
  0
LINE
  5
E7
  8
1
  6
CONTINUOUS
 62
     7
 10
-575.163945769898
 20
380.1595790591068
 30
0.0
 11
-575.1769992925557
 21
379.8592569469845
 31
0.0
  0
LINE
  5
E8
  8
1
  6
CONTINUOUS
 62
     7
 10
-575.1911787151677
 20
379.6215430480085
 30
0.0
 11
-575.1769992925557
 21
379.8592569469845
 31
0.0
  0
LINE
  5
E9
  8
1
  6
CONTINUOUS
 62
     7
 10
-575.1911787151677
 20
379.6215430480085
 30
0.0
 11
-575.1550092824749
 21
377.499653944264
 31
0.0
  0
LINE
  5
EA
  8
1
  6
CONTINUOUS
 62
     7
 10
-575.2442949564112
 20
381.9581339404617
 30
0.0
 11
-575.163945769898
 21
380.1595790591068
 31
0.0
  0
LINE
  5
EB
  8
1
  6
CONTINUOUS
 62
     7
 10
-615.0754482137958
 20
374.8409429172681
 30
0.0
 11
-615.0624506205584
 21
375.1407430530155
 31
0.0
  0
LINE
  5
EC
  8
1
  6
CONTINUOUS
 62
     7
 10
-615.048282844067
 20
375.3784569519915
 30
0.0
 11
-615.0624506205584
 21
375.1407430530155
 31
0.0
  0
LINE
  5
ED
  8
1
  6
CONTINUOUS
 62
     7
 10
-615.048282844067
 20
375.3784569519915
 30
0.0
 11
-615.084291345951
 21
377.5004902062436
 31
0.0
  0
LINE
  5
EE
  8
1
  6
CONTINUOUS
 62
     7
 10
-614.9950632270569
 20
373.0415377589268
 30
0.0
 11
-615.0754482137958
 21
374.8409429172681
 31
0.0
  0
POLYLINE
  5
EF
  8
1
  6
CONTINUOUS
 62
     7
 66
     1
 10
0.0
 20
0.0
 30
0.0
  0
VERTEX
  5
32C
  8
1
  6
CONTINUOUS
 62
     7
 10
-612.9042497054089
 20
395.7985655732607
 30
0.0
  0
VERTEX
  5
32D
  8
1
  6
CONTINUOUS
 62
     7
 10
-612.9150797697656
 20
395.7516778898464
 30
0.0
  0
VERTEX
  5
32E
  8
1
  6
CONTINUOUS
 62
     7
 10
-612.9236161529278
 20
395.7042004436083
 30
0.0
  0
VERTEX
  5
32F
  8
1
  6
CONTINUOUS
 62
     7
 10
-612.9298404173604
 20
395.656297614769
 30
0.0
  0
VERTEX
  5
330
  8
1
  6
CONTINUOUS
 62
     7
 10
-612.9337341255289
 20
395.6081337835512
 30
0.0
  0
VERTEX
  5
331
  8
1
  6
CONTINUOUS
 62
     7
 10
-612.9352788398982
 20
395.5598733301775
 30
0.0
  0
VERTEX
  5
332
  8
1
  6
CONTINUOUS
 62
     7
 10
-612.9344561229336
 20
395.5116806348705
 30
0.0
  0
VERTEX
  5
333
  8
1
  6
CONTINUOUS
 62
     7
 10
-612.9312475371003
 20
395.4637200778529
 30
0.0
  0
VERTEX
  5
334
  8
1
  6
CONTINUOUS
 62
     7
 10
-612.9256202036529
 20
395.4159407872492
 30
0.0
  0
VERTEX
  5
335
  8
1
  6
CONTINUOUS
 62
     7
 10
-612.9175839852567
 20
395.3683449489283
 30
0.0
  0
VERTEX
  5
336
  8
1
  6
CONTINUOUS
 62
     7
 10
-612.907177529886
 20
395.3211003444305
 30
0.0
  0
VERTEX
  5
337
  8
1
  6
CONTINUOUS
 62
     7
 10
-612.8944394855155
 20
395.2743747552963
 30
0.0
  0
VERTEX
  5
338
  8
1
  6
CONTINUOUS
 62
     7
 10
-612.8794085001194
 20
395.2283359630661
 30
0.0
  0
VERTEX
  5
339
  8
1
  6
CONTINUOUS
 62
     7
 10
-612.8621232216725
 20
395.1831517492803
 30
0.0
  0
VERTEX
  5
33A
  8
1
  6
CONTINUOUS
 62
     7
 10
-612.8426222981492
 20
395.1389898954795
 30
0.0
  0
VERTEX
  5
33B
  8
1
  6
CONTINUOUS
 62
     7
 10
-612.8211854162121
 20
395.0964290465569
 30
0.0
  0
VERTEX
  5
33C
  8
1
  6
CONTINUOUS
 62
     7
 10
-612.797559196604
 20
395.0548238879362
 30
0.0
  0
VERTEX
  5
33D
  8
1
  6
CONTINUOUS
 62
     7
 10
-612.7718387309761
 20
395.0143182257272
 30
0.0
  0
VERTEX
  5
33E
  8
1
  6
CONTINUOUS
 62
     7
 10
-612.7441191109806
 20
394.9750558660394
 30
0.0
  0
VERTEX
  5
33F
  8
1
  6
CONTINUOUS
 62
     7
 10
-612.7144954282687
 20
394.9371806149828
 30
0.0
  0
VERTEX
  5
340
  8
1
  6
CONTINUOUS
 62
     7
 10
-612.6830627744921
 20
394.9008362786672
 30
0.0
  0
VERTEX
  5
341
  8
1
  6
CONTINUOUS
 62
     7
 10
-612.6499162413024
 20
394.8661666632021
 30
0.0
  0
VERTEX
  5
342
  8
1
  6
CONTINUOUS
 62
     7
 10
-612.6156913757779
 20
394.8337751894684
 30
0.0
  0
VERTEX
  5
343
  8
1
  6
CONTINUOUS
 62
     7
 10
-612.5797774253052
 20
394.8029676984325
 30
0.0
  0
VERTEX
  5
344
  8
1
  6
CONTINUOUS
 62
     7
 10
-612.542310718869
 20
394.7738417700473
 30
0.0
  0
VERTEX
  5
345
  8
1
  6
CONTINUOUS
 62
     7
 10
-612.5034275854541
 20
394.7464949842663
 30
0.0
  0
VERTEX
  5
346
  8
1
  6
CONTINUOUS
 62
     7
 10
-612.4632643540457
 20
394.7210249210423
 30
0.0
  0
VERTEX
  5
347
  8
1
  6
CONTINUOUS
 62
     7
 10
-612.4219573536286
 20
394.6975291603286
 30
0.0
  0
VERTEX
  5
348
  8
1
  6
CONTINUOUS
 62
     7
 10
-612.3796429131875
 20
394.6761052820784
 30
0.0
  0
VERTEX
  5
349
  8
1
  6
CONTINUOUS
 62
     7
 10
-612.3367639669375
 20
394.6569571299829
 30
0.0
  0
VERTEX
  5
34A
  8
1
  6
CONTINUOUS
 62
     7
 10
-612.2928583490118
 20
394.6398142431926
 30
0.0
  0
VERTEX
  5
34B
  8
1
  6
CONTINUOUS
 62
     7
 10
-612.2480831444688
 20
394.6247187243023
 30
0.0
  0
VERTEX
  5
34C
  8
1
  6
CONTINUOUS
 62
     7
 10
-612.2025954383663
 20
394.6117126759062
 30
0.0
  0
VERTEX
  5
34D
  8
1
  6
CONTINUOUS
 62
     7
 10
-612.156552315763
 20
394.6008382005989
 30
0.0
  0
VERTEX
  5
34E
  8
1
  6
CONTINUOUS
 62
     7
 10
-612.1101108617165
 20
394.5921374009749
 30
0.0
  0
VERTEX
  5
34F
  8
1
  6
CONTINUOUS
 62
     7
 10
-612.0634281612855
 20
394.5856523796286
 30
0.0
  0
VERTEX
  5
350
  8
1
  6
CONTINUOUS
 62
     7
 10
-612.0249627860603
 20
394.5819829656093
 30
0.0
  0
VERTEX
  5
351
  8
1
  6
CONTINUOUS
 62
     7
 10
-611.9863653817292
 20
394.5797796078234
 30
0.0
  0
VERTEX
  5
352
  8
1
  6
CONTINUOUS
 62
     7
 10
-611.9477240251845
 20
394.5790446372358
 30
0.0
  0
SEQEND
  5
8E5
  8
1
  6
CONTINUOUS
 62
     7
  0
ARC
  5
F0
  8
1
  6
CONTINUOUS
 62
     7
 10
-580.6269149521049
 20
391.1895629531606
 30
0.0
 40
32.20291570218829
 50
136.5828253116333
 51
162.0398644208644
  0
POLYLINE
  5
F1
  8
1
  6
CONTINUOUS
 62
     7
 66
     1
 10
0.0
 20
0.0
 30
0.0
  0
VERTEX
  5
353
  8
1
  6
CONTINUOUS
 62
     7
 10
-611.2606240949456
 20
401.1194997039203
 30
0.0
  0
VERTEX
  5
354
  8
1
  6
CONTINUOUS
 62
     7
 10
-612.1473803450161
 20
398.4816780565484
 30
0.0
  0
VERTEX
  5
355
  8
1
  6
CONTINUOUS
 62
     7
 10
-612.9042497054089
 20
395.7985655732607
 30
0.0
  0
SEQEND
  5
8E6
  8
1
  6
CONTINUOUS
 62
     7
  0
POLYLINE
  5
F2
  8
1
  6
CONTINUOUS
 62
     7
 66
     1
 10
0.0
 20
0.0
 30
0.0
  0
VERTEX
  5
356
  8
1
  6
CONTINUOUS
 62
     7
 10
-603.2797418366994
 20
413.6229522634375
 30
0.0
  0
VERTEX
  5
357
  8
1
  6
CONTINUOUS
 62
     7
 10
-603.3288582138177
 20
413.6218225118408
 30
0.0
  0
VERTEX
  5
358
  8
1
  6
CONTINUOUS
 62
     7
 10
-603.3779204170023
 20
413.6184421571681
 30
0.0
  0
VERTEX
  5
359
  8
1
  6
CONTINUOUS
 62
     7
 10
-603.4267667742228
 20
413.6128245495953
 30
0.0
  0
VERTEX
  5
35A
  8
1
  6
CONTINUOUS
 62
     7
 10
-603.4752356134488
 20
413.6049830392985
 30
0.0
  0
VERTEX
  5
35B
  8
1
  6
CONTINUOUS
 62
     7
 10
-603.5250740057452
 20
413.5944920486052
 30
0.0
  0
VERTEX
  5
35C
  8
1
  6
CONTINUOUS
 62
     7
 10
-603.5743871774854
 20
413.5816216049681
 30
0.0
  0
VERTEX
  5
35D
  8
1
  6
CONTINUOUS
 62
     7
 10
-603.6229980113949
 20
413.5664176431621
 30
0.0
  0
VERTEX
  5
35E
  8
1
  6
CONTINUOUS
 62
     7
 10
-603.6707293901982
 20
413.5489260979622
 30
0.0
  0
VERTEX
  5
35F
  8
1
  6
CONTINUOUS
 62
     7
 10
-603.7106112606459
 20
413.5322439464391
 30
0.0
  0
VERTEX
  5
360
  8
1
  6
CONTINUOUS
 62
     7
 10
-603.7497764114411
 20
413.5139281777307
 30
0.0
  0
VERTEX
  5
361
  8
1
  6
CONTINUOUS
 62
     7
 10
-603.7881202834318
 20
413.4940255676594
 30
0.0
  0
VERTEX
  5
362
  8
1
  6
CONTINUOUS
 62
     7
 10
-603.8255383174662
 20
413.4725828920477
 30
0.0
  0
VERTEX
  5
363
  8
1
  6
CONTINUOUS
 62
     7
 10
-603.8630697417962
 20
413.4488979510889
 30
0.0
  0
VERTEX
  5
364
  8
1
  6
CONTINUOUS
 62
     7
 10
-603.8995421785855
 20
413.4236131264163
 30
0.0
  0
VERTEX
  5
365
  8
1
  6
CONTINUOUS
 62
     7
 10
-603.9348492398416
 20
413.3967986803267
 30
0.0
  0
VERTEX
  5
366
  8
1
  6
CONTINUOUS
 62
     7
 10
-603.9688845375717
 20
413.3685248751168
 30
0.0
  0
VERTEX
  5
367
  8
1
  6
CONTINUOUS
 62
     7
 10
-603.9938734444247
 20
413.3460767162581
 30
0.0
  0
VERTEX
  5
368
  8
1
  6
CONTINUOUS
 62
     7
 10
-604.0181043393104
 20
413.3227967605853
 30
0.0
  0
SEQEND
  5
8E7
  8
1
  6
CONTINUOUS
 62
     7
  0
LINE
  5
F3
  8
1
  6
CONTINUOUS
 62
     7
 10
-603.2797418366994
 20
413.6229522634375
 30
0.0
 11
-600.5329761867113
 21
413.6229522634375
 31
0.0
  0
POLYLINE
  5
F4
  8
1
  6
CONTINUOUS
 62
     7
 66
     1
 10
0.0
 20
0.0
 30
0.0
  0
VERTEX
  5
369
  8
1
  6
CONTINUOUS
 62
     7
 10
-599.8570578192459
 20
413.3855928926948
 30
0.0
  0
VERTEX
  5
36A
  8
1
  6
CONTINUOUS
 62
     7
 10
-599.8912533347288
 20
413.4122643881652
 30
0.0
  0
VERTEX
  5
36B
  8
1
  6
CONTINUOUS
 62
     7
 10
-599.9266097724148
 20
413.4375169449264
 30
0.0
  0
VERTEX
  5
36C
  8
1
  6
CONTINUOUS
 62
     7
 10
-599.9630266291425
 20
413.4612907894337
 30
0.0
  0
VERTEX
  5
36D
  8
1
  6
CONTINUOUS
 62
     7
 10
-600.0004034017508
 20
413.4835261481432
 30
0.0
  0
VERTEX
  5
36E
  8
1
  6
CONTINUOUS
 62
     7
 10
-600.0398613878651
 20
413.5047966802218
 30
0.0
  0
VERTEX
  5
36F
  8
1
  6
CONTINUOUS
 62
     7
 10
-600.0802580935227
 20
413.5244071592364
 30
0.0
  0
VERTEX
  5
370
  8
1
  6
CONTINUOUS
 62
     7
 10
-600.121478144906
 20
413.5423114438839
 30
0.0
  0
VERTEX
  5
371
  8
1
  6
CONTINUOUS
 62
     7
 10
-600.1634061681971
 20
413.5584633928612
 30
0.0
  0
VERTEX
  5
372
  8
1
  6
CONTINUOUS
 62
     7
 10
-600.2072679184969
 20
413.5732446680722
 30
0.0
  0
VERTEX
  5
373
  8
1
  6
CONTINUOUS
 62
     7
 10
-600.2517931136057
 20
413.5861492830144
 30
0.0
  0
VERTEX
  5
374
  8
1
  6
CONTINUOUS
 62
     7
 10
-600.2968524309878
 20
413.5971471177548
 30
0.0
  0
VERTEX
  5
375
  8
1
  6
CONTINUOUS
 62
     7
 10
-600.3423165481078
 20
413.6062080523604
 30
0.0
  0
VERTEX
  5
376
  8
1
  6
CONTINUOUS
 62
     7
 10
-600.3896210947311
 20
413.6135166985582
 30
0.0
  0
VERTEX
  5
377
  8
1
  6
CONTINUOUS
 62
     7
 10
-600.4372618912062
 20
413.6187511474251
 30
0.0
  0
VERTEX
  5
378
  8
1
  6
CONTINUOUS
 62
     7
 10
-600.485094925783
 20
413.621900101529
 30
0.0
  0
VERTEX
  5
379
  8
1
  6
CONTINUOUS
 62
     7
 10
-600.5329761867113
 20
413.6229522634375
 30
0.0
  0
SEQEND
  5
8E8
  8
1
  6
CONTINUOUS
 62
     7
  0
ARC
  5
F5
  8
1
  6
CONTINUOUS
 62
     7
 10
-595.1196882969774
 20
419.2
 30
0.0
 40
7.5
 50
230.8280922532389
 51
309.171907746761
  0
POLYLINE
  5
F6
  8
1
  6
CONTINUOUS
 62
     7
 66
     1
 10
0.0
 20
0.0
 30
0.0
  0
VERTEX
  5
37A
  8
1
  6
CONTINUOUS
 62
     7
 10
-589.7064004072437
 20
413.6229522634375
 30
0.0
  0
VERTEX
  5
37B
  8
1
  6
CONTINUOUS
 62
     7
 10
-589.7505240170466
 20
413.6220594032014
 30
0.0
  0
VERTEX
  5
37C
  8
1
  6
CONTINUOUS
 62
     7
 10
-589.7946099066558
 20
413.619386266767
 30
0.0
  0
VERTEX
  5
37D
  8
1
  6
CONTINUOUS
 62
     7
 10
-589.838545366406
 20
413.6149410205457
 30
0.0
  0
VERTEX
  5
37E
  8
1
  6
CONTINUOUS
 62
     7
 10
-589.8822176866327
 20
413.6087318309486
 30
0.0
  0
VERTEX
  5
37F
  8
1
  6
CONTINUOUS
 62
     7
 10
-589.9268327305178
 20
413.6005013353552
 30
0.0
  0
VERTEX
  5
380
  8
1
  6
CONTINUOUS
 62
     7
 10
-589.9710882010405
 20
413.5904121390255
 30
0.0
  0
VERTEX
  5
381
  8
1
  6
CONTINUOUS
 62
     7
 10
-590.0148627342063
 20
413.5784907482259
 30
0.0
  0
VERTEX
  5
382
  8
1
  6
CONTINUOUS
 62
     7
 10
-590.0580349660216
 20
413.5647636692228
 30
0.0
  0
VERTEX
  5
383
  8
1
  6
CONTINUOUS
 62
     7
 10
-590.1011564007019
 20
413.5490018360459
 30
0.0
  0
VERTEX
  5
384
  8
1
  6
CONTINUOUS
 62
     7
 10
-590.1435729273501
 20
413.5314011339719
 30
0.0
  0
VERTEX
  5
385
  8
1
  6
CONTINUOUS
 62
     7
 10
-590.1851611417757
 20
413.5120088514912
 30
0.0
  0
VERTEX
  5
386
  8
1
  6
CONTINUOUS
 62
     7
 10
-590.2257976397882
 20
413.4908722770945
 30
0.0
  0
VERTEX
  5
387
  8
1
  6
CONTINUOUS
 62
     7
 10
-590.2667198118
 20
413.4672196006749
 30
0.0
  0
VERTEX
  5
388
  8
1
  6
CONTINUOUS
 62
     7
 10
-590.3065335681005
 20
413.4417383484093
 30
0.0
  0
VERTEX
  5
389
  8
1
  6
CONTINUOUS
 62
     7
 10
-590.345109643975
 20
413.4145042143863
 30
0.0
  0
VERTEX
  5
38A
  8
1
  6
CONTINUOUS
 62
     7
 10
-590.382318774709
 20
413.3855928926947
 30
0.0
  0
SEQEND
  5
8E9
  8
1
  6
CONTINUOUS
 62
     7
  0
LINE
  5
F7
  8
1
  6
CONTINUOUS
 62
     7
 10
-589.7064004072437
 20
413.6229522634375
 30
0.0
 11
-586.9596347572556
 21
413.6229522634375
 31
0.0
  0
POLYLINE
  5
F8
  8
1
  6
CONTINUOUS
 62
     7
 66
     1
 10
0.0
 20
0.0
 30
0.0
  0
VERTEX
  5
38B
  8
1
  6
CONTINUOUS
 62
     7
 10
-586.2212722546448
 20
413.3227967605857
 30
0.0
  0
VERTEX
  5
38C
  8
1
  6
CONTINUOUS
 62
     7
 10
-586.2566642417422
 20
413.3562814514116
 30
0.0
  0
VERTEX
  5
38D
  8
1
  6
CONTINUOUS
 62
     7
 10
-586.2937246943961
 20
413.3880850371997
 30
0.0
  0
VERTEX
  5
38E
  8
1
  6
CONTINUOUS
 62
     7
 10
-586.3323155345304
 20
413.418104732901
 30
0.0
  0
VERTEX
  5
38F
  8
1
  6
CONTINUOUS
 62
     7
 10
-586.3722986840684
 20
413.4462377534663
 30
0.0
  0
VERTEX
  5
390
  8
1
  6
CONTINUOUS
 62
     7
 10
-586.4153017055712
 20
413.4734531672732
 30
0.0
  0
VERTEX
  5
391
  8
1
  6
CONTINUOUS
 62
     7
 10
-586.4596965489762
 20
413.4985721521411
 30
0.0
  0
VERTEX
  5
392
  8
1
  6
CONTINUOUS
 62
     7
 10
-586.5053128003054
 20
413.5215120900291
 30
0.0
  0
VERTEX
  5
393
  8
1
  6
CONTINUOUS
 62
     7
 10
-586.5519800455813
 20
413.5421903628963
 30
0.0
  0
VERTEX
  5
394
  8
1
  6
CONTINUOUS
 62
     7
 10
-586.5914647124823
 20
413.5576135554089
 30
0.0
  0
VERTEX
  5
395
  8
1
  6
CONTINUOUS
 62
     7
 10
-586.6315968011742
 20
413.5714568370875
 30
0.0
  0
VERTEX
  5
396
  8
1
  6
CONTINUOUS
 62
     7
 10
-586.6722741211523
 20
413.5836903669789
 30
0.0
  0
VERTEX
  5
397
  8
1
  6
CONTINUOUS
 62
     7
 10
-586.713394481912
 20
413.59428430413
 30
0.0
  0
VERTEX
  5
398
  8
1
  6
CONTINUOUS
 62
     7
 10
-586.7560902870347
 20
413.6034537332081
 30
0.0
  0
VERTEX
  5
399
  8
1
  6
CONTINUOUS
 62
     7
 10
-586.7991793168164
 20
413.6108779658336
 30
0.0
  0
VERTEX
  5
39A
  8
1
  6
CONTINUOUS
 62
     7
 10
-586.8425481068442
 20
413.6165415201239
 30
0.0
  0
VERTEX
  5
39B
  8
1
  6
CONTINUOUS
 62
     7
 10
-586.8860831927049
 20
413.6204289141961
 30
0.0
  0
VERTEX
  5
39C
  8
1
  6
CONTINUOUS
 62
     7
 10
-586.9228135713719
 20
413.6223204874884
 30
0.0
  0
VERTEX
  5
39D
  8
1
  6
CONTINUOUS
 62
     7
 10
-586.9596347572556
 20
413.6229522634375
 30
0.0
  0
SEQEND
  5
8EA
  8
1
  6
CONTINUOUS
 62
     7
  0
ARC
  5
F9
  8
1
  6
CONTINUOUS
 62
     7
 10
-614.3002583156903
 20
388.0694731638093
 30
0.0
 40
37.76453112246843
 50
11.80991187828618
 51
41.96717993113075
  0
POLYLINE
  5
FA
  8
1
  6
CONTINUOUS
 62
     7
 66
     1
 10
0.0
 20
0.0
 30
0.0
  0
VERTEX
  5
39E
  8
1
  6
CONTINUOUS
 62
     7
 10
-578.2916525687705
 20
394.5790446372358
 30
0.0
  0
VERTEX
  5
39F
  8
1
  6
CONTINUOUS
 62
     7
 10
-578.2443451159646
 20
394.5801685813805
 30
0.0
  0
VERTEX
  5
3A0
  8
1
  6
CONTINUOUS
 62
     7
 10
-578.1970117901394
 20
394.5835252330739
 30
0.0
  0
VERTEX
  5
3A1
  8
1
  6
CONTINUOUS
 62
     7
 10
-578.1498143787362
 20
394.5890918212055
 30
0.0
  0
VERTEX
  5
3A2
  8
1
  6
CONTINUOUS
 62
     7
 10
-578.1029146691973
 20
394.5968455746643
 30
0.0
  0
VERTEX
  5
3A3
  8
1
  6
CONTINUOUS
 62
     7
 10
-578.0564744489642
 20
394.6067637223396
 30
0.0
  0
VERTEX
  5
3A4
  8
1
  6
CONTINUOUS
 62
     7
 10
-578.0106555054791
 20
394.6188234931207
 30
0.0
  0
VERTEX
  5
3A5
  8
1
  6
CONTINUOUS
 62
     7
 10
-577.9656196261838
 20
394.6330021158966
 30
0.0
  0
VERTEX
  5
3A6
  8
1
  6
CONTINUOUS
 62
     7
 10
-577.9213397468814
 20
394.6493327568719
 30
0.0
  0
VERTEX
  5
3A7
  8
1
  6
CONTINUOUS
 62
     7
 10
-577.8778008515786
 20
394.6678036027906
 30
0.0
  0
VERTEX
  5
3A8
  8
1
  6
CONTINUOUS
 62
     7
 10
-577.8351479727297
 20
394.6883363090825
 30
0.0
  0
VERTEX
  5
3A9
  8
1
  6
CONTINUOUS
 62
     7
 10
-577.7935261427884
 20
394.7108525311776
 30
0.0
  0
VERTEX
  5
3AA
  8
1
  6
CONTINUOUS
 62
     7
 10
-577.7530803942094
 20
394.735273924506
 30
0.0
  0
VERTEX
  5
3AB
  8
1
  6
CONTINUOUS
 62
     7
 10
-577.7139557594464
 20
394.7615221444974
 30
0.0
  0
VERTEX
  5
3AC
  8
1
  6
CONTINUOUS
 62
     7
 10
-577.6762972709537
 20
394.7895188465819
 30
0.0
  0
VERTEX
  5
3AD
  8
1
  6
CONTINUOUS
 62
     7
 10
-577.6402626441627
 20
394.8191484872407
 30
0.0
  0
VERTEX
  5
3AE
  8
1
  6
CONTINUOUS
 62
     7
 10
-577.6056410238172
 20
394.8505347630735
 30
0.0
  0
VERTEX
  5
3AF
  8
1
  6
CONTINUOUS
 62
     7
 10
-577.5725369204657
 20
394.8835574477251
 30
0.0
  0
VERTEX
  5
3B0
  8
1
  6
CONTINUOUS
 62
     7
 10
-577.541054844657
 20
394.9180963148405
 30
0.0
  0
VERTEX
  5
3B1
  8
1
  6
CONTINUOUS
 62
     7
 10
-577.5112993069395
 20
394.9540311380647
 30
0.0
  0
VERTEX
  5
3B2
  8
1
  6
CONTINUOUS
 62
     7
 10
-577.4833748178617
 20
394.9912416910428
 30
0.0
  0
VERTEX
  5
3B3
  8
1
  6
CONTINUOUS
 62
     7
 10
-577.4573858879725
 20
395.0296077474197
 30
0.0
  0
VERTEX
  5
3B4
  8
1
  6
CONTINUOUS
 62
     7
 10
-577.4331986080098
 20
395.0693841999681
 30
0.0
  0
VERTEX
  5
3B5
  8
1
  6
CONTINUOUS
 62
     7
 10
-577.4109336172161
 20
395.1103617081922
 30
0.0
  0
VERTEX
  5
3B6
  8
1
  6
CONTINUOUS
 62
     7
 10
-577.3906463599562
 20
395.1523945906481
 30
0.0
  0
VERTEX
  5
3B7
  8
1
  6
CONTINUOUS
 62
     7
 10
-577.3723922805955
 20
395.1953371658915
 30
0.0
  0
VERTEX
  5
3B8
  8
1
  6
CONTINUOUS
 62
     7
 10
-577.3562268234986
 20
395.2390437524784
 30
0.0
  0
VERTEX
  5
3B9
  8
1
  6
CONTINUOUS
 62
     7
 10
-577.3422054330306
 20
395.2833686689646
 30
0.0
  0
VERTEX
  5
3BA
  8
1
  6
CONTINUOUS
 62
     7
 10
-577.3303835535564
 20
395.3281662339061
 30
0.0
  0
VERTEX
  5
3BB
  8
1
  6
CONTINUOUS
 62
     7
 10
-577.3206298384978
 20
395.37418936216
 30
0.0
  0
VERTEX
  5
3BC
  8
1
  6
CONTINUOUS
 62
     7
 10
-577.3131215000321
 20
395.4207431760698
 30
0.0
  0
VERTEX
  5
3BD
  8
1
  6
CONTINUOUS
 62
     7
 10
-577.3078627419515
 20
395.4676708782865
 30
0.0
  0
VERTEX
  5
3BE
  8
1
  6
CONTINUOUS
 62
     7
 10
-577.3048577680481
 20
395.5148156714615
 30
0.0
  0
VERTEX
  5
3BF
  8
1
  6
CONTINUOUS
 62
     7
 10
-577.3041107821143
 20
395.5620207582456
 30
0.0
  0
VERTEX
  5
3C0
  8
1
  6
CONTINUOUS
 62
     7
 10
-577.3056259879419
 20
395.6091293412902
 30
0.0
  0
VERTEX
  5
3C1
  8
1
  6
CONTINUOUS
 62
     7
 10
-577.3094075893232
 20
395.6559846232464
 30
0.0
  0
VERTEX
  5
3C2
  8
1
  6
CONTINUOUS
 62
     7
 10
-577.3156473072986
 20
395.7038845931429
 30
0.0
  0
VERTEX
  5
3C3
  8
1
  6
CONTINUOUS
 62
     7
 10
-577.3242316496376
 20
395.751465733289
 30
0.0
  0
VERTEX
  5
3C4
  8
1
  6
CONTINUOUS
 62
     7
 10
-577.335126888546
 20
395.7985655732607
 30
0.0
  0
SEQEND
  5
8EB
  8
1
  6
CONTINUOUS
 62
     7
  0
LINE
  5
FB
  8
1
  6
CONTINUOUS
 62
     7
 10
-611.9477240251845
 20
394.5790446372358
 30
0.0
 11
-578.2916525687705
 21
394.5790446372358
 31
0.0
  0
POLYLINE
  5
FC
  8
1
  6
CONTINUOUS
 62
     7
 66
     1
 10
0.0
 20
0.0
 30
0.0
  0
VERTEX
  5
3C5
  8
1
  6
CONTINUOUS
 62
     7
 10
-591.1248921170202
 20
410.4874368670765
 30
0.0
  0
VERTEX
  5
3C6
  8
1
  6
CONTINUOUS
 62
     7
 10
-591.1071182038505
 20
410.5043590391607
 30
0.0
  0
VERTEX
  5
3C7
  8
1
  6
CONTINUOUS
 62
     7
 10
-591.0885353685088
 20
410.5203887031646
 30
0.0
  0
VERTEX
  5
3C8
  8
1
  6
CONTINUOUS
 62
     7
 10
-591.0691883786733
 20
410.5354872422236
 30
0.0
  0
VERTEX
  5
3C9
  8
1
  6
CONTINUOUS
 62
     7
 10
-591.0491238429369
 20
410.5496182826345
 30
0.0
  0
VERTEX
  5
3CA
  8
1
  6
CONTINUOUS
 62
     7
 10
-591.0283900985236
 20
410.5627477814833
 30
0.0
  0
VERTEX
  5
3CB
  8
1
  6
CONTINUOUS
 62
     7
 10
-591.00703709484
 20
410.5748441086574
 30
0.0
  0
VERTEX
  5
3CC
  8
1
  6
CONTINUOUS
 62
     7
 10
-590.9851162731422
 20
410.5858781230449
 30
0.0
  0
VERTEX
  5
3CD
  8
1
  6
CONTINUOUS
 62
     7
 10
-590.9626804426096
 20
410.5958232427388
 30
0.0
  0
VERTEX
  5
3CE
  8
1
  6
CONTINUOUS
 62
     7
 10
-590.9397836531232
 20
410.6046555090747
 30
0.0
  0
VERTEX
  5
3CF
  8
1
  6
CONTINUOUS
 62
     7
 10
-590.9164810650542
 20
410.6123536443494
 30
0.0
  0
VERTEX
  5
3D0
  8
1
  6
CONTINUOUS
 62
     7
 10
-590.8928288163786
 20
410.6188991030805
 30
0.0
  0
VERTEX
  5
3D1
  8
1
  6
CONTINUOUS
 62
     7
 10
-590.8688838874351
 20
410.6242761166848
 30
0.0
  0
VERTEX
  5
3D2
  8
1
  6
CONTINUOUS
 62
     7
 10
-590.8447039636548
 20
410.6284717314656
 30
0.0
  0
VERTEX
  5
3D3
  8
1
  6
CONTINUOUS
 62
     7
 10
-590.8203472965918
 20
410.6314758398193
 30
0.0
  0
VERTEX
  5
3D4
  8
1
  6
CONTINUOUS
 62
     7
 10
-590.7958725635907
 20
410.6332812045858
 30
0.0
  0
VERTEX
  5
3D5
  8
1
  6
CONTINUOUS
 62
     7
 10
-590.7713387264271
 20
410.6338834764832
 30
0.0
  0
VERTEX
  5
3D6
  8
1
  6
CONTINUOUS
 62
     7
 10
-590.7468048892633
 20
410.6332812045858
 30
0.0
  0
VERTEX
  5
3D7
  8
1
  6
CONTINUOUS
 62
     7
 10
-590.7223301562622
 20
410.6314758398193
 30
0.0
  0
VERTEX
  5
3D8
  8
1
  6
CONTINUOUS
 62
     7
 10
-590.6979734891993
 20
410.6284717314656
 30
0.0
  0
VERTEX
  5
3D9
  8
1
  6
CONTINUOUS
 62
     7
 10
-590.6737935654189
 20
410.6242761166848
 30
0.0
  0
VERTEX
  5
3DA
  8
1
  6
CONTINUOUS
 62
     7
 10
-590.6498486364754
 20
410.6188991030805
 30
0.0
  0
VERTEX
  5
3DB
  8
1
  6
CONTINUOUS
 62
     7
 10
-590.6261963877997
 20
410.6123536443494
 30
0.0
  0
VERTEX
  5
3DC
  8
1
  6
CONTINUOUS
 62
     7
 10
-590.6028937997309
 20
410.6046555090747
 30
0.0
  0
VERTEX
  5
3DD
  8
1
  6
CONTINUOUS
 62
     7
 10
-590.5799970102445
 20
410.5958232427388
 30
0.0
  0
VERTEX
  5
3DE
  8
1
  6
CONTINUOUS
 62
     7
 10
-590.5575611797119
 20
410.5858781230449
 30
0.0
  0
VERTEX
  5
3DF
  8
1
  6
CONTINUOUS
 62
     7
 10
-590.535640358014
 20
410.5748441086574
 30
0.0
  0
VERTEX
  5
3E0
  8
1
  6
CONTINUOUS
 62
     7
 10
-590.5142873543305
 20
410.5627477814833
 30
0.0
  0
VERTEX
  5
3E1
  8
1
  6
CONTINUOUS
 62
     7
 10
-590.4935536099172
 20
410.5496182826345
 30
0.0
  0
VERTEX
  5
3E2
  8
1
  6
CONTINUOUS
 62
     7
 10
-590.4734890741809
 20
410.5354872422236
 30
0.0
  0
VERTEX
  5
3E3
  8
1
  6
CONTINUOUS
 62
     7
 10
-590.4541420843452
 20
410.5203887031645
 30
0.0
  0
VERTEX
  5
3E4
  8
1
  6
CONTINUOUS
 62
     7
 10
-590.4355592490035
 20
410.5043590391606
 30
0.0
  0
VERTEX
  5
3E5
  8
1
  6
CONTINUOUS
 62
     7
 10
-590.4177853358337
 20
410.4874368670764
 30
0.0
  0
SEQEND
  5
8EC
  8
1
  6
CONTINUOUS
 62
     7
  0
LINE
  5
FD
  8
1
  6
CONTINUOUS
 62
     7
 10
-593.1401464434019
 20
408.4721825406948
 30
0.0
 11
-591.1248921170203
 21
410.4874368670765
 31
0.0
  0
POLYLINE
  5
FE
  8
1
  6
CONTINUOUS
 62
     7
 66
     1
 10
0.0
 20
0.0
 30
0.0
  0
VERTEX
  5
3E6
  8
1
  6
CONTINUOUS
 62
     7
 10
-593.1401464434019
 20
407.7650757595082
 30
0.0
  0
VERTEX
  5
3E7
  8
1
  6
CONTINUOUS
 62
     7
 10
-593.1570686154861
 20
407.782849672678
 30
0.0
  0
VERTEX
  5
3E8
  8
1
  6
CONTINUOUS
 62
     7
 10
-593.1730982794901
 20
407.8014325080197
 30
0.0
  0
VERTEX
  5
3E9
  8
1
  6
CONTINUOUS
 62
     7
 10
-593.1881968185489
 20
407.8207794978553
 30
0.0
  0
VERTEX
  5
3EA
  8
1
  6
CONTINUOUS
 62
     7
 10
-593.20232785896
 20
407.8408440335917
 30
0.0
  0
VERTEX
  5
3EB
  8
1
  6
CONTINUOUS
 62
     7
 10
-593.2154573578088
 20
407.8615777780049
 30
0.0
  0
VERTEX
  5
3EC
  8
1
  6
CONTINUOUS
 62
     7
 10
-593.2275536849828
 20
407.8829307816885
 30
0.0
  0
VERTEX
  5
3ED
  8
1
  6
CONTINUOUS
 62
     7
 10
-593.2385876993704
 20
407.9048516033864
 30
0.0
  0
VERTEX
  5
3EE
  8
1
  6
CONTINUOUS
 62
     7
 10
-593.2485328190643
 20
407.927287433919
 30
0.0
  0
VERTEX
  5
3EF
  8
1
  6
CONTINUOUS
 62
     7
 10
-593.2573650854001
 20
407.9501842234055
 30
0.0
  0
VERTEX
  5
3F0
  8
1
  6
CONTINUOUS
 62
     7
 10
-593.2650632206747
 20
407.9734868114743
 30
0.0
  0
VERTEX
  5
3F1
  8
1
  6
CONTINUOUS
 62
     7
 10
-593.271608679406
 20
407.9971390601499
 30
0.0
  0
VERTEX
  5
3F2
  8
1
  6
CONTINUOUS
 62
     7
 10
-593.2769856930104
 20
408.0210839890935
 30
0.0
  0
VERTEX
  5
3F3
  8
1
  6
CONTINUOUS
 62
     7
 10
-593.281181307791
 20
408.0452639128738
 30
0.0
  0
VERTEX
  5
3F4
  8
1
  6
CONTINUOUS
 62
     7
 10
-593.2841854161447
 20
408.0696205799368
 30
0.0
  0
VERTEX
  5
3F5
  8
1
  6
CONTINUOUS
 62
     7
 10
-593.2859907809112
 20
408.0940953129378
 30
0.0
  0
VERTEX
  5
3F6
  8
1
  6
CONTINUOUS
 62
     7
 10
-593.2865930528087
 20
408.1186291501015
 30
0.0
  0
VERTEX
  5
3F7
  8
1
  6
CONTINUOUS
 62
     7
 10
-593.2859907809112
 20
408.1431629872653
 30
0.0
  0
VERTEX
  5
3F8
  8
1
  6
CONTINUOUS
 62
     7
 10
-593.2841854161447
 20
408.1676377202663
 30
0.0
  0
VERTEX
  5
3F9
  8
1
  6
CONTINUOUS
 62
     7
 10
-593.281181307791
 20
408.1919943873292
 30
0.0
  0
VERTEX
  5
3FA
  8
1
  6
CONTINUOUS
 62
     7
 10
-593.2769856930104
 20
408.2161743111096
 30
0.0
  0
VERTEX
  5
3FB
  8
1
  6
CONTINUOUS
 62
     7
 10
-593.271608679406
 20
408.2401192400532
 30
0.0
  0
VERTEX
  5
3FC
  8
1
  6
CONTINUOUS
 62
     7
 10
-593.2650632206747
 20
408.2637714887288
 30
0.0
  0
VERTEX
  5
3FD
  8
1
  6
CONTINUOUS
 62
     7
 10
-593.2573650854001
 20
408.2870740767976
 30
0.0
  0
VERTEX
  5
3FE
  8
1
  6
CONTINUOUS
 62
     7
 10
-593.2485328190643
 20
408.3099708662841
 30
0.0
  0
VERTEX
  5
3FF
  8
1
  6
CONTINUOUS
 62
     7
 10
-593.2385876993704
 20
408.3324066968167
 30
0.0
  0
VERTEX
  5
400
  8
1
  6
CONTINUOUS
 62
     7
 10
-593.2275536849828
 20
408.3543275185145
 30
0.0
  0
VERTEX
  5
401
  8
1
  6
CONTINUOUS
 62
     7
 10
-593.2154573578088
 20
408.3756805221981
 30
0.0
  0
VERTEX
  5
402
  8
1
  6
CONTINUOUS
 62
     7
 10
-593.20232785896
 20
408.3964142666113
 30
0.0
  0
VERTEX
  5
403
  8
1
  6
CONTINUOUS
 62
     7
 10
-593.1881968185489
 20
408.4164788023477
 30
0.0
  0
VERTEX
  5
404
  8
1
  6
CONTINUOUS
 62
     7
 10
-593.1730982794901
 20
408.4358257921833
 30
0.0
  0
VERTEX
  5
405
  8
1
  6
CONTINUOUS
 62
     7
 10
-593.1570686154861
 20
408.4544086275251
 30
0.0
  0
VERTEX
  5
406
  8
1
  6
CONTINUOUS
 62
     7
 10
-593.1401464434019
 20
408.4721825406948
 30
0.0
  0
SEQEND
  5
8ED
  8
1
  6
CONTINUOUS
 62
     7
  0
LINE
  5
FF
  8
1
  6
CONTINUOUS
 62
     7
 10
-589.6046125374692
 20
404.2295418535755
 30
0.0
 11
-593.1401464434019
 21
407.7650757595082
 31
0.0
  0
POLYLINE
  5
100
  8
1
  6
CONTINUOUS
 62
     7
 66
     1
 10
0.0
 20
0.0
 30
0.0
  0
VERTEX
  5
407
  8
1
  6
CONTINUOUS
 62
     7
 10
-588.8975057562826
 20
404.2295418535755
 30
0.0
  0
VERTEX
  5
408
  8
1
  6
CONTINUOUS
 62
     7
 10
-588.9152796694524
 20
404.2126196814913
 30
0.0
  0
VERTEX
  5
409
  8
1
  6
CONTINUOUS
 62
     7
 10
-588.9338625047941
 20
404.1965900174874
 30
0.0
  0
VERTEX
  5
40A
  8
1
  6
CONTINUOUS
 62
     7
 10
-588.9532094946297
 20
404.1814914784285
 30
0.0
  0
VERTEX
  5
40B
  8
1
  6
CONTINUOUS
 62
     7
 10
-588.9732740303662
 20
404.1673604380175
 30
0.0
  0
VERTEX
  5
40C
  8
1
  6
CONTINUOUS
 62
     7
 10
-588.9940077747792
 20
404.1542309391687
 30
0.0
  0
VERTEX
  5
40D
  8
1
  6
CONTINUOUS
 62
     7
 10
-589.015360778463
 20
404.1421346119946
 30
0.0
  0
VERTEX
  5
40E
  8
1
  6
CONTINUOUS
 62
     7
 10
-589.0372816001608
 20
404.1311005976071
 30
0.0
  0
VERTEX
  5
40F
  8
1
  6
CONTINUOUS
 62
     7
 10
-589.0597174306934
 20
404.1211554779131
 30
0.0
  0
VERTEX
  5
410
  8
1
  6
CONTINUOUS
 62
     7
 10
-589.0826142201798
 20
404.1123232115773
 30
0.0
  0
VERTEX
  5
411
  8
1
  6
CONTINUOUS
 62
     7
 10
-589.1059168082487
 20
404.1046250763027
 30
0.0
  0
VERTEX
  5
412
  8
1
  6
CONTINUOUS
 62
     7
 10
-589.1295690569242
 20
404.0980796175716
 30
0.0
  0
VERTEX
  5
413
  8
1
  6
CONTINUOUS
 62
     7
 10
-589.1535139858679
 20
404.0927026039672
 30
0.0
  0
VERTEX
  5
414
  8
1
  6
CONTINUOUS
 62
     7
 10
-589.1776939096483
 20
404.0885069891864
 30
0.0
  0
VERTEX
  5
415
  8
1
  6
CONTINUOUS
 62
     7
 10
-589.2020505767111
 20
404.0855028808327
 30
0.0
  0
VERTEX
  5
416
  8
1
  6
CONTINUOUS
 62
     7
 10
-589.2265253097122
 20
404.0836975160662
 30
0.0
  0
VERTEX
  5
417
  8
1
  6
CONTINUOUS
 62
     7
 10
-589.251059146876
 20
404.0830952441688
 30
0.0
  0
VERTEX
  5
418
  8
1
  6
CONTINUOUS
 62
     7
 10
-589.2755929840396
 20
404.0836975160662
 30
0.0
  0
VERTEX
  5
419
  8
1
  6
CONTINUOUS
 62
     7
 10
-589.3000677170406
 20
404.0855028808327
 30
0.0
  0
VERTEX
  5
41A
  8
1
  6
CONTINUOUS
 62
     7
 10
-589.3244243841036
 20
404.0885069891864
 30
0.0
  0
VERTEX
  5
41B
  8
1
  6
CONTINUOUS
 62
     7
 10
-589.348604307884
 20
404.0927026039672
 30
0.0
  0
VERTEX
  5
41C
  8
1
  6
CONTINUOUS
 62
     7
 10
-589.3725492368276
 20
404.0980796175716
 30
0.0
  0
VERTEX
  5
41D
  8
1
  6
CONTINUOUS
 62
     7
 10
-589.3962014855032
 20
404.1046250763027
 30
0.0
  0
VERTEX
  5
41E
  8
1
  6
CONTINUOUS
 62
     7
 10
-589.419504073572
 20
404.1123232115773
 30
0.0
  0
VERTEX
  5
41F
  8
1
  6
CONTINUOUS
 62
     7
 10
-589.4424008630584
 20
404.1211554779131
 30
0.0
  0
VERTEX
  5
420
  8
1
  6
CONTINUOUS
 62
     7
 10
-589.4648366935911
 20
404.1311005976071
 30
0.0
  0
VERTEX
  5
421
  8
1
  6
CONTINUOUS
 62
     7
 10
-589.4867575152889
 20
404.1421346119946
 30
0.0
  0
VERTEX
  5
422
  8
1
  6
CONTINUOUS
 62
     7
 10
-589.5081105189726
 20
404.1542309391686
 30
0.0
  0
VERTEX
  5
423
  8
1
  6
CONTINUOUS
 62
     7
 10
-589.5288442633857
 20
404.1673604380175
 30
0.0
  0
VERTEX
  5
424
  8
1
  6
CONTINUOUS
 62
     7
 10
-589.5489087991222
 20
404.1814914784285
 30
0.0
  0
VERTEX
  5
425
  8
1
  6
CONTINUOUS
 62
     7
 10
-589.5682557889578
 20
404.1965900174874
 30
0.0
  0
VERTEX
  5
426
  8
1
  6
CONTINUOUS
 62
     7
 10
-589.5868386242995
 20
404.2126196814913
 30
0.0
  0
VERTEX
  5
427
  8
1
  6
CONTINUOUS
 62
     7
 10
-589.6046125374692
 20
404.2295418535755
 30
0.0
  0
SEQEND
  5
8EE
  8
1
  6
CONTINUOUS
 62
     7
  0
LINE
  5
101
  8
1
  6
CONTINUOUS
 62
     7
 10
-586.882251429901
 20
406.2447961799572
 30
0.0
 11
-588.8975057562826
 21
404.2295418535755
 31
0.0
  0
POLYLINE
  5
102
  8
1
  6
CONTINUOUS
 62
     7
 66
     1
 10
0.0
 20
0.0
 30
0.0
  0
VERTEX
  5
428
  8
1
  6
CONTINUOUS
 62
     7
 10
-586.882251429901
 20
406.9519029611437
 30
0.0
  0
VERTEX
  5
429
  8
1
  6
CONTINUOUS
 62
     7
 10
-586.8653292578167
 20
406.934129047974
 30
0.0
  0
VERTEX
  5
42A
  8
1
  6
CONTINUOUS
 62
     7
 10
-586.8492995938129
 20
406.9155462126323
 30
0.0
  0
VERTEX
  5
42B
  8
1
  6
CONTINUOUS
 62
     7
 10
-586.8342010547539
 20
406.8961992227967
 30
0.0
  0
VERTEX
  5
42C
  8
1
  6
CONTINUOUS
 62
     7
 10
-586.820070014343
 20
406.8761346870602
 30
0.0
  0
VERTEX
  5
42D
  8
1
  6
CONTINUOUS
 62
     7
 10
-586.806940515494
 20
406.8554009426471
 30
0.0
  0
VERTEX
  5
42E
  8
1
  6
CONTINUOUS
 62
     7
 10
-586.7948441883201
 20
406.8340479389634
 30
0.0
  0
VERTEX
  5
42F
  8
1
  6
CONTINUOUS
 62
     7
 10
-586.7838101739326
 20
406.8121271172656
 30
0.0
  0
VERTEX
  5
430
  8
1
  6
CONTINUOUS
 62
     7
 10
-586.7738650542386
 20
406.789691286733
 30
0.0
  0
VERTEX
  5
431
  8
1
  6
CONTINUOUS
 62
     7
 10
-586.7650327879028
 20
406.7667944972466
 30
0.0
  0
VERTEX
  5
432
  8
1
  6
CONTINUOUS
 62
     7
 10
-586.7573346526282
 20
406.7434919091777
 30
0.0
  0
VERTEX
  5
433
  8
1
  6
CONTINUOUS
 62
     7
 10
-586.750789193897
 20
406.7198396605021
 30
0.0
  0
VERTEX
  5
434
  8
1
  6
CONTINUOUS
 62
     7
 10
-586.7454121802926
 20
406.6958947315586
 30
0.0
  0
VERTEX
  5
435
  8
1
  6
CONTINUOUS
 62
     7
 10
-586.7412165655119
 20
406.6717148077781
 30
0.0
  0
VERTEX
  5
436
  8
1
  6
CONTINUOUS
 62
     7
 10
-586.7382124571582
 20
406.6473581407152
 30
0.0
  0
VERTEX
  5
437
  8
1
  6
CONTINUOUS
 62
     7
 10
-586.7364070923917
 20
406.6228834077142
 30
0.0
  0
VERTEX
  5
438
  8
1
  6
CONTINUOUS
 62
     7
 10
-586.7358048204942
 20
406.5983495705505
 30
0.0
  0
VERTEX
  5
439
  8
1
  6
CONTINUOUS
 62
     7
 10
-586.7364070923917
 20
406.5738157333867
 30
0.0
  0
VERTEX
  5
43A
  8
1
  6
CONTINUOUS
 62
     7
 10
-586.7382124571582
 20
406.5493410003857
 30
0.0
  0
VERTEX
  5
43B
  8
1
  6
CONTINUOUS
 62
     7
 10
-586.7412165655119
 20
406.5249843333228
 30
0.0
  0
VERTEX
  5
43C
  8
1
  6
CONTINUOUS
 62
     7
 10
-586.7454121802926
 20
406.5008044095424
 30
0.0
  0
VERTEX
  5
43D
  8
1
  6
CONTINUOUS
 62
     7
 10
-586.750789193897
 20
406.4768594805989
 30
0.0
  0
VERTEX
  5
43E
  8
1
  6
CONTINUOUS
 62
     7
 10
-586.7573346526282
 20
406.4532072319232
 30
0.0
  0
VERTEX
  5
43F
  8
1
  6
CONTINUOUS
 62
     7
 10
-586.7650327879028
 20
406.4299046438543
 30
0.0
  0
VERTEX
  5
440
  8
1
  6
CONTINUOUS
 62
     7
 10
-586.7738650542386
 20
406.4070078543679
 30
0.0
  0
VERTEX
  5
441
  8
1
  6
CONTINUOUS
 62
     7
 10
-586.7838101739326
 20
406.3845720238353
 30
0.0
  0
VERTEX
  5
442
  8
1
  6
CONTINUOUS
 62
     7
 10
-586.7948441883201
 20
406.3626512021375
 30
0.0
  0
VERTEX
  5
443
  8
1
  6
CONTINUOUS
 62
     7
 10
-586.806940515494
 20
406.3412981984539
 30
0.0
  0
VERTEX
  5
444
  8
1
  6
CONTINUOUS
 62
     7
 10
-586.820070014343
 20
406.3205644540407
 30
0.0
  0
VERTEX
  5
445
  8
1
  6
CONTINUOUS
 62
     7
 10
-586.8342010547539
 20
406.3004999183042
 30
0.0
  0
VERTEX
  5
446
  8
1
  6
CONTINUOUS
 62
     7
 10
-586.8492995938129
 20
406.2811529284687
 30
0.0
  0
VERTEX
  5
447
  8
1
  6
CONTINUOUS
 62
     7
 10
-586.8653292578167
 20
406.262570093127
 30
0.0
  0
VERTEX
  5
448
  8
1
  6
CONTINUOUS
 62
     7
 10
-586.882251429901
 20
406.2447961799572
 30
0.0
  0
SEQEND
  5
8EF
  8
1
  6
CONTINUOUS
 62
     7
  0
LINE
  5
103
  8
1
  6
CONTINUOUS
 62
     7
 10
-587.0590281251976
 20
407.1286796564404
 30
0.0
 11
-586.8822514299009
 21
406.9519029611437
 31
0.0
  0
LINE
  5
104
  8
1
  6
CONTINUOUS
 62
     7
 10
-590.4177853358337
 20
410.4874368670764
 30
0.0
 11
-590.2410086405371
 21
410.3106601717798
 31
0.0
  0
POLYLINE
  5
105
  8
1
  6
CONTINUOUS
 62
     7
 66
     1
 10
0.0
 20
0.0
 30
0.0
  0
VERTEX
  5
449
  8
1
  6
CONTINUOUS
 62
     7
 10
-603.357125164054
 20
406.2447961799572
 30
0.0
  0
VERTEX
  5
44A
  8
1
  6
CONTINUOUS
 62
     7
 10
-603.3740473361382
 20
406.262570093127
 30
0.0
  0
VERTEX
  5
44B
  8
1
  6
CONTINUOUS
 62
     7
 10
-603.390077000142
 20
406.2811529284686
 30
0.0
  0
VERTEX
  5
44C
  8
1
  6
CONTINUOUS
 62
     7
 10
-603.405175539201
 20
406.3004999183042
 30
0.0
  0
VERTEX
  5
44D
  8
1
  6
CONTINUOUS
 62
     7
 10
-603.419306579612
 20
406.3205644540406
 30
0.0
  0
VERTEX
  5
44E
  8
1
  6
CONTINUOUS
 62
     7
 10
-603.4324360784608
 20
406.3412981984538
 30
0.0
  0
VERTEX
  5
44F
  8
1
  6
CONTINUOUS
 62
     7
 10
-603.4445324056348
 20
406.3626512021374
 30
0.0
  0
VERTEX
  5
450
  8
1
  6
CONTINUOUS
 62
     7
 10
-603.4555664200224
 20
406.3845720238353
 30
0.0
  0
VERTEX
  5
451
  8
1
  6
CONTINUOUS
 62
     7
 10
-603.4655115397163
 20
406.4070078543679
 30
0.0
  0
VERTEX
  5
452
  8
1
  6
CONTINUOUS
 62
     7
 10
-603.4743438060522
 20
406.4299046438543
 30
0.0
  0
VERTEX
  5
453
  8
1
  6
CONTINUOUS
 62
     7
 10
-603.4820419413268
 20
406.4532072319232
 30
0.0
  0
VERTEX
  5
454
  8
1
  6
CONTINUOUS
 62
     7
 10
-603.4885874000579
 20
406.4768594805988
 30
0.0
  0
VERTEX
  5
455
  8
1
  6
CONTINUOUS
 62
     7
 10
-603.4939644136623
 20
406.5008044095424
 30
0.0
  0
VERTEX
  5
456
  8
1
  6
CONTINUOUS
 62
     7
 10
-603.4981600284431
 20
406.5249843333228
 30
0.0
  0
VERTEX
  5
457
  8
1
  6
CONTINUOUS
 62
     7
 10
-603.5011641367968
 20
406.5493410003857
 30
0.0
  0
VERTEX
  5
458
  8
1
  6
CONTINUOUS
 62
     7
 10
-603.5029695015633
 20
406.5738157333867
 30
0.0
  0
VERTEX
  5
459
  8
1
  6
CONTINUOUS
 62
     7
 10
-603.5035717734606
 20
406.5983495705505
 30
0.0
  0
VERTEX
  5
45A
  8
1
  6
CONTINUOUS
 62
     7
 10
-603.5029695015633
 20
406.6228834077142
 30
0.0
  0
VERTEX
  5
45B
  8
1
  6
CONTINUOUS
 62
     7
 10
-603.5011641367968
 20
406.6473581407152
 30
0.0
  0
VERTEX
  5
45C
  8
1
  6
CONTINUOUS
 62
     7
 10
-603.4981600284431
 20
406.6717148077781
 30
0.0
  0
VERTEX
  5
45D
  8
1
  6
CONTINUOUS
 62
     7
 10
-603.4939644136623
 20
406.6958947315586
 30
0.0
  0
VERTEX
  5
45E
  8
1
  6
CONTINUOUS
 62
     7
 10
-603.4885874000579
 20
406.7198396605021
 30
0.0
  0
VERTEX
  5
45F
  8
1
  6
CONTINUOUS
 62
     7
 10
-603.4820419413268
 20
406.7434919091777
 30
0.0
  0
VERTEX
  5
460
  8
1
  6
CONTINUOUS
 62
     7
 10
-603.4743438060522
 20
406.7667944972466
 30
0.0
  0
VERTEX
  5
461
  8
1
  6
CONTINUOUS
 62
     7
 10
-603.4655115397163
 20
406.789691286733
 30
0.0
  0
VERTEX
  5
462
  8
1
  6
CONTINUOUS
 62
     7
 10
-603.4555664200224
 20
406.8121271172656
 30
0.0
  0
VERTEX
  5
463
  8
1
  6
CONTINUOUS
 62
     7
 10
-603.4445324056348
 20
406.8340479389634
 30
0.0
  0
VERTEX
  5
464
  8
1
  6
CONTINUOUS
 62
     7
 10
-603.4324360784608
 20
406.8554009426471
 30
0.0
  0
VERTEX
  5
465
  8
1
  6
CONTINUOUS
 62
     7
 10
-603.419306579612
 20
406.8761346870602
 30
0.0
  0
VERTEX
  5
466
  8
1
  6
CONTINUOUS
 62
     7
 10
-603.405175539201
 20
406.8961992227967
 30
0.0
  0
VERTEX
  5
467
  8
1
  6
CONTINUOUS
 62
     7
 10
-603.390077000142
 20
406.9155462126323
 30
0.0
  0
VERTEX
  5
468
  8
1
  6
CONTINUOUS
 62
     7
 10
-603.3740473361382
 20
406.934129047974
 30
0.0
  0
VERTEX
  5
469
  8
1
  6
CONTINUOUS
 62
     7
 10
-603.357125164054
 20
406.9519029611437
 30
0.0
  0
SEQEND
  5
8F0
  8
1
  6
CONTINUOUS
 62
     7
  0
LINE
  5
106
  8
1
  6
CONTINUOUS
 62
     7
 10
-601.3418708376723
 20
404.2295418535755
 30
0.0
 11
-603.3571251640541
 21
406.2447961799572
 31
0.0
  0
POLYLINE
  5
107
  8
1
  6
CONTINUOUS
 62
     7
 66
     1
 10
0.0
 20
0.0
 30
0.0
  0
VERTEX
  5
46A
  8
1
  6
CONTINUOUS
 62
     7
 10
-600.6347640564858
 20
404.2295418535755
 30
0.0
  0
VERTEX
  5
46B
  8
1
  6
CONTINUOUS
 62
     7
 10
-600.6525379696554
 20
404.2126196814913
 30
0.0
  0
VERTEX
  5
46C
  8
1
  6
CONTINUOUS
 62
     7
 10
-600.6711208049971
 20
404.1965900174874
 30
0.0
  0
VERTEX
  5
46D
  8
1
  6
CONTINUOUS
 62
     7
 10
-600.6904677948328
 20
404.1814914784285
 30
0.0
  0
VERTEX
  5
46E
  8
1
  6
CONTINUOUS
 62
     7
 10
-600.7105323305692
 20
404.1673604380175
 30
0.0
  0
VERTEX
  5
46F
  8
1
  6
CONTINUOUS
 62
     7
 10
-600.7312660749824
 20
404.1542309391687
 30
0.0
  0
VERTEX
  5
470
  8
1
  6
CONTINUOUS
 62
     7
 10
-600.752619078666
 20
404.1421346119946
 30
0.0
  0
VERTEX
  5
471
  8
1
  6
CONTINUOUS
 62
     7
 10
-600.7745399003638
 20
404.1311005976071
 30
0.0
  0
VERTEX
  5
472
  8
1
  6
CONTINUOUS
 62
     7
 10
-600.7969757308964
 20
404.1211554779131
 30
0.0
  0
VERTEX
  5
473
  8
1
  6
CONTINUOUS
 62
     7
 10
-600.8198725203829
 20
404.1123232115773
 30
0.0
  0
VERTEX
  5
474
  8
1
  6
CONTINUOUS
 62
     7
 10
-600.8431751084518
 20
404.1046250763027
 30
0.0
  0
VERTEX
  5
475
  8
1
  6
CONTINUOUS
 62
     7
 10
-600.8668273571274
 20
404.0980796175716
 30
0.0
  0
VERTEX
  5
476
  8
1
  6
CONTINUOUS
 62
     7
 10
-600.8907722860708
 20
404.0927026039672
 30
0.0
  0
VERTEX
  5
477
  8
1
  6
CONTINUOUS
 62
     7
 10
-600.9149522098513
 20
404.0885069891864
 30
0.0
  0
VERTEX
  5
478
  8
1
  6
CONTINUOUS
 62
     7
 10
-600.9393088769143
 20
404.0855028808327
 30
0.0
  0
VERTEX
  5
479
  8
1
  6
CONTINUOUS
 62
     7
 10
-600.9637836099153
 20
404.0836975160662
 30
0.0
  0
VERTEX
  5
47A
  8
1
  6
CONTINUOUS
 62
     7
 10
-600.988317447079
 20
404.0830952441688
 30
0.0
  0
VERTEX
  5
47B
  8
1
  6
CONTINUOUS
 62
     7
 10
-601.0128512842427
 20
404.0836975160662
 30
0.0
  0
VERTEX
  5
47C
  8
1
  6
CONTINUOUS
 62
     7
 10
-601.0373260172438
 20
404.0855028808327
 30
0.0
  0
VERTEX
  5
47D
  8
1
  6
CONTINUOUS
 62
     7
 10
-601.0616826843067
 20
404.0885069891864
 30
0.0
  0
VERTEX
  5
47E
  8
1
  6
CONTINUOUS
 62
     7
 10
-601.085862608087
 20
404.0927026039672
 30
0.0
  0
VERTEX
  5
47F
  8
1
  6
CONTINUOUS
 62
     7
 10
-601.1098075370305
 20
404.0980796175716
 30
0.0
  0
VERTEX
  5
480
  8
1
  6
CONTINUOUS
 62
     7
 10
-601.1334597857062
 20
404.1046250763027
 30
0.0
  0
VERTEX
  5
481
  8
1
  6
CONTINUOUS
 62
     7
 10
-601.1567623737751
 20
404.1123232115773
 30
0.0
  0
VERTEX
  5
482
  8
1
  6
CONTINUOUS
 62
     7
 10
-601.1796591632616
 20
404.1211554779131
 30
0.0
  0
VERTEX
  5
483
  8
1
  6
CONTINUOUS
 62
     7
 10
-601.2020949937942
 20
404.1311005976071
 30
0.0
  0
VERTEX
  5
484
  8
1
  6
CONTINUOUS
 62
     7
 10
-601.224015815492
 20
404.1421346119946
 30
0.0
  0
VERTEX
  5
485
  8
1
  6
CONTINUOUS
 62
     7
 10
-601.2453688191755
 20
404.1542309391686
 30
0.0
  0
VERTEX
  5
486
  8
1
  6
CONTINUOUS
 62
     7
 10
-601.2661025635888
 20
404.1673604380175
 30
0.0
  0
VERTEX
  5
487
  8
1
  6
CONTINUOUS
 62
     7
 10
-601.2861670993252
 20
404.1814914784285
 30
0.0
  0
VERTEX
  5
488
  8
1
  6
CONTINUOUS
 62
     7
 10
-601.3055140891607
 20
404.1965900174874
 30
0.0
  0
VERTEX
  5
489
  8
1
  6
CONTINUOUS
 62
     7
 10
-601.3240969245024
 20
404.2126196814913
 30
0.0
  0
VERTEX
  5
48A
  8
1
  6
CONTINUOUS
 62
     7
 10
-601.3418708376723
 20
404.2295418535755
 30
0.0
  0
SEQEND
  5
8F1
  8
1
  6
CONTINUOUS
 62
     7
  0
LINE
  5
108
  8
1
  6
CONTINUOUS
 62
     7
 10
-597.099230150553
 20
407.7650757595082
 30
0.0
 11
-600.6347640564858
 21
404.2295418535755
 31
0.0
  0
POLYLINE
  5
109
  8
1
  6
CONTINUOUS
 62
     7
 66
     1
 10
0.0
 20
0.0
 30
0.0
  0
VERTEX
  5
48B
  8
1
  6
CONTINUOUS
 62
     7
 10
-597.099230150553
 20
408.4721825406948
 30
0.0
  0
VERTEX
  5
48C
  8
1
  6
CONTINUOUS
 62
     7
 10
-597.0823079784687
 20
408.454408627525
 30
0.0
  0
VERTEX
  5
48D
  8
1
  6
CONTINUOUS
 62
     7
 10
-597.0662783144649
 20
408.4358257921833
 30
0.0
  0
VERTEX
  5
48E
  8
1
  6
CONTINUOUS
 62
     7
 10
-597.0511797754059
 20
408.4164788023477
 30
0.0
  0
VERTEX
  5
48F
  8
1
  6
CONTINUOUS
 62
     7
 10
-597.037048734995
 20
408.3964142666113
 30
0.0
  0
VERTEX
  5
490
  8
1
  6
CONTINUOUS
 62
     7
 10
-597.0239192361462
 20
408.3756805221981
 30
0.0
  0
VERTEX
  5
491
  8
1
  6
CONTINUOUS
 62
     7
 10
-597.011822908972
 20
408.3543275185145
 30
0.0
  0
VERTEX
  5
492
  8
1
  6
CONTINUOUS
 62
     7
 10
-597.0007888945845
 20
408.3324066968167
 30
0.0
  0
VERTEX
  5
493
  8
1
  6
CONTINUOUS
 62
     7
 10
-596.9908437748907
 20
408.3099708662841
 30
0.0
  0
VERTEX
  5
494
  8
1
  6
CONTINUOUS
 62
     7
 10
-596.9820115085548
 20
408.2870740767976
 30
0.0
  0
VERTEX
  5
495
  8
1
  6
CONTINUOUS
 62
     7
 10
-596.9743133732801
 20
408.2637714887288
 30
0.0
  0
VERTEX
  5
496
  8
1
  6
CONTINUOUS
 62
     7
 10
-596.967767914549
 20
408.2401192400532
 30
0.0
  0
VERTEX
  5
497
  8
1
  6
CONTINUOUS
 62
     7
 10
-596.9623909009446
 20
408.2161743111096
 30
0.0
  0
VERTEX
  5
498
  8
1
  6
CONTINUOUS
 62
     7
 10
-596.9581952861639
 20
408.1919943873292
 30
0.0
  0
VERTEX
  5
499
  8
1
  6
CONTINUOUS
 62
     7
 10
-596.9551911778101
 20
408.1676377202663
 30
0.0
  0
VERTEX
  5
49A
  8
1
  6
CONTINUOUS
 62
     7
 10
-596.9533858130437
 20
408.1431629872653
 30
0.0
  0
VERTEX
  5
49B
  8
1
  6
CONTINUOUS
 62
     7
 10
-596.9527835411462
 20
408.1186291501015
 30
0.0
  0
VERTEX
  5
49C
  8
1
  6
CONTINUOUS
 62
     7
 10
-596.9533858130437
 20
408.0940953129378
 30
0.0
  0
VERTEX
  5
49D
  8
1
  6
CONTINUOUS
 62
     7
 10
-596.9551911778101
 20
408.0696205799367
 30
0.0
  0
VERTEX
  5
49E
  8
1
  6
CONTINUOUS
 62
     7
 10
-596.9581952861639
 20
408.0452639128738
 30
0.0
  0
VERTEX
  5
49F
  8
1
  6
CONTINUOUS
 62
     7
 10
-596.9623909009446
 20
408.0210839890935
 30
0.0
  0
VERTEX
  5
4A0
  8
1
  6
CONTINUOUS
 62
     7
 10
-596.967767914549
 20
407.9971390601499
 30
0.0
  0
VERTEX
  5
4A1
  8
1
  6
CONTINUOUS
 62
     7
 10
-596.9743133732801
 20
407.9734868114743
 30
0.0
  0
VERTEX
  5
4A2
  8
1
  6
CONTINUOUS
 62
     7
 10
-596.9820115085548
 20
407.9501842234055
 30
0.0
  0
VERTEX
  5
4A3
  8
1
  6
CONTINUOUS
 62
     7
 10
-596.9908437748907
 20
407.927287433919
 30
0.0
  0
VERTEX
  5
4A4
  8
1
  6
CONTINUOUS
 62
     7
 10
-597.0007888945845
 20
407.9048516033864
 30
0.0
  0
VERTEX
  5
4A5
  8
1
  6
CONTINUOUS
 62
     7
 10
-597.011822908972
 20
407.8829307816885
 30
0.0
  0
VERTEX
  5
4A6
  8
1
  6
CONTINUOUS
 62
     7
 10
-597.0239192361462
 20
407.8615777780049
 30
0.0
  0
VERTEX
  5
4A7
  8
1
  6
CONTINUOUS
 62
     7
 10
-597.037048734995
 20
407.8408440335917
 30
0.0
  0
VERTEX
  5
4A8
  8
1
  6
CONTINUOUS
 62
     7
 10
-597.0511797754059
 20
407.8207794978553
 30
0.0
  0
VERTEX
  5
4A9
  8
1
  6
CONTINUOUS
 62
     7
 10
-597.0662783144649
 20
407.8014325080197
 30
0.0
  0
VERTEX
  5
4AA
  8
1
  6
CONTINUOUS
 62
     7
 10
-597.0823079784687
 20
407.782849672678
 30
0.0
  0
VERTEX
  5
4AB
  8
1
  6
CONTINUOUS
 62
     7
 10
-597.099230150553
 20
407.7650757595082
 30
0.0
  0
SEQEND
  5
8F2
  8
1
  6
CONTINUOUS
 62
     7
  0
LINE
  5
10A
  8
1
  6
CONTINUOUS
 62
     7
 10
-599.1144844769346
 20
410.4874368670764
 30
0.0
 11
-597.0992301505529
 21
408.4721825406948
 31
0.0
  0
POLYLINE
  5
10B
  8
1
  6
CONTINUOUS
 62
     7
 66
     1
 10
0.0
 20
0.0
 30
0.0
  0
VERTEX
  5
4AC
  8
1
  6
CONTINUOUS
 62
     7
 10
-599.8215912581212
 20
410.4874368670765
 30
0.0
  0
VERTEX
  5
4AD
  8
1
  6
CONTINUOUS
 62
     7
 10
-599.8038173449514
 20
410.5043590391607
 30
0.0
  0
VERTEX
  5
4AE
  8
1
  6
CONTINUOUS
 62
     7
 10
-599.7852345096097
 20
410.5203887031646
 30
0.0
  0
VERTEX
  5
4AF
  8
1
  6
CONTINUOUS
 62
     7
 10
-599.7658875197741
 20
410.5354872422236
 30
0.0
  0
VERTEX
  5
4B0
  8
1
  6
CONTINUOUS
 62
     7
 10
-599.7458229840378
 20
410.5496182826345
 30
0.0
  0
VERTEX
  5
4B1
  8
1
  6
CONTINUOUS
 62
     7
 10
-599.7250892396245
 20
410.5627477814833
 30
0.0
  0
VERTEX
  5
4B2
  8
1
  6
CONTINUOUS
 62
     7
 10
-599.7037362359409
 20
410.5748441086574
 30
0.0
  0
VERTEX
  5
4B3
  8
1
  6
CONTINUOUS
 62
     7
 10
-599.681815414243
 20
410.5858781230449
 30
0.0
  0
VERTEX
  5
4B4
  8
1
  6
CONTINUOUS
 62
     7
 10
-599.6593795837105
 20
410.5958232427388
 30
0.0
  0
VERTEX
  5
4B5
  8
1
  6
CONTINUOUS
 62
     7
 10
-599.636482794224
 20
410.6046555090747
 30
0.0
  0
VERTEX
  5
4B6
  8
1
  6
CONTINUOUS
 62
     7
 10
-599.6131802061551
 20
410.6123536443494
 30
0.0
  0
VERTEX
  5
4B7
  8
1
  6
CONTINUOUS
 62
     7
 10
-599.5895279574795
 20
410.6188991030805
 30
0.0
  0
VERTEX
  5
4B8
  8
1
  6
CONTINUOUS
 62
     7
 10
-599.565583028536
 20
410.6242761166848
 30
0.0
  0
VERTEX
  5
4B9
  8
1
  6
CONTINUOUS
 62
     7
 10
-599.5414031047555
 20
410.6284717314656
 30
0.0
  0
VERTEX
  5
4BA
  8
1
  6
CONTINUOUS
 62
     7
 10
-599.5170464376927
 20
410.6314758398193
 30
0.0
  0
VERTEX
  5
4BB
  8
1
  6
CONTINUOUS
 62
     7
 10
-599.4925717046916
 20
410.6332812045858
 30
0.0
  0
VERTEX
  5
4BC
  8
1
  6
CONTINUOUS
 62
     7
 10
-599.4680378675279
 20
410.6338834764832
 30
0.0
  0
VERTEX
  5
4BD
  8
1
  6
CONTINUOUS
 62
     7
 10
-599.4435040303641
 20
410.6332812045858
 30
0.0
  0
VERTEX
  5
4BE
  8
1
  6
CONTINUOUS
 62
     7
 10
-599.4190292973631
 20
410.6314758398193
 30
0.0
  0
VERTEX
  5
4BF
  8
1
  6
CONTINUOUS
 62
     7
 10
-599.3946726303002
 20
410.6284717314656
 30
0.0
  0
VERTEX
  5
4C0
  8
1
  6
CONTINUOUS
 62
     7
 10
-599.3704927065198
 20
410.6242761166848
 30
0.0
  0
VERTEX
  5
4C1
  8
1
  6
CONTINUOUS
 62
     7
 10
-599.3465477775763
 20
410.6188991030805
 30
0.0
  0
VERTEX
  5
4C2
  8
1
  6
CONTINUOUS
 62
     7
 10
-599.3228955289007
 20
410.6123536443494
 30
0.0
  0
VERTEX
  5
4C3
  8
1
  6
CONTINUOUS
 62
     7
 10
-599.2995929408318
 20
410.6046555090747
 30
0.0
  0
VERTEX
  5
4C4
  8
1
  6
CONTINUOUS
 62
     7
 10
-599.2766961513454
 20
410.5958232427388
 30
0.0
  0
VERTEX
  5
4C5
  8
1
  6
CONTINUOUS
 62
     7
 10
-599.2542603208127
 20
410.5858781230449
 30
0.0
  0
VERTEX
  5
4C6
  8
1
  6
CONTINUOUS
 62
     7
 10
-599.2323394991149
 20
410.5748441086574
 30
0.0
  0
VERTEX
  5
4C7
  8
1
  6
CONTINUOUS
 62
     7
 10
-599.2109864954314
 20
410.5627477814833
 30
0.0
  0
VERTEX
  5
4C8
  8
1
  6
CONTINUOUS
 62
     7
 10
-599.1902527510181
 20
410.5496182826345
 30
0.0
  0
VERTEX
  5
4C9
  8
1
  6
CONTINUOUS
 62
     7
 10
-599.1701882152817
 20
410.5354872422236
 30
0.0
  0
VERTEX
  5
4CA
  8
1
  6
CONTINUOUS
 62
     7
 10
-599.1508412254461
 20
410.5203887031645
 30
0.0
  0
VERTEX
  5
4CB
  8
1
  6
CONTINUOUS
 62
     7
 10
-599.1322583901044
 20
410.5043590391606
 30
0.0
  0
VERTEX
  5
4CC
  8
1
  6
CONTINUOUS
 62
     7
 10
-599.1144844769346
 20
410.4874368670764
 30
0.0
  0
SEQEND
  5
8F3
  8
1
  6
CONTINUOUS
 62
     7
  0
LINE
  5
10C
  8
1
  6
CONTINUOUS
 62
     7
 10
-599.9983679534179
 20
410.3106601717798
 30
0.0
 11
-599.8215912581213
 21
410.4874368670764
 31
0.0
  0
LINE
  5
10D
  8
1
  6
CONTINUOUS
 62
     7
 10
-603.357125164054
 20
406.9519029611437
 30
0.0
 11
-603.1803484687572
 21
407.1286796564404
 31
0.0
  0
POLYLINE
  5
10E
  8
1
  6
CONTINUOUS
 62
     7
 66
     1
 10
0.0
 20
0.0
 30
0.0
  0
VERTEX
  5
4CD
  8
1
  6
CONTINUOUS
 62
     7
 10
-578.2916525687705
 20
360.4209553627642
 30
0.0
  0
VERTEX
  5
4CE
  8
1
  6
CONTINUOUS
 62
     7
 10
-578.2443451159646
 20
360.4198314186195
 30
0.0
  0
VERTEX
  5
4CF
  8
1
  6
CONTINUOUS
 62
     7
 10
-578.1970117901394
 20
360.4164747669261
 30
0.0
  0
VERTEX
  5
4D0
  8
1
  6
CONTINUOUS
 62
     7
 10
-578.1498143787362
 20
360.4109081787945
 30
0.0
  0
VERTEX
  5
4D1
  8
1
  6
CONTINUOUS
 62
     7
 10
-578.1029146691973
 20
360.4031544253357
 30
0.0
  0
VERTEX
  5
4D2
  8
1
  6
CONTINUOUS
 62
     7
 10
-578.0564744489642
 20
360.3932362776604
 30
0.0
  0
VERTEX
  5
4D3
  8
1
  6
CONTINUOUS
 62
     7
 10
-578.0106555054791
 20
360.3811765068793
 30
0.0
  0
VERTEX
  5
4D4
  8
1
  6
CONTINUOUS
 62
     7
 10
-577.9656196261838
 20
360.3669978841033
 30
0.0
  0
VERTEX
  5
4D5
  8
1
  6
CONTINUOUS
 62
     7
 10
-577.9213397468814
 20
360.3506672431281
 30
0.0
  0
VERTEX
  5
4D6
  8
1
  6
CONTINUOUS
 62
     7
 10
-577.8778008515786
 20
360.3321963972094
 30
0.0
  0
VERTEX
  5
4D7
  8
1
  6
CONTINUOUS
 62
     7
 10
-577.8351479727297
 20
360.3116636909175
 30
0.0
  0
VERTEX
  5
4D8
  8
1
  6
CONTINUOUS
 62
     7
 10
-577.7935261427884
 20
360.2891474688224
 30
0.0
  0
VERTEX
  5
4D9
  8
1
  6
CONTINUOUS
 62
     7
 10
-577.7530803942094
 20
360.264726075494
 30
0.0
  0
VERTEX
  5
4DA
  8
1
  6
CONTINUOUS
 62
     7
 10
-577.7139557594464
 20
360.2384778555026
 30
0.0
  0
VERTEX
  5
4DB
  8
1
  6
CONTINUOUS
 62
     7
 10
-577.6762972709537
 20
360.2104811534181
 30
0.0
  0
VERTEX
  5
4DC
  8
1
  6
CONTINUOUS
 62
     7
 10
-577.6402626441627
 20
360.1808515127593
 30
0.0
  0
VERTEX
  5
4DD
  8
1
  6
CONTINUOUS
 62
     7
 10
-577.6056410238172
 20
360.1494652369265
 30
0.0
  0
VERTEX
  5
4DE
  8
1
  6
CONTINUOUS
 62
     7
 10
-577.5725369204657
 20
360.1164425522749
 30
0.0
  0
VERTEX
  5
4DF
  8
1
  6
CONTINUOUS
 62
     7
 10
-577.541054844657
 20
360.0819036851594
 30
0.0
  0
VERTEX
  5
4E0
  8
1
  6
CONTINUOUS
 62
     7
 10
-577.5112993069395
 20
360.0459688619353
 30
0.0
  0
VERTEX
  5
4E1
  8
1
  6
CONTINUOUS
 62
     7
 10
-577.4833748178617
 20
360.0087583089572
 30
0.0
  0
VERTEX
  5
4E2
  8
1
  6
CONTINUOUS
 62
     7
 10
-577.4573858879725
 20
359.9703922525803
 30
0.0
  0
VERTEX
  5
4E3
  8
1
  6
CONTINUOUS
 62
     7
 10
-577.4331986080098
 20
359.9306158000319
 30
0.0
  0
VERTEX
  5
4E4
  8
1
  6
CONTINUOUS
 62
     7
 10
-577.4109336172161
 20
359.8896382918077
 30
0.0
  0
VERTEX
  5
4E5
  8
1
  6
CONTINUOUS
 62
     7
 10
-577.3906463599562
 20
359.8476054093519
 30
0.0
  0
VERTEX
  5
4E6
  8
1
  6
CONTINUOUS
 62
     7
 10
-577.3723922805955
 20
359.8046628341085
 30
0.0
  0
VERTEX
  5
4E7
  8
1
  6
CONTINUOUS
 62
     7
 10
-577.3562268234986
 20
359.7609562475216
 30
0.0
  0
VERTEX
  5
4E8
  8
1
  6
CONTINUOUS
 62
     7
 10
-577.3422054330306
 20
359.7166313310354
 30
0.0
  0
VERTEX
  5
4E9
  8
1
  6
CONTINUOUS
 62
     7
 10
-577.3303835535564
 20
359.6718337660939
 30
0.0
  0
VERTEX
  5
4EA
  8
1
  6
CONTINUOUS
 62
     7
 10
-577.3206298384978
 20
359.62581063784
 30
0.0
  0
VERTEX
  5
4EB
  8
1
  6
CONTINUOUS
 62
     7
 10
-577.3131215000321
 20
359.5792568239302
 30
0.0
  0
VERTEX
  5
4EC
  8
1
  6
CONTINUOUS
 62
     7
 10
-577.3078627419515
 20
359.5323291217135
 30
0.0
  0
VERTEX
  5
4ED
  8
1
  6
CONTINUOUS
 62
     7
 10
-577.3048577680481
 20
359.4851843285385
 30
0.0
  0
VERTEX
  5
4EE
  8
1
  6
CONTINUOUS
 62
     7
 10
-577.3041107821143
 20
359.4379792417544
 30
0.0
  0
VERTEX
  5
4EF
  8
1
  6
CONTINUOUS
 62
     7
 10
-577.3056259879419
 20
359.3908706587098
 30
0.0
  0
VERTEX
  5
4F0
  8
1
  6
CONTINUOUS
 62
     7
 10
-577.3094075893232
 20
359.3440153767536
 30
0.0
  0
VERTEX
  5
4F1
  8
1
  6
CONTINUOUS
 62
     7
 10
-577.3156473072986
 20
359.296115406857
 30
0.0
  0
VERTEX
  5
4F2
  8
1
  6
CONTINUOUS
 62
     7
 10
-577.3242316496376
 20
359.248534266711
 30
0.0
  0
VERTEX
  5
4F3
  8
1
  6
CONTINUOUS
 62
     7
 10
-577.335126888546
 20
359.2014344267393
 30
0.0
  0
SEQEND
  5
8F4
  8
1
  6
CONTINUOUS
 62
     7
  0
ARC
  5
10F
  8
1
  6
CONTINUOUS
 62
     7
 10
-614.3002583156903
 20
366.9305268361907
 30
0.0
 40
37.76453112246836
 50
318.0328200688692
 51
348.1900881217139
  0
POLYLINE
  5
110
  8
1
  6
CONTINUOUS
 62
     7
 66
     1
 10
0.0
 20
0.0
 30
0.0
  0
VERTEX
  5
4F4
  8
1
  6
CONTINUOUS
 62
     7
 10
-586.2212722546448
 20
341.6772032394143
 30
0.0
  0
VERTEX
  5
4F5
  8
1
  6
CONTINUOUS
 62
     7
 10
-586.2566642417422
 20
341.6437185485884
 30
0.0
  0
VERTEX
  5
4F6
  8
1
  6
CONTINUOUS
 62
     7
 10
-586.2937246943961
 20
341.6119149628003
 30
0.0
  0
VERTEX
  5
4F7
  8
1
  6
CONTINUOUS
 62
     7
 10
-586.3323155345303
 20
341.581895267099
 30
0.0
  0
VERTEX
  5
4F8
  8
1
  6
CONTINUOUS
 62
     7
 10
-586.3722986840684
 20
341.5537622465337
 30
0.0
  0
VERTEX
  5
4F9
  8
1
  6
CONTINUOUS
 62
     7
 10
-586.4153017055712
 20
341.5265468327268
 30
0.0
  0
VERTEX
  5
4FA
  8
1
  6
CONTINUOUS
 62
     7
 10
-586.4596965489762
 20
341.5014278478589
 30
0.0
  0
VERTEX
  5
4FB
  8
1
  6
CONTINUOUS
 62
     7
 10
-586.5053128003054
 20
341.4784879099709
 30
0.0
  0
VERTEX
  5
4FC
  8
1
  6
CONTINUOUS
 62
     7
 10
-586.5519800455813
 20
341.4578096371037
 30
0.0
  0
VERTEX
  5
4FD
  8
1
  6
CONTINUOUS
 62
     7
 10
-586.5914647124823
 20
341.4423864445911
 30
0.0
  0
VERTEX
  5
4FE
  8
1
  6
CONTINUOUS
 62
     7
 10
-586.6315968011742
 20
341.4285431629125
 30
0.0
  0
VERTEX
  5
4FF
  8
1
  6
CONTINUOUS
 62
     7
 10
-586.6722741211523
 20
341.4163096330211
 30
0.0
  0
VERTEX
  5
500
  8
1
  6
CONTINUOUS
 62
     7
 10
-586.713394481912
 20
341.40571569587
 30
0.0
  0
VERTEX
  5
501
  8
1
  6
CONTINUOUS
 62
     7
 10
-586.7560902870347
 20
341.3965462667919
 30
0.0
  0
VERTEX
  5
502
  8
1
  6
CONTINUOUS
 62
     7
 10
-586.7991793168164
 20
341.3891220341663
 30
0.0
  0
VERTEX
  5
503
  8
1
  6
CONTINUOUS
 62
     7
 10
-586.8425481068442
 20
341.3834584798761
 30
0.0
  0
VERTEX
  5
504
  8
1
  6
CONTINUOUS
 62
     7
 10
-586.8860831927049
 20
341.3795710858038
 30
0.0
  0
VERTEX
  5
505
  8
1
  6
CONTINUOUS
 62
     7
 10
-586.9228135713719
 20
341.3776795125116
 30
0.0
  0
VERTEX
  5
506
  8
1
  6
CONTINUOUS
 62
     7
 10
-586.9596347572556
 20
341.3770477365625
 30
0.0
  0
SEQEND
  5
8F5
  8
1
  6
CONTINUOUS
 62
     7
  0
LINE
  5
111
  8
1
  6
CONTINUOUS
 62
     7
 10
-589.7064004072437
 20
341.3770477365625
 30
0.0
 11
-586.9596347572556
 21
341.3770477365625
 31
0.0
  0
POLYLINE
  5
112
  8
1
  6
CONTINUOUS
 62
     7
 66
     1
 10
0.0
 20
0.0
 30
0.0
  0
VERTEX
  5
507
  8
1
  6
CONTINUOUS
 62
     7
 10
-589.7064004072437
 20
341.3770477365625
 30
0.0
  0
VERTEX
  5
508
  8
1
  6
CONTINUOUS
 62
     7
 10
-589.7505240170466
 20
341.3779405967986
 30
0.0
  0
VERTEX
  5
509
  8
1
  6
CONTINUOUS
 62
     7
 10
-589.7946099066558
 20
341.380613733233
 30
0.0
  0
VERTEX
  5
50A
  8
1
  6
CONTINUOUS
 62
     7
 10
-589.838545366406
 20
341.3850589794543
 30
0.0
  0
VERTEX
  5
50B
  8
1
  6
CONTINUOUS
 62
     7
 10
-589.8822176866327
 20
341.3912681690514
 30
0.0
  0
VERTEX
  5
50C
  8
1
  6
CONTINUOUS
 62
     7
 10
-589.9268327305178
 20
341.3994986646448
 30
0.0
  0
VERTEX
  5
50D
  8
1
  6
CONTINUOUS
 62
     7
 10
-589.9710882010405
 20
341.4095878609745
 30
0.0
  0
VERTEX
  5
50E
  8
1
  6
CONTINUOUS
 62
     7
 10
-590.0148627342063
 20
341.4215092517741
 30
0.0
  0
VERTEX
  5
50F
  8
1
  6
CONTINUOUS
 62
     7
 10
-590.0580349660216
 20
341.4352363307772
 30
0.0
  0
VERTEX
  5
510
  8
1
  6
CONTINUOUS
 62
     7
 10
-590.1011564007019
 20
341.4509981639541
 30
0.0
  0
VERTEX
  5
511
  8
1
  6
CONTINUOUS
 62
     7
 10
-590.1435729273501
 20
341.4685988660281
 30
0.0
  0
VERTEX
  5
512
  8
1
  6
CONTINUOUS
 62
     7
 10
-590.1851611417757
 20
341.4879911485088
 30
0.0
  0
VERTEX
  5
513
  8
1
  6
CONTINUOUS
 62
     7
 10
-590.2257976397882
 20
341.5091277229055
 30
0.0
  0
VERTEX
  5
514
  8
1
  6
CONTINUOUS
 62
     7
 10
-590.2667198118
 20
341.532780399325
 30
0.0
  0
VERTEX
  5
515
  8
1
  6
CONTINUOUS
 62
     7
 10
-590.3065335681005
 20
341.5582616515907
 30
0.0
  0
VERTEX
  5
516
  8
1
  6
CONTINUOUS
 62
     7
 10
-590.345109643975
 20
341.5854957856137
 30
0.0
  0
VERTEX
  5
517
  8
1
  6
CONTINUOUS
 62
     7
 10
-590.382318774709
 20
341.6144071073053
 30
0.0
  0
SEQEND
  5
8F6
  8
1
  6
CONTINUOUS
 62
     7
  0
ARC
  5
113
  8
1
  6
CONTINUOUS
 62
     7
 10
-595.1196882969774
 20
335.8
 30
0.0
 40
7.5
 50
50.828092253239
 51
129.171907746761
  0
POLYLINE
  5
114
  8
1
  6
CONTINUOUS
 62
     7
 66
     1
 10
0.0
 20
0.0
 30
0.0
  0
VERTEX
  5
518
  8
1
  6
CONTINUOUS
 62
     7
 10
-599.8570578192459
 20
341.6144071073052
 30
0.0
  0
VERTEX
  5
519
  8
1
  6
CONTINUOUS
 62
     7
 10
-599.8912533347288
 20
341.5877356118348
 30
0.0
  0
VERTEX
  5
51A
  8
1
  6
CONTINUOUS
 62
     7
 10
-599.9266097724148
 20
341.5624830550736
 30
0.0
  0
VERTEX
  5
51B
  8
1
  6
CONTINUOUS
 62
     7
 10
-599.9630266291425
 20
341.5387092105663
 30
0.0
  0
VERTEX
  5
51C
  8
1
  6
CONTINUOUS
 62
     7
 10
-600.0004034017508
 20
341.5164738518568
 30
0.0
  0
VERTEX
  5
51D
  8
1
  6
CONTINUOUS
 62
     7
 10
-600.0398613878651
 20
341.4952033197782
 30
0.0
  0
VERTEX
  5
51E
  8
1
  6
CONTINUOUS
 62
     7
 10
-600.0802580935227
 20
341.4755928407636
 30
0.0
  0
VERTEX
  5
51F
  8
1
  6
CONTINUOUS
 62
     7
 10
-600.121478144906
 20
341.4576885561161
 30
0.0
  0
VERTEX
  5
520
  8
1
  6
CONTINUOUS
 62
     7
 10
-600.1634061681971
 20
341.4415366071387
 30
0.0
  0
VERTEX
  5
521
  8
1
  6
CONTINUOUS
 62
     7
 10
-600.2072679184969
 20
341.4267553319278
 30
0.0
  0
VERTEX
  5
522
  8
1
  6
CONTINUOUS
 62
     7
 10
-600.2517931136057
 20
341.4138507169856
 30
0.0
  0
VERTEX
  5
523
  8
1
  6
CONTINUOUS
 62
     7
 10
-600.2968524309878
 20
341.4028528822452
 30
0.0
  0
VERTEX
  5
524
  8
1
  6
CONTINUOUS
 62
     7
 10
-600.3423165481078
 20
341.3937919476395
 30
0.0
  0
VERTEX
  5
525
  8
1
  6
CONTINUOUS
 62
     7
 10
-600.3896210947311
 20
341.3864833014418
 30
0.0
  0
VERTEX
  5
526
  8
1
  6
CONTINUOUS
 62
     7
 10
-600.4372618912062
 20
341.3812488525749
 30
0.0
  0
VERTEX
  5
527
  8
1
  6
CONTINUOUS
 62
     7
 10
-600.485094925783
 20
341.378099898471
 30
0.0
  0
VERTEX
  5
528
  8
1
  6
CONTINUOUS
 62
     7
 10
-600.5329761867113
 20
341.3770477365625
 30
0.0
  0
SEQEND
  5
8F7
  8
1
  6
CONTINUOUS
 62
     7
  0
LINE
  5
115
  8
1
  6
CONTINUOUS
 62
     7
 10
-603.2797418366994
 20
341.3770477365625
 30
0.0
 11
-600.5329761867113
 21
341.3770477365625
 31
0.0
  0
POLYLINE
  5
116
  8
1
  6
CONTINUOUS
 62
     7
 66
     1
 10
0.0
 20
0.0
 30
0.0
  0
VERTEX
  5
529
  8
1
  6
CONTINUOUS
 62
     7
 10
-603.2797418366994
 20
341.3770477365625
 30
0.0
  0
VERTEX
  5
52A
  8
1
  6
CONTINUOUS
 62
     7
 10
-603.3288582138177
 20
341.3781774881592
 30
0.0
  0
VERTEX
  5
52B
  8
1
  6
CONTINUOUS
 62
     7
 10
-603.3779204170023
 20
341.3815578428319
 30
0.0
  0
VERTEX
  5
52C
  8
1
  6
CONTINUOUS
 62
     7
 10
-603.4267667742228
 20
341.3871754504047
 30
0.0
  0
VERTEX
  5
52D
  8
1
  6
CONTINUOUS
 62
     7
 10
-603.4752356134488
 20
341.3950169607015
 30
0.0
  0
VERTEX
  5
52E
  8
1
  6
CONTINUOUS
 62
     7
 10
-603.5250740057452
 20
341.4055079513948
 30
0.0
  0
VERTEX
  5
52F
  8
1
  6
CONTINUOUS
 62
     7
 10
-603.5743871774854
 20
341.4183783950319
 30
0.0
  0
VERTEX
  5
530
  8
1
  6
CONTINUOUS
 62
     7
 10
-603.6229980113949
 20
341.4335823568379
 30
0.0
  0
VERTEX
  5
531
  8
1
  6
CONTINUOUS
 62
     7
 10
-603.6707293901982
 20
341.4510739020378
 30
0.0
  0
VERTEX
  5
532
  8
1
  6
CONTINUOUS
 62
     7
 10
-603.7106112606459
 20
341.4677560535609
 30
0.0
  0
VERTEX
  5
533
  8
1
  6
CONTINUOUS
 62
     7
 10
-603.7497764114411
 20
341.4860718222693
 30
0.0
  0
VERTEX
  5
534
  8
1
  6
CONTINUOUS
 62
     7
 10
-603.7881202834318
 20
341.5059744323405
 30
0.0
  0
VERTEX
  5
535
  8
1
  6
CONTINUOUS
 62
     7
 10
-603.8255383174662
 20
341.5274171079523
 30
0.0
  0
VERTEX
  5
536
  8
1
  6
CONTINUOUS
 62
     7
 10
-603.8630697417962
 20
341.5511020489111
 30
0.0
  0
VERTEX
  5
537
  8
1
  6
CONTINUOUS
 62
     7
 10
-603.8995421785855
 20
341.5763868735837
 30
0.0
  0
VERTEX
  5
538
  8
1
  6
CONTINUOUS
 62
     7
 10
-603.9348492398416
 20
341.6032013196733
 30
0.0
  0
VERTEX
  5
539
  8
1
  6
CONTINUOUS
 62
     7
 10
-603.9688845375717
 20
341.6314751248832
 30
0.0
  0
VERTEX
  5
53A
  8
1
  6
CONTINUOUS
 62
     7
 10
-603.9938734444247
 20
341.6539232837419
 30
0.0
  0
VERTEX
  5
53B
  8
1
  6
CONTINUOUS
 62
     7
 10
-604.0181043393104
 20
341.6772032394146
 30
0.0
  0
SEQEND
  5
8F8
  8
1
  6
CONTINUOUS
 62
     7
  0
POLYLINE
  5
117
  8
1
  6
CONTINUOUS
 62
     7
 66
     1
 10
0.0
 20
0.0
 30
0.0
  0
VERTEX
  5
53C
  8
1
  6
CONTINUOUS
 62
     7
 10
-612.9042497054089
 20
359.2014344267393
 30
0.0
  0
VERTEX
  5
53D
  8
1
  6
CONTINUOUS
 62
     7
 10
-612.9150797697656
 20
359.2483221101536
 30
0.0
  0
VERTEX
  5
53E
  8
1
  6
CONTINUOUS
 62
     7
 10
-612.9236161529278
 20
359.2957995563917
 30
0.0
  0
VERTEX
  5
53F
  8
1
  6
CONTINUOUS
 62
     7
 10
-612.9298404173604
 20
359.343702385231
 30
0.0
  0
VERTEX
  5
540
  8
1
  6
CONTINUOUS
 62
     7
 10
-612.9337341255289
 20
359.3918662164488
 30
0.0
  0
VERTEX
  5
541
  8
1
  6
CONTINUOUS
 62
     7
 10
-612.9352788398982
 20
359.4401266698225
 30
0.0
  0
VERTEX
  5
542
  8
1
  6
CONTINUOUS
 62
     7
 10
-612.9344561229336
 20
359.4883193651295
 30
0.0
  0
VERTEX
  5
543
  8
1
  6
CONTINUOUS
 62
     7
 10
-612.9312475371003
 20
359.5362799221471
 30
0.0
  0
VERTEX
  5
544
  8
1
  6
CONTINUOUS
 62
     7
 10
-612.9256202036529
 20
359.5840592127508
 30
0.0
  0
VERTEX
  5
545
  8
1
  6
CONTINUOUS
 62
     7
 10
-612.9175839852567
 20
359.6316550510717
 30
0.0
  0
VERTEX
  5
546
  8
1
  6
CONTINUOUS
 62
     7
 10
-612.907177529886
 20
359.6788996555695
 30
0.0
  0
VERTEX
  5
547
  8
1
  6
CONTINUOUS
 62
     7
 10
-612.8944394855155
 20
359.7256252447037
 30
0.0
  0
VERTEX
  5
548
  8
1
  6
CONTINUOUS
 62
     7
 10
-612.8794085001194
 20
359.7716640369339
 30
0.0
  0
VERTEX
  5
549
  8
1
  6
CONTINUOUS
 62
     7
 10
-612.8621232216725
 20
359.8168482507196
 30
0.0
  0
VERTEX
  5
54A
  8
1
  6
CONTINUOUS
 62
     7
 10
-612.8426222981492
 20
359.8610101045204
 30
0.0
  0
VERTEX
  5
54B
  8
1
  6
CONTINUOUS
 62
     7
 10
-612.8211854162121
 20
359.903570953443
 30
0.0
  0
VERTEX
  5
54C
  8
1
  6
CONTINUOUS
 62
     7
 10
-612.797559196604
 20
359.9451761120638
 30
0.0
  0
VERTEX
  5
54D
  8
1
  6
CONTINUOUS
 62
     7
 10
-612.7718387309761
 20
359.9856817742728
 30
0.0
  0
VERTEX
  5
54E
  8
1
  6
CONTINUOUS
 62
     7
 10
-612.7441191109806
 20
360.0249441339606
 30
0.0
  0
VERTEX
  5
54F
  8
1
  6
CONTINUOUS
 62
     7
 10
-612.7144954282687
 20
360.0628193850172
 30
0.0
  0
VERTEX
  5
550
  8
1
  6
CONTINUOUS
 62
     7
 10
-612.6830627744921
 20
360.0991637213328
 30
0.0
  0
VERTEX
  5
551
  8
1
  6
CONTINUOUS
 62
     7
 10
-612.6499162413024
 20
360.1338333367979
 30
0.0
  0
VERTEX
  5
552
  8
1
  6
CONTINUOUS
 62
     7
 10
-612.6156913757779
 20
360.1662248105316
 30
0.0
  0
VERTEX
  5
553
  8
1
  6
CONTINUOUS
 62
     7
 10
-612.5797774253052
 20
360.1970323015675
 30
0.0
  0
VERTEX
  5
554
  8
1
  6
CONTINUOUS
 62
     7
 10
-612.542310718869
 20
360.2261582299526
 30
0.0
  0
VERTEX
  5
555
  8
1
  6
CONTINUOUS
 62
     7
 10
-612.5034275854541
 20
360.2535050157337
 30
0.0
  0
VERTEX
  5
556
  8
1
  6
CONTINUOUS
 62
     7
 10
-612.4632643540457
 20
360.2789750789577
 30
0.0
  0
VERTEX
  5
557
  8
1
  6
CONTINUOUS
 62
     7
 10
-612.4219573536286
 20
360.3024708396713
 30
0.0
  0
VERTEX
  5
558
  8
1
  6
CONTINUOUS
 62
     7
 10
-612.3796429131875
 20
360.3238947179216
 30
0.0
  0
VERTEX
  5
559
  8
1
  6
CONTINUOUS
 62
     7
 10
-612.3367639669375
 20
360.3430428700171
 30
0.0
  0
VERTEX
  5
55A
  8
1
  6
CONTINUOUS
 62
     7
 10
-612.2928583490118
 20
360.3601857568073
 30
0.0
  0
VERTEX
  5
55B
  8
1
  6
CONTINUOUS
 62
     7
 10
-612.2480831444688
 20
360.3752812756977
 30
0.0
  0
VERTEX
  5
55C
  8
1
  6
CONTINUOUS
 62
     7
 10
-612.2025954383663
 20
360.3882873240938
 30
0.0
  0
VERTEX
  5
55D
  8
1
  6
CONTINUOUS
 62
     7
 10
-612.156552315763
 20
360.399161799401
 30
0.0
  0
VERTEX
  5
55E
  8
1
  6
CONTINUOUS
 62
     7
 10
-612.1101108617165
 20
360.4078625990251
 30
0.0
  0
VERTEX
  5
55F
  8
1
  6
CONTINUOUS
 62
     7
 10
-612.0634281612855
 20
360.4143476203714
 30
0.0
  0
VERTEX
  5
560
  8
1
  6
CONTINUOUS
 62
     7
 10
-612.0249627860603
 20
360.4180170343907
 30
0.0
  0
VERTEX
  5
561
  8
1
  6
CONTINUOUS
 62
     7
 10
-611.9863653817292
 20
360.4202203921766
 30
0.0
  0
VERTEX
  5
562
  8
1
  6
CONTINUOUS
 62
     7
 10
-611.9477240251845
 20
360.4209553627642
 30
0.0
  0
SEQEND
  5
8F9
  8
1
  6
CONTINUOUS
 62
     7
  0
LINE
  5
118
  8
1
  6
CONTINUOUS
 62
     7
 10
-611.9477240251845
 20
360.4209553627642
 30
0.0
 11
-578.2916525687705
 21
360.4209553627642
 31
0.0
  0
LINE
  5
119
  8
1
  6
CONTINUOUS
 62
     7
 10
-587.0590281251976
 20
347.8713203435596
 30
0.0
 11
-586.8822514299009
 21
348.0480970388563
 31
0.0
  0
POLYLINE
  5
11A
  8
1
  6
CONTINUOUS
 62
     7
 66
     1
 10
0.0
 20
0.0
 30
0.0
  0
VERTEX
  5
563
  8
1
  6
CONTINUOUS
 62
     7
 10
-586.882251429901
 20
348.0480970388563
 30
0.0
  0
VERTEX
  5
564
  8
1
  6
CONTINUOUS
 62
     7
 10
-586.8653292578167
 20
348.065870952026
 30
0.0
  0
VERTEX
  5
565
  8
1
  6
CONTINUOUS
 62
     7
 10
-586.8492995938129
 20
348.0844537873677
 30
0.0
  0
VERTEX
  5
566
  8
1
  6
CONTINUOUS
 62
     7
 10
-586.8342010547539
 20
348.1038007772033
 30
0.0
  0
VERTEX
  5
567
  8
1
  6
CONTINUOUS
 62
     7
 10
-586.820070014343
 20
348.1238653129398
 30
0.0
  0
VERTEX
  5
568
  8
1
  6
CONTINUOUS
 62
     7
 10
-586.806940515494
 20
348.1445990573529
 30
0.0
  0
VERTEX
  5
569
  8
1
  6
CONTINUOUS
 62
     7
 10
-586.7948441883201
 20
348.1659520610365
 30
0.0
  0
VERTEX
  5
56A
  8
1
  6
CONTINUOUS
 62
     7
 10
-586.7838101739326
 20
348.1878728827344
 30
0.0
  0
VERTEX
  5
56B
  8
1
  6
CONTINUOUS
 62
     7
 10
-586.7738650542386
 20
348.210308713267
 30
0.0
  0
VERTEX
  5
56C
  8
1
  6
CONTINUOUS
 62
     7
 10
-586.7650327879028
 20
348.2332055027534
 30
0.0
  0
VERTEX
  5
56D
  8
1
  6
CONTINUOUS
 62
     7
 10
-586.7573346526282
 20
348.2565080908223
 30
0.0
  0
VERTEX
  5
56E
  8
1
  6
CONTINUOUS
 62
     7
 10
-586.750789193897
 20
348.2801603394979
 30
0.0
  0
VERTEX
  5
56F
  8
1
  6
CONTINUOUS
 62
     7
 10
-586.7454121802926
 20
348.3041052684414
 30
0.0
  0
VERTEX
  5
570
  8
1
  6
CONTINUOUS
 62
     7
 10
-586.7412165655119
 20
348.3282851922219
 30
0.0
  0
VERTEX
  5
571
  8
1
  6
CONTINUOUS
 62
     7
 10
-586.7382124571582
 20
348.3526418592847
 30
0.0
  0
VERTEX
  5
572
  8
1
  6
CONTINUOUS
 62
     7
 10
-586.7364070923917
 20
348.3771165922858
 30
0.0
  0
VERTEX
  5
573
  8
1
  6
CONTINUOUS
 62
     7
 10
-586.7358048204942
 20
348.4016504294495
 30
0.0
  0
VERTEX
  5
574
  8
1
  6
CONTINUOUS
 62
     7
 10
-586.7364070923917
 20
348.4261842666132
 30
0.0
  0
VERTEX
  5
575
  8
1
  6
CONTINUOUS
 62
     7
 10
-586.7382124571582
 20
348.4506589996143
 30
0.0
  0
VERTEX
  5
576
  8
1
  6
CONTINUOUS
 62
     7
 10
-586.7412165655119
 20
348.4750156666772
 30
0.0
  0
VERTEX
  5
577
  8
1
  6
CONTINUOUS
 62
     7
 10
-586.7454121802926
 20
348.4991955904576
 30
0.0
  0
VERTEX
  5
578
  8
1
  6
CONTINUOUS
 62
     7
 10
-586.750789193897
 20
348.5231405194011
 30
0.0
  0
VERTEX
  5
579
  8
1
  6
CONTINUOUS
 62
     7
 10
-586.7573346526282
 20
348.5467927680767
 30
0.0
  0
VERTEX
  5
57A
  8
1
  6
CONTINUOUS
 62
     7
 10
-586.7650327879028
 20
348.5700953561457
 30
0.0
  0
VERTEX
  5
57B
  8
1
  6
CONTINUOUS
 62
     7
 10
-586.7738650542386
 20
348.5929921456321
 30
0.0
  0
VERTEX
  5
57C
  8
1
  6
CONTINUOUS
 62
     7
 10
-586.7838101739326
 20
348.6154279761647
 30
0.0
  0
VERTEX
  5
57D
  8
1
  6
CONTINUOUS
 62
     7
 10
-586.7948441883201
 20
348.6373487978625
 30
0.0
  0
VERTEX
  5
57E
  8
1
  6
CONTINUOUS
 62
     7
 10
-586.806940515494
 20
348.6587018015461
 30
0.0
  0
VERTEX
  5
57F
  8
1
  6
CONTINUOUS
 62
     7
 10
-586.820070014343
 20
348.6794355459593
 30
0.0
  0
VERTEX
  5
580
  8
1
  6
CONTINUOUS
 62
     7
 10
-586.8342010547539
 20
348.6995000816958
 30
0.0
  0
VERTEX
  5
581
  8
1
  6
CONTINUOUS
 62
     7
 10
-586.8492995938129
 20
348.7188470715313
 30
0.0
  0
VERTEX
  5
582
  8
1
  6
CONTINUOUS
 62
     7
 10
-586.8653292578167
 20
348.737429906873
 30
0.0
  0
VERTEX
  5
583
  8
1
  6
CONTINUOUS
 62
     7
 10
-586.882251429901
 20
348.7552038200428
 30
0.0
  0
SEQEND
  5
8FA
  8
1
  6
CONTINUOUS
 62
     7
  0
LINE
  5
11B
  8
1
  6
CONTINUOUS
 62
     7
 10
-586.882251429901
 20
348.7552038200428
 30
0.0
 11
-588.8975057562827
 21
350.7704581464245
 31
0.0
  0
POLYLINE
  5
11C
  8
1
  6
CONTINUOUS
 62
     7
 66
     1
 10
0.0
 20
0.0
 30
0.0
  0
VERTEX
  5
584
  8
1
  6
CONTINUOUS
 62
     7
 10
-588.8975057562826
 20
350.7704581464245
 30
0.0
  0
VERTEX
  5
585
  8
1
  6
CONTINUOUS
 62
     7
 10
-588.9152796694524
 20
350.7873803185087
 30
0.0
  0
VERTEX
  5
586
  8
1
  6
CONTINUOUS
 62
     7
 10
-588.9338625047941
 20
350.8034099825126
 30
0.0
  0
VERTEX
  5
587
  8
1
  6
CONTINUOUS
 62
     7
 10
-588.9532094946297
 20
350.8185085215715
 30
0.0
  0
VERTEX
  5
588
  8
1
  6
CONTINUOUS
 62
     7
 10
-588.9732740303662
 20
350.8326395619824
 30
0.0
  0
VERTEX
  5
589
  8
1
  6
CONTINUOUS
 62
     7
 10
-588.9940077747792
 20
350.8457690608313
 30
0.0
  0
VERTEX
  5
58A
  8
1
  6
CONTINUOUS
 62
     7
 10
-589.015360778463
 20
350.8578653880054
 30
0.0
  0
VERTEX
  5
58B
  8
1
  6
CONTINUOUS
 62
     7
 10
-589.0372816001608
 20
350.8688994023929
 30
0.0
  0
VERTEX
  5
58C
  8
1
  6
CONTINUOUS
 62
     7
 10
-589.0597174306934
 20
350.8788445220868
 30
0.0
  0
VERTEX
  5
58D
  8
1
  6
CONTINUOUS
 62
     7
 10
-589.0826142201798
 20
350.8876767884227
 30
0.0
  0
VERTEX
  5
58E
  8
1
  6
CONTINUOUS
 62
     7
 10
-589.1059168082487
 20
350.8953749236973
 30
0.0
  0
VERTEX
  5
58F
  8
1
  6
CONTINUOUS
 62
     7
 10
-589.1295690569242
 20
350.9019203824284
 30
0.0
  0
VERTEX
  5
590
  8
1
  6
CONTINUOUS
 62
     7
 10
-589.1535139858679
 20
350.9072973960328
 30
0.0
  0
VERTEX
  5
591
  8
1
  6
CONTINUOUS
 62
     7
 10
-589.1776939096483
 20
350.9114930108136
 30
0.0
  0
VERTEX
  5
592
  8
1
  6
CONTINUOUS
 62
     7
 10
-589.2020505767111
 20
350.9144971191673
 30
0.0
  0
VERTEX
  5
593
  8
1
  6
CONTINUOUS
 62
     7
 10
-589.2265253097122
 20
350.9163024839338
 30
0.0
  0
VERTEX
  5
594
  8
1
  6
CONTINUOUS
 62
     7
 10
-589.251059146876
 20
350.9169047558312
 30
0.0
  0
VERTEX
  5
595
  8
1
  6
CONTINUOUS
 62
     7
 10
-589.2755929840396
 20
350.9163024839338
 30
0.0
  0
VERTEX
  5
596
  8
1
  6
CONTINUOUS
 62
     7
 10
-589.3000677170406
 20
350.9144971191673
 30
0.0
  0
VERTEX
  5
597
  8
1
  6
CONTINUOUS
 62
     7
 10
-589.3244243841036
 20
350.9114930108136
 30
0.0
  0
VERTEX
  5
598
  8
1
  6
CONTINUOUS
 62
     7
 10
-589.348604307884
 20
350.9072973960328
 30
0.0
  0
VERTEX
  5
599
  8
1
  6
CONTINUOUS
 62
     7
 10
-589.3725492368276
 20
350.9019203824284
 30
0.0
  0
VERTEX
  5
59A
  8
1
  6
CONTINUOUS
 62
     7
 10
-589.3962014855032
 20
350.8953749236973
 30
0.0
  0
VERTEX
  5
59B
  8
1
  6
CONTINUOUS
 62
     7
 10
-589.419504073572
 20
350.8876767884227
 30
0.0
  0
VERTEX
  5
59C
  8
1
  6
CONTINUOUS
 62
     7
 10
-589.4424008630584
 20
350.8788445220868
 30
0.0
  0
VERTEX
  5
59D
  8
1
  6
CONTINUOUS
 62
     7
 10
-589.4648366935911
 20
350.8688994023929
 30
0.0
  0
VERTEX
  5
59E
  8
1
  6
CONTINUOUS
 62
     7
 10
-589.4867575152889
 20
350.8578653880054
 30
0.0
  0
VERTEX
  5
59F
  8
1
  6
CONTINUOUS
 62
     7
 10
-589.5081105189726
 20
350.8457690608313
 30
0.0
  0
VERTEX
  5
5A0
  8
1
  6
CONTINUOUS
 62
     7
 10
-589.5288442633857
 20
350.8326395619824
 30
0.0
  0
VERTEX
  5
5A1
  8
1
  6
CONTINUOUS
 62
     7
 10
-589.5489087991222
 20
350.8185085215715
 30
0.0
  0
VERTEX
  5
5A2
  8
1
  6
CONTINUOUS
 62
     7
 10
-589.5682557889578
 20
350.8034099825126
 30
0.0
  0
VERTEX
  5
5A3
  8
1
  6
CONTINUOUS
 62
     7
 10
-589.5868386242995
 20
350.7873803185087
 30
0.0
  0
VERTEX
  5
5A4
  8
1
  6
CONTINUOUS
 62
     7
 10
-589.6046125374692
 20
350.7704581464245
 30
0.0
  0
SEQEND
  5
8FB
  8
1
  6
CONTINUOUS
 62
     7
  0
LINE
  5
11D
  8
1
  6
CONTINUOUS
 62
     7
 10
-589.6046125374692
 20
350.7704581464245
 30
0.0
 11
-593.1401464434019
 21
347.2349242404918
 31
0.0
  0
POLYLINE
  5
11E
  8
1
  6
CONTINUOUS
 62
     7
 66
     1
 10
0.0
 20
0.0
 30
0.0
  0
VERTEX
  5
5A5
  8
1
  6
CONTINUOUS
 62
     7
 10
-593.1401464434019
 20
347.2349242404918
 30
0.0
  0
VERTEX
  5
5A6
  8
1
  6
CONTINUOUS
 62
     7
 10
-593.1570686154861
 20
347.217150327322
 30
0.0
  0
VERTEX
  5
5A7
  8
1
  6
CONTINUOUS
 62
     7
 10
-593.1730982794901
 20
347.1985674919803
 30
0.0
  0
VERTEX
  5
5A8
  8
1
  6
CONTINUOUS
 62
     7
 10
-593.1881968185489
 20
347.1792205021447
 30
0.0
  0
VERTEX
  5
5A9
  8
1
  6
CONTINUOUS
 62
     7
 10
-593.20232785896
 20
347.1591559664083
 30
0.0
  0
VERTEX
  5
5AA
  8
1
  6
CONTINUOUS
 62
     7
 10
-593.2154573578088
 20
347.1384222219951
 30
0.0
  0
VERTEX
  5
5AB
  8
1
  6
CONTINUOUS
 62
     7
 10
-593.2275536849828
 20
347.1170692183115
 30
0.0
  0
VERTEX
  5
5AC
  8
1
  6
CONTINUOUS
 62
     7
 10
-593.2385876993704
 20
347.0951483966136
 30
0.0
  0
VERTEX
  5
5AD
  8
1
  6
CONTINUOUS
 62
     7
 10
-593.2485328190643
 20
347.072712566081
 30
0.0
  0
VERTEX
  5
5AE
  8
1
  6
CONTINUOUS
 62
     7
 10
-593.2573650854001
 20
347.0498157765945
 30
0.0
  0
VERTEX
  5
5AF
  8
1
  6
CONTINUOUS
 62
     7
 10
-593.2650632206747
 20
347.0265131885257
 30
0.0
  0
VERTEX
  5
5B0
  8
1
  6
CONTINUOUS
 62
     7
 10
-593.271608679406
 20
347.0028609398501
 30
0.0
  0
VERTEX
  5
5B1
  8
1
  6
CONTINUOUS
 62
     7
 10
-593.2769856930104
 20
346.9789160109065
 30
0.0
  0
VERTEX
  5
5B2
  8
1
  6
CONTINUOUS
 62
     7
 10
-593.281181307791
 20
346.9547360871261
 30
0.0
  0
VERTEX
  5
5B3
  8
1
  6
CONTINUOUS
 62
     7
 10
-593.2841854161447
 20
346.9303794200632
 30
0.0
  0
VERTEX
  5
5B4
  8
1
  6
CONTINUOUS
 62
     7
 10
-593.2859907809112
 20
346.9059046870622
 30
0.0
  0
VERTEX
  5
5B5
  8
1
  6
CONTINUOUS
 62
     7
 10
-593.2865930528087
 20
346.8813708498984
 30
0.0
  0
VERTEX
  5
5B6
  8
1
  6
CONTINUOUS
 62
     7
 10
-593.2859907809112
 20
346.8568370127347
 30
0.0
  0
VERTEX
  5
5B7
  8
1
  6
CONTINUOUS
 62
     7
 10
-593.2841854161447
 20
346.8323622797337
 30
0.0
  0
VERTEX
  5
5B8
  8
1
  6
CONTINUOUS
 62
     7
 10
-593.281181307791
 20
346.8080056126708
 30
0.0
  0
VERTEX
  5
5B9
  8
1
  6
CONTINUOUS
 62
     7
 10
-593.2769856930104
 20
346.7838256888904
 30
0.0
  0
VERTEX
  5
5BA
  8
1
  6
CONTINUOUS
 62
     7
 10
-593.271608679406
 20
346.7598807599468
 30
0.0
  0
VERTEX
  5
5BB
  8
1
  6
CONTINUOUS
 62
     7
 10
-593.2650632206747
 20
346.7362285112712
 30
0.0
  0
VERTEX
  5
5BC
  8
1
  6
CONTINUOUS
 62
     7
 10
-593.2573650854001
 20
346.7129259232024
 30
0.0
  0
VERTEX
  5
5BD
  8
1
  6
CONTINUOUS
 62
     7
 10
-593.2485328190643
 20
346.6900291337159
 30
0.0
  0
VERTEX
  5
5BE
  8
1
  6
CONTINUOUS
 62
     7
 10
-593.2385876993704
 20
346.6675933031833
 30
0.0
  0
VERTEX
  5
5BF
  8
1
  6
CONTINUOUS
 62
     7
 10
-593.2275536849828
 20
346.6456724814855
 30
0.0
  0
VERTEX
  5
5C0
  8
1
  6
CONTINUOUS
 62
     7
 10
-593.2154573578088
 20
346.6243194778019
 30
0.0
  0
VERTEX
  5
5C1
  8
1
  6
CONTINUOUS
 62
     7
 10
-593.20232785896
 20
346.6035857333887
 30
0.0
  0
VERTEX
  5
5C2
  8
1
  6
CONTINUOUS
 62
     7
 10
-593.1881968185489
 20
346.5835211976522
 30
0.0
  0
VERTEX
  5
5C3
  8
1
  6
CONTINUOUS
 62
     7
 10
-593.1730982794901
 20
346.5641742078166
 30
0.0
  0
VERTEX
  5
5C4
  8
1
  6
CONTINUOUS
 62
     7
 10
-593.1570686154861
 20
346.5455913724749
 30
0.0
  0
VERTEX
  5
5C5
  8
1
  6
CONTINUOUS
 62
     7
 10
-593.1401464434019
 20
346.5278174593051
 30
0.0
  0
SEQEND
  5
8FC
  8
1
  6
CONTINUOUS
 62
     7
  0
LINE
  5
11F
  8
1
  6
CONTINUOUS
 62
     7
 10
-593.1401464434019
 20
346.5278174593051
 30
0.0
 11
-591.1248921170202
 21
344.5125631329235
 31
0.0
  0
POLYLINE
  5
120
  8
1
  6
CONTINUOUS
 62
     7
 66
     1
 10
0.0
 20
0.0
 30
0.0
  0
VERTEX
  5
5C6
  8
1
  6
CONTINUOUS
 62
     7
 10
-591.1248921170202
 20
344.5125631329235
 30
0.0
  0
VERTEX
  5
5C7
  8
1
  6
CONTINUOUS
 62
     7
 10
-591.1071182038505
 20
344.4956409608393
 30
0.0
  0
VERTEX
  5
5C8
  8
1
  6
CONTINUOUS
 62
     7
 10
-591.0885353685088
 20
344.4796112968354
 30
0.0
  0
VERTEX
  5
5C9
  8
1
  6
CONTINUOUS
 62
     7
 10
-591.0691883786733
 20
344.4645127577764
 30
0.0
  0
VERTEX
  5
5CA
  8
1
  6
CONTINUOUS
 62
     7
 10
-591.0491238429369
 20
344.4503817173655
 30
0.0
  0
VERTEX
  5
5CB
  8
1
  6
CONTINUOUS
 62
     7
 10
-591.0283900985236
 20
344.4372522185167
 30
0.0
  0
VERTEX
  5
5CC
  8
1
  6
CONTINUOUS
 62
     7
 10
-591.00703709484
 20
344.4251558913426
 30
0.0
  0
VERTEX
  5
5CD
  8
1
  6
CONTINUOUS
 62
     7
 10
-590.9851162731422
 20
344.4141218769551
 30
0.0
  0
VERTEX
  5
5CE
  8
1
  6
CONTINUOUS
 62
     7
 10
-590.9626804426096
 20
344.4041767572612
 30
0.0
  0
VERTEX
  5
5CF
  8
1
  6
CONTINUOUS
 62
     7
 10
-590.9397836531232
 20
344.3953444909253
 30
0.0
  0
VERTEX
  5
5D0
  8
1
  6
CONTINUOUS
 62
     7
 10
-590.9164810650542
 20
344.3876463556506
 30
0.0
  0
VERTEX
  5
5D1
  8
1
  6
CONTINUOUS
 62
     7
 10
-590.8928288163786
 20
344.3811008969195
 30
0.0
  0
VERTEX
  5
5D2
  8
1
  6
CONTINUOUS
 62
     7
 10
-590.8688838874351
 20
344.3757238833152
 30
0.0
  0
VERTEX
  5
5D3
  8
1
  6
CONTINUOUS
 62
     7
 10
-590.8447039636548
 20
344.3715282685344
 30
0.0
  0
VERTEX
  5
5D4
  8
1
  6
CONTINUOUS
 62
     7
 10
-590.8203472965918
 20
344.3685241601807
 30
0.0
  0
VERTEX
  5
5D5
  8
1
  6
CONTINUOUS
 62
     7
 10
-590.7958725635907
 20
344.3667187954142
 30
0.0
  0
VERTEX
  5
5D6
  8
1
  6
CONTINUOUS
 62
     7
 10
-590.7713387264271
 20
344.3661165235168
 30
0.0
  0
VERTEX
  5
5D7
  8
1
  6
CONTINUOUS
 62
     7
 10
-590.7468048892633
 20
344.3667187954142
 30
0.0
  0
VERTEX
  5
5D8
  8
1
  6
CONTINUOUS
 62
     7
 10
-590.7223301562622
 20
344.3685241601807
 30
0.0
  0
VERTEX
  5
5D9
  8
1
  6
CONTINUOUS
 62
     7
 10
-590.6979734891993
 20
344.3715282685344
 30
0.0
  0
VERTEX
  5
5DA
  8
1
  6
CONTINUOUS
 62
     7
 10
-590.6737935654189
 20
344.3757238833152
 30
0.0
  0
VERTEX
  5
5DB
  8
1
  6
CONTINUOUS
 62
     7
 10
-590.6498486364754
 20
344.3811008969195
 30
0.0
  0
VERTEX
  5
5DC
  8
1
  6
CONTINUOUS
 62
     7
 10
-590.6261963877997
 20
344.3876463556506
 30
0.0
  0
VERTEX
  5
5DD
  8
1
  6
CONTINUOUS
 62
     7
 10
-590.6028937997309
 20
344.3953444909253
 30
0.0
  0
VERTEX
  5
5DE
  8
1
  6
CONTINUOUS
 62
     7
 10
-590.5799970102445
 20
344.4041767572612
 30
0.0
  0
VERTEX
  5
5DF
  8
1
  6
CONTINUOUS
 62
     7
 10
-590.5575611797119
 20
344.4141218769551
 30
0.0
  0
VERTEX
  5
5E0
  8
1
  6
CONTINUOUS
 62
     7
 10
-590.535640358014
 20
344.4251558913426
 30
0.0
  0
VERTEX
  5
5E1
  8
1
  6
CONTINUOUS
 62
     7
 10
-590.5142873543305
 20
344.4372522185167
 30
0.0
  0
VERTEX
  5
5E2
  8
1
  6
CONTINUOUS
 62
     7
 10
-590.4935536099172
 20
344.4503817173655
 30
0.0
  0
VERTEX
  5
5E3
  8
1
  6
CONTINUOUS
 62
     7
 10
-590.4734890741809
 20
344.4645127577764
 30
0.0
  0
VERTEX
  5
5E4
  8
1
  6
CONTINUOUS
 62
     7
 10
-590.4541420843452
 20
344.4796112968355
 30
0.0
  0
VERTEX
  5
5E5
  8
1
  6
CONTINUOUS
 62
     7
 10
-590.4355592490035
 20
344.4956409608394
 30
0.0
  0
VERTEX
  5
5E6
  8
1
  6
CONTINUOUS
 62
     7
 10
-590.4177853358337
 20
344.5125631329236
 30
0.0
  0
SEQEND
  5
8FD
  8
1
  6
CONTINUOUS
 62
     7
  0
LINE
  5
121
  8
1
  6
CONTINUOUS
 62
     7
 10
-590.4177853358337
 20
344.5125631329236
 30
0.0
 11
-590.2410086405371
 21
344.6893398282202
 31
0.0
  0
LINE
  5
122
  8
1
  6
CONTINUOUS
 62
     7
 10
-599.9983679534179
 20
344.6893398282201
 30
0.0
 11
-599.8215912581213
 21
344.5125631329236
 31
0.0
  0
POLYLINE
  5
123
  8
1
  6
CONTINUOUS
 62
     7
 66
     1
 10
0.0
 20
0.0
 30
0.0
  0
VERTEX
  5
5E7
  8
1
  6
CONTINUOUS
 62
     7
 10
-599.8215912581212
 20
344.5125631329235
 30
0.0
  0
VERTEX
  5
5E8
  8
1
  6
CONTINUOUS
 62
     7
 10
-599.8038173449514
 20
344.4956409608393
 30
0.0
  0
VERTEX
  5
5E9
  8
1
  6
CONTINUOUS
 62
     7
 10
-599.7852345096097
 20
344.4796112968354
 30
0.0
  0
VERTEX
  5
5EA
  8
1
  6
CONTINUOUS
 62
     7
 10
-599.7658875197741
 20
344.4645127577764
 30
0.0
  0
VERTEX
  5
5EB
  8
1
  6
CONTINUOUS
 62
     7
 10
-599.7458229840377
 20
344.4503817173655
 30
0.0
  0
VERTEX
  5
5EC
  8
1
  6
CONTINUOUS
 62
     7
 10
-599.7250892396245
 20
344.4372522185167
 30
0.0
  0
VERTEX
  5
5ED
  8
1
  6
CONTINUOUS
 62
     7
 10
-599.7037362359408
 20
344.4251558913426
 30
0.0
  0
VERTEX
  5
5EE
  8
1
  6
CONTINUOUS
 62
     7
 10
-599.681815414243
 20
344.4141218769551
 30
0.0
  0
VERTEX
  5
5EF
  8
1
  6
CONTINUOUS
 62
     7
 10
-599.6593795837105
 20
344.4041767572612
 30
0.0
  0
VERTEX
  5
5F0
  8
1
  6
CONTINUOUS
 62
     7
 10
-599.636482794224
 20
344.3953444909253
 30
0.0
  0
VERTEX
  5
5F1
  8
1
  6
CONTINUOUS
 62
     7
 10
-599.6131802061551
 20
344.3876463556506
 30
0.0
  0
VERTEX
  5
5F2
  8
1
  6
CONTINUOUS
 62
     7
 10
-599.5895279574795
 20
344.3811008969195
 30
0.0
  0
VERTEX
  5
5F3
  8
1
  6
CONTINUOUS
 62
     7
 10
-599.565583028536
 20
344.3757238833152
 30
0.0
  0
VERTEX
  5
5F4
  8
1
  6
CONTINUOUS
 62
     7
 10
-599.5414031047555
 20
344.3715282685344
 30
0.0
  0
VERTEX
  5
5F5
  8
1
  6
CONTINUOUS
 62
     7
 10
-599.5170464376927
 20
344.3685241601807
 30
0.0
  0
VERTEX
  5
5F6
  8
1
  6
CONTINUOUS
 62
     7
 10
-599.4925717046916
 20
344.3667187954142
 30
0.0
  0
VERTEX
  5
5F7
  8
1
  6
CONTINUOUS
 62
     7
 10
-599.4680378675279
 20
344.3661165235168
 30
0.0
  0
VERTEX
  5
5F8
  8
1
  6
CONTINUOUS
 62
     7
 10
-599.4435040303641
 20
344.3667187954142
 30
0.0
  0
VERTEX
  5
5F9
  8
1
  6
CONTINUOUS
 62
     7
 10
-599.4190292973631
 20
344.3685241601807
 30
0.0
  0
VERTEX
  5
5FA
  8
1
  6
CONTINUOUS
 62
     7
 10
-599.3946726303002
 20
344.3715282685344
 30
0.0
  0
VERTEX
  5
5FB
  8
1
  6
CONTINUOUS
 62
     7
 10
-599.3704927065198
 20
344.3757238833152
 30
0.0
  0
VERTEX
  5
5FC
  8
1
  6
CONTINUOUS
 62
     7
 10
-599.3465477775762
 20
344.3811008969195
 30
0.0
  0
VERTEX
  5
5FD
  8
1
  6
CONTINUOUS
 62
     7
 10
-599.3228955289007
 20
344.3876463556506
 30
0.0
  0
VERTEX
  5
5FE
  8
1
  6
CONTINUOUS
 62
     7
 10
-599.2995929408318
 20
344.3953444909253
 30
0.0
  0
VERTEX
  5
5FF
  8
1
  6
CONTINUOUS
 62
     7
 10
-599.2766961513454
 20
344.4041767572612
 30
0.0
  0
VERTEX
  5
600
  8
1
  6
CONTINUOUS
 62
     7
 10
-599.2542603208127
 20
344.4141218769551
 30
0.0
  0
VERTEX
  5
601
  8
1
  6
CONTINUOUS
 62
     7
 10
-599.2323394991149
 20
344.4251558913426
 30
0.0
  0
VERTEX
  5
602
  8
1
  6
CONTINUOUS
 62
     7
 10
-599.2109864954314
 20
344.4372522185167
 30
0.0
  0
VERTEX
  5
603
  8
1
  6
CONTINUOUS
 62
     7
 10
-599.1902527510181
 20
344.4503817173655
 30
0.0
  0
VERTEX
  5
604
  8
1
  6
CONTINUOUS
 62
     7
 10
-599.1701882152817
 20
344.4645127577764
 30
0.0
  0
VERTEX
  5
605
  8
1
  6
CONTINUOUS
 62
     7
 10
-599.1508412254461
 20
344.4796112968355
 30
0.0
  0
VERTEX
  5
606
  8
1
  6
CONTINUOUS
 62
     7
 10
-599.1322583901044
 20
344.4956409608394
 30
0.0
  0
VERTEX
  5
607
  8
1
  6
CONTINUOUS
 62
     7
 10
-599.1144844769346
 20
344.5125631329236
 30
0.0
  0
SEQEND
  5
8FE
  8
1
  6
CONTINUOUS
 62
     7
  0
LINE
  5
124
  8
1
  6
CONTINUOUS
 62
     7
 10
-599.1144844769346
 20
344.5125631329236
 30
0.0
 11
-597.0992301505529
 21
346.5278174593052
 31
0.0
  0
POLYLINE
  5
125
  8
1
  6
CONTINUOUS
 62
     7
 66
     1
 10
0.0
 20
0.0
 30
0.0
  0
VERTEX
  5
608
  8
1
  6
CONTINUOUS
 62
     7
 10
-597.099230150553
 20
346.5278174593052
 30
0.0
  0
VERTEX
  5
609
  8
1
  6
CONTINUOUS
 62
     7
 10
-597.0823079784687
 20
346.545591372475
 30
0.0
  0
VERTEX
  5
60A
  8
1
  6
CONTINUOUS
 62
     7
 10
-597.0662783144649
 20
346.5641742078166
 30
0.0
  0
VERTEX
  5
60B
  8
1
  6
CONTINUOUS
 62
     7
 10
-597.0511797754059
 20
346.5835211976522
 30
0.0
  0
VERTEX
  5
60C
  8
1
  6
CONTINUOUS
 62
     7
 10
-597.037048734995
 20
346.6035857333887
 30
0.0
  0
VERTEX
  5
60D
  8
1
  6
CONTINUOUS
 62
     7
 10
-597.0239192361462
 20
346.6243194778019
 30
0.0
  0
VERTEX
  5
60E
  8
1
  6
CONTINUOUS
 62
     7
 10
-597.011822908972
 20
346.6456724814855
 30
0.0
  0
VERTEX
  5
60F
  8
1
  6
CONTINUOUS
 62
     7
 10
-597.0007888945845
 20
346.6675933031833
 30
0.0
  0
VERTEX
  5
610
  8
1
  6
CONTINUOUS
 62
     7
 10
-596.9908437748907
 20
346.6900291337159
 30
0.0
  0
VERTEX
  5
611
  8
1
  6
CONTINUOUS
 62
     7
 10
-596.9820115085548
 20
346.7129259232024
 30
0.0
  0
VERTEX
  5
612
  8
1
  6
CONTINUOUS
 62
     7
 10
-596.9743133732801
 20
346.7362285112712
 30
0.0
  0
VERTEX
  5
613
  8
1
  6
CONTINUOUS
 62
     7
 10
-596.967767914549
 20
346.7598807599468
 30
0.0
  0
VERTEX
  5
614
  8
1
  6
CONTINUOUS
 62
     7
 10
-596.9623909009446
 20
346.7838256888904
 30
0.0
  0
VERTEX
  5
615
  8
1
  6
CONTINUOUS
 62
     7
 10
-596.9581952861639
 20
346.8080056126708
 30
0.0
  0
VERTEX
  5
616
  8
1
  6
CONTINUOUS
 62
     7
 10
-596.9551911778101
 20
346.8323622797337
 30
0.0
  0
VERTEX
  5
617
  8
1
  6
CONTINUOUS
 62
     7
 10
-596.9533858130437
 20
346.8568370127347
 30
0.0
  0
VERTEX
  5
618
  8
1
  6
CONTINUOUS
 62
     7
 10
-596.9527835411462
 20
346.8813708498984
 30
0.0
  0
VERTEX
  5
619
  8
1
  6
CONTINUOUS
 62
     7
 10
-596.9533858130437
 20
346.9059046870622
 30
0.0
  0
VERTEX
  5
61A
  8
1
  6
CONTINUOUS
 62
     7
 10
-596.9551911778101
 20
346.9303794200633
 30
0.0
  0
VERTEX
  5
61B
  8
1
  6
CONTINUOUS
 62
     7
 10
-596.9581952861639
 20
346.9547360871261
 30
0.0
  0
VERTEX
  5
61C
  8
1
  6
CONTINUOUS
 62
     7
 10
-596.9623909009446
 20
346.9789160109065
 30
0.0
  0
VERTEX
  5
61D
  8
1
  6
CONTINUOUS
 62
     7
 10
-596.967767914549
 20
347.0028609398501
 30
0.0
  0
VERTEX
  5
61E
  8
1
  6
CONTINUOUS
 62
     7
 10
-596.9743133732801
 20
347.0265131885257
 30
0.0
  0
VERTEX
  5
61F
  8
1
  6
CONTINUOUS
 62
     7
 10
-596.9820115085548
 20
347.0498157765945
 30
0.0
  0
VERTEX
  5
620
  8
1
  6
CONTINUOUS
 62
     7
 10
-596.9908437748907
 20
347.072712566081
 30
0.0
  0
VERTEX
  5
621
  8
1
  6
CONTINUOUS
 62
     7
 10
-597.0007888945845
 20
347.0951483966136
 30
0.0
  0
VERTEX
  5
622
  8
1
  6
CONTINUOUS
 62
     7
 10
-597.011822908972
 20
347.1170692183115
 30
0.0
  0
VERTEX
  5
623
  8
1
  6
CONTINUOUS
 62
     7
 10
-597.0239192361462
 20
347.1384222219951
 30
0.0
  0
VERTEX
  5
624
  8
1
  6
CONTINUOUS
 62
     7
 10
-597.037048734995
 20
347.1591559664083
 30
0.0
  0
VERTEX
  5
625
  8
1
  6
CONTINUOUS
 62
     7
 10
-597.0511797754059
 20
347.1792205021447
 30
0.0
  0
VERTEX
  5
626
  8
1
  6
CONTINUOUS
 62
     7
 10
-597.0662783144649
 20
347.1985674919803
 30
0.0
  0
VERTEX
  5
627
  8
1
  6
CONTINUOUS
 62
     7
 10
-597.0823079784687
 20
347.217150327322
 30
0.0
  0
VERTEX
  5
628
  8
1
  6
CONTINUOUS
 62
     7
 10
-597.099230150553
 20
347.2349242404918
 30
0.0
  0
SEQEND
  5
8FF
  8
1
  6
CONTINUOUS
 62
     7
  0
LINE
  5
126
  8
1
  6
CONTINUOUS
 62
     7
 10
-597.099230150553
 20
347.2349242404918
 30
0.0
 11
-600.6347640564858
 21
350.7704581464245
 31
0.0
  0
POLYLINE
  5
127
  8
1
  6
CONTINUOUS
 62
     7
 66
     1
 10
0.0
 20
0.0
 30
0.0
  0
VERTEX
  5
629
  8
1
  6
CONTINUOUS
 62
     7
 10
-600.6347640564858
 20
350.7704581464245
 30
0.0
  0
VERTEX
  5
62A
  8
1
  6
CONTINUOUS
 62
     7
 10
-600.6525379696554
 20
350.7873803185087
 30
0.0
  0
VERTEX
  5
62B
  8
1
  6
CONTINUOUS
 62
     7
 10
-600.6711208049971
 20
350.8034099825126
 30
0.0
  0
VERTEX
  5
62C
  8
1
  6
CONTINUOUS
 62
     7
 10
-600.6904677948328
 20
350.8185085215715
 30
0.0
  0
VERTEX
  5
62D
  8
1
  6
CONTINUOUS
 62
     7
 10
-600.7105323305691
 20
350.8326395619824
 30
0.0
  0
VERTEX
  5
62E
  8
1
  6
CONTINUOUS
 62
     7
 10
-600.7312660749824
 20
350.8457690608313
 30
0.0
  0
VERTEX
  5
62F
  8
1
  6
CONTINUOUS
 62
     7
 10
-600.7526190786659
 20
350.8578653880054
 30
0.0
  0
VERTEX
  5
630
  8
1
  6
CONTINUOUS
 62
     7
 10
-600.7745399003638
 20
350.8688994023929
 30
0.0
  0
VERTEX
  5
631
  8
1
  6
CONTINUOUS
 62
     7
 10
-600.7969757308964
 20
350.8788445220868
 30
0.0
  0
VERTEX
  5
632
  8
1
  6
CONTINUOUS
 62
     7
 10
-600.8198725203829
 20
350.8876767884227
 30
0.0
  0
VERTEX
  5
633
  8
1
  6
CONTINUOUS
 62
     7
 10
-600.8431751084518
 20
350.8953749236973
 30
0.0
  0
VERTEX
  5
634
  8
1
  6
CONTINUOUS
 62
     7
 10
-600.8668273571274
 20
350.9019203824284
 30
0.0
  0
VERTEX
  5
635
  8
1
  6
CONTINUOUS
 62
     7
 10
-600.8907722860708
 20
350.9072973960328
 30
0.0
  0
VERTEX
  5
636
  8
1
  6
CONTINUOUS
 62
     7
 10
-600.9149522098513
 20
350.9114930108136
 30
0.0
  0
VERTEX
  5
637
  8
1
  6
CONTINUOUS
 62
     7
 10
-600.9393088769143
 20
350.9144971191673
 30
0.0
  0
VERTEX
  5
638
  8
1
  6
CONTINUOUS
 62
     7
 10
-600.9637836099153
 20
350.9163024839338
 30
0.0
  0
VERTEX
  5
639
  8
1
  6
CONTINUOUS
 62
     7
 10
-600.988317447079
 20
350.9169047558312
 30
0.0
  0
VERTEX
  5
63A
  8
1
  6
CONTINUOUS
 62
     7
 10
-601.0128512842427
 20
350.9163024839338
 30
0.0
  0
VERTEX
  5
63B
  8
1
  6
CONTINUOUS
 62
     7
 10
-601.0373260172438
 20
350.9144971191673
 30
0.0
  0
VERTEX
  5
63C
  8
1
  6
CONTINUOUS
 62
     7
 10
-601.0616826843067
 20
350.9114930108136
 30
0.0
  0
VERTEX
  5
63D
  8
1
  6
CONTINUOUS
 62
     7
 10
-601.085862608087
 20
350.9072973960328
 30
0.0
  0
VERTEX
  5
63E
  8
1
  6
CONTINUOUS
 62
     7
 10
-601.1098075370305
 20
350.9019203824284
 30
0.0
  0
VERTEX
  5
63F
  8
1
  6
CONTINUOUS
 62
     7
 10
-601.1334597857062
 20
350.8953749236973
 30
0.0
  0
VERTEX
  5
640
  8
1
  6
CONTINUOUS
 62
     7
 10
-601.1567623737751
 20
350.8876767884227
 30
0.0
  0
VERTEX
  5
641
  8
1
  6
CONTINUOUS
 62
     7
 10
-601.1796591632616
 20
350.8788445220868
 30
0.0
  0
VERTEX
  5
642
  8
1
  6
CONTINUOUS
 62
     7
 10
-601.2020949937942
 20
350.8688994023929
 30
0.0
  0
VERTEX
  5
643
  8
1
  6
CONTINUOUS
 62
     7
 10
-601.224015815492
 20
350.8578653880054
 30
0.0
  0
VERTEX
  5
644
  8
1
  6
CONTINUOUS
 62
     7
 10
-601.2453688191755
 20
350.8457690608313
 30
0.0
  0
VERTEX
  5
645
  8
1
  6
CONTINUOUS
 62
     7
 10
-601.2661025635888
 20
350.8326395619824
 30
0.0
  0
VERTEX
  5
646
  8
1
  6
CONTINUOUS
 62
     7
 10
-601.2861670993252
 20
350.8185085215715
 30
0.0
  0
VERTEX
  5
647
  8
1
  6
CONTINUOUS
 62
     7
 10
-601.3055140891607
 20
350.8034099825126
 30
0.0
  0
VERTEX
  5
648
  8
1
  6
CONTINUOUS
 62
     7
 10
-601.3240969245024
 20
350.7873803185087
 30
0.0
  0
VERTEX
  5
649
  8
1
  6
CONTINUOUS
 62
     7
 10
-601.3418708376723
 20
350.7704581464245
 30
0.0
  0
SEQEND
  5
900
  8
1
  6
CONTINUOUS
 62
     7
  0
LINE
  5
128
  8
1
  6
CONTINUOUS
 62
     7
 10
-601.3418708376723
 20
350.7704581464245
 30
0.0
 11
-603.357125164054
 21
348.7552038200428
 31
0.0
  0
POLYLINE
  5
129
  8
1
  6
CONTINUOUS
 62
     7
 66
     1
 10
0.0
 20
0.0
 30
0.0
  0
VERTEX
  5
64A
  8
1
  6
CONTINUOUS
 62
     7
 10
-603.357125164054
 20
348.7552038200428
 30
0.0
  0
VERTEX
  5
64B
  8
1
  6
CONTINUOUS
 62
     7
 10
-603.3740473361382
 20
348.737429906873
 30
0.0
  0
VERTEX
  5
64C
  8
1
  6
CONTINUOUS
 62
     7
 10
-603.390077000142
 20
348.7188470715314
 30
0.0
  0
VERTEX
  5
64D
  8
1
  6
CONTINUOUS
 62
     7
 10
-603.405175539201
 20
348.6995000816958
 30
0.0
  0
VERTEX
  5
64E
  8
1
  6
CONTINUOUS
 62
     7
 10
-603.419306579612
 20
348.6794355459593
 30
0.0
  0
VERTEX
  5
64F
  8
1
  6
CONTINUOUS
 62
     7
 10
-603.4324360784608
 20
348.6587018015462
 30
0.0
  0
VERTEX
  5
650
  8
1
  6
CONTINUOUS
 62
     7
 10
-603.4445324056348
 20
348.6373487978626
 30
0.0
  0
VERTEX
  5
651
  8
1
  6
CONTINUOUS
 62
     7
 10
-603.4555664200224
 20
348.6154279761647
 30
0.0
  0
VERTEX
  5
652
  8
1
  6
CONTINUOUS
 62
     7
 10
-603.4655115397163
 20
348.5929921456321
 30
0.0
  0
VERTEX
  5
653
  8
1
  6
CONTINUOUS
 62
     7
 10
-603.4743438060522
 20
348.5700953561457
 30
0.0
  0
VERTEX
  5
654
  8
1
  6
CONTINUOUS
 62
     7
 10
-603.4820419413268
 20
348.5467927680767
 30
0.0
  0
VERTEX
  5
655
  8
1
  6
CONTINUOUS
 62
     7
 10
-603.4885874000579
 20
348.5231405194012
 30
0.0
  0
VERTEX
  5
656
  8
1
  6
CONTINUOUS
 62
     7
 10
-603.4939644136623
 20
348.4991955904576
 30
0.0
  0
VERTEX
  5
657
  8
1
  6
CONTINUOUS
 62
     7
 10
-603.4981600284431
 20
348.4750156666772
 30
0.0
  0
VERTEX
  5
658
  8
1
  6
CONTINUOUS
 62
     7
 10
-603.5011641367968
 20
348.4506589996143
 30
0.0
  0
VERTEX
  5
659
  8
1
  6
CONTINUOUS
 62
     7
 10
-603.5029695015633
 20
348.4261842666132
 30
0.0
  0
VERTEX
  5
65A
  8
1
  6
CONTINUOUS
 62
     7
 10
-603.5035717734606
 20
348.4016504294495
 30
0.0
  0
VERTEX
  5
65B
  8
1
  6
CONTINUOUS
 62
     7
 10
-603.5029695015633
 20
348.3771165922858
 30
0.0
  0
VERTEX
  5
65C
  8
1
  6
CONTINUOUS
 62
     7
 10
-603.5011641367968
 20
348.3526418592847
 30
0.0
  0
VERTEX
  5
65D
  8
1
  6
CONTINUOUS
 62
     7
 10
-603.4981600284431
 20
348.3282851922219
 30
0.0
  0
VERTEX
  5
65E
  8
1
  6
CONTINUOUS
 62
     7
 10
-603.4939644136623
 20
348.3041052684414
 30
0.0
  0
VERTEX
  5
65F
  8
1
  6
CONTINUOUS
 62
     7
 10
-603.4885874000579
 20
348.2801603394979
 30
0.0
  0
VERTEX
  5
660
  8
1
  6
CONTINUOUS
 62
     7
 10
-603.4820419413268
 20
348.2565080908223
 30
0.0
  0
VERTEX
  5
661
  8
1
  6
CONTINUOUS
 62
     7
 10
-603.4743438060522
 20
348.2332055027534
 30
0.0
  0
VERTEX
  5
662
  8
1
  6
CONTINUOUS
 62
     7
 10
-603.4655115397163
 20
348.210308713267
 30
0.0
  0
VERTEX
  5
663
  8
1
  6
CONTINUOUS
 62
     7
 10
-603.4555664200224
 20
348.1878728827344
 30
0.0
  0
VERTEX
  5
664
  8
1
  6
CONTINUOUS
 62
     7
 10
-603.4445324056348
 20
348.1659520610365
 30
0.0
  0
VERTEX
  5
665
  8
1
  6
CONTINUOUS
 62
     7
 10
-603.4324360784608
 20
348.1445990573529
 30
0.0
  0
VERTEX
  5
666
  8
1
  6
CONTINUOUS
 62
     7
 10
-603.419306579612
 20
348.1238653129398
 30
0.0
  0
VERTEX
  5
667
  8
1
  6
CONTINUOUS
 62
     7
 10
-603.405175539201
 20
348.1038007772033
 30
0.0
  0
VERTEX
  5
668
  8
1
  6
CONTINUOUS
 62
     7
 10
-603.390077000142
 20
348.0844537873677
 30
0.0
  0
VERTEX
  5
669
  8
1
  6
CONTINUOUS
 62
     7
 10
-603.3740473361382
 20
348.065870952026
 30
0.0
  0
VERTEX
  5
66A
  8
1
  6
CONTINUOUS
 62
     7
 10
-603.357125164054
 20
348.0480970388563
 30
0.0
  0
SEQEND
  5
901
  8
1
  6
CONTINUOUS
 62
     7
  0
LINE
  5
12A
  8
1
  6
CONTINUOUS
 62
     7
 10
-603.357125164054
 20
348.0480970388563
 30
0.0
 11
-603.1803484687572
 21
347.8713203435596
 31
0.0
  0
ARC
  5
12B
  8
1
  6
CONTINUOUS
 62
     7
 10
-580.6269149521049
 20
363.8104370468394
 30
0.0
 40
32.2029157021883
 50
197.9601355791356
 51
223.4171746883667
  0
POLYLINE
  5
12C
  8
1
  6
CONTINUOUS
 62
     7
 66
     1
 10
0.0
 20
0.0
 30
0.0
  0
VERTEX
  5
66B
  8
1
  6
CONTINUOUS
 62
     7
 10
-611.2606240949456
 20
353.8805002960796
 30
0.0
  0
VERTEX
  5
66C
  8
1
  6
CONTINUOUS
 62
     7
 10
-612.1473803450161
 20
356.5183219434516
 30
0.0
  0
VERTEX
  5
66D
  8
1
  6
CONTINUOUS
 62
     7
 10
-612.9042497054089
 20
359.2014344267393
 30
0.0
  0
SEQEND
  5
902
  8
1
  6
CONTINUOUS
 62
     7
  0
LINE
  5
12D
  8
1
  6
CONTINUOUS
 62
     7
 10
-575.1550095842559
 20
377.499653944134
 30
0.0
 11
-575.1911787151677
 21
375.3784569519915
 31
0.0
  0
LINE
  5
12E
  8
1
  6
CONTINUOUS
 62
     7
 10
-575.1769992925563
 20
375.1407430530197
 30
0.0
 11
-575.1911787151677
 21
375.3784569519915
 31
0.0
  0
LINE
  5
12F
  8
1
  6
CONTINUOUS
 62
     7
 10
-575.1769992925563
 20
375.1407430530197
 30
0.0
 11
-575.1639457698984
 21
374.8404209408796
 31
0.0
  0
LINE
  5
130
  8
1
  6
CONTINUOUS
 62
     7
 10
-575.1639457698984
 20
374.8404209408796
 30
0.0
 11
-575.2442949564112
 21
373.0418660595384
 31
0.0
  0
LINE
  5
131
  8
1
  6
CONTINUOUS
 62
     7
 10
-615.0842907384282
 20
377.5004902066158
 30
0.0
 11
-615.048282844067
 21
379.6215430480085
 31
0.0
  0
LINE
  5
132
  8
1
  6
CONTINUOUS
 62
     7
 10
-615.0624506205579
 20
379.859256946981
 30
0.0
 11
-615.048282844067
 21
379.6215430480085
 31
0.0
  0
LINE
  5
133
  8
1
  6
CONTINUOUS
 62
     7
 10
-615.0624506205579
 20
379.859256946981
 30
0.0
 11
-615.0754482137951
 21
380.1590570827544
 31
0.0
  0
LINE
  5
134
  8
1
  6
CONTINUOUS
 62
     7
 10
-615.075448213795
 20
380.1590570827544
 30
0.0
 11
-614.9950632270569
 21
381.9584622410732
 31
0.0
  0
LINE
  5
135
  8
1
  6
CONTINUOUS
 62
     7
 10
-575.6268620867421
 20
386.4509164530928
 30
0.0
 11
-575.2442949564112
 21
381.9581339404617
 31
0.0
  0
LINE
  5
136
  8
1
  6
CONTINUOUS
 62
     7
 10
-575.2442949564112
 20
373.0418660595383
 30
0.0
 11
-575.6268620867421
 21
368.5490835469072
 31
0.0
  0
LINE
  5
137
  8
1
  6
CONTINUOUS
 62
     7
 10
-614.6125145038969
 20
368.5490835180225
 30
0.0
 11
-614.995063227057
 21
373.0415377589268
 31
0.0
  0
LINE
  5
138
  8
1
  6
CONTINUOUS
 62
     7
 10
-614.9950632270569
 20
381.9584622410732
 30
0.0
 11
-614.6125145038968
 21
386.4509164819774
 31
0.0
  0
LINE
  5
139
  8
1
  6
CONTINUOUS
 62
     9
 10
-613.2176045002303
 20
394.5253257355081
 30
0.0
 11
-613.2387034347497
 21
394.403386656331
 31
0.0
  0
LINE
  5
13A
  8
1
  6
CONTINUOUS
 62
     7
 10
-613.2176045002303
 20
394.5253257355081
 30
0.0
 11
-612.9042497054089
 21
395.7985655732607
 31
0.0
  0
LINE
  5
13B
  8
1
  6
CONTINUOUS
 62
     7
 10
-613.2176045002303
 20
360.4746742644919
 30
0.0
 11
-612.9042497054089
 21
359.2014344267393
 31
0.0
  0
LINE
  5
13C
  8
1
  6
CONTINUOUS
 62
     9
 10
-577.0217722715552
 20
360.4746735083567
 30
0.0
 11
-577.0023282722841
 21
360.5824912810952
 31
0.0
  0
LINE
  5
13D
  8
1
  6
CONTINUOUS
 62
     7
 10
-577.335126888546
 20
359.2014344267392
 30
0.0
 11
-577.0217722715552
 21
360.4746735083567
 31
0.0
  0
LINE
  5
13E
  8
1
  6
CONTINUOUS
 62
     7
 10
-577.335126888546
 20
395.7985655732608
 30
0.0
 11
-577.0217722715549
 21
394.5253264916423
 31
0.0
  0
LINE
  5
13F
  8
1
  6
CONTINUOUS
 62
     7
 10
-614.6125145038969
 20
386.4509164819774
 30
0.0
 11
-614.6118309949335
 21
386.4568684354565
 31
0.0
  0
LINE
  5
140
  8
1
  6
CONTINUOUS
 62
     7
 10
-614.6125145038969
 20
368.5490835180225
 30
0.0
 11
-614.6118309949335
 21
368.5431315645435
 31
0.0
  0
LINE
  5
141
  8
1
  6
CONTINUOUS
 62
     7
 10
-575.6275455972129
 20
386.4568684197143
 30
0.0
 11
-575.6268620867421
 21
386.4509164530928
 31
0.0
  0
LINE
  5
142
  8
1
  6
CONTINUOUS
 62
     7
 10
-575.6275455972129
 20
368.5431315802857
 30
0.0
 11
-575.6268620867421
 21
368.5490835469072
 31
0.0
  0
LINE
  5
143
  8
1
  6
CONTINUOUS
 62
     7
 10
-614.5213563990684
 20
367.7891246828499
 30
0.0
 11
-614.6118309949335
 21
368.5431315645435
 31
0.0
  0
LINE
  5
144
  8
1
  6
CONTINUOUS
 62
     7
 10
-614.6118309949335
 20
386.4568684354565
 30
0.0
 11
-614.5213563990684
 21
387.2108753171501
 31
0.0
  0
LINE
  5
145
  8
1
  6
CONTINUOUS
 62
     7
 10
-575.7180200934503
 20
387.2108745064992
 30
0.0
 11
-575.6275455972129
 21
386.4568684197144
 31
0.0
  0
LINE
  5
146
  8
1
  6
CONTINUOUS
 62
     7
 10
-575.6275455972129
 20
368.5431315802857
 30
0.0
 11
-575.7180200934503
 21
367.7891254935008
 31
0.0
  0
POLYLINE
  5
147
  8
1
  6
CONTINUOUS
 62
     7
 66
     1
 10
0.0
 20
0.0
 30
0.0
  0
VERTEX
  5
66E
  8
1
  6
CONTINUOUS
 62
     7
 10
-605.5196882969774
 20
410.4999999999999
 30
0.0
  0
VERTEX
  5
66F
  8
1
  6
CONTINUOUS
 62
     7
 10
-605.5190860250801
 20
410.4754661628363
 30
0.0
  0
VERTEX
  5
670
  8
1
  6
CONTINUOUS
 62
     7
 10
-605.5172806603136
 20
410.4509914298352
 30
0.0
  0
VERTEX
  5
671
  8
1
  6
CONTINUOUS
 62
     7
 10
-605.5142765519598
 20
410.4266347627723
 30
0.0
  0
VERTEX
  5
672
  8
1
  6
CONTINUOUS
 62
     7
 10
-605.510080937179
 20
410.402454838992
 30
0.0
  0
VERTEX
  5
673
  8
1
  6
CONTINUOUS
 62
     7
 10
-605.5047039235747
 20
410.3785099100484
 30
0.0
  0
VERTEX
  5
674
  8
1
  6
CONTINUOUS
 62
     7
 10
-605.4981584648435
 20
410.3548576613728
 30
0.0
  0
VERTEX
  5
675
  8
1
  6
CONTINUOUS
 62
     7
 10
-605.490460329569
 20
410.3315550733039
 30
0.0
  0
VERTEX
  5
676
  8
1
  6
CONTINUOUS
 62
     7
 10
-605.4816280632331
 20
410.3086582838175
 30
0.0
  0
VERTEX
  5
677
  8
1
  6
CONTINUOUS
 62
     7
 10
-605.4716829435391
 20
410.2862224532848
 30
0.0
  0
VERTEX
  5
678
  8
1
  6
CONTINUOUS
 62
     7
 10
-605.4606489291516
 20
410.264301631587
 30
0.0
  0
VERTEX
  5
679
  8
1
  6
CONTINUOUS
 62
     7
 10
-605.4485526019776
 20
410.2429486279034
 30
0.0
  0
VERTEX
  5
67A
  8
1
  6
CONTINUOUS
 62
     7
 10
-605.4354231031286
 20
410.2222148834902
 30
0.0
  0
VERTEX
  5
67B
  8
1
  6
CONTINUOUS
 62
     7
 10
-605.4212920627177
 20
410.2021503477537
 30
0.0
  0
VERTEX
  5
67C
  8
1
  6
CONTINUOUS
 62
     7
 10
-605.4061935236589
 20
410.1828033579181
 30
0.0
  0
VERTEX
  5
67D
  8
1
  6
CONTINUOUS
 62
     7
 10
-605.3901638596549
 20
410.1642205225765
 30
0.0
  0
VERTEX
  5
67E
  8
1
  6
CONTINUOUS
 62
     7
 10
-605.3732416875707
 20
410.1464466094067
 30
0.0
  0
VERTEX
  5
67F
  8
1
  6
CONTINUOUS
 62
     7
 10
-605.355467774401
 20
410.1295244373225
 30
0.0
  0
VERTEX
  5
680
  8
1
  6
CONTINUOUS
 62
     7
 10
-605.3368849390594
 20
410.1134947733186
 30
0.0
  0
VERTEX
  5
681
  8
1
  6
CONTINUOUS
 62
     7
 10
-605.3175379492237
 20
410.0983962342597
 30
0.0
  0
VERTEX
  5
682
  8
1
  6
CONTINUOUS
 62
     7
 10
-605.2974734134873
 20
410.0842651938487
 30
0.0
  0
VERTEX
  5
683
  8
1
  6
CONTINUOUS
 62
     7
 10
-605.2767396690741
 20
410.0711356949998
 30
0.0
  0
VERTEX
  5
684
  8
1
  6
CONTINUOUS
 62
     7
 10
-605.2553866653905
 20
410.0590393678258
 30
0.0
  0
VERTEX
  5
685
  8
1
  6
CONTINUOUS
 62
     7
 10
-605.2334658436927
 20
410.0480053534383
 30
0.0
  0
VERTEX
  5
686
  8
1
  6
CONTINUOUS
 62
     7
 10
-605.21103001316
 20
410.0380602337443
 30
0.0
  0
VERTEX
  5
687
  8
1
  6
CONTINUOUS
 62
     7
 10
-605.1881332236736
 20
410.0292279674085
 30
0.0
  0
VERTEX
  5
688
  8
1
  6
CONTINUOUS
 62
     7
 10
-605.1648306356046
 20
410.0215298321339
 30
0.0
  0
VERTEX
  5
689
  8
1
  6
CONTINUOUS
 62
     7
 10
-605.1411783869291
 20
410.0149843734027
 30
0.0
  0
VERTEX
  5
68A
  8
1
  6
CONTINUOUS
 62
     7
 10
-605.1172334579855
 20
410.0096073597984
 30
0.0
  0
VERTEX
  5
68B
  8
1
  6
CONTINUOUS
 62
     7
 10
-605.0930535342052
 20
410.0054117450176
 30
0.0
  0
VERTEX
  5
68C
  8
1
  6
CONTINUOUS
 62
     7
 10
-605.0686968671423
 20
410.0024076366639
 30
0.0
  0
VERTEX
  5
68D
  8
1
  6
CONTINUOUS
 62
     7
 10
-605.0442221341413
 20
410.0006022718974
 30
0.0
  0
VERTEX
  5
68E
  8
1
  6
CONTINUOUS
 62
     7
 10
-605.0196882969775
 20
410.0
 30
0.0
  0
SEQEND
  5
903
  8
1
  6
CONTINUOUS
 62
     7
  0
LINE
  5
148
  8
1
  6
CONTINUOUS
 62
     7
 10
-605.5196882969774
 20
410.7164396139381
 30
0.0
 11
-605.5196882969774
 21
410.4999999999999
 31
0.0
  0
LINE
  5
149
  8
1
  6
CONTINUOUS
 62
     7
 10
-603.0196882969775
 20
410.4999999999999
 30
0.0
 11
-603.0196882969775
 21
410.7164396139381
 31
0.0
  0
POLYLINE
  5
14A
  8
1
  6
CONTINUOUS
 62
     7
 66
     1
 10
0.0
 20
0.0
 30
0.0
  0
VERTEX
  5
68F
  8
1
  6
CONTINUOUS
 62
     7
 10
-603.5196882969774
 20
410.0
 30
0.0
  0
VERTEX
  5
690
  8
1
  6
CONTINUOUS
 62
     7
 10
-603.4951544598138
 20
410.0006022718974
 30
0.0
  0
VERTEX
  5
691
  8
1
  6
CONTINUOUS
 62
     7
 10
-603.4706797268127
 20
410.0024076366639
 30
0.0
  0
VERTEX
  5
692
  8
1
  6
CONTINUOUS
 62
     7
 10
-603.4463230597497
 20
410.0054117450176
 30
0.0
  0
VERTEX
  5
693
  8
1
  6
CONTINUOUS
 62
     7
 10
-603.4221431359695
 20
410.0096073597984
 30
0.0
  0
VERTEX
  5
694
  8
1
  6
CONTINUOUS
 62
     7
 10
-603.3981982070259
 20
410.0149843734027
 30
0.0
  0
VERTEX
  5
695
  8
1
  6
CONTINUOUS
 62
     7
 10
-603.3745459583503
 20
410.0215298321339
 30
0.0
  0
VERTEX
  5
696
  8
1
  6
CONTINUOUS
 62
     7
 10
-603.3512433702813
 20
410.0292279674085
 30
0.0
  0
VERTEX
  5
697
  8
1
  6
CONTINUOUS
 62
     7
 10
-603.3283465807949
 20
410.0380602337443
 30
0.0
  0
VERTEX
  5
698
  8
1
  6
CONTINUOUS
 62
     7
 10
-603.3059107502622
 20
410.0480053534383
 30
0.0
  0
VERTEX
  5
699
  8
1
  6
CONTINUOUS
 62
     7
 10
-603.2839899285644
 20
410.0590393678258
 30
0.0
  0
VERTEX
  5
69A
  8
1
  6
CONTINUOUS
 62
     7
 10
-603.2626369248809
 20
410.0711356949998
 30
0.0
  0
VERTEX
  5
69B
  8
1
  6
CONTINUOUS
 62
     7
 10
-603.2419031804676
 20
410.0842651938487
 30
0.0
  0
VERTEX
  5
69C
  8
1
  6
CONTINUOUS
 62
     7
 10
-603.2218386447312
 20
410.0983962342597
 30
0.0
  0
VERTEX
  5
69D
  8
1
  6
CONTINUOUS
 62
     7
 10
-603.2024916548957
 20
410.1134947733186
 30
0.0
  0
VERTEX
  5
69E
  8
1
  6
CONTINUOUS
 62
     7
 10
-603.183908819554
 20
410.1295244373225
 30
0.0
  0
VERTEX
  5
69F
  8
1
  6
CONTINUOUS
 62
     7
 10
-603.1661349063842
 20
410.1464466094067
 30
0.0
  0
VERTEX
  5
6A0
  8
1
  6
CONTINUOUS
 62
     7
 10
-603.1492127343
 20
410.1642205225765
 30
0.0
  0
VERTEX
  5
6A1
  8
1
  6
CONTINUOUS
 62
     7
 10
-603.133183070296
 20
410.1828033579181
 30
0.0
  0
VERTEX
  5
6A2
  8
1
  6
CONTINUOUS
 62
     7
 10
-603.1180845312372
 20
410.2021503477537
 30
0.0
  0
VERTEX
  5
6A3
  8
1
  6
CONTINUOUS
 62
     7
 10
-603.1039534908263
 20
410.2222148834902
 30
0.0
  0
VERTEX
  5
6A4
  8
1
  6
CONTINUOUS
 62
     7
 10
-603.0908239919773
 20
410.2429486279034
 30
0.0
  0
VERTEX
  5
6A5
  8
1
  6
CONTINUOUS
 62
     7
 10
-603.0787276648033
 20
410.264301631587
 30
0.0
  0
VERTEX
  5
6A6
  8
1
  6
CONTINUOUS
 62
     7
 10
-603.0676936504158
 20
410.2862224532848
 30
0.0
  0
VERTEX
  5
6A7
  8
1
  6
CONTINUOUS
 62
     7
 10
-603.0577485307218
 20
410.3086582838175
 30
0.0
  0
VERTEX
  5
6A8
  8
1
  6
CONTINUOUS
 62
     7
 10
-603.048916264386
 20
410.3315550733039
 30
0.0
  0
VERTEX
  5
6A9
  8
1
  6
CONTINUOUS
 62
     7
 10
-603.0412181291114
 20
410.3548576613728
 30
0.0
  0
VERTEX
  5
6AA
  8
1
  6
CONTINUOUS
 62
     7
 10
-603.0346726703802
 20
410.3785099100484
 30
0.0
  0
VERTEX
  5
6AB
  8
1
  6
CONTINUOUS
 62
     7
 10
-603.0292956567758
 20
410.402454838992
 30
0.0
  0
VERTEX
  5
6AC
  8
1
  6
CONTINUOUS
 62
     7
 10
-603.0251000419951
 20
410.4266347627723
 30
0.0
  0
VERTEX
  5
6AD
  8
1
  6
CONTINUOUS
 62
     7
 10
-603.0220959336414
 20
410.4509914298352
 30
0.0
  0
VERTEX
  5
6AE
  8
1
  6
CONTINUOUS
 62
     7
 10
-603.0202905688749
 20
410.4754661628363
 30
0.0
  0
VERTEX
  5
6AF
  8
1
  6
CONTINUOUS
 62
     7
 10
-603.0196882969775
 20
410.4999999999999
 30
0.0
  0
SEQEND
  5
904
  8
1
  6
CONTINUOUS
 62
     7
  0
LINE
  5
14B
  8
1
  6
CONTINUOUS
 62
     7
 10
-605.0196882969775
 20
410.0
 30
0.0
 11
-603.5196882969775
 21
410.0
 31
0.0
  0
POLYLINE
  5
14C
  8
1
  6
CONTINUOUS
 62
     7
 66
     1
 10
0.0
 20
0.0
 30
0.0
  0
VERTEX
  5
6B0
  8
1
  6
CONTINUOUS
 62
     7
 10
-603.5196882969774
 20
344.9999999999999
 30
0.0
  0
VERTEX
  5
6B1
  8
1
  6
CONTINUOUS
 62
     7
 10
-603.4951544598138
 20
344.9993977281026
 30
0.0
  0
VERTEX
  5
6B2
  8
1
  6
CONTINUOUS
 62
     7
 10
-603.4706797268127
 20
344.9975923633361
 30
0.0
  0
VERTEX
  5
6B3
  8
1
  6
CONTINUOUS
 62
     7
 10
-603.4463230597497
 20
344.9945882549824
 30
0.0
  0
VERTEX
  5
6B4
  8
1
  6
CONTINUOUS
 62
     7
 10
-603.4221431359695
 20
344.9903926402016
 30
0.0
  0
VERTEX
  5
6B5
  8
1
  6
CONTINUOUS
 62
     7
 10
-603.3981982070259
 20
344.9850156265973
 30
0.0
  0
VERTEX
  5
6B6
  8
1
  6
CONTINUOUS
 62
     7
 10
-603.3745459583503
 20
344.9784701678661
 30
0.0
  0
VERTEX
  5
6B7
  8
1
  6
CONTINUOUS
 62
     7
 10
-603.3512433702813
 20
344.9707720325915
 30
0.0
  0
VERTEX
  5
6B8
  8
1
  6
CONTINUOUS
 62
     7
 10
-603.3283465807949
 20
344.9619397662557
 30
0.0
  0
VERTEX
  5
6B9
  8
1
  6
CONTINUOUS
 62
     7
 10
-603.3059107502622
 20
344.9519946465617
 30
0.0
  0
VERTEX
  5
6BA
  8
1
  6
CONTINUOUS
 62
     7
 10
-603.2839899285644
 20
344.9409606321742
 30
0.0
  0
VERTEX
  5
6BB
  8
1
  6
CONTINUOUS
 62
     7
 10
-603.2626369248809
 20
344.9288643050001
 30
0.0
  0
VERTEX
  5
6BC
  8
1
  6
CONTINUOUS
 62
     7
 10
-603.2419031804676
 20
344.9157348061513
 30
0.0
  0
VERTEX
  5
6BD
  8
1
  6
CONTINUOUS
 62
     7
 10
-603.2218386447312
 20
344.9016037657403
 30
0.0
  0
VERTEX
  5
6BE
  8
1
  6
CONTINUOUS
 62
     7
 10
-603.2024916548957
 20
344.8865052266813
 30
0.0
  0
VERTEX
  5
6BF
  8
1
  6
CONTINUOUS
 62
     7
 10
-603.183908819554
 20
344.8704755626775
 30
0.0
  0
VERTEX
  5
6C0
  8
1
  6
CONTINUOUS
 62
     7
 10
-603.1661349063842
 20
344.8535533905933
 30
0.0
  0
VERTEX
  5
6C1
  8
1
  6
CONTINUOUS
 62
     7
 10
-603.1492127343
 20
344.8357794774235
 30
0.0
  0
VERTEX
  5
6C2
  8
1
  6
CONTINUOUS
 62
     7
 10
-603.133183070296
 20
344.8171966420818
 30
0.0
  0
VERTEX
  5
6C3
  8
1
  6
CONTINUOUS
 62
     7
 10
-603.1180845312372
 20
344.7978496522462
 30
0.0
  0
VERTEX
  5
6C4
  8
1
  6
CONTINUOUS
 62
     7
 10
-603.1039534908263
 20
344.7777851165098
 30
0.0
  0
VERTEX
  5
6C5
  8
1
  6
CONTINUOUS
 62
     7
 10
-603.0908239919773
 20
344.7570513720966
 30
0.0
  0
VERTEX
  5
6C6
  8
1
  6
CONTINUOUS
 62
     7
 10
-603.0787276648033
 20
344.735698368413
 30
0.0
  0
VERTEX
  5
6C7
  8
1
  6
CONTINUOUS
 62
     7
 10
-603.0676936504158
 20
344.7137775467152
 30
0.0
  0
VERTEX
  5
6C8
  8
1
  6
CONTINUOUS
 62
     7
 10
-603.0577485307218
 20
344.6913417161825
 30
0.0
  0
VERTEX
  5
6C9
  8
1
  6
CONTINUOUS
 62
     7
 10
-603.048916264386
 20
344.6684449266961
 30
0.0
  0
VERTEX
  5
6CA
  8
1
  6
CONTINUOUS
 62
     7
 10
-603.0412181291114
 20
344.6451423386272
 30
0.0
  0
VERTEX
  5
6CB
  8
1
  6
CONTINUOUS
 62
     7
 10
-603.0346726703802
 20
344.6214900899516
 30
0.0
  0
VERTEX
  5
6CC
  8
1
  6
CONTINUOUS
 62
     7
 10
-603.0292956567758
 20
344.597545161008
 30
0.0
  0
VERTEX
  5
6CD
  8
1
  6
CONTINUOUS
 62
     7
 10
-603.0251000419951
 20
344.5733652372277
 30
0.0
  0
VERTEX
  5
6CE
  8
1
  6
CONTINUOUS
 62
     7
 10
-603.0220959336414
 20
344.5490085701648
 30
0.0
  0
VERTEX
  5
6CF
  8
1
  6
CONTINUOUS
 62
     7
 10
-603.0202905688749
 20
344.5245338371637
 30
0.0
  0
VERTEX
  5
6D0
  8
1
  6
CONTINUOUS
 62
     7
 10
-603.0196882969775
 20
344.5
 30
0.0
  0
SEQEND
  5
905
  8
1
  6
CONTINUOUS
 62
     7
  0
LINE
  5
14D
  8
1
  6
CONTINUOUS
 62
     7
 10
-603.0196882969775
 20
344.5
 30
0.0
 11
-603.0196882969775
 21
344.2835603860619
 31
0.0
  0
LINE
  5
14E
  8
1
  6
CONTINUOUS
 62
     7
 10
-605.5196882969774
 20
344.2835603860619
 30
0.0
 11
-605.5196882969774
 21
344.5
 31
0.0
  0
LINE
  5
14F
  8
1
  6
CONTINUOUS
 62
     7
 10
-605.0196882969775
 20
344.9999999999999
 30
0.0
 11
-603.5196882969775
 21
344.9999999999999
 31
0.0
  0
POLYLINE
  5
150
  8
1
  6
CONTINUOUS
 62
     7
 66
     1
 10
0.0
 20
0.0
 30
0.0
  0
VERTEX
  5
6D1
  8
1
  6
CONTINUOUS
 62
     7
 10
-605.5196882969774
 20
344.5
 30
0.0
  0
VERTEX
  5
6D2
  8
1
  6
CONTINUOUS
 62
     7
 10
-605.5190860250801
 20
344.5245338371637
 30
0.0
  0
VERTEX
  5
6D3
  8
1
  6
CONTINUOUS
 62
     7
 10
-605.5172806603135
 20
344.5490085701648
 30
0.0
  0
VERTEX
  5
6D4
  8
1
  6
CONTINUOUS
 62
     7
 10
-605.5142765519598
 20
344.5733652372277
 30
0.0
  0
VERTEX
  5
6D5
  8
1
  6
CONTINUOUS
 62
     7
 10
-605.510080937179
 20
344.597545161008
 30
0.0
  0
VERTEX
  5
6D6
  8
1
  6
CONTINUOUS
 62
     7
 10
-605.5047039235747
 20
344.6214900899516
 30
0.0
  0
VERTEX
  5
6D7
  8
1
  6
CONTINUOUS
 62
     7
 10
-605.4981584648435
 20
344.6451423386272
 30
0.0
  0
VERTEX
  5
6D8
  8
1
  6
CONTINUOUS
 62
     7
 10
-605.490460329569
 20
344.6684449266961
 30
0.0
  0
VERTEX
  5
6D9
  8
1
  6
CONTINUOUS
 62
     7
 10
-605.4816280632331
 20
344.6913417161825
 30
0.0
  0
VERTEX
  5
6DA
  8
1
  6
CONTINUOUS
 62
     7
 10
-605.4716829435391
 20
344.7137775467152
 30
0.0
  0
VERTEX
  5
6DB
  8
1
  6
CONTINUOUS
 62
     7
 10
-605.4606489291516
 20
344.735698368413
 30
0.0
  0
VERTEX
  5
6DC
  8
1
  6
CONTINUOUS
 62
     7
 10
-605.4485526019776
 20
344.7570513720966
 30
0.0
  0
VERTEX
  5
6DD
  8
1
  6
CONTINUOUS
 62
     7
 10
-605.4354231031286
 20
344.7777851165098
 30
0.0
  0
VERTEX
  5
6DE
  8
1
  6
CONTINUOUS
 62
     7
 10
-605.4212920627177
 20
344.7978496522462
 30
0.0
  0
VERTEX
  5
6DF
  8
1
  6
CONTINUOUS
 62
     7
 10
-605.4061935236589
 20
344.8171966420818
 30
0.0
  0
VERTEX
  5
6E0
  8
1
  6
CONTINUOUS
 62
     7
 10
-605.3901638596549
 20
344.8357794774235
 30
0.0
  0
VERTEX
  5
6E1
  8
1
  6
CONTINUOUS
 62
     7
 10
-605.3732416875707
 20
344.8535533905933
 30
0.0
  0
VERTEX
  5
6E2
  8
1
  6
CONTINUOUS
 62
     7
 10
-605.355467774401
 20
344.8704755626775
 30
0.0
  0
VERTEX
  5
6E3
  8
1
  6
CONTINUOUS
 62
     7
 10
-605.3368849390592
 20
344.8865052266813
 30
0.0
  0
VERTEX
  5
6E4
  8
1
  6
CONTINUOUS
 62
     7
 10
-605.3175379492237
 20
344.9016037657403
 30
0.0
  0
VERTEX
  5
6E5
  8
1
  6
CONTINUOUS
 62
     7
 10
-605.2974734134873
 20
344.9157348061513
 30
0.0
  0
VERTEX
  5
6E6
  8
1
  6
CONTINUOUS
 62
     7
 10
-605.2767396690741
 20
344.9288643050001
 30
0.0
  0
VERTEX
  5
6E7
  8
1
  6
CONTINUOUS
 62
     7
 10
-605.2553866653905
 20
344.9409606321742
 30
0.0
  0
VERTEX
  5
6E8
  8
1
  6
CONTINUOUS
 62
     7
 10
-605.2334658436927
 20
344.9519946465617
 30
0.0
  0
VERTEX
  5
6E9
  8
1
  6
CONTINUOUS
 62
     7
 10
-605.21103001316
 20
344.9619397662557
 30
0.0
  0
VERTEX
  5
6EA
  8
1
  6
CONTINUOUS
 62
     7
 10
-605.1881332236736
 20
344.9707720325915
 30
0.0
  0
VERTEX
  5
6EB
  8
1
  6
CONTINUOUS
 62
     7
 10
-605.1648306356046
 20
344.9784701678661
 30
0.0
  0
VERTEX
  5
6EC
  8
1
  6
CONTINUOUS
 62
     7
 10
-605.1411783869291
 20
344.9850156265973
 30
0.0
  0
VERTEX
  5
6ED
  8
1
  6
CONTINUOUS
 62
     7
 10
-605.1172334579855
 20
344.9903926402016
 30
0.0
  0
VERTEX
  5
6EE
  8
1
  6
CONTINUOUS
 62
     7
 10
-605.0930535342052
 20
344.9945882549824
 30
0.0
  0
VERTEX
  5
6EF
  8
1
  6
CONTINUOUS
 62
     7
 10
-605.0686968671423
 20
344.9975923633361
 30
0.0
  0
VERTEX
  5
6F0
  8
1
  6
CONTINUOUS
 62
     7
 10
-605.0442221341413
 20
344.9993977281026
 30
0.0
  0
VERTEX
  5
6F1
  8
1
  6
CONTINUOUS
 62
     7
 10
-605.0196882969775
 20
344.9999999999999
 30
0.0
  0
SEQEND
  5
906
  8
1
  6
CONTINUOUS
 62
     7
  0
LINE
  5
151
  8
1
  6
CONTINUOUS
 62
     7
 10
-584.7196882969776
 20
344.2835603860619
 30
0.0
 11
-584.7196882969776
 21
344.4999999999999
 31
0.0
  0
LINE
  5
152
  8
1
  6
CONTINUOUS
 62
     7
 10
-587.2196882969774
 20
344.5
 30
0.0
 11
-587.2196882969774
 21
344.283560386062
 31
0.0
  0
POLYLINE
  5
153
  8
1
  6
CONTINUOUS
 62
     7
 66
     1
 10
0.0
 20
0.0
 30
0.0
  0
VERTEX
  5
6F2
  8
1
  6
CONTINUOUS
 62
     7
 10
-587.2196882969774
 20
344.5
 30
0.0
  0
VERTEX
  5
6F3
  8
1
  6
CONTINUOUS
 62
     7
 10
-587.2190860250801
 20
344.5245338371637
 30
0.0
  0
VERTEX
  5
6F4
  8
1
  6
CONTINUOUS
 62
     7
 10
-587.2172806603136
 20
344.5490085701648
 30
0.0
  0
VERTEX
  5
6F5
  8
1
  6
CONTINUOUS
 62
     7
 10
-587.2142765519599
 20
344.5733652372277
 30
0.0
  0
VERTEX
  5
6F6
  8
1
  6
CONTINUOUS
 62
     7
 10
-587.2100809371791
 20
344.597545161008
 30
0.0
  0
VERTEX
  5
6F7
  8
1
  6
CONTINUOUS
 62
     7
 10
-587.2047039235747
 20
344.6214900899516
 30
0.0
  0
VERTEX
  5
6F8
  8
1
  6
CONTINUOUS
 62
     7
 10
-587.1981584648436
 20
344.6451423386272
 30
0.0
  0
VERTEX
  5
6F9
  8
1
  6
CONTINUOUS
 62
     7
 10
-587.190460329569
 20
344.6684449266961
 30
0.0
  0
VERTEX
  5
6FA
  8
1
  6
CONTINUOUS
 62
     7
 10
-587.1816280632331
 20
344.6913417161825
 30
0.0
  0
VERTEX
  5
6FB
  8
1
  6
CONTINUOUS
 62
     7
 10
-587.1716829435392
 20
344.7137775467152
 30
0.0
  0
VERTEX
  5
6FC
  8
1
  6
CONTINUOUS
 62
     7
 10
-587.1606489291516
 20
344.735698368413
 30
0.0
  0
VERTEX
  5
6FD
  8
1
  6
CONTINUOUS
 62
     7
 10
-587.1485526019776
 20
344.7570513720966
 30
0.0
  0
VERTEX
  5
6FE
  8
1
  6
CONTINUOUS
 62
     7
 10
-587.1354231031287
 20
344.7777851165098
 30
0.0
  0
VERTEX
  5
6FF
  8
1
  6
CONTINUOUS
 62
     7
 10
-587.1212920627178
 20
344.7978496522462
 30
0.0
  0
VERTEX
  5
700
  8
1
  6
CONTINUOUS
 62
     7
 10
-587.1061935236589
 20
344.8171966420818
 30
0.0
  0
VERTEX
  5
701
  8
1
  6
CONTINUOUS
 62
     7
 10
-587.0901638596549
 20
344.8357794774235
 30
0.0
  0
VERTEX
  5
702
  8
1
  6
CONTINUOUS
 62
     7
 10
-587.0732416875707
 20
344.8535533905933
 30
0.0
  0
VERTEX
  5
703
  8
1
  6
CONTINUOUS
 62
     7
 10
-587.055467774401
 20
344.8704755626775
 30
0.0
  0
VERTEX
  5
704
  8
1
  6
CONTINUOUS
 62
     7
 10
-587.0368849390593
 20
344.8865052266813
 30
0.0
  0
VERTEX
  5
705
  8
1
  6
CONTINUOUS
 62
     7
 10
-587.0175379492238
 20
344.9016037657403
 30
0.0
  0
VERTEX
  5
706
  8
1
  6
CONTINUOUS
 62
     7
 10
-586.9974734134872
 20
344.9157348061513
 30
0.0
  0
VERTEX
  5
707
  8
1
  6
CONTINUOUS
 62
     7
 10
-586.976739669074
 20
344.9288643050001
 30
0.0
  0
VERTEX
  5
708
  8
1
  6
CONTINUOUS
 62
     7
 10
-586.9553866653905
 20
344.9409606321742
 30
0.0
  0
VERTEX
  5
709
  8
1
  6
CONTINUOUS
 62
     7
 10
-586.9334658436926
 20
344.9519946465617
 30
0.0
  0
VERTEX
  5
70A
  8
1
  6
CONTINUOUS
 62
     7
 10
-586.91103001316
 20
344.9619397662557
 30
0.0
  0
VERTEX
  5
70B
  8
1
  6
CONTINUOUS
 62
     7
 10
-586.8881332236735
 20
344.9707720325915
 30
0.0
  0
VERTEX
  5
70C
  8
1
  6
CONTINUOUS
 62
     7
 10
-586.8648306356047
 20
344.9784701678661
 30
0.0
  0
VERTEX
  5
70D
  8
1
  6
CONTINUOUS
 62
     7
 10
-586.8411783869291
 20
344.9850156265973
 30
0.0
  0
VERTEX
  5
70E
  8
1
  6
CONTINUOUS
 62
     7
 10
-586.8172334579855
 20
344.9903926402016
 30
0.0
  0
VERTEX
  5
70F
  8
1
  6
CONTINUOUS
 62
     7
 10
-586.7930535342052
 20
344.9945882549824
 30
0.0
  0
VERTEX
  5
710
  8
1
  6
CONTINUOUS
 62
     7
 10
-586.7686968671422
 20
344.9975923633361
 30
0.0
  0
VERTEX
  5
711
  8
1
  6
CONTINUOUS
 62
     7
 10
-586.7442221341412
 20
344.9993977281026
 30
0.0
  0
VERTEX
  5
712
  8
1
  6
CONTINUOUS
 62
     7
 10
-586.7196882969776
 20
344.9999999999999
 30
0.0
  0
SEQEND
  5
907
  8
1
  6
CONTINUOUS
 62
     7
  0
POLYLINE
  5
154
  8
1
  6
CONTINUOUS
 62
     7
 66
     1
 10
0.0
 20
0.0
 30
0.0
  0
VERTEX
  5
713
  8
1
  6
CONTINUOUS
 62
     7
 10
-585.2196882969774
 20
344.9999999999999
 30
0.0
  0
VERTEX
  5
714
  8
1
  6
CONTINUOUS
 62
     7
 10
-585.1951544598137
 20
344.9993977281026
 30
0.0
  0
VERTEX
  5
715
  8
1
  6
CONTINUOUS
 62
     7
 10
-585.1706797268126
 20
344.9975923633361
 30
0.0
  0
VERTEX
  5
716
  8
1
  6
CONTINUOUS
 62
     7
 10
-585.1463230597498
 20
344.9945882549824
 30
0.0
  0
VERTEX
  5
717
  8
1
  6
CONTINUOUS
 62
     7
 10
-585.1221431359694
 20
344.9903926402016
 30
0.0
  0
VERTEX
  5
718
  8
1
  6
CONTINUOUS
 62
     7
 10
-585.0981982070258
 20
344.9850156265973
 30
0.0
  0
VERTEX
  5
719
  8
1
  6
CONTINUOUS
 62
     7
 10
-585.0745459583503
 20
344.9784701678661
 30
0.0
  0
VERTEX
  5
71A
  8
1
  6
CONTINUOUS
 62
     7
 10
-585.0512433702813
 20
344.9707720325915
 30
0.0
  0
VERTEX
  5
71B
  8
1
  6
CONTINUOUS
 62
     7
 10
-585.028346580795
 20
344.9619397662557
 30
0.0
  0
VERTEX
  5
71C
  8
1
  6
CONTINUOUS
 62
     7
 10
-585.0059107502623
 20
344.9519946465617
 30
0.0
  0
VERTEX
  5
71D
  8
1
  6
CONTINUOUS
 62
     7
 10
-584.9839899285645
 20
344.9409606321742
 30
0.0
  0
VERTEX
  5
71E
  8
1
  6
CONTINUOUS
 62
     7
 10
-584.9626369248808
 20
344.9288643050001
 30
0.0
  0
VERTEX
  5
71F
  8
1
  6
CONTINUOUS
 62
     7
 10
-584.9419031804676
 20
344.9157348061513
 30
0.0
  0
VERTEX
  5
720
  8
1
  6
CONTINUOUS
 62
     7
 10
-584.9218386447312
 20
344.9016037657403
 30
0.0
  0
VERTEX
  5
721
  8
1
  6
CONTINUOUS
 62
     7
 10
-584.9024916548956
 20
344.8865052266813
 30
0.0
  0
VERTEX
  5
722
  8
1
  6
CONTINUOUS
 62
     7
 10
-584.883908819554
 20
344.8704755626775
 30
0.0
  0
VERTEX
  5
723
  8
1
  6
CONTINUOUS
 62
     7
 10
-584.8661349063841
 20
344.8535533905933
 30
0.0
  0
VERTEX
  5
724
  8
1
  6
CONTINUOUS
 62
     7
 10
-584.8492127343
 20
344.8357794774235
 30
0.0
  0
VERTEX
  5
725
  8
1
  6
CONTINUOUS
 62
     7
 10
-584.8331830702961
 20
344.8171966420818
 30
0.0
  0
VERTEX
  5
726
  8
1
  6
CONTINUOUS
 62
     7
 10
-584.8180845312372
 20
344.7978496522462
 30
0.0
  0
VERTEX
  5
727
  8
1
  6
CONTINUOUS
 62
     7
 10
-584.8039534908262
 20
344.7777851165098
 30
0.0
  0
VERTEX
  5
728
  8
1
  6
CONTINUOUS
 62
     7
 10
-584.7908239919774
 20
344.7570513720966
 30
0.0
  0
VERTEX
  5
729
  8
1
  6
CONTINUOUS
 62
     7
 10
-584.7787276648033
 20
344.735698368413
 30
0.0
  0
VERTEX
  5
72A
  8
1
  6
CONTINUOUS
 62
     7
 10
-584.7676936504157
 20
344.7137775467152
 30
0.0
  0
VERTEX
  5
72B
  8
1
  6
CONTINUOUS
 62
     7
 10
-584.7577485307218
 20
344.6913417161825
 30
0.0
  0
VERTEX
  5
72C
  8
1
  6
CONTINUOUS
 62
     7
 10
-584.7489162643859
 20
344.6684449266961
 30
0.0
  0
VERTEX
  5
72D
  8
1
  6
CONTINUOUS
 62
     7
 10
-584.7412181291114
 20
344.6451423386272
 30
0.0
  0
VERTEX
  5
72E
  8
1
  6
CONTINUOUS
 62
     7
 10
-584.7346726703802
 20
344.6214900899516
 30
0.0
  0
VERTEX
  5
72F
  8
1
  6
CONTINUOUS
 62
     7
 10
-584.7292956567759
 20
344.597545161008
 30
0.0
  0
VERTEX
  5
730
  8
1
  6
CONTINUOUS
 62
     7
 10
-584.725100041995
 20
344.5733652372277
 30
0.0
  0
VERTEX
  5
731
  8
1
  6
CONTINUOUS
 62
     7
 10
-584.7220959336413
 20
344.5490085701648
 30
0.0
  0
VERTEX
  5
732
  8
1
  6
CONTINUOUS
 62
     7
 10
-584.7202905688748
 20
344.5245338371637
 30
0.0
  0
VERTEX
  5
733
  8
1
  6
CONTINUOUS
 62
     7
 10
-584.7196882969776
 20
344.5
 30
0.0
  0
SEQEND
  5
908
  8
1
  6
CONTINUOUS
 62
     7
  0
LINE
  5
155
  8
1
  6
CONTINUOUS
 62
     7
 10
-585.2196882969774
 20
344.9999999999999
 30
0.0
 11
-586.7196882969774
 21
344.9999999999999
 31
0.0
  0
LINE
  5
156
  8
1
  6
CONTINUOUS
 62
     7
 10
-587.2196882969774
 20
410.4999999999999
 30
0.0
 11
-587.2196882969774
 21
410.716439613938
 31
0.0
  0
LINE
  5
157
  8
1
  6
CONTINUOUS
 62
     7
 10
-584.7196882969776
 20
410.7164396139381
 30
0.0
 11
-584.7196882969776
 21
410.5
 31
0.0
  0
POLYLINE
  5
158
  8
1
  6
CONTINUOUS
 62
     7
 66
     1
 10
0.0
 20
0.0
 30
0.0
  0
VERTEX
  5
734
  8
1
  6
CONTINUOUS
 62
     7
 10
-587.2196882969774
 20
410.4999999999999
 30
0.0
  0
VERTEX
  5
735
  8
1
  6
CONTINUOUS
 62
     7
 10
-587.2190860250801
 20
410.4754661628363
 30
0.0
  0
VERTEX
  5
736
  8
1
  6
CONTINUOUS
 62
     7
 10
-587.2172806603136
 20
410.4509914298352
 30
0.0
  0
VERTEX
  5
737
  8
1
  6
CONTINUOUS
 62
     7
 10
-587.2142765519599
 20
410.4266347627723
 30
0.0
  0
VERTEX
  5
738
  8
1
  6
CONTINUOUS
 62
     7
 10
-587.2100809371791
 20
410.402454838992
 30
0.0
  0
VERTEX
  5
739
  8
1
  6
CONTINUOUS
 62
     7
 10
-587.2047039235747
 20
410.3785099100484
 30
0.0
  0
VERTEX
  5
73A
  8
1
  6
CONTINUOUS
 62
     7
 10
-587.1981584648436
 20
410.3548576613728
 30
0.0
  0
VERTEX
  5
73B
  8
1
  6
CONTINUOUS
 62
     7
 10
-587.190460329569
 20
410.3315550733039
 30
0.0
  0
VERTEX
  5
73C
  8
1
  6
CONTINUOUS
 62
     7
 10
-587.1816280632331
 20
410.3086582838175
 30
0.0
  0
VERTEX
  5
73D
  8
1
  6
CONTINUOUS
 62
     7
 10
-587.1716829435392
 20
410.2862224532848
 30
0.0
  0
VERTEX
  5
73E
  8
1
  6
CONTINUOUS
 62
     7
 10
-587.1606489291516
 20
410.264301631587
 30
0.0
  0
VERTEX
  5
73F
  8
1
  6
CONTINUOUS
 62
     7
 10
-587.1485526019776
 20
410.2429486279034
 30
0.0
  0
VERTEX
  5
740
  8
1
  6
CONTINUOUS
 62
     7
 10
-587.1354231031287
 20
410.2222148834902
 30
0.0
  0
VERTEX
  5
741
  8
1
  6
CONTINUOUS
 62
     7
 10
-587.1212920627178
 20
410.2021503477537
 30
0.0
  0
VERTEX
  5
742
  8
1
  6
CONTINUOUS
 62
     7
 10
-587.1061935236589
 20
410.1828033579181
 30
0.0
  0
VERTEX
  5
743
  8
1
  6
CONTINUOUS
 62
     7
 10
-587.0901638596549
 20
410.1642205225765
 30
0.0
  0
VERTEX
  5
744
  8
1
  6
CONTINUOUS
 62
     7
 10
-587.0732416875708
 20
410.1464466094067
 30
0.0
  0
VERTEX
  5
745
  8
1
  6
CONTINUOUS
 62
     7
 10
-587.055467774401
 20
410.1295244373225
 30
0.0
  0
VERTEX
  5
746
  8
1
  6
CONTINUOUS
 62
     7
 10
-587.0368849390593
 20
410.1134947733186
 30
0.0
  0
VERTEX
  5
747
  8
1
  6
CONTINUOUS
 62
     7
 10
-587.0175379492238
 20
410.0983962342597
 30
0.0
  0
VERTEX
  5
748
  8
1
  6
CONTINUOUS
 62
     7
 10
-586.9974734134872
 20
410.0842651938487
 30
0.0
  0
VERTEX
  5
749
  8
1
  6
CONTINUOUS
 62
     7
 10
-586.976739669074
 20
410.0711356949998
 30
0.0
  0
VERTEX
  5
74A
  8
1
  6
CONTINUOUS
 62
     7
 10
-586.9553866653905
 20
410.0590393678258
 30
0.0
  0
VERTEX
  5
74B
  8
1
  6
CONTINUOUS
 62
     7
 10
-586.9334658436926
 20
410.0480053534383
 30
0.0
  0
VERTEX
  5
74C
  8
1
  6
CONTINUOUS
 62
     7
 10
-586.91103001316
 20
410.0380602337443
 30
0.0
  0
VERTEX
  5
74D
  8
1
  6
CONTINUOUS
 62
     7
 10
-586.8881332236735
 20
410.0292279674085
 30
0.0
  0
VERTEX
  5
74E
  8
1
  6
CONTINUOUS
 62
     7
 10
-586.8648306356047
 20
410.0215298321339
 30
0.0
  0
VERTEX
  5
74F
  8
1
  6
CONTINUOUS
 62
     7
 10
-586.8411783869291
 20
410.0149843734027
 30
0.0
  0
VERTEX
  5
750
  8
1
  6
CONTINUOUS
 62
     7
 10
-586.8172334579855
 20
410.0096073597984
 30
0.0
  0
VERTEX
  5
751
  8
1
  6
CONTINUOUS
 62
     7
 10
-586.7930535342052
 20
410.0054117450176
 30
0.0
  0
VERTEX
  5
752
  8
1
  6
CONTINUOUS
 62
     7
 10
-586.7686968671422
 20
410.0024076366639
 30
0.0
  0
VERTEX
  5
753
  8
1
  6
CONTINUOUS
 62
     7
 10
-586.7442221341412
 20
410.0006022718974
 30
0.0
  0
VERTEX
  5
754
  8
1
  6
CONTINUOUS
 62
     7
 10
-586.7196882969776
 20
410.0
 30
0.0
  0
SEQEND
  5
909
  8
1
  6
CONTINUOUS
 62
     7
  0
LINE
  5
159
  8
1
  6
CONTINUOUS
 62
     7
 10
-585.2196882969774
 20
410.0
 30
0.0
 11
-586.7196882969774
 21
410.0
 31
0.0
  0
POLYLINE
  5
15A
  8
1
  6
CONTINUOUS
 62
     7
 66
     1
 10
0.0
 20
0.0
 30
0.0
  0
VERTEX
  5
755
  8
1
  6
CONTINUOUS
 62
     7
 10
-585.2196882969774
 20
410.0
 30
0.0
  0
VERTEX
  5
756
  8
1
  6
CONTINUOUS
 62
     7
 10
-585.1951544598137
 20
410.0006022718974
 30
0.0
  0
VERTEX
  5
757
  8
1
  6
CONTINUOUS
 62
     7
 10
-585.1706797268126
 20
410.0024076366639
 30
0.0
  0
VERTEX
  5
758
  8
1
  6
CONTINUOUS
 62
     7
 10
-585.1463230597498
 20
410.0054117450176
 30
0.0
  0
VERTEX
  5
759
  8
1
  6
CONTINUOUS
 62
     7
 10
-585.1221431359694
 20
410.0096073597984
 30
0.0
  0
VERTEX
  5
75A
  8
1
  6
CONTINUOUS
 62
     7
 10
-585.0981982070258
 20
410.0149843734027
 30
0.0
  0
VERTEX
  5
75B
  8
1
  6
CONTINUOUS
 62
     7
 10
-585.0745459583503
 20
410.0215298321339
 30
0.0
  0
VERTEX
  5
75C
  8
1
  6
CONTINUOUS
 62
     7
 10
-585.0512433702813
 20
410.0292279674085
 30
0.0
  0
VERTEX
  5
75D
  8
1
  6
CONTINUOUS
 62
     7
 10
-585.028346580795
 20
410.0380602337443
 30
0.0
  0
VERTEX
  5
75E
  8
1
  6
CONTINUOUS
 62
     7
 10
-585.0059107502623
 20
410.0480053534383
 30
0.0
  0
VERTEX
  5
75F
  8
1
  6
CONTINUOUS
 62
     7
 10
-584.9839899285645
 20
410.0590393678258
 30
0.0
  0
VERTEX
  5
760
  8
1
  6
CONTINUOUS
 62
     7
 10
-584.9626369248808
 20
410.0711356949998
 30
0.0
  0
VERTEX
  5
761
  8
1
  6
CONTINUOUS
 62
     7
 10
-584.9419031804676
 20
410.0842651938487
 30
0.0
  0
VERTEX
  5
762
  8
1
  6
CONTINUOUS
 62
     7
 10
-584.9218386447312
 20
410.0983962342597
 30
0.0
  0
VERTEX
  5
763
  8
1
  6
CONTINUOUS
 62
     7
 10
-584.9024916548956
 20
410.1134947733186
 30
0.0
  0
VERTEX
  5
764
  8
1
  6
CONTINUOUS
 62
     7
 10
-584.883908819554
 20
410.1295244373225
 30
0.0
  0
VERTEX
  5
765
  8
1
  6
CONTINUOUS
 62
     7
 10
-584.8661349063841
 20
410.1464466094067
 30
0.0
  0
VERTEX
  5
766
  8
1
  6
CONTINUOUS
 62
     7
 10
-584.8492127343
 20
410.1642205225765
 30
0.0
  0
VERTEX
  5
767
  8
1
  6
CONTINUOUS
 62
     7
 10
-584.8331830702961
 20
410.1828033579181
 30
0.0
  0
VERTEX
  5
768
  8
1
  6
CONTINUOUS
 62
     7
 10
-584.8180845312372
 20
410.2021503477537
 30
0.0
  0
VERTEX
  5
769
  8
1
  6
CONTINUOUS
 62
     7
 10
-584.8039534908262
 20
410.2222148834902
 30
0.0
  0
VERTEX
  5
76A
  8
1
  6
CONTINUOUS
 62
     7
 10
-584.7908239919774
 20
410.2429486279034
 30
0.0
  0
VERTEX
  5
76B
  8
1
  6
CONTINUOUS
 62
     7
 10
-584.7787276648033
 20
410.264301631587
 30
0.0
  0
VERTEX
  5
76C
  8
1
  6
CONTINUOUS
 62
     7
 10
-584.7676936504158
 20
410.2862224532848
 30
0.0
  0
VERTEX
  5
76D
  8
1
  6
CONTINUOUS
 62
     7
 10
-584.7577485307218
 20
410.3086582838175
 30
0.0
  0
VERTEX
  5
76E
  8
1
  6
CONTINUOUS
 62
     7
 10
-584.7489162643859
 20
410.3315550733039
 30
0.0
  0
VERTEX
  5
76F
  8
1
  6
CONTINUOUS
 62
     7
 10
-584.7412181291114
 20
410.3548576613728
 30
0.0
  0
VERTEX
  5
770
  8
1
  6
CONTINUOUS
 62
     7
 10
-584.7346726703802
 20
410.3785099100484
 30
0.0
  0
VERTEX
  5
771
  8
1
  6
CONTINUOUS
 62
     7
 10
-584.7292956567759
 20
410.402454838992
 30
0.0
  0
VERTEX
  5
772
  8
1
  6
CONTINUOUS
 62
     7
 10
-584.725100041995
 20
410.4266347627723
 30
0.0
  0
VERTEX
  5
773
  8
1
  6
CONTINUOUS
 62
     7
 10
-584.7220959336413
 20
410.4509914298352
 30
0.0
  0
VERTEX
  5
774
  8
1
  6
CONTINUOUS
 62
     7
 10
-584.7202905688748
 20
410.4754661628363
 30
0.0
  0
VERTEX
  5
775
  8
1
  6
CONTINUOUS
 62
     7
 10
-584.7196882969776
 20
410.4999999999999
 30
0.0
  0
SEQEND
  5
90A
  8
1
  6
CONTINUOUS
 62
     7
  0
LINE
  5
15B
  8
1
  6
CONTINUOUS
 62
     7
 10
-614.5213337930018
 20
367.7889440231041
 30
0.0
 11
-614.5041788187758
 21
367.6528629114219
 31
0.0
  0
POLYLINE
  5
15C
  8
1
  6
CONTINUOUS
 62
     7
 66
     1
 10
0.0
 20
0.0
 30
0.0
  0
VERTEX
  5
776
  8
1
  6
CONTINUOUS
 62
     7
 10
-614.5041791078037
 20
367.6528651872748
 30
0.0
  0
VERTEX
  5
777
  8
1
  6
CONTINUOUS
 62
     7
 10
-614.0654771300266
 20
364.6848393699474
 30
0.0
  0
VERTEX
  5
778
  8
1
  6
CONTINUOUS
 62
     7
 10
-613.513348905663
 20
361.7935364371871
 30
0.0
  0
SEQEND
  5
90B
  8
1
  6
CONTINUOUS
 62
     7
  0
LINE
  5
15D
  8
1
  6
CONTINUOUS
 62
     7
 10
-613.5133469514578
 20
361.7935272830013
 30
0.0
 11
-613.4134333059399
 21
361.3335045792774
 31
0.0
  0
LINE
  5
15E
  8
1
  6
CONTINUOUS
 62
     7
 10
-613.5133475687178
 20
393.2064698255365
 30
0.0
 11
-613.4134449012834
 21
393.6664429362076
 31
0.0
  0
POLYLINE
  5
15F
  8
1
  6
CONTINUOUS
 62
     7
 66
     1
 10
0.0
 20
0.0
 30
0.0
  0
VERTEX
  5
779
  8
1
  6
CONTINUOUS
 62
     7
 10
-614.5041791078037
 20
387.3471348127252
 30
0.0
  0
VERTEX
  5
77A
  8
1
  6
CONTINUOUS
 62
     7
 10
-614.0464070212913
 20
390.4273846281
 30
0.0
  0
VERTEX
  5
77B
  8
1
  6
CONTINUOUS
 62
     7
 10
-613.5133475687178
 20
393.2064698255365
 30
0.0
  0
SEQEND
  5
90C
  8
1
  6
CONTINUOUS
 62
     7
  0
LINE
  5
160
  8
1
  6
CONTINUOUS
 62
     7
 10
-614.5213357320904
 20
387.21104048052
 30
0.0
 11
-614.5041791078868
 21
387.3471348120702
 31
0.0
  0
LINE
  5
161
  8
1
  6
CONTINUOUS
 62
     7
 10
-575.735197488349
 20
387.3471348300302
 30
0.0
 11
-575.718040919221
 21
387.2110409388899
 31
0.0
  0
POLYLINE
  5
162
  8
1
  6
CONTINUOUS
 62
     7
 66
     1
 10
0.0
 20
0.0
 30
0.0
  0
VERTEX
  5
77C
  8
1
  6
CONTINUOUS
 62
     7
 10
-576.7260290323283
 20
393.206469858754
 30
0.0
  0
VERTEX
  5
77D
  8
1
  6
CONTINUOUS
 62
     7
 10
-576.1929703962534
 20
390.4273894513025
 30
0.0
  0
VERTEX
  5
77E
  8
1
  6
CONTINUOUS
 62
     7
 10
-575.735197488349
 20
387.3471348300302
 30
0.0
  0
SEQEND
  5
90D
  8
1
  6
CONTINUOUS
 62
     7
  0
LINE
  5
163
  8
1
  6
CONTINUOUS
 62
     7
 10
-576.8259314278152
 20
393.6664417373741
 30
0.0
 11
-576.7260290323778
 21
393.2064698589852
 31
0.0
  0
LINE
  5
164
  8
1
  6
CONTINUOUS
 62
     7
 10
-576.8259430103287
 20
361.3335058361786
 30
0.0
 11
-576.7260295914784
 21
361.7935275219901
 31
0.0
  0
POLYLINE
  5
165
  8
1
  6
CONTINUOUS
 62
     7
 66
     1
 10
0.0
 20
0.0
 30
0.0
  0
VERTEX
  5
77F
  8
1
  6
CONTINUOUS
 62
     7
 10
-576.7260290323283
 20
361.793530141246
 30
0.0
  0
VERTEX
  5
780
  8
1
  6
CONTINUOUS
 62
     7
 10
-576.1738997739853
 20
364.6848375364088
 30
0.0
  0
VERTEX
  5
781
  8
1
  6
CONTINUOUS
 62
     7
 10
-575.7351971200045
 20
367.6528680703752
 30
0.0
  0
SEQEND
  5
90E
  8
1
  6
CONTINUOUS
 62
     7
  0
LINE
  5
166
  8
1
  6
CONTINUOUS
 62
     7
 10
-575.73519774955
 20
367.6528631132297
 30
0.0
 11
-575.7180428399404
 21
367.7889437115351
 31
0.0
  0
POLYLINE
  5
167
  8
1
  6
CONTINUOUS
 62
     7
 66
     1
 10
0.0
 20
0.0
 30
0.0
  0
VERTEX
  5
782
  8
1
  6
CONTINUOUS
 62
     7
 10
-586.7196882969776
 20
411.4999999999999
 30
0.0
  0
VERTEX
  5
783
  8
1
  6
CONTINUOUS
 62
     7
 10
-586.7442221341412
 20
411.4993977281026
 30
0.0
  0
VERTEX
  5
784
  8
1
  6
CONTINUOUS
 62
     7
 10
-586.7686968671422
 20
411.4975923633361
 30
0.0
  0
VERTEX
  5
785
  8
1
  6
CONTINUOUS
 62
     7
 10
-586.7930535342052
 20
411.4945882549824
 30
0.0
  0
VERTEX
  5
786
  8
1
  6
CONTINUOUS
 62
     7
 10
-586.8172334579855
 20
411.4903926402016
 30
0.0
  0
VERTEX
  5
787
  8
1
  6
CONTINUOUS
 62
     7
 10
-586.8411783869291
 20
411.4850156265973
 30
0.0
  0
VERTEX
  5
788
  8
1
  6
CONTINUOUS
 62
     7
 10
-586.8648306356047
 20
411.4784701678661
 30
0.0
  0
VERTEX
  5
789
  8
1
  6
CONTINUOUS
 62
     7
 10
-586.8881332236735
 20
411.4707720325915
 30
0.0
  0
VERTEX
  5
78A
  8
1
  6
CONTINUOUS
 62
     7
 10
-586.91103001316
 20
411.4619397662557
 30
0.0
  0
VERTEX
  5
78B
  8
1
  6
CONTINUOUS
 62
     7
 10
-586.9334658436926
 20
411.4519946465617
 30
0.0
  0
VERTEX
  5
78C
  8
1
  6
CONTINUOUS
 62
     7
 10
-586.9553866653905
 20
411.4409606321742
 30
0.0
  0
VERTEX
  5
78D
  8
1
  6
CONTINUOUS
 62
     7
 10
-586.976739669074
 20
411.4288643050002
 30
0.0
  0
VERTEX
  5
78E
  8
1
  6
CONTINUOUS
 62
     7
 10
-586.9974734134872
 20
411.4157348061513
 30
0.0
  0
VERTEX
  5
78F
  8
1
  6
CONTINUOUS
 62
     7
 10
-587.0175379492238
 20
411.4016037657403
 30
0.0
  0
VERTEX
  5
790
  8
1
  6
CONTINUOUS
 62
     7
 10
-587.0368849390593
 20
411.3865052266813
 30
0.0
  0
VERTEX
  5
791
  8
1
  6
CONTINUOUS
 62
     7
 10
-587.055467774401
 20
411.3704755626775
 30
0.0
  0
VERTEX
  5
792
  8
1
  6
CONTINUOUS
 62
     7
 10
-587.0732416875708
 20
411.3535533905933
 30
0.0
  0
VERTEX
  5
793
  8
1
  6
CONTINUOUS
 62
     7
 10
-587.0901638596549
 20
411.3357794774235
 30
0.0
  0
VERTEX
  5
794
  8
1
  6
CONTINUOUS
 62
     7
 10
-587.1061935236589
 20
411.3171966420818
 30
0.0
  0
VERTEX
  5
795
  8
1
  6
CONTINUOUS
 62
     7
 10
-587.1212920627178
 20
411.2978496522462
 30
0.0
  0
VERTEX
  5
796
  8
1
  6
CONTINUOUS
 62
     7
 10
-587.1354231031287
 20
411.2777851165098
 30
0.0
  0
VERTEX
  5
797
  8
1
  6
CONTINUOUS
 62
     7
 10
-587.1485526019776
 20
411.2570513720966
 30
0.0
  0
VERTEX
  5
798
  8
1
  6
CONTINUOUS
 62
     7
 10
-587.1606489291516
 20
411.235698368413
 30
0.0
  0
VERTEX
  5
799
  8
1
  6
CONTINUOUS
 62
     7
 10
-587.1716829435392
 20
411.2137775467152
 30
0.0
  0
VERTEX
  5
79A
  8
1
  6
CONTINUOUS
 62
     7
 10
-587.1816280632331
 20
411.1913417161825
 30
0.0
  0
VERTEX
  5
79B
  8
1
  6
CONTINUOUS
 62
     7
 10
-587.190460329569
 20
411.1684449266961
 30
0.0
  0
VERTEX
  5
79C
  8
1
  6
CONTINUOUS
 62
     7
 10
-587.1981584648436
 20
411.1451423386272
 30
0.0
  0
VERTEX
  5
79D
  8
1
  6
CONTINUOUS
 62
     7
 10
-587.2047039235747
 20
411.1214900899516
 30
0.0
  0
VERTEX
  5
79E
  8
1
  6
CONTINUOUS
 62
     7
 10
-587.2100809371791
 20
411.097545161008
 30
0.0
  0
VERTEX
  5
79F
  8
1
  6
CONTINUOUS
 62
     7
 10
-587.2142765519599
 20
411.0733652372277
 30
0.0
  0
VERTEX
  5
7A0
  8
1
  6
CONTINUOUS
 62
     7
 10
-587.2172806603136
 20
411.0490085701648
 30
0.0
  0
VERTEX
  5
7A1
  8
1
  6
CONTINUOUS
 62
     7
 10
-587.2190860250801
 20
411.0245338371637
 30
0.0
  0
VERTEX
  5
7A2
  8
1
  6
CONTINUOUS
 62
     7
 10
-587.2196882969774
 20
411.0
 30
0.0
  0
SEQEND
  5
90F
  8
1
  6
CONTINUOUS
 62
     7
  0
LINE
  5
168
  8
1
  6
CONTINUOUS
 62
     7
 10
-586.7196882969776
 20
411.4999999999999
 30
0.0
 11
-585.2196882969776
 21
411.4999999999999
 31
0.0
  0
POLYLINE
  5
169
  8
1
  6
CONTINUOUS
 62
     7
 66
     1
 10
0.0
 20
0.0
 30
0.0
  0
VERTEX
  5
7A3
  8
1
  6
CONTINUOUS
 62
     7
 10
-584.7196882969776
 20
411.0
 30
0.0
  0
VERTEX
  5
7A4
  8
1
  6
CONTINUOUS
 62
     7
 10
-584.7202905688748
 20
411.0245338371637
 30
0.0
  0
VERTEX
  5
7A5
  8
1
  6
CONTINUOUS
 62
     7
 10
-584.7220959336413
 20
411.0490085701648
 30
0.0
  0
VERTEX
  5
7A6
  8
1
  6
CONTINUOUS
 62
     7
 10
-584.725100041995
 20
411.0733652372277
 30
0.0
  0
VERTEX
  5
7A7
  8
1
  6
CONTINUOUS
 62
     7
 10
-584.7292956567759
 20
411.097545161008
 30
0.0
  0
VERTEX
  5
7A8
  8
1
  6
CONTINUOUS
 62
     7
 10
-584.7346726703802
 20
411.1214900899516
 30
0.0
  0
VERTEX
  5
7A9
  8
1
  6
CONTINUOUS
 62
     7
 10
-584.7412181291114
 20
411.1451423386272
 30
0.0
  0
VERTEX
  5
7AA
  8
1
  6
CONTINUOUS
 62
     7
 10
-584.7489162643859
 20
411.1684449266961
 30
0.0
  0
VERTEX
  5
7AB
  8
1
  6
CONTINUOUS
 62
     7
 10
-584.7577485307218
 20
411.1913417161825
 30
0.0
  0
VERTEX
  5
7AC
  8
1
  6
CONTINUOUS
 62
     7
 10
-584.7676936504158
 20
411.2137775467152
 30
0.0
  0
VERTEX
  5
7AD
  8
1
  6
CONTINUOUS
 62
     7
 10
-584.7787276648033
 20
411.235698368413
 30
0.0
  0
VERTEX
  5
7AE
  8
1
  6
CONTINUOUS
 62
     7
 10
-584.7908239919774
 20
411.2570513720966
 30
0.0
  0
VERTEX
  5
7AF
  8
1
  6
CONTINUOUS
 62
     7
 10
-584.8039534908262
 20
411.2777851165098
 30
0.0
  0
VERTEX
  5
7B0
  8
1
  6
CONTINUOUS
 62
     7
 10
-584.8180845312372
 20
411.2978496522462
 30
0.0
  0
VERTEX
  5
7B1
  8
1
  6
CONTINUOUS
 62
     7
 10
-584.8331830702961
 20
411.3171966420818
 30
0.0
  0
VERTEX
  5
7B2
  8
1
  6
CONTINUOUS
 62
     7
 10
-584.8492127343
 20
411.3357794774235
 30
0.0
  0
VERTEX
  5
7B3
  8
1
  6
CONTINUOUS
 62
     7
 10
-584.8661349063841
 20
411.3535533905933
 30
0.0
  0
VERTEX
  5
7B4
  8
1
  6
CONTINUOUS
 62
     7
 10
-584.883908819554
 20
411.3704755626775
 30
0.0
  0
VERTEX
  5
7B5
  8
1
  6
CONTINUOUS
 62
     7
 10
-584.9024916548956
 20
411.3865052266813
 30
0.0
  0
VERTEX
  5
7B6
  8
1
  6
CONTINUOUS
 62
     7
 10
-584.9218386447312
 20
411.4016037657403
 30
0.0
  0
VERTEX
  5
7B7
  8
1
  6
CONTINUOUS
 62
     7
 10
-584.9419031804676
 20
411.4157348061513
 30
0.0
  0
VERTEX
  5
7B8
  8
1
  6
CONTINUOUS
 62
     7
 10
-584.9626369248808
 20
411.4288643050002
 30
0.0
  0
VERTEX
  5
7B9
  8
1
  6
CONTINUOUS
 62
     7
 10
-584.9839899285645
 20
411.4409606321742
 30
0.0
  0
VERTEX
  5
7BA
  8
1
  6
CONTINUOUS
 62
     7
 10
-585.0059107502623
 20
411.4519946465617
 30
0.0
  0
VERTEX
  5
7BB
  8
1
  6
CONTINUOUS
 62
     7
 10
-585.028346580795
 20
411.4619397662557
 30
0.0
  0
VERTEX
  5
7BC
  8
1
  6
CONTINUOUS
 62
     7
 10
-585.0512433702813
 20
411.4707720325915
 30
0.0
  0
VERTEX
  5
7BD
  8
1
  6
CONTINUOUS
 62
     7
 10
-585.0745459583503
 20
411.4784701678661
 30
0.0
  0
VERTEX
  5
7BE
  8
1
  6
CONTINUOUS
 62
     7
 10
-585.0981982070258
 20
411.4850156265973
 30
0.0
  0
VERTEX
  5
7BF
  8
1
  6
CONTINUOUS
 62
     7
 10
-585.1221431359694
 20
411.4903926402016
 30
0.0
  0
VERTEX
  5
7C0
  8
1
  6
CONTINUOUS
 62
     7
 10
-585.1463230597498
 20
411.4945882549824
 30
0.0
  0
VERTEX
  5
7C1
  8
1
  6
CONTINUOUS
 62
     7
 10
-585.1706797268126
 20
411.4975923633361
 30
0.0
  0
VERTEX
  5
7C2
  8
1
  6
CONTINUOUS
 62
     7
 10
-585.1951544598137
 20
411.4993977281026
 30
0.0
  0
VERTEX
  5
7C3
  8
1
  6
CONTINUOUS
 62
     7
 10
-585.2196882969774
 20
411.4999999999999
 30
0.0
  0
SEQEND
  5
910
  8
1
  6
CONTINUOUS
 62
     7
  0
LINE
  5
16A
  8
1
  6
CONTINUOUS
 62
     7
 10
-587.2196882969774
 20
410.7164396139381
 30
0.0
 11
-587.2196882969774
 21
411.0
 31
0.0
  0
LINE
  5
16B
  8
1
  6
CONTINUOUS
 62
     7
 10
-584.7196882969776
 20
411.0
 30
0.0
 11
-584.7196882969776
 21
410.7164396139381
 31
0.0
  0
POLYLINE
  5
16C
  8
1
  6
CONTINUOUS
 62
     7
 66
     1
 10
0.0
 20
0.0
 30
0.0
  0
VERTEX
  5
7C4
  8
1
  6
CONTINUOUS
 62
     7
 10
-584.7196882969776
 20
343.9999999999999
 30
0.0
  0
VERTEX
  5
7C5
  8
1
  6
CONTINUOUS
 62
     7
 10
-584.7202905688748
 20
343.9754661628363
 30
0.0
  0
VERTEX
  5
7C6
  8
1
  6
CONTINUOUS
 62
     7
 10
-584.7220959336413
 20
343.9509914298352
 30
0.0
  0
VERTEX
  5
7C7
  8
1
  6
CONTINUOUS
 62
     7
 10
-584.725100041995
 20
343.9266347627723
 30
0.0
  0
VERTEX
  5
7C8
  8
1
  6
CONTINUOUS
 62
     7
 10
-584.7292956567759
 20
343.902454838992
 30
0.0
  0
VERTEX
  5
7C9
  8
1
  6
CONTINUOUS
 62
     7
 10
-584.7346726703802
 20
343.8785099100484
 30
0.0
  0
VERTEX
  5
7CA
  8
1
  6
CONTINUOUS
 62
     7
 10
-584.7412181291114
 20
343.8548576613728
 30
0.0
  0
VERTEX
  5
7CB
  8
1
  6
CONTINUOUS
 62
     7
 10
-584.7489162643859
 20
343.8315550733039
 30
0.0
  0
VERTEX
  5
7CC
  8
1
  6
CONTINUOUS
 62
     7
 10
-584.7577485307218
 20
343.8086582838175
 30
0.0
  0
VERTEX
  5
7CD
  8
1
  6
CONTINUOUS
 62
     7
 10
-584.7676936504157
 20
343.7862224532848
 30
0.0
  0
VERTEX
  5
7CE
  8
1
  6
CONTINUOUS
 62
     7
 10
-584.7787276648033
 20
343.764301631587
 30
0.0
  0
VERTEX
  5
7CF
  8
1
  6
CONTINUOUS
 62
     7
 10
-584.7908239919774
 20
343.7429486279034
 30
0.0
  0
VERTEX
  5
7D0
  8
1
  6
CONTINUOUS
 62
     7
 10
-584.8039534908262
 20
343.7222148834902
 30
0.0
  0
VERTEX
  5
7D1
  8
1
  6
CONTINUOUS
 62
     7
 10
-584.8180845312372
 20
343.7021503477537
 30
0.0
  0
VERTEX
  5
7D2
  8
1
  6
CONTINUOUS
 62
     7
 10
-584.8331830702961
 20
343.6828033579181
 30
0.0
  0
VERTEX
  5
7D3
  8
1
  6
CONTINUOUS
 62
     7
 10
-584.8492127343
 20
343.6642205225765
 30
0.0
  0
VERTEX
  5
7D4
  8
1
  6
CONTINUOUS
 62
     7
 10
-584.8661349063841
 20
343.6464466094067
 30
0.0
  0
VERTEX
  5
7D5
  8
1
  6
CONTINUOUS
 62
     7
 10
-584.883908819554
 20
343.6295244373225
 30
0.0
  0
VERTEX
  5
7D6
  8
1
  6
CONTINUOUS
 62
     7
 10
-584.9024916548956
 20
343.6134947733186
 30
0.0
  0
VERTEX
  5
7D7
  8
1
  6
CONTINUOUS
 62
     7
 10
-584.9218386447312
 20
343.5983962342597
 30
0.0
  0
VERTEX
  5
7D8
  8
1
  6
CONTINUOUS
 62
     7
 10
-584.9419031804676
 20
343.5842651938487
 30
0.0
  0
VERTEX
  5
7D9
  8
1
  6
CONTINUOUS
 62
     7
 10
-584.9626369248808
 20
343.5711356949998
 30
0.0
  0
VERTEX
  5
7DA
  8
1
  6
CONTINUOUS
 62
     7
 10
-584.9839899285645
 20
343.5590393678258
 30
0.0
  0
VERTEX
  5
7DB
  8
1
  6
CONTINUOUS
 62
     7
 10
-585.0059107502623
 20
343.5480053534383
 30
0.0
  0
VERTEX
  5
7DC
  8
1
  6
CONTINUOUS
 62
     7
 10
-585.028346580795
 20
343.5380602337443
 30
0.0
  0
VERTEX
  5
7DD
  8
1
  6
CONTINUOUS
 62
     7
 10
-585.0512433702813
 20
343.5292279674085
 30
0.0
  0
VERTEX
  5
7DE
  8
1
  6
CONTINUOUS
 62
     7
 10
-585.0745459583503
 20
343.5215298321339
 30
0.0
  0
VERTEX
  5
7DF
  8
1
  6
CONTINUOUS
 62
     7
 10
-585.0981982070258
 20
343.5149843734027
 30
0.0
  0
VERTEX
  5
7E0
  8
1
  6
CONTINUOUS
 62
     7
 10
-585.1221431359694
 20
343.5096073597984
 30
0.0
  0
VERTEX
  5
7E1
  8
1
  6
CONTINUOUS
 62
     7
 10
-585.1463230597498
 20
343.5054117450176
 30
0.0
  0
VERTEX
  5
7E2
  8
1
  6
CONTINUOUS
 62
     7
 10
-585.1706797268126
 20
343.5024076366639
 30
0.0
  0
VERTEX
  5
7E3
  8
1
  6
CONTINUOUS
 62
     7
 10
-585.1951544598137
 20
343.5006022718974
 30
0.0
  0
VERTEX
  5
7E4
  8
1
  6
CONTINUOUS
 62
     7
 10
-585.2196882969774
 20
343.5
 30
0.0
  0
SEQEND
  5
911
  8
1
  6
CONTINUOUS
 62
     7
  0
LINE
  5
16D
  8
1
  6
CONTINUOUS
 62
     7
 10
-586.7196882969776
 20
343.5
 30
0.0
 11
-585.2196882969776
 21
343.5
 31
0.0
  0
POLYLINE
  5
16E
  8
1
  6
CONTINUOUS
 62
     7
 66
     1
 10
0.0
 20
0.0
 30
0.0
  0
VERTEX
  5
7E5
  8
1
  6
CONTINUOUS
 62
     7
 10
-586.7196882969776
 20
343.5
 30
0.0
  0
VERTEX
  5
7E6
  8
1
  6
CONTINUOUS
 62
     7
 10
-586.7442221341412
 20
343.5006022718974
 30
0.0
  0
VERTEX
  5
7E7
  8
1
  6
CONTINUOUS
 62
     7
 10
-586.7686968671422
 20
343.5024076366639
 30
0.0
  0
VERTEX
  5
7E8
  8
1
  6
CONTINUOUS
 62
     7
 10
-586.7930535342052
 20
343.5054117450176
 30
0.0
  0
VERTEX
  5
7E9
  8
1
  6
CONTINUOUS
 62
     7
 10
-586.8172334579855
 20
343.5096073597984
 30
0.0
  0
VERTEX
  5
7EA
  8
1
  6
CONTINUOUS
 62
     7
 10
-586.8411783869291
 20
343.5149843734027
 30
0.0
  0
VERTEX
  5
7EB
  8
1
  6
CONTINUOUS
 62
     7
 10
-586.8648306356047
 20
343.5215298321339
 30
0.0
  0
VERTEX
  5
7EC
  8
1
  6
CONTINUOUS
 62
     7
 10
-586.8881332236735
 20
343.5292279674085
 30
0.0
  0
VERTEX
  5
7ED
  8
1
  6
CONTINUOUS
 62
     7
 10
-586.91103001316
 20
343.5380602337443
 30
0.0
  0
VERTEX
  5
7EE
  8
1
  6
CONTINUOUS
 62
     7
 10
-586.9334658436926
 20
343.5480053534383
 30
0.0
  0
VERTEX
  5
7EF
  8
1
  6
CONTINUOUS
 62
     7
 10
-586.9553866653905
 20
343.5590393678258
 30
0.0
  0
VERTEX
  5
7F0
  8
1
  6
CONTINUOUS
 62
     7
 10
-586.976739669074
 20
343.5711356949998
 30
0.0
  0
VERTEX
  5
7F1
  8
1
  6
CONTINUOUS
 62
     7
 10
-586.9974734134872
 20
343.5842651938487
 30
0.0
  0
VERTEX
  5
7F2
  8
1
  6
CONTINUOUS
 62
     7
 10
-587.0175379492238
 20
343.5983962342597
 30
0.0
  0
VERTEX
  5
7F3
  8
1
  6
CONTINUOUS
 62
     7
 10
-587.0368849390593
 20
343.6134947733186
 30
0.0
  0
VERTEX
  5
7F4
  8
1
  6
CONTINUOUS
 62
     7
 10
-587.055467774401
 20
343.6295244373225
 30
0.0
  0
VERTEX
  5
7F5
  8
1
  6
CONTINUOUS
 62
     7
 10
-587.0732416875708
 20
343.6464466094067
 30
0.0
  0
VERTEX
  5
7F6
  8
1
  6
CONTINUOUS
 62
     7
 10
-587.0901638596549
 20
343.6642205225765
 30
0.0
  0
VERTEX
  5
7F7
  8
1
  6
CONTINUOUS
 62
     7
 10
-587.1061935236589
 20
343.6828033579181
 30
0.0
  0
VERTEX
  5
7F8
  8
1
  6
CONTINUOUS
 62
     7
 10
-587.1212920627178
 20
343.7021503477537
 30
0.0
  0
VERTEX
  5
7F9
  8
1
  6
CONTINUOUS
 62
     7
 10
-587.1354231031287
 20
343.7222148834902
 30
0.0
  0
VERTEX
  5
7FA
  8
1
  6
CONTINUOUS
 62
     7
 10
-587.1485526019776
 20
343.7429486279034
 30
0.0
  0
VERTEX
  5
7FB
  8
1
  6
CONTINUOUS
 62
     7
 10
-587.1606489291516
 20
343.764301631587
 30
0.0
  0
VERTEX
  5
7FC
  8
1
  6
CONTINUOUS
 62
     7
 10
-587.1716829435392
 20
343.7862224532848
 30
0.0
  0
VERTEX
  5
7FD
  8
1
  6
CONTINUOUS
 62
     7
 10
-587.1816280632331
 20
343.8086582838175
 30
0.0
  0
VERTEX
  5
7FE
  8
1
  6
CONTINUOUS
 62
     7
 10
-587.190460329569
 20
343.8315550733039
 30
0.0
  0
VERTEX
  5
7FF
  8
1
  6
CONTINUOUS
 62
     7
 10
-587.1981584648436
 20
343.8548576613728
 30
0.0
  0
VERTEX
  5
800
  8
1
  6
CONTINUOUS
 62
     7
 10
-587.2047039235747
 20
343.8785099100484
 30
0.0
  0
VERTEX
  5
801
  8
1
  6
CONTINUOUS
 62
     7
 10
-587.2100809371791
 20
343.902454838992
 30
0.0
  0
VERTEX
  5
802
  8
1
  6
CONTINUOUS
 62
     7
 10
-587.2142765519599
 20
343.9266347627723
 30
0.0
  0
VERTEX
  5
803
  8
1
  6
CONTINUOUS
 62
     7
 10
-587.2172806603136
 20
343.9509914298352
 30
0.0
  0
VERTEX
  5
804
  8
1
  6
CONTINUOUS
 62
     7
 10
-587.2190860250801
 20
343.9754661628363
 30
0.0
  0
VERTEX
  5
805
  8
1
  6
CONTINUOUS
 62
     7
 10
-587.2196882969774
 20
343.9999999999999
 30
0.0
  0
SEQEND
  5
912
  8
1
  6
CONTINUOUS
 62
     7
  0
LINE
  5
16F
  8
1
  6
CONTINUOUS
 62
     7
 10
-587.2196882969774
 20
344.2835603860619
 30
0.0
 11
-587.2196882969774
 21
343.9999999999999
 31
0.0
  0
LINE
  5
170
  8
1
  6
CONTINUOUS
 62
     7
 10
-584.7196882969776
 20
343.9999999999999
 30
0.0
 11
-584.7196882969776
 21
344.2835603860619
 31
0.0
  0
POLYLINE
  5
171
  8
1
  6
CONTINUOUS
 62
     7
 66
     1
 10
0.0
 20
0.0
 30
0.0
  0
VERTEX
  5
806
  8
1
  6
CONTINUOUS
 62
     7
 10
-605.0196882969775
 20
411.4999999999999
 30
0.0
  0
VERTEX
  5
807
  8
1
  6
CONTINUOUS
 62
     7
 10
-605.0442221341413
 20
411.4993977281026
 30
0.0
  0
VERTEX
  5
808
  8
1
  6
CONTINUOUS
 62
     7
 10
-605.0686968671423
 20
411.4975923633361
 30
0.0
  0
VERTEX
  5
809
  8
1
  6
CONTINUOUS
 62
     7
 10
-605.0930535342052
 20
411.4945882549824
 30
0.0
  0
VERTEX
  5
80A
  8
1
  6
CONTINUOUS
 62
     7
 10
-605.1172334579855
 20
411.4903926402016
 30
0.0
  0
VERTEX
  5
80B
  8
1
  6
CONTINUOUS
 62
     7
 10
-605.1411783869291
 20
411.4850156265973
 30
0.0
  0
VERTEX
  5
80C
  8
1
  6
CONTINUOUS
 62
     7
 10
-605.1648306356046
 20
411.4784701678661
 30
0.0
  0
VERTEX
  5
80D
  8
1
  6
CONTINUOUS
 62
     7
 10
-605.1881332236736
 20
411.4707720325915
 30
0.0
  0
VERTEX
  5
80E
  8
1
  6
CONTINUOUS
 62
     7
 10
-605.21103001316
 20
411.4619397662557
 30
0.0
  0
VERTEX
  5
80F
  8
1
  6
CONTINUOUS
 62
     7
 10
-605.2334658436927
 20
411.4519946465617
 30
0.0
  0
VERTEX
  5
810
  8
1
  6
CONTINUOUS
 62
     7
 10
-605.2553866653905
 20
411.4409606321742
 30
0.0
  0
VERTEX
  5
811
  8
1
  6
CONTINUOUS
 62
     7
 10
-605.2767396690741
 20
411.4288643050002
 30
0.0
  0
VERTEX
  5
812
  8
1
  6
CONTINUOUS
 62
     7
 10
-605.2974734134873
 20
411.4157348061513
 30
0.0
  0
VERTEX
  5
813
  8
1
  6
CONTINUOUS
 62
     7
 10
-605.3175379492237
 20
411.4016037657403
 30
0.0
  0
VERTEX
  5
814
  8
1
  6
CONTINUOUS
 62
     7
 10
-605.3368849390594
 20
411.3865052266813
 30
0.0
  0
VERTEX
  5
815
  8
1
  6
CONTINUOUS
 62
     7
 10
-605.355467774401
 20
411.3704755626775
 30
0.0
  0
VERTEX
  5
816
  8
1
  6
CONTINUOUS
 62
     7
 10
-605.3732416875707
 20
411.3535533905933
 30
0.0
  0
VERTEX
  5
817
  8
1
  6
CONTINUOUS
 62
     7
 10
-605.3901638596549
 20
411.3357794774235
 30
0.0
  0
VERTEX
  5
818
  8
1
  6
CONTINUOUS
 62
     7
 10
-605.4061935236589
 20
411.3171966420818
 30
0.0
  0
VERTEX
  5
819
  8
1
  6
CONTINUOUS
 62
     7
 10
-605.4212920627177
 20
411.2978496522462
 30
0.0
  0
VERTEX
  5
81A
  8
1
  6
CONTINUOUS
 62
     7
 10
-605.4354231031286
 20
411.2777851165098
 30
0.0
  0
VERTEX
  5
81B
  8
1
  6
CONTINUOUS
 62
     7
 10
-605.4485526019776
 20
411.2570513720966
 30
0.0
  0
VERTEX
  5
81C
  8
1
  6
CONTINUOUS
 62
     7
 10
-605.4606489291516
 20
411.235698368413
 30
0.0
  0
VERTEX
  5
81D
  8
1
  6
CONTINUOUS
 62
     7
 10
-605.4716829435391
 20
411.2137775467152
 30
0.0
  0
VERTEX
  5
81E
  8
1
  6
CONTINUOUS
 62
     7
 10
-605.4816280632331
 20
411.1913417161825
 30
0.0
  0
VERTEX
  5
81F
  8
1
  6
CONTINUOUS
 62
     7
 10
-605.490460329569
 20
411.1684449266961
 30
0.0
  0
VERTEX
  5
820
  8
1
  6
CONTINUOUS
 62
     7
 10
-605.4981584648435
 20
411.1451423386272
 30
0.0
  0
VERTEX
  5
821
  8
1
  6
CONTINUOUS
 62
     7
 10
-605.5047039235748
 20
411.1214900899516
 30
0.0
  0
VERTEX
  5
822
  8
1
  6
CONTINUOUS
 62
     7
 10
-605.510080937179
 20
411.097545161008
 30
0.0
  0
VERTEX
  5
823
  8
1
  6
CONTINUOUS
 62
     7
 10
-605.5142765519598
 20
411.0733652372277
 30
0.0
  0
VERTEX
  5
824
  8
1
  6
CONTINUOUS
 62
     7
 10
-605.5172806603136
 20
411.0490085701648
 30
0.0
  0
VERTEX
  5
825
  8
1
  6
CONTINUOUS
 62
     7
 10
-605.5190860250801
 20
411.0245338371637
 30
0.0
  0
VERTEX
  5
826
  8
1
  6
CONTINUOUS
 62
     7
 10
-605.5196882969774
 20
411.0
 30
0.0
  0
SEQEND
  5
913
  8
1
  6
CONTINUOUS
 62
     7
  0
LINE
  5
172
  8
1
  6
CONTINUOUS
 62
     7
 10
-605.0196882969775
 20
411.4999999999999
 30
0.0
 11
-603.5196882969775
 21
411.4999999999999
 31
0.0
  0
POLYLINE
  5
173
  8
1
  6
CONTINUOUS
 62
     7
 66
     1
 10
0.0
 20
0.0
 30
0.0
  0
VERTEX
  5
827
  8
1
  6
CONTINUOUS
 62
     7
 10
-603.0196882969775
 20
411.0
 30
0.0
  0
VERTEX
  5
828
  8
1
  6
CONTINUOUS
 62
     7
 10
-603.0202905688749
 20
411.0245338371637
 30
0.0
  0
VERTEX
  5
829
  8
1
  6
CONTINUOUS
 62
     7
 10
-603.0220959336414
 20
411.0490085701648
 30
0.0
  0
VERTEX
  5
82A
  8
1
  6
CONTINUOUS
 62
     7
 10
-603.0251000419951
 20
411.0733652372277
 30
0.0
  0
VERTEX
  5
82B
  8
1
  6
CONTINUOUS
 62
     7
 10
-603.0292956567758
 20
411.097545161008
 30
0.0
  0
VERTEX
  5
82C
  8
1
  6
CONTINUOUS
 62
     7
 10
-603.0346726703802
 20
411.1214900899516
 30
0.0
  0
VERTEX
  5
82D
  8
1
  6
CONTINUOUS
 62
     7
 10
-603.0412181291114
 20
411.1451423386272
 30
0.0
  0
VERTEX
  5
82E
  8
1
  6
CONTINUOUS
 62
     7
 10
-603.048916264386
 20
411.1684449266961
 30
0.0
  0
VERTEX
  5
82F
  8
1
  6
CONTINUOUS
 62
     7
 10
-603.0577485307218
 20
411.1913417161825
 30
0.0
  0
VERTEX
  5
830
  8
1
  6
CONTINUOUS
 62
     7
 10
-603.0676936504158
 20
411.2137775467151
 30
0.0
  0
VERTEX
  5
831
  8
1
  6
CONTINUOUS
 62
     7
 10
-603.0787276648033
 20
411.235698368413
 30
0.0
  0
VERTEX
  5
832
  8
1
  6
CONTINUOUS
 62
     7
 10
-603.0908239919773
 20
411.2570513720966
 30
0.0
  0
VERTEX
  5
833
  8
1
  6
CONTINUOUS
 62
     7
 10
-603.1039534908263
 20
411.2777851165098
 30
0.0
  0
VERTEX
  5
834
  8
1
  6
CONTINUOUS
 62
     7
 10
-603.1180845312372
 20
411.2978496522462
 30
0.0
  0
VERTEX
  5
835
  8
1
  6
CONTINUOUS
 62
     7
 10
-603.133183070296
 20
411.3171966420818
 30
0.0
  0
VERTEX
  5
836
  8
1
  6
CONTINUOUS
 62
     7
 10
-603.1492127343
 20
411.3357794774235
 30
0.0
  0
VERTEX
  5
837
  8
1
  6
CONTINUOUS
 62
     7
 10
-603.1661349063842
 20
411.3535533905933
 30
0.0
  0
VERTEX
  5
838
  8
1
  6
CONTINUOUS
 62
     7
 10
-603.183908819554
 20
411.3704755626775
 30
0.0
  0
VERTEX
  5
839
  8
1
  6
CONTINUOUS
 62
     7
 10
-603.2024916548957
 20
411.3865052266813
 30
0.0
  0
VERTEX
  5
83A
  8
1
  6
CONTINUOUS
 62
     7
 10
-603.2218386447312
 20
411.4016037657403
 30
0.0
  0
VERTEX
  5
83B
  8
1
  6
CONTINUOUS
 62
     7
 10
-603.2419031804676
 20
411.4157348061513
 30
0.0
  0
VERTEX
  5
83C
  8
1
  6
CONTINUOUS
 62
     7
 10
-603.2626369248809
 20
411.4288643050002
 30
0.0
  0
VERTEX
  5
83D
  8
1
  6
CONTINUOUS
 62
     7
 10
-603.2839899285644
 20
411.4409606321742
 30
0.0
  0
VERTEX
  5
83E
  8
1
  6
CONTINUOUS
 62
     7
 10
-603.3059107502622
 20
411.4519946465617
 30
0.0
  0
VERTEX
  5
83F
  8
1
  6
CONTINUOUS
 62
     7
 10
-603.3283465807949
 20
411.4619397662557
 30
0.0
  0
VERTEX
  5
840
  8
1
  6
CONTINUOUS
 62
     7
 10
-603.3512433702813
 20
411.4707720325915
 30
0.0
  0
VERTEX
  5
841
  8
1
  6
CONTINUOUS
 62
     7
 10
-603.3745459583503
 20
411.4784701678661
 30
0.0
  0
VERTEX
  5
842
  8
1
  6
CONTINUOUS
 62
     7
 10
-603.3981982070259
 20
411.4850156265973
 30
0.0
  0
VERTEX
  5
843
  8
1
  6
CONTINUOUS
 62
     7
 10
-603.4221431359695
 20
411.4903926402016
 30
0.0
  0
VERTEX
  5
844
  8
1
  6
CONTINUOUS
 62
     7
 10
-603.4463230597497
 20
411.4945882549824
 30
0.0
  0
VERTEX
  5
845
  8
1
  6
CONTINUOUS
 62
     7
 10
-603.4706797268127
 20
411.4975923633361
 30
0.0
  0
VERTEX
  5
846
  8
1
  6
CONTINUOUS
 62
     7
 10
-603.4951544598138
 20
411.4993977281026
 30
0.0
  0
VERTEX
  5
847
  8
1
  6
CONTINUOUS
 62
     7
 10
-603.5196882969774
 20
411.4999999999999
 30
0.0
  0
SEQEND
  5
914
  8
1
  6
CONTINUOUS
 62
     7
  0
LINE
  5
174
  8
1
  6
CONTINUOUS
 62
     7
 10
-603.0196882969775
 20
411.0
 30
0.0
 11
-603.0196882969775
 21
410.7164396139381
 31
0.0
  0
LINE
  5
175
  8
1
  6
CONTINUOUS
 62
     7
 10
-605.5196882969774
 20
410.7164396139381
 30
0.0
 11
-605.5196882969774
 21
410.9999999999999
 31
0.0
  0
POLYLINE
  5
176
  8
1
  6
CONTINUOUS
 62
     7
 66
     1
 10
0.0
 20
0.0
 30
0.0
  0
VERTEX
  5
848
  8
1
  6
CONTINUOUS
 62
     7
 10
-603.0196882969775
 20
343.9999999999999
 30
0.0
  0
VERTEX
  5
849
  8
1
  6
CONTINUOUS
 62
     7
 10
-603.0202905688749
 20
343.9754661628363
 30
0.0
  0
VERTEX
  5
84A
  8
1
  6
CONTINUOUS
 62
     7
 10
-603.0220959336414
 20
343.9509914298352
 30
0.0
  0
VERTEX
  5
84B
  8
1
  6
CONTINUOUS
 62
     7
 10
-603.0251000419951
 20
343.9266347627723
 30
0.0
  0
VERTEX
  5
84C
  8
1
  6
CONTINUOUS
 62
     7
 10
-603.0292956567758
 20
343.902454838992
 30
0.0
  0
VERTEX
  5
84D
  8
1
  6
CONTINUOUS
 62
     7
 10
-603.0346726703802
 20
343.8785099100484
 30
0.0
  0
VERTEX
  5
84E
  8
1
  6
CONTINUOUS
 62
     7
 10
-603.0412181291114
 20
343.8548576613728
 30
0.0
  0
VERTEX
  5
84F
  8
1
  6
CONTINUOUS
 62
     7
 10
-603.048916264386
 20
343.8315550733039
 30
0.0
  0
VERTEX
  5
850
  8
1
  6
CONTINUOUS
 62
     7
 10
-603.0577485307218
 20
343.8086582838175
 30
0.0
  0
VERTEX
  5
851
  8
1
  6
CONTINUOUS
 62
     7
 10
-603.0676936504158
 20
343.7862224532849
 30
0.0
  0
VERTEX
  5
852
  8
1
  6
CONTINUOUS
 62
     7
 10
-603.0787276648033
 20
343.764301631587
 30
0.0
  0
VERTEX
  5
853
  8
1
  6
CONTINUOUS
 62
     7
 10
-603.0908239919773
 20
343.7429486279034
 30
0.0
  0
VERTEX
  5
854
  8
1
  6
CONTINUOUS
 62
     7
 10
-603.1039534908263
 20
343.7222148834902
 30
0.0
  0
VERTEX
  5
855
  8
1
  6
CONTINUOUS
 62
     7
 10
-603.1180845312372
 20
343.7021503477537
 30
0.0
  0
VERTEX
  5
856
  8
1
  6
CONTINUOUS
 62
     7
 10
-603.133183070296
 20
343.6828033579181
 30
0.0
  0
VERTEX
  5
857
  8
1
  6
CONTINUOUS
 62
     7
 10
-603.1492127343
 20
343.6642205225765
 30
0.0
  0
VERTEX
  5
858
  8
1
  6
CONTINUOUS
 62
     7
 10
-603.1661349063842
 20
343.6464466094067
 30
0.0
  0
VERTEX
  5
859
  8
1
  6
CONTINUOUS
 62
     7
 10
-603.183908819554
 20
343.6295244373225
 30
0.0
  0
VERTEX
  5
85A
  8
1
  6
CONTINUOUS
 62
     7
 10
-603.2024916548957
 20
343.6134947733186
 30
0.0
  0
VERTEX
  5
85B
  8
1
  6
CONTINUOUS
 62
     7
 10
-603.2218386447312
 20
343.5983962342597
 30
0.0
  0
VERTEX
  5
85C
  8
1
  6
CONTINUOUS
 62
     7
 10
-603.2419031804676
 20
343.5842651938487
 30
0.0
  0
VERTEX
  5
85D
  8
1
  6
CONTINUOUS
 62
     7
 10
-603.2626369248809
 20
343.5711356949998
 30
0.0
  0
VERTEX
  5
85E
  8
1
  6
CONTINUOUS
 62
     7
 10
-603.2839899285644
 20
343.5590393678258
 30
0.0
  0
VERTEX
  5
85F
  8
1
  6
CONTINUOUS
 62
     7
 10
-603.3059107502622
 20
343.5480053534383
 30
0.0
  0
VERTEX
  5
860
  8
1
  6
CONTINUOUS
 62
     7
 10
-603.3283465807949
 20
343.5380602337443
 30
0.0
  0
VERTEX
  5
861
  8
1
  6
CONTINUOUS
 62
     7
 10
-603.3512433702813
 20
343.5292279674085
 30
0.0
  0
VERTEX
  5
862
  8
1
  6
CONTINUOUS
 62
     7
 10
-603.3745459583503
 20
343.5215298321339
 30
0.0
  0
VERTEX
  5
863
  8
1
  6
CONTINUOUS
 62
     7
 10
-603.3981982070259
 20
343.5149843734027
 30
0.0
  0
VERTEX
  5
864
  8
1
  6
CONTINUOUS
 62
     7
 10
-603.4221431359695
 20
343.5096073597984
 30
0.0
  0
VERTEX
  5
865
  8
1
  6
CONTINUOUS
 62
     7
 10
-603.4463230597497
 20
343.5054117450176
 30
0.0
  0
VERTEX
  5
866
  8
1
  6
CONTINUOUS
 62
     7
 10
-603.4706797268127
 20
343.5024076366639
 30
0.0
  0
VERTEX
  5
867
  8
1
  6
CONTINUOUS
 62
     7
 10
-603.4951544598138
 20
343.5006022718974
 30
0.0
  0
VERTEX
  5
868
  8
1
  6
CONTINUOUS
 62
     7
 10
-603.5196882969774
 20
343.5
 30
0.0
  0
SEQEND
  5
915
  8
1
  6
CONTINUOUS
 62
     7
  0
LINE
  5
177
  8
1
  6
CONTINUOUS
 62
     7
 10
-605.0196882969775
 20
343.5
 30
0.0
 11
-603.5196882969775
 21
343.5
 31
0.0
  0
POLYLINE
  5
178
  8
1
  6
CONTINUOUS
 62
     7
 66
     1
 10
0.0
 20
0.0
 30
0.0
  0
VERTEX
  5
869
  8
1
  6
CONTINUOUS
 62
     7
 10
-605.0196882969775
 20
343.5
 30
0.0
  0
VERTEX
  5
86A
  8
1
  6
CONTINUOUS
 62
     7
 10
-605.0442221341413
 20
343.5006022718974
 30
0.0
  0
VERTEX
  5
86B
  8
1
  6
CONTINUOUS
 62
     7
 10
-605.0686968671423
 20
343.5024076366639
 30
0.0
  0
VERTEX
  5
86C
  8
1
  6
CONTINUOUS
 62
     7
 10
-605.0930535342052
 20
343.5054117450176
 30
0.0
  0
VERTEX
  5
86D
  8
1
  6
CONTINUOUS
 62
     7
 10
-605.1172334579855
 20
343.5096073597984
 30
0.0
  0
VERTEX
  5
86E
  8
1
  6
CONTINUOUS
 62
     7
 10
-605.1411783869291
 20
343.5149843734027
 30
0.0
  0
VERTEX
  5
86F
  8
1
  6
CONTINUOUS
 62
     7
 10
-605.1648306356046
 20
343.5215298321339
 30
0.0
  0
VERTEX
  5
870
  8
1
  6
CONTINUOUS
 62
     7
 10
-605.1881332236736
 20
343.5292279674085
 30
0.0
  0
VERTEX
  5
871
  8
1
  6
CONTINUOUS
 62
     7
 10
-605.21103001316
 20
343.5380602337443
 30
0.0
  0
VERTEX
  5
872
  8
1
  6
CONTINUOUS
 62
     7
 10
-605.2334658436927
 20
343.5480053534383
 30
0.0
  0
VERTEX
  5
873
  8
1
  6
CONTINUOUS
 62
     7
 10
-605.2553866653905
 20
343.5590393678258
 30
0.0
  0
VERTEX
  5
874
  8
1
  6
CONTINUOUS
 62
     7
 10
-605.2767396690741
 20
343.5711356949998
 30
0.0
  0
VERTEX
  5
875
  8
1
  6
CONTINUOUS
 62
     7
 10
-605.2974734134873
 20
343.5842651938487
 30
0.0
  0
VERTEX
  5
876
  8
1
  6
CONTINUOUS
 62
     7
 10
-605.3175379492237
 20
343.5983962342597
 30
0.0
  0
VERTEX
  5
877
  8
1
  6
CONTINUOUS
 62
     7
 10
-605.3368849390594
 20
343.6134947733186
 30
0.0
  0
VERTEX
  5
878
  8
1
  6
CONTINUOUS
 62
     7
 10
-605.355467774401
 20
343.6295244373225
 30
0.0
  0
VERTEX
  5
879
  8
1
  6
CONTINUOUS
 62
     7
 10
-605.3732416875707
 20
343.6464466094067
 30
0.0
  0
VERTEX
  5
87A
  8
1
  6
CONTINUOUS
 62
     7
 10
-605.3901638596549
 20
343.6642205225765
 30
0.0
  0
VERTEX
  5
87B
  8
1
  6
CONTINUOUS
 62
     7
 10
-605.4061935236589
 20
343.6828033579181
 30
0.0
  0
VERTEX
  5
87C
  8
1
  6
CONTINUOUS
 62
     7
 10
-605.4212920627177
 20
343.7021503477537
 30
0.0
  0
VERTEX
  5
87D
  8
1
  6
CONTINUOUS
 62
     7
 10
-605.4354231031286
 20
343.7222148834902
 30
0.0
  0
VERTEX
  5
87E
  8
1
  6
CONTINUOUS
 62
     7
 10
-605.4485526019776
 20
343.7429486279034
 30
0.0
  0
VERTEX
  5
87F
  8
1
  6
CONTINUOUS
 62
     7
 10
-605.4606489291516
 20
343.764301631587
 30
0.0
  0
VERTEX
  5
880
  8
1
  6
CONTINUOUS
 62
     7
 10
-605.4716829435391
 20
343.7862224532848
 30
0.0
  0
VERTEX
  5
881
  8
1
  6
CONTINUOUS
 62
     7
 10
-605.4816280632331
 20
343.8086582838175
 30
0.0
  0
VERTEX
  5
882
  8
1
  6
CONTINUOUS
 62
     7
 10
-605.490460329569
 20
343.8315550733039
 30
0.0
  0
VERTEX
  5
883
  8
1
  6
CONTINUOUS
 62
     7
 10
-605.4981584648435
 20
343.8548576613728
 30
0.0
  0
VERTEX
  5
884
  8
1
  6
CONTINUOUS
 62
     7
 10
-605.5047039235747
 20
343.8785099100484
 30
0.0
  0
VERTEX
  5
885
  8
1
  6
CONTINUOUS
 62
     7
 10
-605.510080937179
 20
343.902454838992
 30
0.0
  0
VERTEX
  5
886
  8
1
  6
CONTINUOUS
 62
     7
 10
-605.5142765519598
 20
343.9266347627723
 30
0.0
  0
VERTEX
  5
887
  8
1
  6
CONTINUOUS
 62
     7
 10
-605.5172806603135
 20
343.9509914298352
 30
0.0
  0
VERTEX
  5
888
  8
1
  6
CONTINUOUS
 62
     7
 10
-605.5190860250801
 20
343.9754661628363
 30
0.0
  0
VERTEX
  5
889
  8
1
  6
CONTINUOUS
 62
     7
 10
-605.5196882969774
 20
343.9999999999999
 30
0.0
  0
SEQEND
  5
916
  8
1
  6
CONTINUOUS
 62
     7
  0
LINE
  5
179
  8
1
  6
CONTINUOUS
 62
     7
 10
-603.0196882969775
 20
343.9999999999999
 30
0.0
 11
-603.0196882969775
 21
344.2835603860619
 31
0.0
  0
LINE
  5
17A
  8
1
  6
CONTINUOUS
 62
     7
 10
-605.5196882969774
 20
344.2835603860619
 30
0.0
 11
-605.5196882969774
 21
344.0
 31
0.0
  0
LINE
  5
17B
  8
1
  6
CONTINUOUS
 62
     7
 10
-577.00602168434
 20
360.5418064822667
 30
0.0
 11
-577.0217722715552
 21
360.4746735083568
 31
0.0
  0
LINE
  5
17C
  8
1
  6
CONTINUOUS
 62
     7
 10
-576.8260497033774
 20
361.333022916235
 30
0.0
 11
-576.9926533022052
 21
360.5990411753295
 31
0.0
  0
LINE
  5
17D
  8
1
  6
CONTINUOUS
 62
     7
 10
-576.9926533022052
 20
360.5990411753295
 30
0.0
 11
-577.0060216843398
 21
360.5418064822675
 31
0.0
  0
LINE
  5
17E
  8
1
  6
CONTINUOUS
 62
     9
 10
-577.0023282722836
 20
394.4175087189008
 30
0.0
 11
-577.021772271555
 21
394.5253264916425
 31
0.0
  0
LINE
  5
17F
  8
1
  6
CONTINUOUS
 62
     7
 10
-577.0060237462282
 20
394.458202327243
 30
0.0
 11
-576.8260497033774
 21
393.6669770837649
 31
0.0
  0
LINE
  5
180
  8
1
  6
CONTINUOUS
 62
     7
 10
-577.0217722715549
 20
394.5253264916421
 30
0.0
 11
-577.0060237462283
 21
394.458202327243
 31
0.0
  0
LINE
  5
181
  8
1
  6
CONTINUOUS
 62
     9
 10
-613.2387034347496
 20
360.596613343669
 30
0.0
 11
-613.2176045002302
 21
360.4746742644919
 31
0.0
  0
LINE
  5
182
  8
1
  6
CONTINUOUS
 62
     7
 10
-613.2352311615243
 20
360.549825166357
 30
0.0
 11
-613.4133270201481
 21
361.3330235026939
 31
0.0
  0
LINE
  5
183
  8
1
  6
CONTINUOUS
 62
     7
 10
-613.2176045002303
 20
360.474674264492
 30
0.0
 11
-613.2352311615243
 21
360.5498251663571
 31
0.0
  0
LINE
  5
184
  8
1
  6
CONTINUOUS
 62
     7
 10
-613.2352340677412
 20
394.4501624095305
 30
0.0
 11
-613.2176045002303
 21
394.525325735508
 31
0.0
  0
LINE
  5
185
  8
1
  6
CONTINUOUS
 62
     7
 10
-613.413327020148
 20
393.6669764973061
 30
0.0
 11
-613.2490847852289
 21
394.3908238960419
 31
0.0
  0
LINE
  5
186
  8
1
  6
CONTINUOUS
 62
     7
 10
-613.249084785229
 20
394.3908238960419
 30
0.0
 11
-613.2352340677412
 21
394.4501624095305
 31
0.0
  0
LINE
  5
187
  8
1
  6
CONTINUOUS
 62
     7
 10
-577.0024047174287
 20
360.5818795709073
 30
0.0
 11
-577.0059913240549
 21
360.5420407604355
 31
0.0
  0
LINE
  5
188
  8
1
  6
CONTINUOUS
 62
     7
 10
-577.0059929399953
 20
394.4579762510181
 30
0.0
 11
-577.002404717429
 21
394.4181204290949
 31
0.0
  0
LINE
  5
189
  8
1
  6
CONTINUOUS
 62
     7
 10
-613.2352932951583
 20
360.5501300069223
 30
0.0
 11
-613.2396728050779
 21
360.6058627490954
 31
0.0
  0
LINE
  5
18A
  8
1
  6
CONTINUOUS
 62
     7
 10
-613.2396728050779
 20
394.3941372509046
 30
0.0
 11
-613.2352953993625
 21
394.4498482353754
 31
0.0
  0
ENDBLK
  8
0
  0
BLOCK
  8
0
  2
D_FRAME_VIEW_2392
 70
     0
 10
0.0
 20
0.0
 30
0.0
  0
LINE
  5
191
  8
1
  6
CONTINUOUS
 62
     7
 10
-527.2153678810613
 20
395.7985655732607
 30
0.0
 11
-523.3303393599103
 21
413.3227967605857
 31
0.0
  0
LINE
  5
192
  8
1
  6
CONTINUOUS
 62
     7
 10
-521.3823806613663
 20
412.8690179962008
 30
0.0
 11
-525.2071175236113
 21
395.6167449074025
 31
0.0
  0
LINE
  5
193
  8
1
  6
CONTINUOUS
 62
     7
 10
-525.2071175236113
 20
395.6167449074025
 30
0.0
 11
-523.9379327143554
 21
395.335373409283
 31
0.0
  0
POLYLINE
  5
194
  8
1
  6
CONTINUOUS
 62
     7
 66
     1
 10
0.0
 20
0.0
 30
0.0
  0
VERTEX
  5
88C
  8
1
  6
CONTINUOUS
 62
     7
 10
-523.5580045177643
 20
394.7390055987541
 30
0.0
  0
VERTEX
  5
88D
  8
1
  6
CONTINUOUS
 62
     7
 10
-523.5538293622009
 20
394.7599543897462
 30
0.0
  0
VERTEX
  5
88E
  8
1
  6
CONTINUOUS
 62
     7
 10
-523.5505513120435
 20
394.781070604293
 30
0.0
  0
VERTEX
  5
88F
  8
1
  6
CONTINUOUS
 62
     7
 10
-523.5481766580025
 20
394.8022992297814
 30
0.0
  0
VERTEX
  5
890
  8
1
  6
CONTINUOUS
 62
     7
 10
-523.5467116907872
 20
394.8235852535983
 30
0.0
  0
VERTEX
  5
891
  8
1
  6
CONTINUOUS
 62
     7
 10
-523.5461572587285
 20
394.84552953618
 30
0.0
  0
VERTEX
  5
892
  8
1
  6
CONTINUOUS
 62
     7
 10
-523.5465668602445
 20
394.8674950017697
 30
0.0
  0
VERTEX
  5
893
  8
1
  6
CONTINUOUS
 62
     7
 10
-523.5479381003868
 20
394.8894217256698
 30
0.0
  0
VERTEX
  5
894
  8
1
  6
CONTINUOUS
 62
     7
 10
-523.5502685842071
 20
394.9112497831828
 30
0.0
  0
VERTEX
  5
895
  8
1
  6
CONTINUOUS
 62
     7
 10
-523.5534534097442
 20
394.9323483153588
 30
0.0
  0
VERTEX
  5
896
  8
1
  6
CONTINUOUS
 62
     7
 10
-523.5575405086201
 20
394.9533165085343
 30
0.0
  0
VERTEX
  5
897
  8
1
  6
CONTINUOUS
 62
     7
 10
-523.5625192419776
 20
394.9741000565768
 30
0.0
  0
VERTEX
  5
898
  8
1
  6
CONTINUOUS
 62
     7
 10
-523.5683789709598
 20
394.994644653354
 30
0.0
  0
VERTEX
  5
899
  8
1
  6
CONTINUOUS
 62
     7
 10
-523.5753290597969
 20
395.0155207789124
 30
0.0
  0
VERTEX
  5
89A
  8
1
  6
CONTINUOUS
 62
     7
 10
-523.5832041290963
 20
395.0361045915018
 30
0.0
  0
VERTEX
  5
89B
  8
1
  6
CONTINUOUS
 62
     7
 10
-523.5919831643909
 20
395.0563384452881
 30
0.0
  0
VERTEX
  5
89C
  8
1
  6
CONTINUOUS
 62
     7
 10
-523.6016451512131
 20
395.0761646944367
 30
0.0
  0
VERTEX
  5
89D
  8
1
  6
CONTINUOUS
 62
     7
 10
-523.611824972271
 20
395.09493049073
 30
0.0
  0
VERTEX
  5
89E
  8
1
  6
CONTINUOUS
 62
     7
 10
-523.6228177275393
 20
395.1132789832566
 30
0.0
  0
VERTEX
  5
89F
  8
1
  6
CONTINUOUS
 62
     7
 10
-523.6345955798724
 20
395.1311604634858
 30
0.0
  0
VERTEX
  5
8A0
  8
1
  6
CONTINUOUS
 62
     7
 10
-523.6471306921252
 20
395.1485252228865
 30
0.0
  0
VERTEX
  5
8A1
  8
1
  6
CONTINUOUS
 62
     7
 10
-523.6608311335766
 20
395.165855779164
 30
0.0
  0
VERTEX
  5
8A2
  8
1
  6
CONTINUOUS
 62
     7
 10
-523.6753160166232
 20
395.1826006177955
 30
0.0
  0
VERTEX
  5
8A3
  8
1
  6
CONTINUOUS
 62
     7
 10
-523.6905449230981
 20
395.198709584992
 30
0.0
  0
VERTEX
  5
8A4
  8
1
  6
CONTINUOUS
 62
     7
 10
-523.706477434834
 20
395.2141325269646
 30
0.0
  0
VERTEX
  5
8A5
  8
1
  6
CONTINUOUS
 62
     7
 10
-523.7222435834266
 20
395.2281206340123
 30
0.0
  0
VERTEX
  5
8A6
  8
1
  6
CONTINUOUS
 62
     7
 10
-523.7386202365865
 20
395.2414596656434
 30
0.0
  0
VERTEX
  5
8A7
  8
1
  6
CONTINUOUS
 62
     7
 10
-523.7555644056437
 20
395.2541120315227
 30
0.0
  0
VERTEX
  5
8A8
  8
1
  6
CONTINUOUS
 62
     7
 10
-523.7730331019284
 20
395.266040141315
 30
0.0
  0
VERTEX
  5
8A9
  8
1
  6
CONTINUOUS
 62
     7
 10
-523.7915756048935
 20
395.2775606353412
 30
0.0
  0
VERTEX
  5
8AA
  8
1
  6
CONTINUOUS
 62
     7
 10
-523.8106442004573
 20
395.2882831689972
 30
0.0
  0
VERTEX
  5
8AB
  8
1
  6
CONTINUOUS
 62
     7
 10
-523.8301833638081
 20
395.2981745642471
 30
0.0
  0
VERTEX
  5
8AC
  8
1
  6
CONTINUOUS
 62
     7
 10
-523.8501375701343
 20
395.307201643055
 30
0.0
  0
VERTEX
  5
8AD
  8
1
  6
CONTINUOUS
 62
     7
 10
-523.8715362308866
 20
395.315740457644
 30
0.0
  0
VERTEX
  5
8AE
  8
1
  6
CONTINUOUS
 62
     7
 10
-523.8933501055483
 20
395.3232994018027
 30
0.0
  0
VERTEX
  5
8AF
  8
1
  6
CONTINUOUS
 62
     7
 10
-523.9155064985582
 20
395.3298524081445
 30
0.0
  0
VERTEX
  5
8B0
  8
1
  6
CONTINUOUS
 62
     7
 10
-523.9379327143553
 20
395.335373409283
 30
0.0
  0
SEQEND
  5
917
  8
1
  6
CONTINUOUS
 62
     7
  0
LINE
  5
195
  8
1
  6
CONTINUOUS
 62
     7
 10
-523.5580045177643
 20
394.7390055987541
 30
0.0
 11
-526.790185565999
 21
380.1595790591068
 31
0.0
  0
LINE
  5
196
  8
1
  6
CONTINUOUS
 62
     7
 10
-521.3823806613663
 20
342.1309820037992
 30
0.0
 11
-525.2071175236113
 21
359.3832550925975
 31
0.0
  0
LINE
  5
197
  8
1
  6
CONTINUOUS
 62
     7
 10
-527.2153678810613
 20
359.2014344267393
 30
0.0
 11
-523.3303393599103
 21
341.6772032394143
 31
0.0
  0
LINE
  5
198
  8
1
  6
CONTINUOUS
 62
     7
 10
-523.5580045177643
 20
360.260994401246
 30
0.0
 11
-526.790185565996
 21
374.8404209408796
 31
0.0
  0
POLYLINE
  5
199
  8
1
  6
CONTINUOUS
 62
     7
 66
     1
 10
0.0
 20
0.0
 30
0.0
  0
VERTEX
  5
8B1
  8
1
  6
CONTINUOUS
 62
     7
 10
-523.9379327143552
 20
359.664626590717
 30
0.0
  0
VERTEX
  5
8B2
  8
1
  6
CONTINUOUS
 62
     7
 10
-523.9179716648761
 20
359.6694859481743
 30
0.0
  0
VERTEX
  5
8B3
  8
1
  6
CONTINUOUS
 62
     7
 10
-523.8982218663102
 20
359.6751624060258
 30
0.0
  0
VERTEX
  5
8B4
  8
1
  6
CONTINUOUS
 62
     7
 10
-523.8787347518803
 20
359.6816381642111
 30
0.0
  0
VERTEX
  5
8B5
  8
1
  6
CONTINUOUS
 62
     7
 10
-523.8595617548087
 20
359.6888954226696
 30
0.0
  0
VERTEX
  5
8B6
  8
1
  6
CONTINUOUS
 62
     7
 10
-523.8401684333921
 20
359.6971775443067
 30
0.0
  0
VERTEX
  5
8B7
  8
1
  6
CONTINUOUS
 62
     7
 10
-523.82114215201
 20
359.7062692969549
 30
0.0
  0
VERTEX
  5
8B8
  8
1
  6
CONTINUOUS
 62
     7
 10
-523.8025333493048
 20
359.7161422409542
 30
0.0
  0
VERTEX
  5
8B9
  8
1
  6
CONTINUOUS
 62
     7
 10
-523.784392463919
 20
359.7267679366446
 30
0.0
  0
VERTEX
  5
8BA
  8
1
  6
CONTINUOUS
 62
     7
 10
-523.7672394775096
 20
359.7377975720094
 30
0.0
  0
VERTEX
  5
8BB
  8
1
  6
CONTINUOUS
 62
     7
 10
-523.7505548669809
 20
359.7495138786896
 30
0.0
  0
VERTEX
  5
8BC
  8
1
  6
CONTINUOUS
 62
     7
 10
-523.7343783256568
 20
359.7618842484596
 30
0.0
  0
VERTEX
  5
8BD
  8
1
  6
CONTINUOUS
 62
     7
 10
-523.718749546861
 20
359.7748760730936
 30
0.0
  0
VERTEX
  5
8BE
  8
1
  6
CONTINUOUS
 62
     7
 10
-523.7032677911944
 20
359.7888674727489
 30
0.0
  0
VERTEX
  5
8BF
  8
1
  6
CONTINUOUS
 62
     7
 10
-523.6883879789567
 20
359.8034873762712
 30
0.0
  0
VERTEX
  5
8C0
  8
1
  6
CONTINUOUS
 62
     7
 10
-523.674145515255
 20
359.818695090824
 30
0.0
  0
VERTEX
  5
8C1
  8
1
  6
CONTINUOUS
 62
     7
 10
-523.6605758051969
 20
359.8344499235706
 30
0.0
  0
VERTEX
  5
8C2
  8
1
  6
CONTINUOUS
 62
     7
 10
-523.6477948694496
 20
359.850599718501
 30
0.0
  0
VERTEX
  5
8C3
  8
1
  6
CONTINUOUS
 62
     7
 10
-523.6356928911558
 20
359.8672572121938
 30
0.0
  0
VERTEX
  5
8C4
  8
1
  6
CONTINUOUS
 62
     7
 10
-523.6242966873068
 20
359.8843791283177
 30
0.0
  0
VERTEX
  5
8C5
  8
1
  6
CONTINUOUS
 62
     7
 10
-523.6136330748946
 20
359.9019221905411
 30
0.0
  0
VERTEX
  5
8C6
  8
1
  6
CONTINUOUS
 62
     7
 10
-523.6034483602816
 20
359.9203710592641
 30
0.0
  0
VERTEX
  5
8C7
  8
1
  6
CONTINUOUS
 62
     7
 10
-523.5940504529161
 20
359.9392310838658
 30
0.0
  0
VERTEX
  5
8C8
  8
1
  6
CONTINUOUS
 62
     7
 10
-523.5854602210221
 20
359.9584527515017
 30
0.0
  0
VERTEX
  5
8C9
  8
1
  6
CONTINUOUS
 62
     7
 10
-523.5776985328232
 20
359.9779865493272
 30
0.0
  0
VERTEX
  5
8CA
  8
1
  6
CONTINUOUS
 62
     7
 10
-523.570771804041
 20
359.9978178177427
 30
0.0
  0
VERTEX
  5
8CB
  8
1
  6
CONTINUOUS
 62
     7
 10
-523.5646826037433
 20
360.0179268188884
 30
0.0
  0
VERTEX
  5
8CC
  8
1
  6
CONTINUOUS
 62
     7
 10
-523.5594437864424
 20
360.0382624360115
 30
0.0
  0
VERTEX
  5
8CD
  8
1
  6
CONTINUOUS
 62
     7
 10
-523.5550682066507
 20
360.0587735523591
 30
0.0
  0
VERTEX
  5
8CE
  8
1
  6
CONTINUOUS
 62
     7
 10
-523.5514750500001
 20
360.0800252251054
 30
0.0
  0
VERTEX
  5
8CF
  8
1
  6
CONTINUOUS
 62
     7
 10
-523.5487993592001
 20
360.101425232452
 30
0.0
  0
VERTEX
  5
8D0
  8
1
  6
CONTINUOUS
 62
     7
 10
-523.5470465203817
 20
360.1229170906753
 30
0.0
  0
VERTEX
  5
8D1
  8
1
  6
CONTINUOUS
 62
     7
 10
-523.5462219196758
 20
360.1444443160519
 30
0.0
  0
VERTEX
  5
8D2
  8
1
  6
CONTINUOUS
 62
     7
 10
-523.5463852826027
 20
360.1678862943037
 30
0.0
  0
VERTEX
  5
8D3
  8
1
  6
CONTINUOUS
 62
     7
 10
-523.5476514861219
 20
360.1913354279019
 30
0.0
  0
VERTEX
  5
8D4
  8
1
  6
CONTINUOUS
 62
     7
 10
-523.5500142679865
 20
360.2147185808937
 30
0.0
  0
VERTEX
  5
8D5
  8
1
  6
CONTINUOUS
 62
     7
 10
-523.5534673659496
 20
360.237962617326
 30
0.0
  0
VERTEX
  5
8D6
  8
1
  6
CONTINUOUS
 62
     7
 10
-523.5580045177643
 20
360.260994401246
 30
0.0
  0
SEQEND
  5
918
  8
1
  6
CONTINUOUS
 62
     7
  0
LINE
  5
19A
  8
1
  6
CONTINUOUS
 62
     7
 10
-525.2071175236113
 20
359.3832550925975
 30
0.0
 11
-523.9379327143553
 21
359.664626590717
 31
0.0
  0
LINE
  5
19B
  8
1
  6
CONTINUOUS
 62
     7
 10
-526.8515576166586
 20
379.6215430480085
 30
0.0
 11
-526.8567653753302
 21
379.8592569469845
 31
0.0
  0
ARC
  5
19C
  8
1
  6
CONTINUOUS
 62
     7
 10
-534.7637218183468
 20
377.5000000000006
 30
0.0
 40
8.191659615671641
 50
359.9975795462562
 51
15.0100330413702
  0
LINE
  5
19D
  8
1
  6
CONTINUOUS
 62
     7
 10
-526.790185565999
 20
380.1595790591068
 30
0.0
 11
-526.8567653753302
 21
379.8592569469845
 31
0.0
  0
ARC
  5
19E
  8
1
  6
CONTINUOUS
 62
     7
 10
-534.7637218183494
 20
377.4999999999998
 30
0.0
 40
8.191659615674423
 50
344.9899669586323
 51
359.997579545352
  0
LINE
  5
19F
  8
1
  6
CONTINUOUS
 62
     7
 10
-526.8567653753311
 20
375.1407430530197
 30
0.0
 11
-526.8515576166586
 21
375.3784569519915
 31
0.0
  0
LINE
  5
1A0
  8
1
  6
CONTINUOUS
 62
     7
 10
-526.8567653753311
 20
375.1407430530197
 30
0.0
 11
-526.790185565996
 21
374.8404209408796
 31
0.0
  0
ARC
  5
1A1
  8
1
  6
CONTINUOUS
 62
     7
 10
-531.5466600644278
 20
377.4970433212418
 30
0.0
 40
4.108347625490135
 50
0.0412343950134289
 51
19.01120331539138
  0
ARC
  5
1A2
  8
1
  6
CONTINUOUS
 62
     7
 10
-531.5466600644278
 20
377.5029566787582
 30
0.0
 40
4.108347625490135
 50
340.9887966846086
 51
359.9587656049866
  0
LINE
  5
1A3
  8
1
  6
CONTINUOUS
 62
     7
 10
-526.6347621265721
 20
367.6632611423559
 30
0.0
 11
-526.341487597842
 21
367.6607017743173
 31
0.0
  0
LINE
  5
1A4
  8
1
  6
CONTINUOUS
 62
     7
 10
-526.6347621265721
 20
367.6632611423559
 30
0.0
 11
-527.1447927609128
 21
367.6677121122709
 31
0.0
  0
LINE
  5
1A5
  8
1
  6
CONTINUOUS
 62
     7
 10
-527.144792760913
 20
387.332287887729
 30
0.0
 11
-526.6347621265721
 21
387.3367388576441
 31
0.0
  0
ARC
  5
1A6
  8
1
  6
CONTINUOUS
 62
     7
 10
-526.6245955958034
 20
367.163153381193
 30
0.0
 40
0.4999999999999888
 50
12.50000000000009
 51
89.50000000000003
  0
ARC
  5
1A7
  8
1
  6
CONTINUOUS
 62
     7
 10
-526.6245955958034
 20
387.8368466188069
 30
0.0
 40
0.5000000000000013
 50
270.5000000000001
 51
347.5000000000003
  0
LINE
  5
1A8
  8
1
  6
CONTINUOUS
 62
     7
 10
-527.4857291635593
 20
360.4209553627642
 30
0.0
 11
-527.2153678810612
 21
359.2014344267393
 31
0.0
  0
LINE
  5
1A9
  8
1
  6
CONTINUOUS
 62
     7
 10
-525.2041416987971
 20
361.3660198344091
 30
0.0
 11
-527.4857291635593
 21
360.4209553627642
 31
0.0
  0
LINE
  5
1AA
  8
1
  6
CONTINUOUS
 62
     7
 10
-527.4857291635593
 20
394.5790446372358
 30
0.0
 11
-527.2153678810612
 21
395.7985655732607
 31
0.0
  0
LINE
  5
1AB
  8
1
  6
CONTINUOUS
 62
     7
 10
-525.2041416987971
 20
393.6339801655909
 30
0.0
 11
-527.4857291635593
 21
394.5790446372358
 31
0.0
  0
LINE
  5
1AC
  8
1
  6
CONTINUOUS
 62
     7
 10
-526.1364475922434
 20
387.7286268118379
 30
0.0
 11
-524.9497671459052
 21
393.081396392265
 31
0.0
  0
LINE
  5
1AD
  8
1
  6
CONTINUOUS
 62
     7
 10
-526.1364475922434
 20
367.2713731881621
 30
0.0
 11
-524.9497671459058
 21
361.9186036077378
 31
0.0
  0
ARC
  5
1AE
  8
1
  6
CONTINUOUS
 62
     7
 10
-534.7637218183507
 20
377.5000000000002
 30
0.0
 40
7.191659615675789
 50
327.1855470536597
 51
346.4272453324375
  0
LINE
  5
1AF
  8
1
  6
CONTINUOUS
 62
     7
 10
-527.6620187147785
 20
376.1645546512469
 30
0.0
 11
-527.7729057976987
 21
375.8122620484398
 31
0.0
  0
ARC
  5
1B0
  8
1
  6
CONTINUOUS
 62
     7
 10
-534.7637218183507
 20
377.4999999999998
 30
0.0
 40
7.191659615675789
 50
13.57275466756256
 51
32.81445294634021
  0
LINE
  5
1B1
  8
1
  6
CONTINUOUS
 62
     7
 10
-527.6620187147785
 20
378.8354453487531
 30
0.0
 11
-527.7729057976987
 21
379.1877379515602
 31
0.0
  0
ARC
  5
1B2
  8
1
  6
CONTINUOUS
 62
     7
 10
-525.4379151494652
 20
393.1896161992341
 30
0.0
 40
0.5000000000000032
 50
347.5000000000009
 51
67.5
  0
ARC
  5
1B3
  8
1
  6
CONTINUOUS
 62
     7
 10
-525.4379151494652
 20
361.8103838007659
 30
0.0
 40
0.5000000000000174
 50
292.5000000000012
 51
12.50000000033754
  0
LINE
  5
1B4
  8
1
  6
CONTINUOUS
 62
     7
 10
-528.7872026622543
 20
381.7781375863636
 30
0.0
 11
-528.7760040077502
 21
381.8286514524642
 31
0.0
  0
LINE
  5
1B5
  8
1
  6
CONTINUOUS
 62
     7
 10
-528.7760040077502
 20
381.8286514524642
 30
0.0
 11
-527.6427559730206
 21
386.9404029994779
 31
0.0
  0
LINE
  5
1B6
  8
1
  6
CONTINUOUS
 62
     7
 10
-528.7872026622543
 20
373.2218624136364
 30
0.0
 11
-528.7760040077502
 21
373.1713485475357
 31
0.0
  0
LINE
  5
1B7
  8
1
  6
CONTINUOUS
 62
     7
 10
-528.7760040077502
 20
373.1713485475357
 30
0.0
 11
-527.6427559730206
 21
368.0595970005221
 31
0.0
  0
ARC
  5
1B8
  8
1
  6
CONTINUOUS
 62
     7
 10
-528.299420865615
 20
381.6682659267228
 30
0.0
 40
0.4999999999999768
 50
167.5000000000041
 51
212.8144529463401
  0
ARC
  5
1B9
  8
1
  6
CONTINUOUS
 62
     7
 10
-528.299420865615
 20
373.3317340732773
 30
0.0
 40
0.4999999999999731
 50
147.1855470536597
 51
192.5000000000017
  0
ARC
  5
1BA
  8
1
  6
CONTINUOUS
 62
     7
 10
-527.1546079694607
 20
368.1678168074911
 30
0.0
 40
0.4999999999999888
 50
192.4999999999997
 51
269.5000000000001
  0
LINE
  5
1BB
  8
1
  6
CONTINUOUS
 62
     7
 10
-527.1447927609128
 20
367.6677121122709
 30
0.0
 11
-527.1589712372098
 21
367.6678358459591
 31
0.0
  0
ARC
  5
1BC
  8
1
  6
CONTINUOUS
 62
     7
 10
-527.1546079694607
 20
386.8321831925088
 30
0.0
 40
0.5000000000000013
 50
90.49999999999997
 51
167.5000000000003
  0
LINE
  5
1BD
  8
1
  6
CONTINUOUS
 62
     7
 10
-527.1589712372098
 20
387.3321641540409
 30
0.0
 11
-527.144792760913
 21
387.332287887729
 31
0.0
  0
LINE
  5
1BE
  8
1
  6
CONTINUOUS
 62
     7
 10
-526.1155446954084
 20
344.9999999999999
 30
0.0
 11
-526.0046973640871
 21
344.5
 31
0.0
  0
LINE
  5
1BF
  8
1
  6
CONTINUOUS
 62
     7
 10
-524.0669856667795
 20
344.9999999999999
 30
0.0
 11
-526.1155446954084
 21
344.9999999999999
 31
0.0
  0
LINE
  5
1C0
  8
1
  6
CONTINUOUS
 62
     7
 10
-525.9567138568925
 20
344.2835603860619
 30
0.0
 11
-526.0046973640871
 21
344.5
 31
0.0
  0
LINE
  5
1C1
  8
1
  6
CONTINUOUS
 62
     7
 10
-525.6034049382512
 20
343.9999999999999
 30
0.0
 11
-525.9567138568924
 21
344.2835603860619
 31
0.0
  0
LINE
  5
1C2
  8
1
  6
CONTINUOUS
 62
     7
 10
-524.9804178497726
 20
343.5
 30
0.0
 11
-523.734443672815
 21
343.5
 31
0.0
  0
LINE
  5
1C3
  8
1
  6
CONTINUOUS
 62
     7
 10
-525.6034049382512
 20
343.9999999999999
 30
0.0
 11
-524.9804178497726
 21
343.5
 31
0.0
  0
LINE
  5
1C4
  8
1
  6
CONTINUOUS
 62
     7
 10
-525.6034049382512
 20
411.0
 30
0.0
 11
-525.9567138568924
 21
410.7164396139381
 31
0.0
  0
LINE
  5
1C5
  8
1
  6
CONTINUOUS
 62
     7
 10
-525.9567138568925
 20
410.7164396139381
 30
0.0
 11
-526.0046973640871
 21
410.4999999999999
 31
0.0
  0
LINE
  5
1C6
  8
1
  6
CONTINUOUS
 62
     7
 10
-525.6034049382512
 20
411.0
 30
0.0
 11
-524.9804178497726
 21
411.4999999999999
 31
0.0
  0
LINE
  5
1C7
  8
1
  6
CONTINUOUS
 62
     7
 10
-524.9804178497726
 20
411.4999999999999
 30
0.0
 11
-523.734443672815
 21
411.4999999999999
 31
0.0
  0
LINE
  5
1C8
  8
1
  6
CONTINUOUS
 62
     7
 10
-524.0669856667795
 20
410.0
 30
0.0
 11
-526.1155446954084
 21
410.0
 31
0.0
  0
LINE
  5
1C9
  8
1
  6
CONTINUOUS
 62
     7
 10
-526.1155446954084
 20
410.0
 30
0.0
 11
-526.0046973640871
 21
410.4999999999999
 31
0.0
  0
POLYLINE
  5
1CA
  8
1
  6
CONTINUOUS
 62
     7
 10
0.0
 20
0.0
 30
0.0
 66
     1
 70
     9
  0
VERTEX
  5
1CB
  8
1
  6
CONTINUOUS
 62
     7
 10
-524.8237458607141
 20
357.6539772727032
 30
0.0
 70
    32
  0
VERTEX
  5
1CC
  8
1
  6
CONTINUOUS
 62
     7
 10
-524.8237621786766
 20
357.6540508782767
 30
0.0
 70
    32
  0
VERTEX
  5
1CD
  8
1
  6
CONTINUOUS
 62
     7
 10
-524.8237458607192
 20
357.6539772727273
 30
0.0
 70
    32
  0
SEQEND
  5
1CE
  8
1
  6
CONTINUOUS
 62
     7
  0
LINE
  5
1CF
  8
1
  6
CONTINUOUS
 62
     7
 10
-523.2637964869652
 20
341.3770477365625
 30
0.0
 11
-521.3112044727254
 21
341.8099269644386
 31
0.0
  0
LINE
  5
1D0
  8
1
  6
CONTINUOUS
 62
     7
 10
-521.3112044727254
 20
341.8099269644387
 30
0.0
 11
-521.3529729684413
 21
341.9983324732504
 31
0.0
  0
LINE
  5
1D1
  8
1
  6
CONTINUOUS
 62
     7
 10
-521.3529729684413
 20
341.9983324732504
 30
0.0
 11
-521.3823806613663
 21
342.1309820037992
 31
0.0
  0
LINE
  5
1D2
  8
1
  6
CONTINUOUS
 62
     7
 10
-523.3303393599105
 20
341.6772032394143
 30
0.0
 11
-523.3060389136165
 21
341.5675910096732
 31
0.0
  0
LINE
  5
1D3
  8
1
  6
CONTINUOUS
 62
     7
 10
-523.3060389136164
 20
341.5675910096732
 30
0.0
 11
-523.2637964869652
 21
341.3770477365625
 31
0.0
  0
LINE
  5
1D4
  8
1
  6
CONTINUOUS
 62
     7
 10
-523.2637964869652
 20
413.6229522634375
 30
0.0
 11
-521.3112044727254
 21
413.1900730355614
 31
0.0
  0
LINE
  5
1D5
  8
1
  6
CONTINUOUS
 62
     7
 10
-521.3112044727261
 20
413.1900730355575
 30
0.0
 11
-521.3529729684413
 21
413.0016675267496
 31
0.0
  0
LINE
  5
1D6
  8
1
  6
CONTINUOUS
 62
     7
 10
-521.3529729684413
 20
413.0016675267496
 30
0.0
 11
-521.3823806613663
 21
412.8690179962008
 31
0.0
  0
LINE
  5
1D7
  8
1
  6
CONTINUOUS
 62
     7
 10
-523.3303393599105
 20
413.3227967605857
 30
0.0
 11
-523.3060389136165
 21
413.4324089903268
 31
0.0
  0
LINE
  5
1D8
  8
1
  6
CONTINUOUS
 62
     7
 10
-523.3060389136164
 20
413.4324089903268
 30
0.0
 11
-523.2637964869652
 21
413.6229522634375
 31
0.0
  0
LINE
  5
1D9
  8
1
  6
CONTINUOUS
 62
     7
 10
-527.8106510395025
 20
348.9499495486401
 30
0.0
 11
-528.3640452500815
 21
348.9499495486401
 31
0.0
  0
LINE
  5
1DA
  8
1
  6
CONTINUOUS
 62
     7
 10
-527.6879173836786
 20
348.3963338036299
 30
0.0
 11
-527.8106510395024
 21
348.9499495486401
 31
0.0
  0
LINE
  5
1DB
  8
1
  6
CONTINUOUS
 62
     7
 10
-524.819934743598
 20
348.3963338036299
 30
0.0
 11
-527.6879173836786
 21
348.3963338036299
 31
0.0
  0
LINE
  5
1DC
  8
1
  6
CONTINUOUS
 62
     7
 10
-524.819934743598
 20
406.6036661963701
 30
0.0
 11
-527.6879173836786
 21
406.6036661963701
 31
0.0
  0
LINE
  5
1DD
  8
1
  6
CONTINUOUS
 62
     7
 10
-527.6879173836786
 20
406.6036661963701
 30
0.0
 11
-527.8106510395024
 21
406.0500504513599
 31
0.0
  0
LINE
  5
1DE
  8
1
  6
CONTINUOUS
 62
     7
 10
-527.8106510395025
 20
406.0500504513599
 30
0.0
 11
-528.3640452500815
 21
406.0500504513599
 31
0.0
  0
LINE
  5
1DF
  8
1
  6
CONTINUOUS
 62
     7
 10
-529.5354200638164
 20
347.4894272227755
 30
0.0
 11
-529.5192093520715
 21
347.4163054274573
 31
0.0
  0
LINE
  5
1E0
  8
1
  6
CONTINUOUS
 62
     7
 10
-528.6314408463228
 20
344.7179221832951
 30
0.0
 11
-528.9713980268799
 21
344.9454064921001
 31
0.0
  0
LINE
  5
1E1
  8
1
  6
CONTINUOUS
 62
     7
 10
-526.0494793449184
 20
344.7019984617471
 30
0.0
 11
-528.6314288848026
 21
344.7179312416055
 31
0.0
  0
LINE
  5
1E2
  8
1
  6
CONTINUOUS
 62
     7
 10
-529.5192093520715
 20
347.4163054274574
 30
0.0
 11
-528.9714205793588
 21
344.9453899521712
 31
0.0
  0
LINE
  5
1E3
  8
1
  6
CONTINUOUS
 62
     7
 10
-529.5354200638164
 20
407.5105727772245
 30
0.0
 11
-529.5192093520715
 21
407.5836945725426
 31
0.0
  0
LINE
  5
1E4
  8
1
  6
CONTINUOUS
 62
     7
 10
-528.3635574165106
 20
406.0500502684431
 30
0.0
 11
-528.3631116015753
 21
406.0523533812755
 31
0.0
  0
LINE
  5
1E5
  8
1
  6
CONTINUOUS
 62
     7
 10
-528.3631116015754
 20
406.0523533812755
 30
0.0
 11
-528.36266622069
 21
406.0550922646755
 31
0.0
  0
LINE
  5
1E6
  8
1
  6
CONTINUOUS
 62
     7
 10
-528.6314408463228
 20
410.2820778167049
 30
0.0
 11
-528.9713980268799
 21
410.0545935078999
 31
0.0
  0
LINE
  5
1E7
  8
1
  6
CONTINUOUS
 62
     7
 10
-529.5192093520715
 20
407.5836945725426
 30
0.0
 11
-528.9714205793588
 21
410.0546100478288
 31
0.0
  0
LINE
  5
1E8
  8
1
  6
CONTINUOUS
 62
     7
 10
-526.0494793449184
 20
410.2980015382529
 30
0.0
 11
-528.6314288848026
 21
410.2820687583945
 31
0.0
  0
ARC
  5
1E9
  8
1
  6
CONTINUOUS
 62
     7
 10
-534.7637218183504
 20
377.5
 30
0.0
 40
8.191659615675414
 50
357.2888363801683
 51
0.0047397850873381
  0
LINE
  5
1EA
  8
1
  6
CONTINUOUS
 62
     7
 10
-523.9453433457197
 20
355.0767045454545
 30
0.0
 11
-523.9451566738394
 21
355.0767045454545
 31
0.0
  0
LINE
  5
1EB
  8
1
  6
CONTINUOUS
 62
     7
 10
-523.9450943986133
 20
355.0767045454545
 30
0.0
 11
-523.9354253760843
 21
355.0767045454545
 31
0.0
  0
LINE
  5
1EC
  8
1
  6
CONTINUOUS
 62
     7
 10
-528.5357501106569
 20
348.7249203172606
 30
0.0
 11
-529.5342432082587
 21
347.4841187704031
 31
0.0
  0
LINE
  5
1ED
  8
1
  6
CONTINUOUS
 62
     7
 10
-529.5342432082585
 20
407.5158812295969
 30
0.0
 11
-528.3545781193382
 21
406.0499511965082
 31
0.0
  0
LINE
  5
1EE
  8
1
  6
CONTINUOUS
 62
     7
 10
-528.5357504861569
 20
348.7249194802154
 30
0.0
 11
-529.5342432082273
 21
347.4841187702618
 31
0.0
  0
LINE
  5
1EF
  8
1
  6
CONTINUOUS
 62
     7
 10
-529.5342432082273
 20
407.5158812297382
 30
0.0
 11
-528.3626663433163
 21
406.0600022057143
 31
0.0
  0
ENDBLK
  8
0
  0
ENDSEC
  0
SECTION
  2
ENTITIES
  0
INSERT
  5
18B
  8
1
  6
CONTINUOUS
 62
     7
  2
D_FRAME_VIEW_1435
 10
0.0
 20
0.0
 30
0.0
  0
TEXT
  5
18C
  8
1
  6
CONTINUOUS
 62
     7
 10
-589.118184944354
 20
319.9659090909091
 30
0.0
 40
5.0
  1
ＳＢ－ＫＭＡＥＺ
  0
LINE
  5
18D
  8
1
  6
CONTINUOUS
 62
     7
 10
-528.5357504861569
 20
348.7249194802154
 30
0.0
 11
-528.3635574165106
 21
348.9499497315569
 31
0.0
  0
INSERT
  5
1F0
  8
1
  6
CONTINUOUS
 62
     7
  2
D_FRAME_VIEW_2392
 10
0.0
 20
0.0
 30
0.0
  0
ENDSEC
  0
EOF
