  0
SECTION
  2
HEADER
  9
$ACADVER
  1
AC1014
  9
$ACADMAINTVER
 70
     9
  9
$DWGCODEPAGE
  3
ANSI_932
  9
$INSBASE
 10
0.0
 20
0.0
 30
0.0
  9
$EXTMIN
 10
-188.9408314792879
 20
-242.8270503920835
 30
0.0
  9
$EXTMAX
 10
-76.92326708817872
 20
-90.15341215840927
 30
0.0
  9
$LIMMIN
 10
0.0
 20
0.0
  9
$LIMMAX
 10
12.0
 20
9.0
  9
$ORTHOMODE
 70
     0
  9
$REGENMODE
 70
     1
  9
$FILLMODE
 70
     1
  9
$QTEXTMODE
 70
     0
  9
$MIRRTEXT
 70
     1
  9
$DRAGMODE
 70
     2
  9
$LTSCALE
 40
1.0
  9
$OSMODE
 70
    37
  9
$ATTMODE
 70
     1
  9
$TEXTSIZE
 40
0.2
  9
$TRACEWID
 40
0.05
  9
$TEXTSTYLE
  7
STANDARD
  9
$CLAYER
  8
0
  9
$CELTYPE
  6
BYLAYER
  9
$CECOLOR
 62
   256
  9
$CELTSCALE
 40
1.0
  9
$DELOBJ
 70
     1
  9
$DISPSILH
 70
     0
  9
$DIMSCALE
 40
1.0
  9
$DIMASZ
 40
3.0
  9
$DIMEXO
 40
0.0625
  9
$DIMDLI
 40
0.38
  9
$DIMRND
 40
0.0
  9
$DIMDLE
 40
0.0
  9
$DIMEXE
 40
1.5
  9
$DIMTP
 40
0.0
  9
$DIMTM
 40
0.0
  9
$DIMTXT
 40
3.0
  9
$DIMCEN
 40
0.09
  9
$DIMTSZ
 40
0.0
  9
$DIMTOL
 70
     0
  9
$DIMLIM
 70
     0
  9
$DIMTIH
 70
     1
  9
$DIMTOH
 70
     1
  9
$DIMSE1
 70
     0
  9
$DIMSE2
 70
     0
  9
$DIMTAD
 70
     1
  9
$DIMZIN
 70
     0
  9
$DIMBLK
  1

  9
$DIMASO
 70
     1
  9
$DIMSHO
 70
     1
  9
$DIMPOST
  1

  9
$DIMAPOST
  1

  9
$DIMALT
 70
     0
  9
$DIMALTD
 70
     2
  9
$DIMALTF
 40
25.4
  9
$DIMLFAC
 40
1.0
  9
$DIMTOFL
 70
     0
  9
$DIMTVP
 40
0.0
  9
$DIMTIX
 70
     0
  9
$DIMSOXD
 70
     0
  9
$DIMSAH
 70
     0
  9
$DIMBLK1
  1

  9
$DIMBLK2
  1

  9
$DIMSTYLE
  2
STANDARD
  9
$DIMCLRD
 70
     0
  9
$DIMCLRE
 70
     0
  9
$DIMCLRT
 70
     0
  9
$DIMTFAC
 40
1.0
  9
$DIMGAP
 40
1.5
  9
$DIMJUST
 70
     0
  9
$DIMSD1
 70
     0
  9
$DIMSD2
 70
     0
  9
$DIMTOLJ
 70
     1
  9
$DIMTZIN
 70
     0
  9
$DIMALTZ
 70
     0
  9
$DIMALTTZ
 70
     0
  9
$DIMFIT
 70
     3
  9
$DIMUPT
 70
     0
  9
$DIMUNIT
 70
     2
  9
$DIMDEC
 70
     2
  9
$DIMTDEC
 70
     4
  9
$DIMALTU
 70
     2
  9
$DIMALTTD
 70
     2
  9
$DIMTXSTY
  7
ＭＳ_ゴシック
  9
$DIMAUNIT
 70
     0
  9
$LUNITS
 70
     2
  9
$LUPREC
 70
     4
  9
$SKETCHINC
 40
0.1
  9
$FILLETRAD
 40
0.5
  9
$AUNITS
 70
     0
  9
$AUPREC
 70
     0
  9
$MENU
  1
.
  9
$ELEVATION
 40
0.0
  9
$PELEVATION
 40
0.0
  9
$THICKNESS
 40
0.0
  9
$LIMCHECK
 70
     0
  9
$CHAMFERA
 40
0.0
  9
$CHAMFERB
 40
0.0
  9
$CHAMFERC
 40
0.0
  9
$CHAMFERD
 40
0.0
  9
$SKPOLY
 70
     0
  9
$TDCREATE
 40
2460119.650768079
  9
$TDUPDATE
 40
2460119.650768345
  9
$TDINDWG
 40
0.0000000116
  9
$TDUSRTIMER
 40
0.0000000116
  9
$USRTIMER
 70
     1
  9
$ANGBASE
 50
0.0
  9
$ANGDIR
 70
     0
  9
$PDMODE
 70
     0
  9
$PDSIZE
 40
0.0
  9
$PLINEWID
 40
0.0
  9
$COORDS
 70
     1
  9
$SPLFRAME
 70
     0
  9
$SPLINETYPE
 70
     6
  9
$SPLINESEGS
 70
     8
  9
$ATTDIA
 70
     0
  9
$ATTREQ
 70
     1
  9
$HANDLING
 70
     1
  9
$HANDSEED
  5
209
  9
$SURFTAB1
 70
     6
  9
$SURFTAB2
 70
     6
  9
$SURFTYPE
 70
     6
  9
$SURFU
 70
     6
  9
$SURFV
 70
     6
  9
$UCSNAME
  2

  9
$UCSORG
 10
0.0
 20
0.0
 30
0.0
  9
$UCSXDIR
 10
1.0
 20
0.0
 30
0.0
  9
$UCSYDIR
 10
0.0
 20
1.0
 30
0.0
  9
$PUCSNAME
  2

  9
$PUCSORG
 10
0.0
 20
0.0
 30
0.0
  9
$PUCSXDIR
 10
1.0
 20
0.0
 30
0.0
  9
$PUCSYDIR
 10
0.0
 20
1.0
 30
0.0
  9
$USERI1
 70
     0
  9
$USERI2
 70
     0
  9
$USERI3
 70
     0
  9
$USERI4
 70
     0
  9
$USERI5
 70
     0
  9
$USERR1
 40
0.0
  9
$USERR2
 40
0.0
  9
$USERR3
 40
0.0
  9
$USERR4
 40
0.0
  9
$USERR5
 40
0.0
  9
$WORLDVIEW
 70
     1
  9
$SHADEDGE
 70
     3
  9
$SHADEDIF
 70
    70
  9
$TILEMODE
 70
     1
  9
$MAXACTVP
 70
    64
  9
$PINSBASE
 10
0.0
 20
0.0
 30
0.0
  9
$PLIMCHECK
 70
     0
  9
$PEXTMIN
 10
1.000000000000000E+20
 20
1.000000000000000E+20
 30
1.000000000000000E+20
  9
$PEXTMAX
 10
-1.000000000000000E+20
 20
-1.000000000000000E+20
 30
-1.000000000000000E+20
  9
$PLIMMIN
 10
0.0
 20
0.0
  9
$PLIMMAX
 10
12.0
 20
9.0
  9
$UNITMODE
 70
     0
  9
$VISRETAIN
 70
     1
  9
$PLINEGEN
 70
     0
  9
$PSLTSCALE
 70
     1
  9
$TREEDEPTH
 70
  3020
  9
$PICKSTYLE
 70
     1
  9
$CMLSTYLE
  2
STANDARD
  9
$CMLJUST
 70
     0
  9
$CMLSCALE
 40
1.0
  9
$PROXYGRAPHICS
 70
     1
  9
$MEASUREMENT
 70
     1
  0
ENDSEC
  0
SECTION
  2
CLASSES
  0
CLASS
  1
ACDBDICTIONARYWDFLT
  2
AcDbDictionaryWithDefault
  3
ObjectDBX Classes
 90
        0
280
     0
281
     0
  0
CLASS
  1
VISUALSTYLE
  2
AcDbVisualStyle
  3
ObjectDBX Classes
 90
     4095
280
     0
281
     0
  0
CLASS
  1
MATERIAL
  2
AcDbMaterial
  3
ObjectDBX Classes
 90
     1153
280
     0
281
     0
  0
CLASS
  1
SCALE
  2
AcDbScale
  3
ObjectDBX Classes
 90
     1153
280
     0
281
     0
  0
CLASS
  1
TABLESTYLE
  2
AcDbTableStyle
  3
ObjectDBX Classes
 90
     4095
280
     0
281
     0
  0
CLASS
  1
MLEADERSTYLE
  2
AcDbMLeaderStyle
  3
ACDB_MLEADERSTYLE_CLASS
 90
     4095
280
     0
281
     0
  0
CLASS
  1
SUN
  2
AcDbSun
  3
SCENEOE
 90
     1153
280
     0
281
     0
  0
CLASS
  1
DICTIONARYVAR
  2
AcDbDictionaryVar
  3
ObjectDBX Classes
 90
        0
280
     0
281
     0
  0
CLASS
  1
XRECORD
  2
AcDbXrecord
  3
ObjectDBX Classes
 90
        0
280
     0
281
     0
  0
CLASS
  1
LWPOLYLINE
  2
AcDbPolyline
  3
ObjectDBX Classes
 90
        0
280
     0
281
     1
  0
CLASS
  1
HATCH
  2
AcDbHatch
  3
ObjectDBX Classes
 90
        0
280
     0
281
     1
  0
CLASS
  1
ACDBPLACEHOLDER
  2
AcDbPlaceHolder
  3
ObjectDBX Classes
 90
        0
280
     0
281
     0
  0
CLASS
  1
LAYOUT
  2
AcDbLayout
  3
ObjectDBX Classes
 90
        0
280
     0
281
     0
  0
ENDSEC
  0
SECTION
  2
TABLES
  0
TABLE
  2
VPORT
  5
8
102
{ACAD_XDICTIONARY
360
1FE
102
}
330
0
100
AcDbSymbolTable
 70
     1
  0
VPORT
  5
29
330
8
100
AcDbSymbolTableRecord
100
AcDbViewportTableRecord
  2
*ACTIVE
 70
     0
 10
0.0
 20
0.0
 11
1.0
 21
1.0
 12
-132.9320492837333
 22
-166.4902312752464
 13
0.0
 23
0.0
 14
0.5
 24
0.5
 15
0.5
 25
0.5
 16
0.0
 26
0.0
 36
1.0
 17
0.0
 27
0.0
 37
0.0
 40
152.6736382336742
 41
1.6
 42
50.0
 43
0.0
 44
0.0
 50
0.0
 51
0.0
 71
     0
 72
   100
 73
     1
 74
     3
 75
     0
 76
     0
 77
     0
 78
     0
  0
ENDTAB
  0
TABLE
  2
LTYPE
  5
5
330
0
100
AcDbSymbolTable
 70
     2
  0
LTYPE
  5
14
330
5
100
AcDbSymbolTableRecord
100
AcDbLinetypeTableRecord
  2
BYBLOCK
 70
     0
  3

 72
    65
 73
     0
 40
0.0
  0
LTYPE
  5
15
330
5
100
AcDbSymbolTableRecord
100
AcDbLinetypeTableRecord
  2
BYLAYER
 70
     0
  3

 72
    65
 73
     0
 40
0.0
  0
LTYPE
  5
16
330
5
100
AcDbSymbolTableRecord
100
AcDbLinetypeTableRecord
  2
CONTINUOUS
 70
     0
  3
Solid line
 72
    65
 73
     0
 40
0.0
  0
LTYPE
  5
72
330
5
100
AcDbSymbolTableRecord
100
AcDbLinetypeTableRecord
  2
CENTER
 70
     0
  3

 72
    65
 73
     0
 40
0.0
  0
ENDTAB
  0
TABLE
  2
LAYER
  5
2
330
0
100
AcDbSymbolTable
 70
     2
  0
LAYER
  5
10
330
2
100
AcDbSymbolTableRecord
100
AcDbLayerTableRecord
  2
0
 70
     0
 62
     7
  6
CONTINUOUS
  0
LAYER
  5
6E
330
2
100
AcDbSymbolTableRecord
100
AcDbLayerTableRecord
  2
6
 70
     0
 62
     7
  6
CONTINUOUS
  0
ENDTAB
  0
TABLE
  2
STYLE
  5
3
330
0
100
AcDbSymbolTable
 70
     2
  0
STYLE
  5
11
330
3
100
AcDbSymbolTableRecord
100
AcDbTextStyleTableRecord
  2
STANDARD
 70
     0
 40
0.0
 41
1.0
 50
0.0
 71
     0
 42
0.2
  3
txt
  4

  0
STYLE
  5
6F
330
3
100
AcDbSymbolTableRecord
100
AcDbTextStyleTableRecord
  2
ＭＳ_ゴシック
 70
     0
 40
0.0
 41
1.0
 50
0.0
 71
     0
 42
0.2
  3
ＭＳ ゴシック.shx
  4

  0
ENDTAB
  0
TABLE
  2
VIEW
  5
6
330
0
100
AcDbSymbolTable
 70
     0
  0
ENDTAB
  0
TABLE
  2
UCS
  5
7
330
0
100
AcDbSymbolTable
 70
     0
  0
ENDTAB
  0
TABLE
  2
APPID
  5
9
330
0
100
AcDbSymbolTable
 70
     2
  0
APPID
  5
12
330
9
100
AcDbSymbolTableRecord
100
AcDbRegAppTableRecord
  2
ACAD
 70
     0
  0
APPID
  5
208
330
9
100
AcDbSymbolTableRecord
100
AcDbRegAppTableRecord
  2
ACAD_MLEADERVER
 70
     0
  0
ENDTAB
  0
TABLE
  2
DIMSTYLE
  5
A
330
0
100
AcDbSymbolTable
 70
     1
  0
DIMSTYLE
105
27
330
A
100
AcDbSymbolTableRecord
100
AcDbDimStyleTableRecord
  2
STANDARD
 70
     0
  3

  4

  5

  6

  7

 40
1.0
 41
0.18
 42
0.0625
 43
0.38
 44
0.18
 45
0.0
 46
0.0
 47
0.0
 48
0.0
140
0.18
141
0.09
142
0.0
143
25.4
144
1.0
145
0.0
146
1.0
147
0.09
 71
     0
 72
     0
 73
     1
 74
     1
 75
     0
 76
     0
 77
     0
 78
     0
170
     0
171
     2
172
     0
173
     0
174
     0
175
     0
176
     0
177
     0
178
     0
270
     2
271
     4
272
     4
273
     2
274
     2
340
11
275
     0
280
     0
281
     0
282
     0
283
     1
284
     0
285
     0
286
     0
287
     3
288
     0
  0
ENDTAB
  0
TABLE
  2
BLOCK_RECORD
  5
1
330
0
100
AcDbSymbolTable
 70
     0
  0
BLOCK_RECORD
  5
1F
330
1
100
AcDbSymbolTableRecord
100
AcDbBlockTableRecord
  2
*MODEL_SPACE
  0
BLOCK_RECORD
  5
1B
330
1
100
AcDbSymbolTableRecord
100
AcDbBlockTableRecord
  2
*PAPER_SPACE
  0
ENDTAB
  0
ENDSEC
  0
SECTION
  2
BLOCKS
  0
BLOCK
  5
20
330
1F
100
AcDbEntity
  8
0
100
AcDbBlockBegin
  2
*MODEL_SPACE
 70
     0
 10
0.0
 20
0.0
 30
0.0
  3
*MODEL_SPACE
  1

  0
ENDBLK
  5
21
330
1F
100
AcDbEntity
  8
0
100
AcDbBlockEnd
  0
BLOCK
  5
1C
330
1B
100
AcDbEntity
 67
     1
  8
0
100
AcDbBlockBegin
  2
*PAPER_SPACE
 70
     0
 10
0.0
 20
0.0
 30
0.0
  3
*PAPER_SPACE
  1

  0
ENDBLK
  5
1D
330
1B
100
AcDbEntity
 67
     1
  8
0
100
AcDbBlockEnd
  0
ENDSEC
  0
SECTION
  2
ENTITIES
  0
MTEXT
  5
70
330
1F
100
AcDbEntity
  8
6
 62
     7
100
AcDbMText
 10
-148.7099476811917
 20
-237.5088685739016
 30
0.0
 40
6.0
 41
0.0
 71
     1
 72
     1
  1
{\fＭＳ ゴシック;SBA-28HD}
  0
LINE
  5
71
330
1F
100
AcDbEntity
  8
0
  6
CENTER
 62
     1
100
AcDbLine
 10
-166.1408314792879
 20
-228.6534121584093
 30
0.0
 11
-166.1408314792879
 21
-90.15341215840927
 31
0.0
  0
LINE
  5
73
330
1F
100
AcDbEntity
  8
0
  6
CONTINUOUS
 62
     7
100
AcDbLine
 10
-158.6408314792879
 20
-106.1534121584093
 30
0.0
 11
-158.5625187781979
 21
-106.1564833139836
 31
0.0
  0
LWPOLYLINE
  5
74
330
1F
100
AcDbEntity
  8
0
  6
CONTINUOUS
 62
     7
100
AcDbPolyline
 90
       34
 70
     0
 43
0.0
 10
159.6408314792879
 20
-107.1534121584093
 10
159.639727421034
 20
-107.1069595503022
 10
159.6364357318595
 20
-107.0604845117381
 10
159.6309871401451
 20
-107.0141472598585
 10
159.6234123742716
 20
-106.9681080118053
 10
159.6137421626196
 20
-106.9225269847202
 10
159.6020072335698
 20
-106.8775643957451
 10
159.5882383155031
 20
-106.8333804620217
 10
159.5724304162148
 20
-106.789985905103
 10
159.5545958048332
 20
-106.7473211415455
 10
159.534816870761
 20
-106.7055172164056
 10
159.5131760034012
 20
-106.6647051747396
 10
159.4897555921568
 20
-106.6250160616035
 10
159.4646380264307
 20
-106.5865809220538
 10
159.4379056956258
 20
-106.5495308011466
 10
159.409063715116
 20
-106.5132728196142
 10
159.3785534564387
 20
-106.4783919572813
 10
159.3464925210771
 20
-106.4449788520806
 10
159.312998510515
 20
-106.4131241419448
 10
159.2781890262357
 20
-106.3829184648068
 10
159.2421816697229
 20
-106.3544524585993
 10
159.20509404246
 20
-106.3278167612549
 10
159.1653253351694
 20
-106.3020211973265
 10
159.1243709770515
 20
-106.2781528078525
 10
159.0823727020025
 20
-106.2562603099678
 10
159.0394722439189
 20
-106.236392420807
 10
158.9958113366972
 20
-106.2185978575048
 10
158.9515317142335
 20
-106.202925337196
 10
158.9067751104245
 20
-106.1894235770154
 10
158.8544024317548
 20
-106.1764984398031
 10
158.8014106052048
 20
-106.1664201142791
 10
158.7480107548759
 20
-106.1592032155007
 10
158.6944140048698
 20
-106.154862358525
 10
158.6408314792879
 20
-106.1534121584093
210
0.0
220
0.0
230
-1.0
  0
LINE
  5
75
330
1F
100
AcDbEntity
  8
0
  6
CONTINUOUS
 62
     7
100
AcDbLine
 10
-159.6408314792879
 20
-108.417902629472
 30
0.0
 11
-159.6408314792879
 21
-107.1534121584093
 31
0.0
  0
LINE
  5
76
330
1F
100
AcDbEntity
  8
0
  6
CONTINUOUS
 62
     7
100
AcDbLine
 10
-159.6408314792879
 20
-108.417902629472
 30
0.0
 11
-172.6408314792879
 21
-108.417902629472
 31
0.0
  0
LINE
  5
77
330
1F
100
AcDbEntity
  8
0
  6
CONTINUOUS
 62
     7
100
AcDbLine
 10
-172.6408314792879
 20
-107.1534121584093
 30
0.0
 11
-172.6408314792879
 21
-108.417902629472
 31
0.0
  0
ARC
  5
78
330
1F
100
AcDbEntity
  8
0
  6
CONTINUOUS
 62
     7
100
AcDbCircle
 10
-173.6407963872815
 20
-107.1532143066452
 30
0.0
 40
0.9998021488517501
100
AcDbArc
 50
46.56507096468448
 51
90.00201102174223
  0
LWPOLYLINE
  5
79
330
1F
100
AcDbEntity
  8
0
  6
CONTINUOUS
 62
     7
100
AcDbPolyline
 90
        7
 70
     0
 43
0.0
 10
172.9534020935467
 20
-106.4272023082668
 10
172.8524307305962
 20
-106.5384450015412
 10
172.79447084092
 20
-106.6208576977589
 10
172.7258208103648
 20
-106.7501760017475
 10
172.6770517899827
 20
-106.8870042721233
 10
172.6492312064484
 20
-107.0241076191177
 10
172.6408314792879
 20
-107.1534121584093
210
0.0
220
0.0
230
-1.0
  0
LINE
  5
7A
330
1F
100
AcDbEntity
  8
0
  6
CONTINUOUS
 62
     7
100
AcDbLine
 10
-173.7191441803779
 20
-106.1564833139836
 30
0.0
 11
-173.6408314792879
 21
-106.1534121584093
 31
0.0
  0
LINE
  5
7B
330
1F
100
AcDbEntity
  8
0
  6
CONTINUOUS
 62
     7
100
AcDbLine
 10
-173.7191441803779
 20
-106.1564833139836
 30
0.0
 11
-173.7191441803779
 21
-95.1534121584093
 31
0.0
  0
LINE
  5
7C
330
1F
100
AcDbEntity
  8
0
  6
CONTINUOUS
 62
     7
100
AcDbLine
 10
-158.5625187781979
 20
-95.1534121584093
 30
0.0
 11
-173.7191441803778
 21
-95.1534121584093
 31
0.0
  0
LINE
  5
7D
330
1F
100
AcDbEntity
  8
0
  6
CONTINUOUS
 62
     7
100
AcDbLine
 10
-158.5625187781979
 20
-95.1534121584093
 30
0.0
 11
-158.5625187781979
 21
-106.1564833139836
 31
0.0
  0
LINE
  5
7E
330
1F
100
AcDbEntity
  8
0
  6
CONTINUOUS
 62
     7
100
AcDbLine
 10
-159.6408314792879
 20
-118.1997440043164
 30
0.0
 11
-159.6408314792879
 21
-108.417902629472
 31
0.0
  0
LINE
  5
7F
330
1F
100
AcDbEntity
  8
0
  6
CONTINUOUS
 62
     7
100
AcDbLine
 10
-172.6408314792879
 20
-108.417902629472
 30
0.0
 11
-172.6408314792879
 21
-118.1997440043131
 31
0.0
  0
CIRCLE
  5
80
330
1F
100
AcDbEntity
  8
0
  6
CONTINUOUS
 62
     7
100
AcDbCircle
 10
-178.6409593389579
 20
-101.6534184379448
 30
0.0
 40
2.249872140338803
  0
ARC
  5
81
330
1F
100
AcDbEntity
  8
0
  6
CONTINUOUS
 62
     7
100
AcDbCircle
 10
-176.4689130901003
 20
-106.1539007889005
 30
0.0
 40
1.999511399361056
100
AcDbArc
 50
269.9900993361295
 51
340.5386800293793
  0
LINE
  5
82
330
1F
100
AcDbEntity
  8
0
  6
CONTINUOUS
 62
     7
100
AcDbLine
 10
-182.3846631877608
 20
-108.1534121584093
 30
0.0
 11
-176.4692586040341
 21
-108.1534121584093
 31
0.0
  0
LINE
  5
83
330
1F
100
AcDbEntity
  8
0
  6
CONTINUOUS
 62
     7
100
AcDbLine
 10
-182.3846631877608
 20
-95.1534121584093
 30
0.0
 11
-182.3846631877608
 21
-108.1534121584093
 31
0.0
  0
LWPOLYLINE
  5
84
330
1F
100
AcDbEntity
  8
0
  6
CONTINUOUS
 62
     7
100
AcDbPolyline
 90
       23
 70
     0
 43
0.0
 10
-173.7191441803779
 20
-106.1564833139836
 10
-173.7743733933268
 20
-106.1623689922477
 10
-173.8366745002273
 20
-106.1727517501304
 10
-173.89989849445
 20
-106.1874905984173
 10
-173.9638139887155
 20
-106.2069386880026
 10
-174.0281895957444
 20
-106.2314491697805
 10
-174.0927939282573
 20
-106.2613751946451
 10
-174.1394638016513
 20
-106.2865687574294
 10
-174.1862222875149
 20
-106.315135869192
 10
-174.2327743887057
 20
-106.3472771009344
 10
-174.278825108082
 20
-106.3831930236579
 10
-174.3240794485017
 20
-106.4230842083641
 10
-174.3682424128227
 20
-106.4671512260544
 10
-174.411019003903
 20
-106.5155946477302
 10
-174.4346580064176
 20
-106.5452736288076
 10
-174.4577109274523
 20
-106.5766183279547
 10
-174.4800390450583
 20
-106.6096192695509
 10
-174.5015036372867
 20
-106.6442669779756
 10
-174.5219659821884
 20
-106.680551977608
 10
-174.5412873578147
 20
-106.7184647928275
 10
-174.556374778539
 20
-106.7511963674741
 10
-174.5705284709317
 20
-106.7850908341662
 10
-174.5836405208699
 20
-106.820078825076
  0
LINE
  5
85
330
1F
100
AcDbEntity
  8
0
  6
CONTINUOUS
 62
     7
100
AcDbLine
 10
-173.7191441803779
 20
-95.1534121584093
 30
0.0
 11
-182.3846631877609
 21
-95.1534121584093
 31
0.0
  0
CIRCLE
  5
86
330
1F
100
AcDbEntity
  8
0
  6
CONTINUOUS
 62
     7
100
AcDbCircle
 10
-153.6407036196179
 20
-101.6534058788738
 30
0.0
 40
2.249872140338803
  0
LINE
  5
87
330
1F
100
AcDbEntity
  8
0
  6
CONTINUOUS
 62
     7
100
AcDbLine
 10
-149.8969997708149
 20
-108.1534121584093
 30
0.0
 11
-155.8124043545417
 21
-108.1534121584093
 31
0.0
  0
ARC
  5
88
330
1F
100
AcDbEntity
  8
0
  6
CONTINUOUS
 62
     7
100
AcDbCircle
 10
-155.8126046562376
 20
-106.1536954277842
 30
0.0
 40
1.999716740656712
100
AcDbArc
 50
199.4654816007623
 51
270.0057390337295
  0
LINE
  5
89
330
1F
100
AcDbEntity
  8
0
  6
CONTINUOUS
 62
     7
100
AcDbLine
 10
-149.8969997708149
 20
-108.1534121584093
 30
0.0
 11
-149.8969997708149
 21
-95.1534121584093
 31
0.0
  0
LWPOLYLINE
  5
8A
330
1F
100
AcDbEntity
  8
0
  6
CONTINUOUS
 62
     7
100
AcDbPolyline
 90
       22
 70
     0
 43
0.0
 10
-157.6980224377059
 20
-106.820078825076
 10
-157.7111401819309
 20
-106.7850764672233
 10
-157.7253004032893
 20
-106.7511685509532
 10
-157.74039505511
 20
-106.7184245194887
 10
-157.7600688947193
 20
-106.6798591382268
 10
-157.7809262602902
 20
-106.6429735490878
 10
-157.8028281792055
 20
-106.6077699845538
 10
-157.8256356788483
 20
-106.5742506771068
 10
-157.8492097866014
 20
-106.5424178592292
 10
-157.8734115298478
 20
-106.512273763403
 10
-157.8981019359703
 20
-106.4838206221103
 10
-157.9445906497299
 20
-106.4355557179273
 10
-157.9923672192514
 20
-106.3920600748126
 10
-158.0411013221739
 20
-106.3530917674126
 10
-158.0904626361365
 20
-106.3184088703739
 10
-158.1401208387784
 20
-106.287769458343
 10
-158.1897456077387
 20
-106.2609316059664
 10
-158.2657219711773
 20
-106.2263709491774
 10
-158.3413329912589
 20
-106.1991934638309
 10
-158.4162331466671
 20
-106.1788514776806
 10
-158.4900769160856
 20
-106.1647973184803
 10
-158.5625187781979
 20
-106.1564833139836
  0
LINE
  5
8B
330
1F
100
AcDbEntity
  8
0
  6
CONTINUOUS
 62
     7
100
AcDbLine
 10
-149.8969997708149
 20
-95.1534121584093
 30
0.0
 11
-158.5625187781979
 21
-95.1534121584093
 31
0.0
  0
LINE
  5
8C
330
1F
100
AcDbEntity
  8
0
  6
CONTINUOUS
 62
     7
100
AcDbLine
 10
-159.6408314792879
 20
-118.1997440043164
 30
0.0
 11
-159.6408314792879
 21
-118.7237492647721
 31
0.0
  0
LINE
  5
8D
330
1F
100
AcDbEntity
  8
0
  6
CONTINUOUS
 62
     7
100
AcDbLine
 10
-172.6408314792879
 20
-118.7237492647718
 30
0.0
 11
-172.6408314792879
 21
-118.1997440043131
 31
0.0
  0
LINE
  5
8E
330
1F
100
AcDbEntity
  8
0
  6
CONTINUOUS
 62
     7
100
AcDbLine
 10
-159.6408314792879
 20
-120.6569256401555
 30
0.0
 11
-172.6408314792879
 21
-120.6569256401555
 31
0.0
  0
LINE
  5
8F
330
1F
100
AcDbEntity
  8
0
  6
CONTINUOUS
 62
     7
100
AcDbLine
 10
-159.6408314792879
 20
-120.6569256401555
 30
0.0
 11
-159.6408314792879
 21
-118.7237492647721
 31
0.0
  0
LINE
  5
90
330
1F
100
AcDbEntity
  8
0
  6
CONTINUOUS
 62
     7
100
AcDbLine
 10
-172.6408314792879
 20
-118.7237492647718
 30
0.0
 11
-172.6408314792879
 21
-120.6569256401555
 31
0.0
  0
LINE
  5
91
330
1F
100
AcDbEntity
  8
0
  6
CONTINUOUS
 62
     7
100
AcDbLine
 10
-162.6408314792879
 20
-130.1534121584093
 30
0.0
 11
-169.6408314792879
 21
-130.1534121584093
 31
0.0
  0
LINE
  5
92
330
1F
100
AcDbEntity
  8
0
  6
CONTINUOUS
 62
     7
100
AcDbLine
 10
-186.3599033673753
 20
-219.4678588340901
 30
0.0
 11
-186.359730595919
 21
-219.4678588341041
 31
0.0
  0
ARC
  5
93
330
1F
100
AcDbEntity
  8
0
  6
CONTINUOUS
 62
     7
100
AcDbCircle
 10
-180.6408314792879
 20
-217.6534121584093
 30
0.0
 40
5.999999999999999
100
AcDbArc
 50
196.033770972298
 51
197.6022774735459
  0
LINE
  5
94
330
1F
100
AcDbEntity
  8
0
  6
CONTINUOUS
 62
     7
100
AcDbLine
 10
-188.9408314792879
 20
-219.310635496241
 30
0.0
 11
-186.4074258649323
 21
-219.310635496241
 31
0.0
  0
LINE
  5
95
330
1F
100
AcDbEntity
  8
0
  6
CONTINUOUS
 62
     7
100
AcDbLine
 10
-188.9408314792879
 20
-219.310635496241
 30
0.0
 11
-188.9408314792879
 21
-219.2582277169579
 31
0.0
  0
LINE
  5
96
330
1F
100
AcDbEntity
  8
0
  6
CONTINUOUS
 62
     7
100
AcDbLine
 10
-185.1408314792879
 20
-219.1534121583918
 30
0.0
 11
-188.9408314792879
 21
-219.2582277169579
 31
0.0
  0
LINE
  5
97
330
1F
100
AcDbEntity
  8
0
  6
CONTINUOUS
 62
     7
100
AcDbLine
 10
-185.1408314792879
 20
-219.1534121583918
 30
0.0
 11
-184.6408314792879
 21
-219.1534121583918
 31
0.0
  0
LINE
  5
98
330
1F
100
AcDbEntity
  8
0
  6
CONTINUOUS
 62
     7
100
AcDbLine
 10
-184.6408314792879
 20
-219.1534121583918
 30
0.0
 11
-184.6408314792879
 21
-219.6512860615807
 31
0.0
  0
LINE
  5
99
330
1F
100
AcDbEntity
  8
0
  6
CONTINUOUS
 62
     7
100
AcDbLine
 10
-184.6401462466652
 20
-219.6526574672024
 30
0.0
 11
-184.6408314792879
 21
-219.6512860615807
 31
0.0
  0
LINE
  5
9A
330
1F
100
AcDbEntity
  8
0
  6
CONTINUOUS
 62
   253
100
AcDbLine
 10
-186.1432681815355
 20
-219.6526574672024
 30
0.0
 11
-184.6401462466652
 21
-219.6526574672024
 31
0.0
  0
LINE
  5
9B
330
1F
100
AcDbEntity
  8
0
  6
CONTINUOUS
 62
     7
100
AcDbLine
 10
-186.1432681815355
 20
-219.6526574672024
 30
0.0
 11
-186.359730595919
 21
-219.4678588341041
 31
0.0
  0
LINE
  5
9C
330
1F
100
AcDbEntity
  8
0
  6
CONTINUOUS
 62
     7
100
AcDbLine
 10
-143.3408314792879
 20
-215.0485965998257
 30
0.0
 11
-143.3408314792879
 21
-219.2582277169579
 31
0.0
  0
LINE
  5
9D
330
1F
100
AcDbEntity
  8
0
  6
CONTINUOUS
 62
     7
100
AcDbLine
 10
-143.3408314792879
 20
-219.2582277169579
 30
0.0
 11
-147.1408314792879
 21
-219.1534121583918
 31
0.0
  0
LINE
  5
9E
330
1F
100
AcDbEntity
  8
0
  6
CONTINUOUS
 62
     7
100
AcDbLine
 10
-147.1408314792879
 20
-219.1534121583918
 30
0.0
 11
-147.1408314792879
 21
-215.1534121583918
 31
0.0
  0
LINE
  5
9F
330
1F
100
AcDbEntity
  8
0
  6
CONTINUOUS
 62
     7
100
AcDbLine
 10
-147.1408314792879
 20
-215.1534121583918
 30
0.0
 11
-143.3408314792879
 21
-215.0485965998257
 31
0.0
  0
LINE
  5
A0
330
1F
100
AcDbEntity
  8
0
  6
CONTINUOUS
 62
     7
100
AcDbLine
 10
-147.1408314792879
 20
-155.1534121584268
 30
0.0
 11
-148.1408314792879
 21
-155.1534121584268
 31
0.0
  0
LINE
  5
A1
330
1F
100
AcDbEntity
  8
0
  6
CONTINUOUS
 62
     7
100
AcDbLine
 10
-147.1408314792879
 20
-159.1534121584268
 30
0.0
 11
-147.1408314792879
 21
-155.1534121584268
 31
0.0
  0
LINE
  5
A2
330
1F
100
AcDbEntity
  8
0
  6
CONTINUOUS
 62
     7
100
AcDbLine
 10
-148.1408314792879
 20
-159.1534121584268
 30
0.0
 11
-147.1408314792879
 21
-159.1534121584268
 31
0.0
  0
LINE
  5
A3
330
1F
100
AcDbEntity
  8
0
  6
CONTINUOUS
 62
     7
100
AcDbLine
 10
-148.1408314792879
 20
-155.1534121584268
 30
0.0
 11
-148.1408314792879
 21
-159.1534121584268
 31
0.0
  0
LINE
  5
A4
330
1F
100
AcDbEntity
  8
0
  6
CONTINUOUS
 62
     7
100
AcDbLine
 10
-184.6408314792879
 20
-215.1534121583918
 30
0.0
 11
-184.6408314792879
 21
-214.6555382552029
 31
0.0
  0
LINE
  5
A5
330
1F
100
AcDbEntity
  8
0
  6
CONTINUOUS
 62
     7
100
AcDbLine
 10
-184.6408314792879
 20
-215.1534121583918
 30
0.0
 11
-185.1408314792879
 21
-215.1534121583918
 31
0.0
  0
LINE
  5
A6
330
1F
100
AcDbEntity
  8
0
  6
CONTINUOUS
 62
     7
100
AcDbLine
 10
-188.9408314792879
 20
-215.0485965998257
 30
0.0
 11
-185.1408314792879
 21
-215.1534121583918
 31
0.0
  0
LINE
  5
A7
330
1F
100
AcDbEntity
  8
0
  6
CONTINUOUS
 62
     7
100
AcDbLine
 10
-188.9408314792879
 20
-214.9961888205427
 30
0.0
 11
-188.9408314792879
 21
-215.0485965998257
 31
0.0
  0
LINE
  5
A8
330
1F
100
AcDbEntity
  8
0
  6
CONTINUOUS
 62
     7
100
AcDbLine
 10
-186.6408314792879
 20
-214.9961888205427
 30
0.0
 11
-188.9408314792879
 21
-214.9961888205427
 31
0.0
  0
LINE
  5
A9
330
1F
100
AcDbEntity
  8
0
  6
CONTINUOUS
 62
     7
100
AcDbLine
 10
-186.6408314792879
 20
-214.8389654826936
 30
0.0
 11
-186.6408314792879
 21
-214.9961888205427
 31
0.0
  0
LINE
  5
AA
330
1F
100
AcDbEntity
  8
0
  6
CONTINUOUS
 62
     7
100
AcDbLine
 10
-186.6408314792949
 20
-214.8389654826936
 30
0.0
 11
-186.5599334112026
 21
-214.6541668495813
 31
0.0
  0
LINE
  5
AB
330
1F
100
AcDbEntity
  8
0
  6
CONTINUOUS
 62
   253
100
AcDbLine
 10
-184.6401462466652
 20
-214.6541668495813
 30
0.0
 11
-186.5599334112026
 21
-214.6541668495813
 31
0.0
  0
LINE
  5
AC
330
1F
100
AcDbEntity
  8
0
  6
CONTINUOUS
 62
     7
100
AcDbLine
 10
-184.6408314792879
 20
-214.6555382552029
 30
0.0
 11
-184.6401462466652
 21
-214.6541668495813
 31
0.0
  0
LINE
  5
AD
330
1F
100
AcDbEntity
  8
0
  6
CONTINUOUS
 62
     7
100
AcDbLine
 10
-145.6408314792879
 20
-154.8389654827285
 30
0.0
 11
-145.6408314792879
 21
-154.9961888205776
 31
0.0
  0
LINE
  5
AE
330
1F
100
AcDbEntity
  8
0
  6
CONTINUOUS
 62
     7
100
AcDbLine
 10
-143.3408314792879
 20
-154.9961888205776
 30
0.0
 11
-145.6408314792879
 21
-154.9961888205776
 31
0.0
  0
LINE
  5
AF
330
1F
100
AcDbEntity
  8
0
  6
CONTINUOUS
 62
     7
100
AcDbLine
 10
-143.3408314792879
 20
-154.9961888205776
 30
0.0
 11
-143.3408314792879
 21
-155.0485965998607
 31
0.0
  0
LINE
  5
B0
330
1F
100
AcDbEntity
  8
0
  6
CONTINUOUS
 62
     7
100
AcDbLine
 10
-147.1408314792879
 20
-155.1534121584268
 30
0.0
 11
-143.3408314792879
 21
-155.0485965998607
 31
0.0
  0
LINE
  5
B1
330
1F
100
AcDbEntity
  8
0
  6
CONTINUOUS
 62
     7
100
AcDbLine
 10
-148.140831479288
 20
-154.8389654827285
 30
0.0
 11
-145.6408314792879
 21
-154.8389654827285
 31
0.0
  0
LINE
  5
B2
330
1F
100
AcDbEntity
  8
0
  6
CONTINUOUS
 62
     7
100
AcDbLine
 10
-148.140831479288
 20
-154.8389654827285
 30
0.0
 11
-148.1408314792879
 21
-155.1534121584268
 31
0.0
  0
LINE
  5
B3
330
1F
100
AcDbEntity
  8
0
  6
CONTINUOUS
 62
     7
100
AcDbLine
 10
-145.6408314792879
 20
-214.8389654826936
 30
0.0
 11
-145.6408314792879
 21
-214.9961888205427
 31
0.0
  0
LINE
  5
B4
330
1F
100
AcDbEntity
  8
0
  6
CONTINUOUS
 62
     7
100
AcDbLine
 10
-145.6408314792879
 20
-214.9961888205427
 30
0.0
 11
-143.3408314792879
 21
-214.9961888205427
 31
0.0
  0
LINE
  5
B5
330
1F
100
AcDbEntity
  8
0
  6
CONTINUOUS
 62
     7
100
AcDbLine
 10
-143.3408314792879
 20
-214.9961888205427
 30
0.0
 11
-143.3408314792879
 21
-215.0485965998257
 31
0.0
  0
LINE
  5
B6
330
1F
100
AcDbEntity
  8
0
  6
CONTINUOUS
 62
     7
100
AcDbLine
 10
-147.6408314792879
 20
-215.1534121583918
 30
0.0
 11
-147.1408314792879
 21
-215.1534121583918
 31
0.0
  0
LINE
  5
B7
330
1F
100
AcDbEntity
  8
0
  6
CONTINUOUS
 62
     7
100
AcDbLine
 10
-147.6415167119106
 20
-214.6541668495813
 30
0.0
 11
-147.6408314792879
 21
-214.6555382552029
 31
0.0
  0
LINE
  5
B8
330
1F
100
AcDbEntity
  8
0
  6
CONTINUOUS
 62
   253
100
AcDbLine
 10
-145.7217295474137
 20
-214.6541668495813
 30
0.0
 11
-147.6415167119106
 21
-214.6541668495813
 31
0.0
  0
LINE
  5
B9
330
1F
100
AcDbEntity
  8
0
  6
CONTINUOUS
 62
     7
100
AcDbLine
 10
-145.7217295474137
 20
-214.6541668495813
 30
0.0
 11
-145.6408314793213
 21
-214.8389654826936
 31
0.0
  0
LINE
  5
BA
330
1F
100
AcDbEntity
  8
0
  6
CONTINUOUS
 62
     7
100
AcDbLine
 10
-147.6408314792879
 20
-215.1534121583918
 30
0.0
 11
-147.6408314792879
 21
-214.6555382552029
 31
0.0
  0
LINE
  5
BB
330
1F
100
AcDbEntity
  8
0
  6
CONTINUOUS
 62
     7
100
AcDbLine
 10
-184.1408314792879
 20
-159.1534121584268
 30
0.0
 11
-185.1408314792879
 21
-159.1534121584268
 31
0.0
  0
LINE
  5
BC
330
1F
100
AcDbEntity
  8
0
  6
CONTINUOUS
 62
     7
100
AcDbLine
 10
-185.1408314792879
 20
-155.1534121584268
 30
0.0
 11
-185.1408314792879
 21
-159.1534121584268
 31
0.0
  0
LINE
  5
BD
330
1F
100
AcDbEntity
  8
0
  6
CONTINUOUS
 62
     7
100
AcDbLine
 10
-185.1408314792879
 20
-155.1534121584268
 30
0.0
 11
-184.1408314792879
 21
-155.1534121584268
 31
0.0
  0
LINE
  5
BE
330
1F
100
AcDbEntity
  8
0
  6
CONTINUOUS
 62
     7
100
AcDbLine
 10
-184.1408314792879
 20
-155.1534121584268
 30
0.0
 11
-184.1408314792879
 21
-159.1534121584268
 31
0.0
  0
LINE
  5
BF
330
1F
100
AcDbEntity
  8
0
  6
CONTINUOUS
 62
     7
100
AcDbLine
 10
-143.3408314792879
 20
-155.0485965998607
 30
0.0
 11
-143.3408314792879
 21
-159.2582277169928
 31
0.0
  0
LINE
  5
C0
330
1F
100
AcDbEntity
  8
0
  6
CONTINUOUS
 62
     7
100
AcDbLine
 10
-143.3408314792879
 20
-159.2582277169928
 30
0.0
 11
-147.1408314792879
 21
-159.1534121584268
 31
0.0
  0
LINE
  5
C1
330
1F
100
AcDbEntity
  8
0
  6
CONTINUOUS
 62
     7
100
AcDbLine
 10
-188.9408314792879
 20
-159.2582277169928
 30
0.0
 11
-188.9408314792879
 21
-155.0485965998607
 31
0.0
  0
LINE
  5
C2
330
1F
100
AcDbEntity
  8
0
  6
CONTINUOUS
 62
     7
100
AcDbLine
 10
-188.9408314792879
 20
-155.0485965998607
 30
0.0
 11
-185.1408314792879
 21
-155.1534121584268
 31
0.0
  0
LINE
  5
C3
330
1F
100
AcDbEntity
  8
0
  6
CONTINUOUS
 62
     7
100
AcDbLine
 10
-185.1408314792879
 20
-159.1534121584268
 30
0.0
 11
-188.9408314792879
 21
-159.2582277169928
 31
0.0
  0
LINE
  5
C4
330
1F
100
AcDbEntity
  8
0
  6
CONTINUOUS
 62
     7
100
AcDbLine
 10
-147.1408314792879
 20
-219.1534121583918
 30
0.0
 11
-147.6408314792879
 21
-219.1534121583918
 31
0.0
  0
LINE
  5
C5
330
1F
100
AcDbEntity
  8
0
  6
CONTINUOUS
 62
     7
100
AcDbLine
 10
-147.6408314792879
 20
-219.1534121583918
 30
0.0
 11
-147.6408314792879
 21
-215.1534121583918
 31
0.0
  0
LINE
  5
C6
330
1F
100
AcDbEntity
  8
0
  6
CONTINUOUS
 62
     7
100
AcDbLine
 10
-143.3408314792879
 20
-159.3106354962759
 30
0.0
 11
-143.3408314792879
 21
-159.2582277169928
 31
0.0
  0
LINE
  5
C7
330
1F
100
AcDbEntity
  8
0
  6
CONTINUOUS
 62
     7
100
AcDbLine
 10
-145.6408314792879
 20
-159.3106354962759
 30
0.0
 11
-143.3408314792879
 21
-159.3106354962759
 31
0.0
  0
LINE
  5
C8
330
1F
100
AcDbEntity
  8
0
  6
CONTINUOUS
 62
     7
100
AcDbLine
 10
-145.6408314792879
 20
-159.3106354962759
 30
0.0
 11
-145.6408314792879
 21
-159.467858834125
 31
0.0
  0
LINE
  5
C9
330
1F
100
AcDbEntity
  8
0
  6
CONTINUOUS
 62
     7
100
AcDbLine
 10
-145.6408314792879
 20
-159.467858834125
 30
0.0
 11
-148.140831479288
 21
-159.467858834125
 31
0.0
  0
LINE
  5
CA
330
1F
100
AcDbEntity
  8
0
  6
CONTINUOUS
 62
     7
100
AcDbLine
 10
-148.140831479288
 20
-159.467858834125
 30
0.0
 11
-148.1408314792879
 21
-159.1534121584268
 31
0.0
  0
LINE
  5
CB
330
1F
100
AcDbEntity
  8
0
  6
CONTINUOUS
 62
     7
100
AcDbLine
 10
-185.1408314792879
 20
-215.1534121583918
 30
0.0
 11
-185.1408314792879
 21
-219.1534121583918
 31
0.0
  0
LINE
  5
CC
330
1F
100
AcDbEntity
  8
0
  6
CONTINUOUS
 62
     7
100
AcDbLine
 10
-184.6408314792879
 20
-219.1534121583918
 30
0.0
 11
-184.6408314792879
 21
-215.1534121583918
 31
0.0
  0
LINE
  5
CD
330
1F
100
AcDbEntity
  8
0
  6
CONTINUOUS
 62
     7
100
AcDbLine
 10
-188.9408314792879
 20
-154.9961888205776
 30
0.0
 11
-188.9408314792879
 21
-155.0485965998607
 31
0.0
  0
LINE
  5
CE
330
1F
100
AcDbEntity
  8
0
  6
CONTINUOUS
 62
     7
100
AcDbLine
 10
-188.9408314792879
 20
-154.9961888205776
 30
0.0
 11
-186.6408314792879
 21
-154.9961888205776
 31
0.0
  0
LINE
  5
CF
330
1F
100
AcDbEntity
  8
0
  6
CONTINUOUS
 62
     7
100
AcDbLine
 10
-186.6408314792879
 20
-154.9961888205776
 30
0.0
 11
-186.6408314792879
 21
-154.8389654827285
 31
0.0
  0
LINE
  5
D0
330
1F
100
AcDbEntity
  8
0
  6
CONTINUOUS
 62
     7
100
AcDbLine
 10
-186.6408314792879
 20
-154.8389654827285
 30
0.0
 11
-184.1408314792879
 21
-154.8389654827285
 31
0.0
  0
LINE
  5
D1
330
1F
100
AcDbEntity
  8
0
  6
CONTINUOUS
 62
     7
100
AcDbLine
 10
-184.1408314792879
 20
-154.8389654827285
 30
0.0
 11
-184.1408314792879
 21
-155.1534121584268
 31
0.0
  0
LINE
  5
D2
330
1F
100
AcDbEntity
  8
0
  6
CONTINUOUS
 62
     7
100
AcDbLine
 10
-143.3408314792879
 20
-219.310635496241
 30
0.0
 11
-143.3408314792879
 21
-219.2582277169579
 31
0.0
  0
LINE
  5
D3
330
1F
100
AcDbEntity
  8
0
  6
CONTINUOUS
 62
     7
100
AcDbLine
 10
-143.3408314792879
 20
-219.310635496241
 30
0.0
 11
-145.8742370936434
 21
-219.310635496241
 31
0.0
  0
ARC
  5
D4
330
1F
100
AcDbEntity
  8
0
  6
CONTINUOUS
 62
     7
100
AcDbCircle
 10
-151.6408314792879
 20
-217.6534121584093
 30
0.0
 40
5.999999999999999
100
AcDbArc
 50
342.3977210227433
 51
343.9662290277019
  0
LINE
  5
D5
330
1F
100
AcDbEntity
  8
0
  6
CONTINUOUS
 62
     7
100
AcDbLine
 10
-145.9219323610563
 20
-219.4678588340901
 30
0.0
 11
-146.1383947770642
 21
-219.6526574672024
 31
0.0
  0
LINE
  5
D6
330
1F
100
AcDbEntity
  8
0
  6
CONTINUOUS
 62
   253
100
AcDbLine
 10
-147.6415167119106
 20
-219.6526574672024
 30
0.0
 11
-146.1383947770642
 21
-219.6526574672024
 31
0.0
  0
LINE
  5
D7
330
1F
100
AcDbEntity
  8
0
  6
CONTINUOUS
 62
     7
100
AcDbLine
 10
-147.6408314792879
 20
-219.6512860615807
 30
0.0
 11
-147.6415167119106
 21
-219.6526574672024
 31
0.0
  0
LINE
  5
D8
330
1F
100
AcDbEntity
  8
0
  6
CONTINUOUS
 62
     7
100
AcDbLine
 10
-147.6408314792879
 20
-219.1534121583918
 30
0.0
 11
-147.6408314792879
 21
-219.6512860615807
 31
0.0
  0
LINE
  5
D9
330
1F
100
AcDbEntity
  8
0
  6
CONTINUOUS
 62
     7
100
AcDbLine
 10
-188.9408314792879
 20
-219.2582277169579
 30
0.0
 11
-188.9408314792879
 21
-215.0485965998257
 31
0.0
  0
LINE
  5
DA
330
1F
100
AcDbEntity
  8
0
  6
CONTINUOUS
 62
     7
100
AcDbLine
 10
-186.6408314792879
 20
-159.467858834125
 30
0.0
 11
-186.6408314792879
 21
-159.3106354962759
 31
0.0
  0
LINE
  5
DB
330
1F
100
AcDbEntity
  8
0
  6
CONTINUOUS
 62
     7
100
AcDbLine
 10
-186.6408314792879
 20
-159.3106354962759
 30
0.0
 11
-188.9408314792879
 21
-159.3106354962759
 31
0.0
  0
LINE
  5
DC
330
1F
100
AcDbEntity
  8
0
  6
CONTINUOUS
 62
     7
100
AcDbLine
 10
-188.9408314792879
 20
-159.3106354962759
 30
0.0
 11
-188.9408314792879
 21
-159.2582277169928
 31
0.0
  0
LINE
  5
DD
330
1F
100
AcDbEntity
  8
0
  6
CONTINUOUS
 62
     7
100
AcDbLine
 10
-184.1408314792879
 20
-159.467858834125
 30
0.0
 11
-186.6408314792879
 21
-159.467858834125
 31
0.0
  0
LINE
  5
DE
330
1F
100
AcDbEntity
  8
0
  6
CONTINUOUS
 62
     7
100
AcDbLine
 10
-184.1408314792879
 20
-159.467858834125
 30
0.0
 11
-184.1408314792879
 21
-159.1534121584268
 31
0.0
  0
LINE
  5
DF
330
1F
100
AcDbEntity
  8
0
  6
CONTINUOUS
 62
     7
100
AcDbLine
 10
-187.6408314792879
 20
-95.1534121584093
 30
0.0
 11
-187.6408314792879
 21
-108.1534121584093
 31
0.0
  0
LINE
  5
E0
330
1F
100
AcDbEntity
  8
0
  6
CONTINUOUS
 62
     7
100
AcDbLine
 10
-182.3846631877608
 20
-108.1534121584093
 30
0.0
 11
-184.8491184131576
 21
-108.1534121584093
 31
0.0
  0
LINE
  5
E1
330
1F
100
AcDbEntity
  8
0
  6
CONTINUOUS
 62
     7
100
AcDbLine
 10
-182.3846631877608
 20
-95.1534121584093
 30
0.0
 11
-187.6408314792879
 21
-95.1534121584093
 31
0.0
  0
LINE
  5
E2
330
1F
100
AcDbEntity
  8
0
  6
CONTINUOUS
 62
     7
100
AcDbLine
 10
-144.6408314792879
 20
-95.1534121584093
 30
0.0
 11
-144.6408314792879
 21
-108.1534121584093
 31
0.0
  0
LINE
  5
E3
330
1F
100
AcDbEntity
  8
0
  6
CONTINUOUS
 62
     7
100
AcDbLine
 10
-147.4325445454182
 20
-108.1534121584093
 30
0.0
 11
-149.896999770815
 21
-108.1534121584093
 31
0.0
  0
LINE
  5
E4
330
1F
100
AcDbEntity
  8
0
  6
CONTINUOUS
 62
     7
100
AcDbLine
 10
-144.6408314792879
 20
-95.1534121584093
 30
0.0
 11
-149.896999770815
 21
-95.1534121584093
 31
0.0
  0
LWPOLYLINE
  5
E5
330
1F
100
AcDbEntity
  8
0
  6
CONTINUOUS
 62
     7
100
AcDbPolyline
 90
       34
 70
     0
 43
0.0
 10
-172.6408314792879
 20
-129.1534121584093
 10
-172.6398756943667
 20
-129.196569516476
 10
-172.6370221319208
 20
-129.2398433127259
 10
-172.632291480427
 20
-129.2830817085893
 10
-172.6257044283617
 20
-129.3261328654963
 10
-172.6172816642018
 20
-129.368844944877
 10
-172.6070438764238
 20
-129.4110661081615
 10
-172.5950117535044
 20
-129.4526445167801
 10
-172.5811795656585
 20
-129.4935650360865
 10
-172.5655615596868
 20
-129.5338837268125
 10
-172.54823185872
 20
-129.5734807039661
 10
-172.5292645858886
 20
-129.6122360825559
 10
-172.5087338643234
 20
-129.65002997759
 10
-172.486713817155
 20
-129.6867425040767
 10
-172.4632785675139
 20
-129.7222537770243
 10
-172.4335027406051
 20
-129.7630285536055
 10
-172.4017573494811
 20
-129.8021713363209
 10
-172.3681978476083
 20
-129.8395657340118
 10
-172.3329796884531
 20
-129.8750953555195
 10
-172.2962583254818
 20
-129.9086438096853
 10
-172.2581892121611
 20
-129.9400947053504
 10
-172.2152964103919
 20
-129.971917910971
 10
-172.1708497882657
 20
-130.0013399800641
 10
-172.1250397922815
 20
-130.0282928556788
 10
-172.0780568689389
 20
-130.0527084808646
 10
-172.030091464737
 20
-130.0745187986706
 10
-171.9813340261753
 20
-130.0936557521462
 10
-171.9341403907335
 20
-130.1094101041569
 10
-171.8862057015083
 20
-130.122786156549
 10
-171.8376846736613
 20
-130.1337673445848
 10
-171.7887320223541
 20
-130.1423371035264
 10
-171.7395024627484
 20
-130.1484788686362
 10
-171.6901507100058
 20
-130.1521760751764
 10
-171.6408314792879
 20
-130.1534121584093
  0
ARC
  5
E6
330
1F
100
AcDbEntity
  8
0
  6
CONTINUOUS
 62
     7
100
AcDbCircle
 10
-160.6416132275706
 20
-129.150000801484
 30
0.0
 40
1.003411661451606
100
AcDbArc
 50
270.0446385900174
 51
293.5230815657251
  0
LWPOLYLINE
  5
E7
330
1F
100
AcDbEntity
  8
0
  6
CONTINUOUS
 62
     7
100
AcDbPolyline
 90
       11
 70
     0
 43
0.0
 10
-160.2411330968745
 20
-130.0700283158849
 10
-160.1477504169379
 20
-130.0232675595141
 10
-160.0589286846809
 20
-129.966576598309
 10
-159.9761503791812
 20
-129.9005393464844
 10
-159.8828744611206
 20
-129.8055184937687
 10
-159.8018226453156
 20
-129.6973795482091
 10
-159.7352768167695
 20
-129.5775660937221
 10
-159.684671582446
 20
-129.4458180155283
 10
-159.652869508067
 20
-129.3081090989781
 10
-159.6415855294841
 20
-129.1921398259371
 10
-159.6408314792879
 20
-129.1534121584093
  0
LINE
  5
E8
330
1F
100
AcDbEntity
  8
0
  6
CONTINUOUS
 62
     7
100
AcDbLine
 10
-160.6408314792879
 20
-130.1534121584093
 30
0.0
 11
-162.6408314792879
 21
-130.1534121584093
 31
0.0
  0
LINE
  5
E9
330
1F
100
AcDbEntity
  8
0
  6
CONTINUOUS
 62
     7
100
AcDbLine
 10
-169.6408314792879
 20
-130.1534121584093
 30
0.0
 11
-171.6408314792879
 21
-130.1534121584093
 31
0.0
  0
LINE
  5
EA
330
1F
100
AcDbEntity
  8
0
  6
CONTINUOUS
 62
     7
100
AcDbLine
 10
-159.6408314792879
 20
-129.1534121584093
 30
0.0
 11
-159.6408314792879
 21
-120.6569256401555
 31
0.0
  0
LINE
  5
EB
330
1F
100
AcDbEntity
  8
0
  6
CONTINUOUS
 62
     7
100
AcDbLine
 10
-172.6408314792879
 20
-120.6569256401555
 30
0.0
 11
-172.6408314792879
 21
-129.1534121584093
 31
0.0
  0
LINE
  5
EC
330
1F
100
AcDbEntity
  8
0
  6
CONTINUOUS
 62
     7
100
AcDbLine
 10
-184.640831479288
 20
-134.1534121584093
 30
0.0
 11
-180.1408314792879
 21
-134.1534121584093
 31
0.0
  0
LINE
  5
ED
330
1F
100
AcDbEntity
  8
0
  6
CONTINUOUS
 62
     7
100
AcDbLine
 10
-180.1408314792879
 20
-134.1534121584093
 30
0.0
 11
-180.1408314792879
 21
-136.1534121584093
 31
0.0
  0
LINE
  5
EE
330
1F
100
AcDbEntity
  8
0
  6
CONTINUOUS
 62
     7
100
AcDbLine
 10
-187.6408314792879
 20
-136.1534121584093
 30
0.0
 11
-180.1408314792879
 21
-136.1534121584093
 31
0.0
  0
LINE
  5
EF
330
1F
100
AcDbEntity
  8
0
  6
CONTINUOUS
 62
     7
100
AcDbLine
 10
-184.8491184131576
 20
-108.1534121584093
 30
0.0
 11
-187.6408314792879
 21
-108.1534121584093
 31
0.0
  0
LINE
  5
F0
330
1F
100
AcDbEntity
  8
0
  6
CONTINUOUS
 62
     7
100
AcDbLine
 10
-187.6408314792879
 20
-108.1534121584093
 30
0.0
 11
-187.6408314792879
 21
-136.1534121584093
 31
0.0
  0
LINE
  5
F1
330
1F
100
AcDbEntity
  8
0
  6
CONTINUOUS
 62
     7
100
AcDbLine
 10
-184.640831479288
 20
-134.1534121584093
 30
0.0
 11
-184.640831479288
 21
-108.1534121584093
 31
0.0
  0
LINE
  5
F2
330
1F
100
AcDbEntity
  8
0
  6
CONTINUOUS
 62
     7
100
AcDbLine
 10
-152.1408314792879
 20
-134.1534121584093
 30
0.0
 11
-152.1408314792879
 21
-136.1534121584093
 31
0.0
  0
LINE
  5
F3
330
1F
100
AcDbEntity
  8
0
  6
CONTINUOUS
 62
     7
100
AcDbLine
 10
-152.1408314792879
 20
-134.1534121584093
 30
0.0
 11
-147.6408314792879
 21
-134.1534121584093
 31
0.0
  0
LINE
  5
F4
330
1F
100
AcDbEntity
  8
0
  6
CONTINUOUS
 62
     7
100
AcDbLine
 10
-144.6408314792879
 20
-108.1534121584093
 30
0.0
 11
-144.6408314792879
 21
-136.1534121584093
 31
0.0
  0
LINE
  5
F5
330
1F
100
AcDbEntity
  8
0
  6
CONTINUOUS
 62
     7
100
AcDbLine
 10
-147.6408314792879
 20
-134.1534121584093
 30
0.0
 11
-147.6408314792879
 21
-108.1534121584093
 31
0.0
  0
LINE
  5
F6
330
1F
100
AcDbEntity
  8
0
  6
CONTINUOUS
 62
     7
100
AcDbLine
 10
-152.1408314792879
 20
-136.1534121584093
 30
0.0
 11
-144.6408314792879
 21
-136.1534121584093
 31
0.0
  0
LINE
  5
F7
330
1F
100
AcDbEntity
  8
0
  6
CONTINUOUS
 62
     7
100
AcDbLine
 10
-147.4325445454182
 20
-108.1534121584093
 30
0.0
 11
-144.6408314792879
 21
-108.1534121584093
 31
0.0
  0
LINE
  5
F8
330
1F
100
AcDbEntity
  8
0
  6
CONTINUOUS
 62
     7
100
AcDbLine
 10
-145.6408314793038
 20
-193.7245813504496
 30
0.0
 11
-145.6408314792879
 21
-187.1534121583882
 31
0.0
  0
LINE
  5
F9
330
1F
100
AcDbEntity
  8
0
  6
CONTINUOUS
 62
     7
100
AcDbLine
 10
-186.6408314792912
 20
-193.6111664560935
 30
0.0
 11
-186.6408314792953
 21
-212.9437810412888
 31
0.0
  0
LINE
  5
FA
330
1F
100
AcDbEntity
  8
0
  6
CONTINUOUS
 62
     7
100
AcDbLine
 10
-165.1408314792879
 20
-222.9008623701251
 30
0.0
 11
-165.1919812578733
 21
-222.8250861790554
 31
0.0
  0
LINE
  5
FB
330
1F
100
AcDbEntity
  8
0
  6
CONTINUOUS
 62
     7
100
AcDbLine
 10
-165.1919812578733
 20
-222.8250861790554
 30
0.0
 11
-165.285312056633
 21
-222.7746088463754
 31
0.0
  0
ARC
  5
FC
330
1F
100
AcDbEntity
  8
0
  6
CONTINUOUS
 62
     7
100
AcDbCircle
 10
-166.0652239452879
 20
-225.0810491950962
 30
0.0
 40
2.434733997025665
100
AcDbArc
 50
71.31727723909195
 51
91.77953285761663
  0
LWPOLYLINE
  5
FD
330
1F
100
AcDbEntity
  8
0
  6
CONTINUOUS
 62
     7
100
AcDbPolyline
 90
      137
 70
     0
 43
0.0
 10
-165.1408314792891
 20
-223.6534121584093
 10
-165.0081953199797
 20
-223.6534121584093
 10
-164.8755591606703
 20
-223.6534121584093
 10
-164.7429230013608
 20
-223.6534121584093
 10
-164.6102868420514
 20
-223.6534121584093
 10
-164.477650682742
 20
-223.6534121584093
 10
-164.3450145234326
 20
-223.6534121584094
 10
-164.2123783641231
 20
-223.6534121584094
 10
-164.0797422048136
 20
-223.6534121584093
 10
-163.9471060455042
 20
-223.6534121584093
 10
-163.8144698861947
 20
-223.6534121584093
 10
-163.6818337268853
 20
-223.6534121584093
 10
-163.5491975675758
 20
-223.6534121584094
 10
-163.4165614082663
 20
-223.6534121584094
 10
-163.2839252489568
 20
-223.6534121584093
 10
-163.1512890896473
 20
-223.6534121584094
 10
-163.0186529303378
 20
-223.6534121584093
 10
-162.8860167710284
 20
-223.6534121584094
 10
-162.7533806117189
 20
-223.6534121584094
 10
-162.6207444524095
 20
-223.6534121584094
 10
-162.4881082931
 20
-223.6534121584094
 10
-162.3554721337905
 20
-223.6534121584094
 10
-162.222835974481
 20
-223.6534121584094
 10
-162.0901998151716
 20
-223.6534121584094
 10
-161.9575636558621
 20
-223.6534121584095
 10
-161.8249274965527
 20
-223.6534121584095
 10
-161.6922913372432
 20
-223.6534121584095
 10
-161.5596551779337
 20
-223.6534121584095
 10
-161.4270190186243
 20
-223.6534121584095
 10
-161.2943828593149
 20
-223.6534121584095
 10
-161.1617467000054
 20
-223.6534121584095
 10
-161.0291105406959
 20
-223.6534121584095
 10
-160.8964743813865
 20
-223.6534121584096
 10
-160.7638382220771
 20
-223.6534121584096
 10
-160.6312020627676
 20
-223.6534121584096
 10
-160.4985659034582
 20
-223.6534121584096
 10
-160.3659297441487
 20
-223.6534121584097
 10
-160.2332935848393
 20
-223.6534121584097
 10
-160.1006574255299
 20
-223.6534121584097
 10
-159.9680212662204
 20
-223.6534121584097
 10
-159.835385106911
 20
-223.6534121584097
 10
-159.7027489476016
 20
-223.6534121584098
 10
-159.5701127882921
 20
-223.6534121584098
 10
-159.4374766289828
 20
-223.6534121584098
 10
-159.3048404696733
 20
-223.6534121584098
 10
-159.1722043103639
 20
-223.6534121584099
 10
-159.0395681510545
 20
-223.6534121584099
 10
-158.9069319917451
 20
-223.6534121584099
 10
-158.7742958324357
 20
-223.65341215841
 10
-158.6416596731263
 20
-223.65341215841
 10
-158.5090235138169
 20
-223.65341215841
 10
-158.3763873545074
 20
-223.65341215841
 10
-158.2437511951981
 20
-223.6534121584101
 10
-158.1111150358886
 20
-223.6534121584101
 10
-157.9784788765792
 20
-223.6534121584102
 10
-157.8458427172699
 20
-223.6534121584103
 10
-157.7132065579605
 20
-223.6534121584103
 10
-157.5805703986511
 20
-223.6534121584104
 10
-157.4479342393417
 20
-223.6534121584104
 10
-157.3152980800323
 20
-223.6534121584104
 10
-157.1826619207229
 20
-223.6534121584105
 10
-157.0500257614135
 20
-223.6534121584106
 10
-156.9173896021042
 20
-223.6534121584106
 10
-156.7847534427948
 20
-223.6534121584107
 10
-156.6521172834854
 20
-223.6534121584107
 10
-156.519481124176
 20
-223.6534121584108
 10
-156.3868449648666
 20
-223.6534121584109
 10
-156.2542088055573
 20
-223.6534121584109
 10
-156.1215726462479
 20
-223.653412158411
 10
-155.9889364869385
 20
-223.653412158411
 10
-155.8563003276292
 20
-223.6534121584112
 10
-155.7236641683198
 20
-223.6534121584112
 10
-155.5910280090105
 20
-223.6534121584113
 10
-155.4583918497011
 20
-223.6534121584114
 10
-155.3257556903918
 20
-223.6534121584114
 10
-155.1931195310824
 20
-223.6534121584115
 10
-155.060483371773
 20
-223.6534121584116
 10
-154.9278472124637
 20
-223.6534121584117
 10
-154.7952110531544
 20
-223.6534121584118
 10
-154.662574893845
 20
-223.6534121584119
 10
-154.5299387345357
 20
-223.653412158412
 10
-154.3973025752263
 20
-223.653412158412
 10
-154.264666415917
 20
-223.6534121584121
 10
-154.1320302566077
 20
-223.6534121584122
 10
-153.9993940972984
 20
-223.6534121584123
 10
-153.866757937989
 20
-223.6534121584124
 10
-153.7341217786797
 20
-223.6534121584126
 10
-153.6014856193703
 20
-223.6534121584126
 10
-153.468849460061
 20
-223.6534121584127
 10
-153.3362133007517
 20
-223.6534121584128
 10
-153.2035771414423
 20
-223.6534121584129
 10
-153.070940982133
 20
-223.653412158413
 10
-152.9383048228237
 20
-223.6534121584131
 10
-152.8056686635143
 20
-223.6534121584132
 10
-152.673032504205
 20
-223.6534121584133
 10
-152.5403963448958
 20
-223.6534121584135
 10
-152.4077601855865
 20
-223.6534121584137
 10
-152.2751240262773
 20
-223.6534121584138
 10
-152.1424878669681
 20
-223.653412158414
 10
-152.0098517076588
 20
-223.6534121584141
 10
-151.8772155483495
 20
-223.6534121584143
 10
-151.7445793890401
 20
-223.6534121584144
 10
-151.6119434110522
 20
-223.653341737845
 10
-151.4793285040456
 20
-223.6512137294251
 10
-151.3467942836763
 20
-223.6461312899072
 10
-151.2144045308536
 20
-223.6381071454786
 10
-151.0822230264871
 20
-223.6271540223273
 10
-150.9503135514861
 20
-223.6132846466409
 10
-150.8187398867604
 20
-223.596511744607
 10
-150.6875658132193
 20
-223.5768480424134
 10
-150.5568551117723
 20
-223.5543062662478
 10
-150.4266715633288
 20
-223.5288991422978
 10
-150.2970789487985
 20
-223.5006393967512
 10
-150.1681410490906
 20
-223.4695397557956
 10
-150.0399216451148
 20
-223.4356129456188
 10
-149.9124845177805
 20
-223.3988716924083
 10
-149.7858934479972
 20
-223.359328722352
 10
-149.6602122166742
 20
-223.3169967616374
 10
-149.5355046047214
 20
-223.2718885364524
 10
-149.4118343930479
 20
-223.2240167729845
 10
-149.2892652147154
 20
-223.1733945628455
 10
-149.167856425446
 20
-223.1200455696139
 10
-149.0476625510554
 20
-223.0640053945705
 10
-148.9287378584868
 20
-223.0053102788316
 10
-148.8111366146832
 20
-222.9439964635136
 10
-148.6949130865877
 20
-222.8801001897327
 10
-148.5801215411433
 20
-222.8136576986055
 10
-148.4668162452933
 20
-222.7447052312482
 10
-148.3550514659807
 20
-222.6732790287772
 10
-148.2448814701484
 20
-222.5994153323088
 10
-148.1363605247397
 20
-222.5231503829593
 10
-148.0295428966976
 20
-222.4445204218454
 10
-147.9244828529652
 20
-222.363561690083
 10
-147.8212346604855
 20
-222.2803104287888
 10
-147.7198525862017
 20
-222.194802879079
 10
-147.6203908970568
 20
-222.10707528207
 10
-147.5229038599928
 20
-222.0171638788771
  0
ARC
  5
FE
330
1F
100
AcDbEntity
  8
0
  6
CONTINUOUS
 62
     7
100
AcDbCircle
 10
-151.7270968047432
 20
-217.422587825377
 30
0.0
 40
5.975339722234184
100
AcDbArc
 50
316.6498237069254
 51
332.820815876183
  0
LINE
  5
FF
330
1F
100
AcDbEntity
  8
0
  6
CONTINUOUS
 62
     7
100
AcDbLine
 10
-146.1383947770642
 20
-219.6526574672024
 30
0.0
 11
-146.1690732300704
 21
-219.691092815736
 31
0.0
  0
LINE
  5
100
330
1F
100
AcDbEntity
  8
0
  6
CONTINUOUS
 62
     7
100
AcDbLine
 10
-146.1690732300704
 20
-219.691092815736
 30
0.0
 11
-146.4115398684543
 21
-220.1519722345762
 31
0.0
  0
LINE
  5
101
330
1F
100
AcDbEntity
  8
0
  6
CONTINUOUS
 62
     7
100
AcDbLine
 10
-145.7425273955343
 20
-214.154852082204
 30
0.0
 11
-145.7298293347717
 21
-214.6124871979289
 31
0.0
  0
LINE
  5
102
330
1F
100
AcDbEntity
  8
0
  6
CONTINUOUS
 62
     7
100
AcDbLine
 10
-145.7298293347717
 20
-214.6124871979289
 30
0.0
 11
-145.7217295474137
 21
-214.6541668495813
 31
0.0
  0
LINE
  5
103
330
1F
100
AcDbEntity
  8
0
  6
CONTINUOUS
 62
     7
100
AcDbLine
 10
-145.7372385549403
 20
-213.153412158421
 30
0.0
 11
-145.7425273955343
 21
-214.154852082204
 31
0.0
  0
LINE
  5
104
330
1F
100
AcDbEntity
  8
0
  6
CONTINUOUS
 62
     7
100
AcDbLine
 10
-145.6408314793232
 20
-212.9437810412888
 30
0.0
 11
-145.7372385549404
 21
-213.153412158421
 31
0.0
  0
LINE
  5
105
330
1F
100
AcDbEntity
  8
0
  6
CONTINUOUS
 62
     7
100
AcDbLine
 10
-145.6408314793232
 20
-212.9437810412888
 30
0.0
 11
-145.6408314793038
 21
-193.7245813504476
 31
0.0
  0
LINE
  5
106
330
1F
100
AcDbEntity
  8
0
  6
CONTINUOUS
 62
     7
100
AcDbLine
 10
-186.6408314792879
 20
-187.1534121584074
 30
0.0
 11
-186.6408314792912
 21
-193.6111664560935
 31
0.0
  0
LINE
  5
107
330
1F
100
AcDbEntity
  8
0
  6
CONTINUOUS
 62
     7
100
AcDbLine
 10
-186.5444244036777
 20
-213.153412158421
 30
0.0
 11
-186.6408314792953
 21
-212.9437810412888
 31
0.0
  0
LINE
  5
108
330
1F
100
AcDbEntity
  8
0
  6
CONTINUOUS
 62
     7
100
AcDbLine
 10
-186.5391355630826
 20
-214.154852082204
 30
0.0
 11
-186.5444244036777
 21
-213.153412158421
 31
0.0
  0
LINE
  5
109
330
1F
100
AcDbEntity
  8
0
  6
CONTINUOUS
 62
     7
100
AcDbLine
 10
-186.5599334112026
 20
-214.6541668495813
 30
0.0
 11
-186.551913356203
 21
-214.6132396540084
 31
0.0
  0
LINE
  5
10A
330
1F
100
AcDbEntity
  8
0
  6
CONTINUOUS
 62
     7
100
AcDbLine
 10
-186.551913356203
 20
-214.6132396540084
 30
0.0
 11
-186.5391355630826
 21
-214.154852082204
 31
0.0
  0
LINE
  5
10B
330
1F
100
AcDbEntity
  8
0
  6
CONTINUOUS
 62
     7
100
AcDbLine
 10
-185.8701230901407
 20
-220.1519722345797
 30
0.0
 11
-186.1097612942219
 21
-219.6956443664478
 31
0.0
  0
LINE
  5
10C
330
1F
100
AcDbEntity
  8
0
  6
CONTINUOUS
 62
     7
100
AcDbLine
 10
-186.1097612942219
 20
-219.6956443664478
 30
0.0
 11
-186.1432681815355
 21
-219.6526574672024
 31
0.0
  0
ARC
  5
10D
330
1F
100
AcDbEntity
  8
0
  6
CONTINUOUS
 62
     7
100
AcDbCircle
 10
-180.5545953570659
 20
-217.4226077717439
 30
0.0
 40
5.975304632575578
100
AcDbArc
 50
207.1791418887468
 51
223.354951294213
  0
LWPOLYLINE
  5
10E
330
1F
100
AcDbEntity
  8
0
  6
CONTINUOUS
 62
     7
100
AcDbPolyline
 90
      137
 70
     0
 43
0.0
 10
-184.7587590985928
 20
-222.0171638788784
 10
-184.6612720615294
 20
-222.10707528207
 10
-184.5618103723841
 20
-222.1948028790788
 10
-184.4604282980998
 20
-222.2803104287885
 10
-184.3571801056197
 20
-222.3635616900825
 10
-184.2521200618868
 20
-222.4445204218446
 10
-184.1453024338443
 20
-222.5231503829585
 10
-184.0367814884352
 20
-222.5994153323077
 10
-183.9266114926025
 20
-222.6732790287759
 10
-183.8148467132895
 20
-222.7447052312468
 10
-183.7015414174391
 20
-222.8136576986039
 10
-183.5867498719944
 20
-222.880100189731
 10
-183.4705263438986
 20
-222.9439964635116
 10
-183.3529251000946
 20
-223.0053102788294
 10
-183.2340004075257
 20
-223.0640053945681
 10
-183.1138065331347
 20
-223.1200455696113
 10
-182.992397743865
 20
-223.1733945628426
 10
-182.8698285655323
 20
-223.2240167729815
 10
-182.7461583538585
 20
-223.2718885364492
 10
-182.6214507419053
 20
-223.316996761634
 10
-182.4957695105822
 20
-223.3593287223484
 10
-182.3691784407986
 20
-223.3988716924045
 10
-182.241741313464
 20
-223.4356129456147
 10
-182.113521909488
 20
-223.4695397557915
 10
-181.98458400978
 20
-223.5006393967469
 10
-181.8549913952494
 20
-223.5288991422933
 10
-181.7248078468056
 20
-223.554306266243
 10
-181.5940971453585
 20
-223.5768480424084
 10
-181.4629230718172
 20
-223.5965117446018
 10
-181.3313494070912
 20
-223.6132846466355
 10
-181.1994399320902
 20
-223.6271540223218
 10
-181.0672584277235
 20
-223.6381071454729
 10
-180.9348686749007
 20
-223.6461312899013
 10
-180.8023344545311
 20
-223.6512137294192
 10
-180.6697195475244
 20
-223.6533417378389
 10
-180.5370835695366
 20
-223.6534121584082
 10
-180.4044474102272
 20
-223.6534121584083
 10
-180.2718112509178
 20
-223.6534121584083
 10
-180.1391750916084
 20
-223.6534121584083
 10
-180.0065389322989
 20
-223.6534121584083
 10
-179.8739027729895
 20
-223.6534121584084
 10
-179.7412666136801
 20
-223.6534121584084
 10
-179.6086304543707
 20
-223.6534121584085
 10
-179.4759942950613
 20
-223.6534121584085
 10
-179.3433581357519
 20
-223.6534121584085
 10
-179.2107219764424
 20
-223.6534121584085
 10
-179.078085817133
 20
-223.6534121584085
 10
-178.9454496578236
 20
-223.6534121584086
 10
-178.8128134985142
 20
-223.6534121584086
 10
-178.6801773392048
 20
-223.6534121584086
 10
-178.5475411798954
 20
-223.6534121584087
 10
-178.414905020586
 20
-223.6534121584087
 10
-178.2822688612766
 20
-223.6534121584087
 10
-178.1496327019672
 20
-223.6534121584087
 10
-178.0169965426578
 20
-223.6534121584087
 10
-177.8843603833484
 20
-223.6534121584087
 10
-177.751724224039
 20
-223.6534121584087
 10
-177.6190880647295
 20
-223.6534121584087
 10
-177.4864519054202
 20
-223.6534121584088
 10
-177.3538157461107
 20
-223.6534121584088
 10
-177.2211795868013
 20
-223.6534121584088
 10
-177.0885434274919
 20
-223.6534121584088
 10
-176.9559072681825
 20
-223.6534121584089
 10
-176.8232711088731
 20
-223.6534121584089
 10
-176.6906349495637
 20
-223.6534121584089
 10
-176.5579987902543
 20
-223.6534121584089
 10
-176.4253626309449
 20
-223.6534121584089
 10
-176.2927264716355
 20
-223.6534121584089
 10
-176.1600903123261
 20
-223.6534121584089
 10
-176.0274541530167
 20
-223.6534121584089
 10
-175.8948179937073
 20
-223.6534121584089
 10
-175.7621818343979
 20
-223.653412158409
 10
-175.6295456750885
 20
-223.653412158409
 10
-175.4969095157791
 20
-223.653412158409
 10
-175.3642733564697
 20
-223.653412158409
 10
-175.2316371971604
 20
-223.6534121584091
 10
-175.0990010378509
 20
-223.6534121584091
 10
-174.9663648785416
 20
-223.6534121584091
 10
-174.8337287192321
 20
-223.653412158409
 10
-174.7010925599227
 20
-223.6534121584091
 10
-174.5684564006134
 20
-223.6534121584091
 10
-174.435820241304
 20
-223.6534121584091
 10
-174.3031840819945
 20
-223.6534121584091
 10
-174.1705479226852
 20
-223.6534121584091
 10
-174.0379117633757
 20
-223.6534121584091
 10
-173.9052756040664
 20
-223.6534121584091
 10
-173.772639444757
 20
-223.6534121584092
 10
-173.6400032854476
 20
-223.6534121584091
 10
-173.5073671261382
 20
-223.6534121584092
 10
-173.3747309668288
 20
-223.6534121584092
 10
-173.2420948075194
 20
-223.6534121584092
 10
-173.1094586482101
 20
-223.6534121584092
 10
-172.9768224889006
 20
-223.6534121584092
 10
-172.8441863295913
 20
-223.6534121584092
 10
-172.7115501702819
 20
-223.6534121584092
 10
-172.5789140109725
 20
-223.6534121584092
 10
-172.4462778516631
 20
-223.6534121584093
 10
-172.3136416923537
 20
-223.6534121584092
 10
-172.1810055330443
 20
-223.6534121584092
 10
-172.0483693737349
 20
-223.6534121584092
 10
-171.9157332144256
 20
-223.6534121584093
 10
-171.7830970551161
 20
-223.6534121584092
 10
-171.6504608958068
 20
-223.6534121584092
 10
-171.5178247364974
 20
-223.6534121584092
 10
-171.385188577188
 20
-223.6534121584093
 10
-171.2525524178787
 20
-223.6534121584093
 10
-171.1199162585692
 20
-223.6534121584092
 10
-170.9872800992598
 20
-223.6534121584093
 10
-170.8546439399505
 20
-223.6534121584093
 10
-170.7220077806411
 20
-223.6534121584093
 10
-170.5893716213317
 20
-223.6534121584093
 10
-170.4567354620223
 20
-223.6534121584093
 10
-170.3240993027129
 20
-223.6534121584093
 10
-170.1914631434036
 20
-223.6534121584093
 10
-170.0588269840942
 20
-223.6534121584093
 10
-169.9261908247848
 20
-223.6534121584093
 10
-169.7935546654754
 20
-223.6534121584093
 10
-169.660918506166
 20
-223.6534121584092
 10
-169.5282823468567
 20
-223.6534121584093
 10
-169.3956461875473
 20
-223.6534121584093
 10
-169.2630100282379
 20
-223.6534121584093
 10
-169.1303738689285
 20
-223.6534121584093
 10
-168.9977377096192
 20
-223.6534121584093
 10
-168.8651015503098
 20
-223.6534121584093
 10
-168.7324653910004
 20
-223.6534121584093
 10
-168.599829231691
 20
-223.6534121584093
 10
-168.4671930723816
 20
-223.6534121584093
 10
-168.3345569130723
 20
-223.6534121584093
 10
-168.2019207537629
 20
-223.6534121584093
 10
-168.0692845944535
 20
-223.6534121584093
 10
-167.9366484351441
 20
-223.6534121584093
 10
-167.8040122758348
 20
-223.6534121584093
 10
-167.6713761165254
 20
-223.6534121584094
 10
-167.538739957216
 20
-223.6534121584093
 10
-167.4061037979067
 20
-223.6534121584093
 10
-167.2734676385973
 20
-223.6534121584093
 10
-167.1408314792879
 20
-223.6534121584093
  0
ARC
  5
10F
330
1F
100
AcDbEntity
  8
0
  6
CONTINUOUS
 62
     7
100
AcDbCircle
 10
-166.1975028316907
 20
-225.2053791332023
 30
0.0
 40
2.558517418947564
100
AcDbArc
 50
88.73079039474177
 51
108.2439008784828
  0
LINE
  5
110
330
1F
100
AcDbEntity
  8
0
  6
CONTINUOUS
 62
     7
100
AcDbLine
 10
-166.9984792271008
 20
-222.7754720985498
 30
0.0
 11
-167.0889575698387
 21
-222.8245525325246
 31
0.0
  0
LINE
  5
111
330
1F
100
AcDbEntity
  8
0
  6
CONTINUOUS
 62
     7
100
AcDbLine
 10
-167.0889575698387
 20
-222.8245525325246
 30
0.0
 11
-167.1408314792879
 21
-222.9008623701251
 31
0.0
  0
LINE
  5
112
330
1F
100
AcDbEntity
  8
0
  6
CONTINUOUS
 62
     7
100
AcDbLine
 10
-184.1408314792904
 20
-192.6524735131161
 30
0.0
 11
-184.1408314792937
 21
-212.9437810412893
 31
0.0
  0
LINE
  5
113
330
1F
100
AcDbEntity
  8
0
  6
CONTINUOUS
 62
     7
100
AcDbLine
 10
-148.1408314792903
 20
-192.5334331936406
 30
0.0
 11
-148.1408314792879
 21
-187.1534121583913
 31
0.0
  0
LINE
  5
114
330
1F
100
AcDbEntity
  8
0
  6
CONTINUOUS
 62
     7
100
AcDbLine
 10
-181.1408314792897
 20
-221.1534121584081
 30
0.0
 11
-167.1408314792879
 21
-221.1534121584093
 31
0.0
  0
LINE
  5
115
330
1F
100
AcDbEntity
  8
0
  6
CONTINUOUS
 62
     7
100
AcDbLine
 10
-181.140831479292
 20
-221.1534121584081
 30
0.0
 11
-181.1408314792879
 21
-221.0628861217636
 31
0.0
  0
LINE
  5
116
330
1F
100
AcDbEntity
  8
0
  6
CONTINUOUS
 62
     7
100
AcDbLine
 10
-181.1408314792879
 20
-221.0628861217636
 30
0.0
 11
-181.1408314792879
 21
-220.8700338948111
 31
0.0
  0
ARC
  5
117
330
1F
100
AcDbEntity
  8
0
  6
CONTINUOUS
 62
     7
100
AcDbCircle
 10
-181.0360391983914
 20
-217.9008552205194
 30
0.0
 40
2.971027334442453
100
AcDbArc
 50
190.4547252422483
 51
267.9786786268403
  0
ARC
  5
118
330
1F
100
AcDbEntity
  8
0
  6
CONTINUOUS
 62
     7
100
AcDbCircle
 10
-174.6261244513923
 20
-217.3256553990309
 30
0.0
 40
9.39791548304846
100
AcDbArc
 50
176.7973708286146
 51
186.8096244078586
  0
LWPOLYLINE
  5
119
330
1F
100
AcDbEntity
  8
0
  6
CONTINUOUS
 62
     7
100
AcDbPolyline
 90
        4
 70
     0
 43
0.0
 10
184.0093622851743
 20
-216.8006190372387
 10
184.0179454835631
 20
-215.153412158421
 10
184.0205891593545
 20
-214.5789446641884
 10
184.0280066242629
 20
-213.153412158421
210
0.0
220
0.0
230
-1.0
  0
LINE
  5
11A
330
1F
100
AcDbEntity
  8
0
  6
CONTINUOUS
 62
     7
100
AcDbLine
 10
-184.0280066242629
 20
-213.153412158421
 30
0.0
 11
-184.1408314792937
 21
-212.9437810412888
 31
0.0
  0
LINE
  5
11B
330
1F
100
AcDbEntity
  8
0
  6
CONTINUOUS
 62
     7
100
AcDbLine
 10
-184.1408314792879
 20
-187.1534121584087
 30
0.0
 11
-184.1408314792904
 21
-192.6524735131161
 31
0.0
  0
LINE
  5
11C
330
1F
100
AcDbEntity
  8
0
  6
CONTINUOUS
 62
     7
100
AcDbLine
 10
-148.1408314792936
 20
-212.9437810412883
 30
0.0
 11
-148.1408314792903
 21
-192.5334331936082
 31
0.0
  0
LINE
  5
11D
330
1F
100
AcDbEntity
  8
0
  6
CONTINUOUS
 62
     7
100
AcDbLine
 10
-148.1408314792936
 20
-212.9437810412888
 30
0.0
 11
-148.2536563343242
 21
-213.153412158421
 31
0.0
  0
ARC
  5
11E
330
1F
100
AcDbEntity
  8
0
  6
CONTINUOUS
 62
     7
100
AcDbCircle
 10
-343.1676594772882
 20
-213.4691001738759
 30
0.0
 40
194.91425879124
100
AcDbArc
 50
358.5526091491553
 51
0.0927977201280896
  0
ARC
  5
11F
330
1F
100
AcDbEntity
  8
0
  6
CONTINUOUS
 62
     7
100
AcDbCircle
 10
-151.2454185413508
 20
-217.9011380883474
 30
0.0
 40
2.970737410678024
100
AcDbArc
 50
272.0175582641948
 51
350.48048684705
  0
LINE
  5
120
330
1F
100
AcDbEntity
  8
0
  6
CONTINUOUS
 62
     7
100
AcDbLine
 10
-151.1408314792879
 20
-220.8700338948134
 30
0.0
 11
-151.1408314792879
 21
-221.0623847891542
 31
0.0
  0
LINE
  5
121
330
1F
100
AcDbEntity
  8
0
  6
CONTINUOUS
 62
     7
100
AcDbLine
 10
-151.1408314792879
 20
-221.0623847891542
 30
0.0
 11
-151.140831479292
 21
-221.1534121584105
 31
0.0
  0
LINE
  5
122
330
1F
100
AcDbEntity
  8
0
  6
CONTINUOUS
 62
     7
100
AcDbLine
 10
-165.1408314792978
 20
-221.1534121584093
 30
0.0
 11
-151.1408314792897
 21
-221.1534121584105
 31
0.0
  0
LINE
  5
123
330
1F
100
AcDbEntity
  8
0
  6
CONTINUOUS
 62
     7
100
AcDbLine
 10
-165.1408314792879
 20
-221.1534121584093
 30
0.0
 11
-165.1408314792879
 21
-221.0760083185998
 31
0.0
  0
LINE
  5
124
330
1F
100
AcDbEntity
  8
0
  6
CONTINUOUS
 62
     7
100
AcDbLine
 10
-165.1408314792879
 20
-221.0760083185998
 30
0.0
 11
-165.1408314792879
 21
-220.3267473593722
 31
0.0
  0
LWPOLYLINE
  5
125
330
1F
100
AcDbEntity
  8
0
  6
CONTINUOUS
 62
     7
100
AcDbPolyline
 90
        3
 70
     0
 43
0.0
 10
-165.1408314792879
 20
-220.3267473593722
 10
-165.2009666270282
 20
-220.2362101452812
 10
-165.3147140955774
 20
-220.1746884490368
  0
ARC
  5
126
330
1F
100
AcDbEntity
  8
0
  6
CONTINUOUS
 62
     7
100
AcDbCircle
 10
-166.08194293766
 20
-222.4068534825684
 30
0.0
 40
2.36033913517626
100
AcDbArc
 50
71.03138018978171
 51
91.42963143836923
  0
ARC
  5
127
330
1F
100
AcDbEntity
  8
0
  6
CONTINUOUS
 62
     7
100
AcDbCircle
 10
-166.1977833051907
 20
-222.3727439289
 30
0.0
 40
2.326192132714282
100
AcDbArc
 50
88.597095531777
 51
110.1761607774299
  0
LWPOLYLINE
  5
128
330
1F
100
AcDbEntity
  8
0
  6
CONTINUOUS
 62
     7
100
AcDbPolyline
 90
        3
 70
     0
 43
0.0
 10
-167.0001048545621
 20
-220.1892948294896
 10
-167.0968431350521
 20
-220.2492976083204
 10
-167.1408314792879
 20
-220.3267473593722
  0
LINE
  5
129
330
1F
100
AcDbEntity
  8
0
  6
CONTINUOUS
 62
     7
100
AcDbLine
 10
-167.1408314792879
 20
-220.3267473593722
 30
0.0
 11
-167.1408314792879
 21
-221.0652903466199
 31
0.0
  0
LINE
  5
12A
330
1F
100
AcDbEntity
  8
0
  6
CONTINUOUS
 62
     7
100
AcDbLine
 10
-167.1408314792879
 20
-221.0652903466199
 30
0.0
 11
-167.1408314792879
 21
-221.1534121584093
 31
0.0
  0
LINE
  5
12B
330
1F
100
AcDbEntity
  8
0
  6
CONTINUOUS
 62
     7
100
AcDbLine
 10
-183.1408314792879
 20
-143.6534121584094
 30
0.0
 11
-180.1408314792879
 21
-136.1534121584093
 31
0.0
  0
LINE
  5
12C
330
1F
100
AcDbEntity
  8
0
  6
CONTINUOUS
 62
     7
100
AcDbLine
 10
-180.1408314792879
 20
-136.1534121584093
 30
0.0
 11
-177.8329629969203
 21
-136.1534121584093
 31
0.0
  0
LINE
  5
12D
330
1F
100
AcDbEntity
  8
0
  6
CONTINUOUS
 62
     7
100
AcDbLine
 10
-177.8329629969203
 20
-136.1534121584093
 30
0.0
 11
-177.133519311149
 21
-136.1534121584093
 31
0.0
  0
LINE
  5
12E
330
1F
100
AcDbEntity
  8
0
  6
CONTINUOUS
 62
     7
100
AcDbLine
 10
-177.133519311149
 20
-136.1534121584093
 30
0.0
 11
-170.4670694005412
 21
-136.1534121584093
 31
0.0
  0
LINE
  5
12F
330
1F
100
AcDbEntity
  8
0
  6
CONTINUOUS
 62
     7
100
AcDbLine
 10
-170.4670694005412
 20
-136.1534121584093
 30
0.0
 11
-161.8145935580384
 21
-136.1534121584093
 31
0.0
  0
LINE
  5
130
330
1F
100
AcDbEntity
  8
0
  6
CONTINUOUS
 62
     7
100
AcDbLine
 10
-161.8145935580384
 20
-136.1534121584093
 30
0.0
 11
-155.1481436474245
 21
-136.1534121584093
 31
0.0
  0
LINE
  5
131
330
1F
100
AcDbEntity
  8
0
  6
CONTINUOUS
 62
     7
100
AcDbLine
 10
-155.1481436474245
 20
-136.1534121584093
 30
0.0
 11
-154.448699961657
 21
-136.1534121584093
 31
0.0
  0
LINE
  5
132
330
1F
100
AcDbEntity
  8
0
  6
CONTINUOUS
 62
     7
100
AcDbLine
 10
-154.448699961657
 20
-136.1534121584093
 30
0.0
 11
-152.1408314792879
 21
-136.1534121584093
 31
0.0
  0
LINE
  5
133
330
1F
100
AcDbEntity
  8
0
  6
CONTINUOUS
 62
     7
100
AcDbLine
 10
-152.1408314792879
 20
-136.1534121584093
 30
0.0
 11
-149.1408314792879
 21
-143.6534121584093
 31
0.0
  0
LINE
  5
134
330
1F
100
AcDbEntity
  8
0
  6
CONTINUOUS
 62
     7
100
AcDbLine
 10
-145.6408314793232
 20
-212.9437810412888
 30
0.0
 11
-148.1408314792937
 21
-212.9437810412888
 31
0.0
  0
LINE
  5
135
330
1F
100
AcDbEntity
  8
0
  6
CONTINUOUS
 62
     7
100
AcDbLine
 10
-149.1408314792879
 20
-143.6534121584093
 30
0.0
 11
-149.1408314792879
 21
-182.1534121584093
 31
0.0
  0
LINE
  5
136
330
1F
100
AcDbEntity
  8
0
  6
CONTINUOUS
 62
     7
100
AcDbLine
 10
-149.1408314792879
 20
-182.1534121584093
 30
0.0
 11
-148.140831479288
 21
-187.1534121584093
 31
0.0
  0
LINE
  5
137
330
1F
100
AcDbEntity
  8
0
  6
CONTINUOUS
 62
     7
100
AcDbLine
 10
-145.6408314792879
 20
-187.1534121584093
 30
0.0
 11
-145.6408314792879
 21
-159.467858834125
 31
0.0
  0
LINE
  5
138
330
1F
100
AcDbEntity
  8
0
  6
CONTINUOUS
 62
     7
100
AcDbLine
 10
-145.6408314792879
 20
-154.8389654827285
 30
0.0
 11
-145.6408314792879
 21
-136.1534121584093
 31
0.0
  0
LINE
  5
139
330
1F
100
AcDbEntity
  8
0
  6
CONTINUOUS
 62
     7
100
AcDbLine
 10
-184.1408314792937
 20
-212.9437810412888
 30
0.0
 11
-186.6408314792953
 21
-212.9437810412888
 31
0.0
  0
LINE
  5
13A
330
1F
100
AcDbEntity
  8
0
  6
CONTINUOUS
 62
     7
100
AcDbLine
 10
-183.1408314792879
 20
-143.6534121584094
 30
0.0
 11
-183.1408314792879
 21
-182.1534121584093
 31
0.0
  0
LINE
  5
13B
330
1F
100
AcDbEntity
  8
0
  6
CONTINUOUS
 62
     7
100
AcDbLine
 10
-184.1408314792879
 20
-187.1534121584093
 30
0.0
 11
-183.1408314792879
 21
-182.1534121584093
 31
0.0
  0
LINE
  5
13C
330
1F
100
AcDbEntity
  8
0
  6
CONTINUOUS
 62
     7
100
AcDbLine
 10
-186.6408314792879
 20
-159.467858834125
 30
0.0
 11
-186.6408314792879
 21
-187.1534121584093
 31
0.0
  0
LINE
  5
13D
330
1F
100
AcDbEntity
  8
0
  6
CONTINUOUS
 62
     7
100
AcDbLine
 10
-186.6408314792879
 20
-136.1534121584093
 30
0.0
 11
-186.6408314792879
 21
-154.8389654827285
 31
0.0
  0
LINE
  5
13E
330
1F
100
AcDbEntity
  8
0
  6
CONTINUOUS
 62
     7
100
AcDbLine
 10
-151.1408314792879
 20
-221.1534121584093
 30
0.0
 11
-147.865955876248
 21
-221.1534121584093
 31
0.0
  0
ARC
  5
13F
330
1F
100
AcDbEntity
  8
0
  6
CONTINUOUS
 62
     7
100
AcDbCircle
 10
-147.865955876248
 20
-221.6534121584093
 30
0.0
 40
0.5000000000000095
100
AcDbArc
 50
313.3224950208094
 51
90.00000000000124
  0
LINE
  5
140
330
1F
100
AcDbEntity
  8
0
  6
CONTINUOUS
 62
     7
100
AcDbLine
 10
-165.1408314792879
 20
-223.6534121584145
 30
0.0
 11
-165.1408314792895
 21
-221.1534121584093
 31
0.0
  0
ARC
  5
141
330
1F
100
AcDbEntity
  8
0
  6
CONTINUOUS
 62
     7
100
AcDbCircle
 10
-184.4157070823389
 20
-221.6534121584093
 30
0.0
 40
0.5000000000000004
100
AcDbArc
 50
90.0000000000012
 51
226.6775049794005
  0
LINE
  5
142
330
1F
100
AcDbEntity
  8
0
  6
CONTINUOUS
 62
     7
100
AcDbLine
 10
-184.415707082339
 20
-221.1534121584093
 30
0.0
 11
-181.1408314792879
 21
-221.1534121584093
 31
0.0
  0
LINE
  5
143
330
1F
100
AcDbEntity
  8
0
  6
CONTINUOUS
 62
     7
100
AcDbLine
 10
-167.1408314792879
 20
-221.1534121584093
 30
0.0
 11
-167.1408314792879
 21
-223.6534121584145
 31
0.0
  0
LINE
  5
144
330
1F
100
AcDbEntity
  8
0
  6
CONTINUOUS
 62
     7
100
AcDbLine
 10
-184.0280066242629
 20
-213.153412158421
 30
0.0
 11
-186.5444244036777
 21
-213.153412158421
 31
0.0
  0
LINE
  5
145
330
1F
100
AcDbEntity
  8
0
  6
CONTINUOUS
 62
     7
100
AcDbLine
 10
-148.2536563343242
 20
-213.153412158421
 30
0.0
 11
-145.7372385549403
 21
-213.153412158421
 31
0.0
  0
LINE
  5
146
330
1F
100
AcDbEntity
  8
0
  6
CONTINUOUS
 62
   253
100
AcDbLine
 10
-166.1408314792879
 20
-220.0472490723527
 30
0.0
 11
-166.1408314792879
 21
-222.6474894286069
 31
0.0
  0
LINE
  5
147
330
1F
100
AcDbEntity
  8
0
  6
CONTINUOUS
 62
     7
100
AcDbLine
 10
-152.1408314792879
 20
-134.1534121584093
 30
0.0
 11
-180.1408314792879
 21
-134.1534121584093
 31
0.0
  0
LINE
  5
148
330
1F
100
AcDbEntity
  8
0
  6
CONTINUOUS
 62
     7
100
AcDbLine
 10
-156.6408314792879
 20
-134.1534121584093
 30
0.0
 11
-156.6408314792879
 21
-125.1534121584093
 31
0.0
  0
LINE
  5
149
330
1F
100
AcDbEntity
  8
0
  6
CONTINUOUS
 62
     7
100
AcDbLine
 10
-147.6408314792879
 20
-125.1534121584093
 30
0.0
 11
-156.6408314792879
 21
-125.1534121584093
 31
0.0
  0
LINE
  5
14A
330
1F
100
AcDbEntity
  8
0
  6
CONTINUOUS
 62
     7
100
AcDbLine
 10
-175.6408314792879
 20
-134.1534121584093
 30
0.0
 11
-175.6408314792879
 21
-125.1534121584093
 31
0.0
  0
LINE
  5
14B
330
1F
100
AcDbEntity
  8
0
  6
CONTINUOUS
 62
     7
100
AcDbLine
 10
-184.6408314792879
 20
-125.1534121584093
 30
0.0
 11
-175.6408314792879
 21
-125.1534121584093
 31
0.0
  0
LINE
  5
14C
330
1F
100
AcDbEntity
  8
0
  6
CONTINUOUS
 62
     7
100
AcDbLine
 10
-175.6408314792879
 20
-118.6534121584093
 30
0.0
 11
-175.6408314792879
 21
-123.1534121584093
 31
0.0
  0
LINE
  5
14D
330
1F
100
AcDbEntity
  8
0
  6
CONTINUOUS
 62
     7
100
AcDbLine
 10
-175.6408314792879
 20
-113.1534121584093
 30
0.0
 11
-175.6408314792879
 21
-117.1534121584093
 31
0.0
  0
LINE
  5
14E
330
1F
100
AcDbEntity
  8
0
  6
CONTINUOUS
 62
     7
100
AcDbLine
 10
-175.6408314792879
 20
-123.1534121584093
 30
0.0
 11
-184.6408314792879
 21
-123.1534121584093
 31
0.0
  0
LINE
  5
14F
330
1F
100
AcDbEntity
  8
0
  6
CONTINUOUS
 62
     7
100
AcDbLine
 10
-175.6408314792879
 20
-113.1534121584093
 30
0.0
 11
-184.6408314792879
 21
-113.1534121584093
 31
0.0
  0
LINE
  5
150
330
1F
100
AcDbEntity
  8
0
  6
CONTINUOUS
 62
     7
100
AcDbLine
 10
-156.6408314792879
 20
-113.1534121584093
 30
0.0
 11
-156.6408314792879
 21
-117.1534121584093
 31
0.0
  0
LINE
  5
151
330
1F
100
AcDbEntity
  8
0
  6
CONTINUOUS
 62
     7
100
AcDbLine
 10
-156.6408314792879
 20
-118.6534121584093
 30
0.0
 11
-156.6408314792879
 21
-123.1534121584093
 31
0.0
  0
LINE
  5
152
330
1F
100
AcDbEntity
  8
0
  6
CONTINUOUS
 62
     7
100
AcDbLine
 10
-156.6408314792879
 20
-113.1534121584093
 30
0.0
 11
-147.6408314792879
 21
-113.1534121584093
 31
0.0
  0
LINE
  5
153
330
1F
100
AcDbEntity
  8
0
  6
CONTINUOUS
 62
     7
100
AcDbLine
 10
-156.6408314792879
 20
-123.1534121584093
 30
0.0
 11
-147.6408314792879
 21
-123.1534121584093
 31
0.0
  0
LINE
  5
154
330
1F
100
AcDbEntity
  8
0
  6
CONTINUOUS
 62
     7
100
AcDbLine
 10
-175.6408314792879
 20
-118.4919286391227
 30
0.0
 11
-175.6408314792879
 21
-118.6534121584093
 31
0.0
  0
LINE
  5
155
330
1F
100
AcDbEntity
  8
0
  6
CONTINUOUS
 62
     7
100
AcDbLine
 10
-156.6408314792879
 20
-118.4919286391227
 30
0.0
 11
-156.6408314792879
 21
-118.6534121584093
 31
0.0
  0
LINE
  5
156
330
1F
100
AcDbEntity
  8
0
  6
CONTINUOUS
 62
     7
100
AcDbLine
 10
-175.6408314792879
 20
-118.0276902936801
 30
0.0
 11
-175.6408314792879
 21
-118.4919286391227
 31
0.0
  0
LINE
  5
157
330
1F
100
AcDbEntity
  8
0
  6
CONTINUOUS
 62
     7
100
AcDbLine
 10
-156.6408314792879
 20
-118.4919286391227
 30
0.0
 11
-156.6408314792879
 21
-118.0276902936801
 31
0.0
  0
LINE
  5
158
330
1F
100
AcDbEntity
  8
0
  6
CONTINUOUS
 62
     7
100
AcDbLine
 10
-175.6408314792879
 20
-117.1534121584093
 30
0.0
 11
-175.6408314792879
 21
-118.0276902936801
 31
0.0
  0
LINE
  5
159
330
1F
100
AcDbEntity
  8
0
  6
CONTINUOUS
 62
     7
100
AcDbLine
 10
-156.6408314792879
 20
-117.1534121584093
 30
0.0
 11
-156.6408314792879
 21
-118.0276902936801
 31
0.0
  0
LINE
  5
15A
330
1F
100
AcDbEntity
  8
0
  6
CONTINUOUS
 62
     7
100
AcDbLine
 10
-148.140831480277
 20
-187.147823728847
 30
0.0
 11
-148.1547126855002
 21
-196.0190308809012
 31
0.0
  0
LINE
  5
15B
330
1F
100
AcDbEntity
  8
0
  6
CONTINUOUS
 62
     7
100
AcDbLine
 10
-184.1315935988189
 20
-193.6035447772449
 30
0.0
 11
-184.1309371162258
 21
-193.5412541082356
 31
0.0
  0
LINE
  5
15C
330
1F
100
AcDbEntity
  8
0
  6
CONTINUOUS
 62
     7
100
AcDbLine
 10
-184.1309371162258
 20
-193.5412541082356
 30
0.0
 11
-184.1408314352072
 21
-187.1665866304783
 31
0.0
  0
LINE
  5
15D
330
1F
100
AcDbEntity
  8
0
  6
CONTINUOUS
 62
     7
100
AcDbLine
 10
-108.4243781065852
 20
-219.310635496241
 30
0.0
 11
-109.4243781065852
 21
-219.2582277169579
 31
0.0
  0
LINE
  5
15E
330
1F
100
AcDbEntity
  8
0
  6
CONTINUOUS
 62
     7
100
AcDbLine
 10
-108.4243781065852
 20
-214.9961888205427
 30
0.0
 11
-109.4243781065852
 21
-215.0485965998257
 31
0.0
  0
LINE
  5
15F
330
1F
100
AcDbEntity
  8
0
  6
CONTINUOUS
 62
     7
100
AcDbLine
 10
-111.4243781065852
 20
-219.1534121583918
 30
0.0
 11
-111.4243781065852
 21
-215.1534121583918
 31
0.0
  0
LINE
  5
160
330
1F
100
AcDbEntity
  8
0
  6
CONTINUOUS
 62
     7
100
AcDbLine
 10
-109.4243781065852
 20
-219.2582277169579
 30
0.0
 11
-111.4243781065852
 21
-219.1534121583918
 31
0.0
  0
LINE
  5
161
330
1F
100
AcDbEntity
  8
0
  6
CONTINUOUS
 62
     7
100
AcDbLine
 10
-111.4243781065852
 20
-215.1534121583918
 30
0.0
 11
-109.4243781065852
 21
-215.0485965998257
 31
0.0
  0
LINE
  5
162
330
1F
100
AcDbEntity
  8
0
  6
CONTINUOUS
 62
     7
100
AcDbLine
 10
-111.4243781065852
 20
-159.1534121584268
 30
0.0
 11
-111.4243781065852
 21
-155.1534121584268
 31
0.0
  0
LINE
  5
163
330
1F
100
AcDbEntity
  8
0
  6
CONTINUOUS
 62
     7
100
AcDbLine
 10
-111.4243781065852
 20
-155.1534121584268
 30
0.0
 11
-109.4243781065852
 21
-155.0485965998607
 31
0.0
  0
LINE
  5
164
330
1F
100
AcDbEntity
  8
0
  6
CONTINUOUS
 62
     7
100
AcDbLine
 10
-109.4243781065852
 20
-159.2582277169928
 30
0.0
 11
-111.4243781065852
 21
-159.1534121584268
 31
0.0
  0
LINE
  5
165
330
1F
100
AcDbEntity
  8
0
  6
CONTINUOUS
 62
     7
100
AcDbLine
 10
-108.4243781065852
 20
-154.9961888205776
 30
0.0
 11
-109.4243781065852
 21
-155.0485965998607
 31
0.0
  0
LINE
  5
166
330
1F
100
AcDbEntity
  8
0
  6
CONTINUOUS
 62
     7
100
AcDbLine
 10
-108.4243781065852
 20
-159.3106354962759
 30
0.0
 11
-109.4243781065852
 21
-159.2582277169928
 31
0.0
  0
LINE
  5
167
330
1F
100
AcDbEntity
  8
0
  6
CONTINUOUS
 62
     7
100
AcDbLine
 10
-90.4243781065852
 20
-113.1534121584093
 30
0.0
 11
-90.4243781065852
 21
-123.1534121584093
 31
0.0
  0
LINE
  5
168
330
1F
100
AcDbEntity
  8
0
  6
CONTINUOUS
 62
     7
100
AcDbLine
 10
-90.4243781065852
 20
-123.1534121584093
 30
0.0
 11
-90.42437810658528
 21
-125.1534121584093
 31
0.0
  0
LINE
  5
169
330
1F
100
AcDbEntity
  8
0
  6
CONTINUOUS
 62
     7
100
AcDbLine
 10
-90.42437810658528
 20
-125.1534121584093
 30
0.0
 11
-88.7911285258745
 21
-125.1534121584093
 31
0.0
  0
LINE
  5
16A
330
1F
100
AcDbEntity
  8
0
  6
CONTINUOUS
 62
     7
100
AcDbLine
 10
-88.7911285258745
 20
-125.1534121584093
 30
0.0
 11
-88.7911285258744
 21
-136.1534121584093
 31
0.0
  0
LINE
  5
16B
330
1F
100
AcDbEntity
  8
0
  6
CONTINUOUS
 62
     7
100
AcDbLine
 10
-107.9243781065852
 20
-136.1534121584093
 30
0.0
 11
-88.7911285258744
 21
-136.1534121584093
 31
0.0
  0
LINE
  5
16C
330
1F
100
AcDbEntity
  8
0
  6
CONTINUOUS
 62
     7
100
AcDbLine
 10
-107.9243781065852
 20
-108.1534121584093
 30
0.0
 11
-102.057627687296
 21
-108.1534121584093
 31
0.0
  0
LINE
  5
16D
330
1F
100
AcDbEntity
  8
0
  6
CONTINUOUS
 62
     7
100
AcDbLine
 10
-102.057627687296
 20
-95.1534121584093
 30
0.0
 11
-102.057627687296
 21
-108.1534121584093
 31
0.0
  0
LINE
  5
16E
330
1F
100
AcDbEntity
  8
0
  6
CONTINUOUS
 62
     7
100
AcDbLine
 10
-93.42437810658518
 20
-95.1534121584093
 30
0.0
 11
-102.057627687296
 21
-95.1534121584093
 31
0.0
  0
ARC
  5
16F
330
1F
100
AcDbEntity
  8
0
  6
CONTINUOUS
 62
     7
100
AcDbCircle
 10
-93.42437810658518
 20
-98.1534121584093
 30
0.0
 40
3.000000000000003
100
AcDbArc
 50
0.0
 51
90.0
  0
LINE
  5
170
330
1F
100
AcDbEntity
  8
0
  6
CONTINUOUS
 62
     7
100
AcDbLine
 10
-90.4243781065852
 20
-98.1534121584093
 30
0.0
 11
-90.4243781065852
 21
-113.1534121584093
 31
0.0
  0
LINE
  5
171
330
1F
100
AcDbEntity
  8
0
  6
CONTINUOUS
 62
     7
100
AcDbLine
 10
-107.9243781065852
 20
-108.1534121584093
 30
0.0
 11
-107.9243781065852
 21
-136.1534121584093
 31
0.0
  0
LINE
  5
172
330
1F
100
AcDbEntity
  8
0
  6
CONTINUOUS
 62
     7
100
AcDbLine
 10
-90.42437810658521
 20
-123.1534121584093
 30
0.0
 11
-89.83231794431242
 21
-123.1534121584093
 31
0.0
  0
LINE
  5
173
330
1F
100
AcDbEntity
  8
0
  6
CONTINUOUS
 62
     7
100
AcDbLine
 10
-89.83231794431242
 20
-113.1534121584093
 30
0.0
 11
-90.42437810658521
 21
-113.1534121584093
 31
0.0
  0
LINE
  5
174
330
1F
100
AcDbEntity
  8
0
  6
CONTINUOUS
 62
     7
100
AcDbLine
 10
-107.9243781065852
 20
-108.1534121584093
 30
0.0
 11
-110.9931908881305
 21
-108.1534121584093
 31
0.0
  0
LINE
  5
175
330
1F
100
AcDbEntity
  8
0
  6
CONTINUOUS
 62
     7
100
AcDbLine
 10
-110.9931908881305
 20
-108.1534121584093
 30
0.0
 11
-110.9931908881305
 21
-95.1534121584093
 31
0.0
  0
LINE
  5
176
330
1F
100
AcDbEntity
  8
0
  6
CONTINUOUS
 62
     7
100
AcDbLine
 10
-102.057627687296
 20
-95.1534121584093
 30
0.0
 11
-110.9931908881305
 21
-95.1534121584093
 31
0.0
  0
LINE
  5
177
330
1F
100
AcDbEntity
  8
0
  6
CONTINUOUS
 62
     7
100
AcDbLine
 10
-88.7911285258745
 20
-125.1534121584093
 30
0.0
 11
-76.92437810658525
 21
-125.1534121584093
 31
0.0
  0
LINE
  5
178
330
1F
100
AcDbEntity
  8
0
  6
CONTINUOUS
 62
     7
100
AcDbLine
 10
-76.92437810658525
 20
-125.1534121584093
 30
0.0
 11
-76.9243781065852
 21
-136.1534121584093
 31
0.0
  0
LINE
  5
179
330
1F
100
AcDbEntity
  8
0
  6
CONTINUOUS
 62
     7
100
AcDbLine
 10
-88.79112852587441
 20
-136.1534121584093
 30
0.0
 11
-76.92437810658522
 21
-136.1534121584093
 31
0.0
  0
LINE
  5
17A
330
1F
100
AcDbEntity
  8
0
  6
CONTINUOUS
 62
   253
100
AcDbLine
 10
-78.41176577734835
 20
-123.1534121584093
 30
0.0
 11
-78.41176577734835
 21
-113.1534121584093
 31
0.0
  0
LINE
  5
17B
330
1F
100
AcDbEntity
  8
0
  6
CONTINUOUS
 62
     7
100
AcDbLine
 10
-78.41176577734835
 20
-113.1534121584093
 30
0.0
 11
-89.83231794431241
 21
-113.1534121584093
 31
0.0
  0
LINE
  5
17C
330
1F
100
AcDbEntity
  8
0
  6
CONTINUOUS
 62
     7
100
AcDbLine
 10
-78.41176577734835
 20
-123.1534121584093
 30
0.0
 11
-89.83231794431241
 21
-123.1534121584093
 31
0.0
  0
LINE
  5
17D
330
1F
100
AcDbEntity
  8
0
  6
CONTINUOUS
 62
     7
100
AcDbLine
 10
-105.4243781065852
 20
-187.1534121584093
 30
0.0
 11
-105.4243781065852
 21
-159.467858834125
 31
0.0
  0
LINE
  5
17E
330
1F
100
AcDbEntity
  8
0
  6
CONTINUOUS
 62
     7
100
AcDbLine
 10
-105.4243781065852
 20
-154.8389654827285
 30
0.0
 11
-105.4243781065852
 21
-136.1534121584093
 31
0.0
  0
LINE
  5
17F
330
1F
100
AcDbEntity
  8
0
  6
CONTINUOUS
 62
     7
100
AcDbLine
 10
-105.4243781065852
 20
-154.8389654827285
 30
0.0
 11
-108.4243781065852
 21
-154.9961888205776
 31
0.0
  0
LINE
  5
180
330
1F
100
AcDbEntity
  8
0
  6
CONTINUOUS
 62
     7
100
AcDbLine
 10
-108.4243781065852
 20
-159.3106354962759
 30
0.0
 11
-105.4243781065852
 21
-159.467858834125
 31
0.0
  0
LINE
  5
181
330
1F
100
AcDbEntity
  8
0
  6
CONTINUOUS
 62
     7
100
AcDbLine
 10
-76.92437810658626
 20
-165.5984952669253
 30
0.0
 11
-76.92528701673528
 21
-166.525211981929
 31
0.0
  0
LINE
  5
182
330
1F
100
AcDbEntity
  8
0
  6
CONTINUOUS
 62
     7
100
AcDbLine
 10
-105.4243752425951
 20
-219.4678589841854
 30
0.0
 11
-108.4243781065852
 21
-219.310635496241
 31
0.0
  0
LINE
  5
183
330
1F
100
AcDbEntity
  8
0
  6
CONTINUOUS
 62
     7
100
AcDbLine
 10
-105.4243781065852
 20
-214.8389654826936
 30
0.0
 11
-108.4243781065852
 21
-214.9961888205427
 31
0.0
  0
LINE
  5
184
330
1F
100
AcDbEntity
  8
0
  6
CONTINUOUS
 62
     7
100
AcDbLine
 10
-105.4243781065852
 20
-223.6534121584136
 30
0.0
 11
-105.4243781065852
 21
-222.0171638788771
 31
0.0
  0
LINE
  5
185
330
1F
100
AcDbEntity
  8
0
  6
CONTINUOUS
 62
   253
100
AcDbLine
 10
-101.4243781065886
 20
-222.0368597461561
 30
0.0
 11
-105.4243781065852
 21
-222.0171638788771
 31
0.0
  0
LINE
  5
186
330
1F
100
AcDbEntity
  8
0
  6
CONTINUOUS
 62
     7
100
AcDbLine
 10
-101.4243781065852
 20
-220.1519722345762
 30
0.0
 11
-101.4243781065886
 21
-222.0368597461561
 31
0.0
  0
LWPOLYLINE
  5
187
330
1F
100
AcDbEntity
  8
0
  6
CONTINUOUS
 62
     7
100
AcDbPolyline
 90
       33
 70
     0
 43
0.0
 10
101.8982101284637
 20
-219.6526574672024
 10
101.8780296610067
 20
-219.6541269249234
 10
101.857946483883
 20
-219.6564084042411
 10
101.8380149888566
 20
-219.6594892024448
 10
101.8182895676917
 20
-219.6633566168232
 10
101.7981989290026
 20
-219.6681572793699
 10
101.7783624118989
 20
-219.6737714167809
 10
101.7588324007958
 20
-219.6801749199303
 10
101.7396612801089
 20
-219.6873436796925
 10
101.7214231945335
 20
-219.6950172934681
 10
101.7035489440026
 20
-219.703383524205
 10
101.6860782354719
 20
-219.7124137322372
 10
101.669050775897
 20
-219.722079277899
 10
101.6520450304523
 20
-219.7326474562544
 10
101.6355259129418
 20
-219.7438523202248
 10
101.6195271229533
 20
-219.7556586706669
 10
101.6040823600746
 20
-219.7680313084371
 10
101.5839292316032
 20
-219.7857855356038
 10
101.5648444373234
 20
-219.8045047334241
 10
101.5468906590317
 20
-219.8240953873648
 10
101.5296911736702
 20
-219.8450186703444
 10
101.5137183938004
 20
-219.8667410051412
 10
101.4990181820622
 20
-219.8891625418174
 10
101.4848590171928
 20
-219.9136003940795
 10
101.4721492595082
 20
-219.9386949002886
 10
101.4609221835824
 20
-219.9643326667008
 10
101.4509638631682
 20
-219.9911082379627
 10
101.442571525432
 20
-220.018328381669
 10
101.4357636499446
 20
-220.0458783480365
 10
101.4308036359038
 20
-220.0720727010246
 10
101.4272514686188
 20
-220.0984455512876
 10
101.4250967651552
 20
-220.1251796513025
 10
101.4243781065852
 20
-220.1519722345762
210
0.0
220
0.0
230
-1.0
  0
LWPOLYLINE
  5
188
330
1F
100
AcDbEntity
  8
0
  6
CONTINUOUS
 62
     7
100
AcDbPolyline
 90
       37
 70
     0
 43
0.0
 10
101.4243781065852
 20
-214.154852082204
 10
101.4248101652961
 20
-214.1755932329977
 10
101.4261033752585
 20
-214.1963166459275
 10
101.4282532872173
 20
-214.2169688022809
 10
101.4312554519171
 20
-214.2374961833452
 10
101.4352345393415
 20
-214.2584700884691
 10
101.440109696223
 20
-214.2792738005186
 10
101.4458663186762
 20
-214.2998506662192
 10
101.4524898028154
 20
-214.320144032296
 10
101.4597538513538
 20
-214.3395751929405
 10
101.4678243813202
 20
-214.3587042808874
 10
101.4766794417147
 20
-214.3774823397045
 10
101.4862970815376
 20
-214.3958604129597
 10
101.4969833103496
 20
-214.4143358305955
 10
101.5084582545605
 20
-214.4323540573133
 10
101.5206894094615
 20
-214.4498665957036
 10
101.5336442703436
 20
-214.4668249483572
 10
101.5469267676877
 20
-214.482767950888
 10
101.5608706966341
 20
-214.4981586404056
 10
101.5754391610188
 20
-214.5129581311286
 10
101.5905952646776
 20
-214.5271275372752
 10
101.6067917730306
 20
-214.5410347511484
 10
101.6235816530525
 20
-214.5542493441598
 10
101.6409182497064
 20
-214.5667363407218
 10
101.6587549079555
 20
-214.5784607652473
 10
101.6765762705462
 20
-214.5891245547707
 10
101.694840114949
 20
-214.5990472428939
 10
101.7134987379921
 20
-214.608204287614
 10
101.7325044365037
 20
-214.6165711469281
 10
101.7524067889742
 20
-214.6243454230255
 10
101.7726410029367
 20
-214.6312684204943
 10
101.7931514199457
 20
-214.6373224831378
 10
101.8138823815552
 20
-214.6424899547591
 10
101.8346826622943
 20
-214.6467408145719
 10
101.8556443209848
 20
-214.650105216184
 10
101.876883849027
 20
-214.6525910572896
 10
101.8982101284637
 20
-214.6541668495813
210
0.0
220
0.0
230
-1.0
  0
LINE
  5
189
330
1F
100
AcDbEntity
  8
0
  6
CONTINUOUS
 62
     7
100
AcDbLine
 10
-101.4243781065852
 20
-213.153412158421
 30
0.0
 11
-101.4243781065852
 21
-214.154852082204
 31
0.0
  0
LINE
  5
18A
330
1F
100
AcDbEntity
  8
0
  6
CONTINUOUS
 62
     7
100
AcDbLine
 10
-105.4243781065852
 20
-212.9437810412888
 30
0.0
 11
-105.4243781065852
 21
-187.1534121583882
 31
0.0
  0
LINE
  5
18B
330
1F
100
AcDbEntity
  8
0
  6
CONTINUOUS
 62
     7
100
AcDbLine
 10
-105.4243781065852
 20
-212.9437810412888
 30
0.0
 11
-101.4243781065852
 21
-213.153412158421
 31
0.0
  0
LINE
  5
18C
330
1F
100
AcDbEntity
  8
0
  6
CONTINUOUS
 62
     7
100
AcDbLine
 10
-105.4243781065852
 20
-219.4678588340901
 30
0.0
 11
-101.8982101284637
 21
-219.6526574672024
 31
0.0
  0
LINE
  5
18D
330
1F
100
AcDbEntity
  8
0
  6
CONTINUOUS
 62
     7
100
AcDbLine
 10
-101.8982101284637
 20
-214.6541668495813
 30
0.0
 11
-105.4243781065852
 21
-214.8389654826936
 31
0.0
  0
LINE
  5
18E
330
1F
100
AcDbEntity
  8
0
  6
CONTINUOUS
 62
     7
100
AcDbLine
 10
-105.4243781065847
 20
-222.0171638788771
 30
0.0
 11
-105.4243781065859
 21
-221.1534121584093
 31
0.0
  0
LINE
  5
18F
330
1F
100
AcDbEntity
  8
0
  6
CONTINUOUS
 62
     7
100
AcDbLine
 10
-105.4243781063799
 20
-221.1534121584093
 30
0.0
 11
-101.4243781065852
 21
-221.153412158421
 31
0.0
  0
LINE
  5
190
330
1F
100
AcDbEntity
  8
0
  6
CONTINUOUS
 62
     7
100
AcDbLine
 10
-113.8091544174354
 20
-108.1020389847029
 30
0.0
 11
-113.8091544174354
 21
-110.6363991068012
 31
0.0
  0
LINE
  5
191
330
1F
100
AcDbEntity
  8
0
  6
CONTINUOUS
 62
     7
100
AcDbLine
 10
-104.710249237833
 20
-221.1434968245475
 30
0.0
 11
-101.4239229528422
 21
-220.8424273357881
 31
0.0
  0
ARC
  5
192
330
1F
100
AcDbEntity
  8
0
  6
CONTINUOUS
 62
     7
100
AcDbCircle
 10
-115.5559007118766
 20
-101.4003778977104
 30
0.0
 40
4.305320477137229
100
AcDbArc
 50
356.6306446471844
 51
23.30991294195939
  0
LWPOLYLINE
  5
193
330
1F
100
AcDbEntity
  8
0
  6
CONTINUOUS
 62
     7
100
AcDbPolyline
 90
        6
 70
     0
 43
0.0
 10
-111.6019893916329
 20
-99.69674364045163
 10
-111.6917062162916
 20
-99.57828335572287
 10
-111.7931836595168
 20
-99.48911042032962
 10
-111.8956380046113
 20
-99.4349431926379
 10
-112.0055446847051
 20
-99.40741964289882
 10
-112.0682358803829
 20
-99.4034121586343
  0
ARC
  5
194
330
1F
100
AcDbEntity
  8
0
  6
CONTINUOUS
 62
     7
100
AcDbCircle
 10
-113.2097267942834
 20
-105.8071661146893
 30
0.0
 40
2.356984861642393
100
AcDbArc
 50
205.4516542676488
 51
264.5285491257096
  0
LWPOLYLINE
  5
195
330
1F
100
AcDbEntity
  8
0
  6
CONTINUOUS
 62
     7
100
AcDbPolyline
 90
        7
 70
     0
 43
0.0
 10
-115.3379620912251
 20
-106.820078825076
 10
-115.3924549891463
 20
-106.7184245194887
 10
-115.4621226335469
 20
-106.6218583524136
 10
-115.5619715469704
 20
-106.5176987386154
 10
-115.664959533532
 20
-106.4355557179273
 10
-115.7998900235196
 20
-106.3530917674126
 10
-115.9426222077001
 20
-106.287769458343
  0
ARC
  5
196
330
1F
100
AcDbEntity
  8
0
  6
CONTINUOUS
 62
     7
100
AcDbCircle
 10
-116.670538669275
 20
-108.2260118806839
 30
0.0
 40
2.070421711341347
100
AcDbArc
 50
69.41608559411372
 51
88.31699759909945
  0
LINE
  5
197
330
1F
100
AcDbEntity
  8
0
  6
CONTINUOUS
 62
     7
100
AcDbLine
 10
-116.6097309855084
 20
-95.1534121584093
 30
0.0
 11
-116.6097309855084
 21
-106.1564833139836
 31
0.0
  0
LINE
  5
198
330
1F
100
AcDbEntity
  8
0
  6
CONTINUOUS
 62
     7
100
AcDbLine
 10
-110.9931908881305
 20
-108.1534121584093
 30
0.0
 11
-113.4344647313116
 21
-108.1534121584093
 31
0.0
  0
LINE
  5
199
330
1F
100
AcDbEntity
  8
0
  6
CONTINUOUS
 62
     7
100
AcDbLine
 10
-110.9931908881305
 20
-95.1534121584093
 30
0.0
 11
-116.6097309855084
 21
-95.1534121584093
 31
0.0
  0
LWPOLYLINE
  5
19A
330
1F
100
AcDbEntity
  8
0
  6
CONTINUOUS
 62
     7
100
AcDbPolyline
 90
        6
 70
     0
 43
0.0
 10
-112.0682437181053
 20
-103.9034121578962
 10
-111.9228924674266
 20
-103.8815345254518
 10
-111.7892755899005
 20
-103.8149953352688
 10
-111.7048226753594
 20
-103.7424012292887
 10
-111.6273367362194
 20
-103.6481241589843
 10
-111.5663327869842
 20
-103.5493776165144
  0
ARC
  5
19B
330
1F
100
AcDbEntity
  8
0
  6
CONTINUOUS
 62
     7
100
AcDbCircle
 10
-115.8136738977696
 20
-101.8856502673179
 30
0.0
 40
4.561567187253962
100
AcDbArc
 50
338.6092086647809
 51
2.918299349289043
  0
LWPOLYLINE
  5
19C
330
1F
100
AcDbEntity
  8
0
  6
CONTINUOUS
 62
     7
100
AcDbPolyline
 90
        4
 70
     0
 43
0.0
 10
-112.0682358803829
 20
-99.4034121586343
 10
-112.186702094232
 20
-99.41610216713745
 10
-112.321644772268
 20
-99.45841904677654
 10
-112.460104016107
 20
-99.52908195458767
  0
ARC
  5
19D
330
1F
100
AcDbEntity
  8
0
  6
CONTINUOUS
 62
     7
100
AcDbCircle
 10
-110.7845306050388
 20
-101.6646514108601
 30
0.0
 40
2.714443434378864
100
AcDbArc
 50
128.1178240272715
 51
227.2491660355428
  0
LWPOLYLINE
  5
19E
330
1F
100
AcDbEntity
  8
0
  6
CONTINUOUS
 62
     7
100
AcDbPolyline
 90
        6
 70
     0
 43
0.0
 10
-112.6271258448008
 20
-103.6579015057675
 10
-112.4834778209544
 20
-103.7632276857501
 10
-112.3551484151222
 20
-103.8338239581622
 10
-112.2424330968451
 20
-103.8766690821426
 10
-112.1312463998309
 20
-103.8997299489686
 10
-112.0682437181053
 20
-103.9034121578962
  0
ARC
  5
19F
330
1F
100
AcDbEntity
  8
0
  6
CONTINUOUS
 62
     7
100
AcDbCircle
 10
-108.9191730034584
 20
-101.6534022186243
 30
0.0
 40
3.094008975054167
100
AcDbArc
 50
146.1241363314108
 51
213.8782920815785
  0
LINE
  5
1A0
330
1F
100
AcDbEntity
  8
0
  6
CONTINUOUS
 62
     7
100
AcDbLine
 10
-78.2914221647547
 20
-123.1534121584093
 30
0.0
 11
-78.41176577734834
 21
-123.1534121584093
 31
0.0
  0
LINE
  5
1A1
330
1F
100
AcDbEntity
  8
0
  6
CONTINUOUS
 62
     7
100
AcDbLine
 10
-78.41176577734834
 20
-113.1534121584093
 30
0.0
 11
-78.2914221647547
 21
-113.1534121584093
 31
0.0
  0
LINE
  5
1A2
330
1F
100
AcDbEntity
  8
0
  6
CONTINUOUS
 62
     7
100
AcDbLine
 10
-116.6375815421816
 20
-106.1534121584093
 30
0.0
 11
-116.6097309855084
 21
-106.1564833139836
 31
0.0
  0
ARC
  5
1A3
330
1F
100
AcDbEntity
  8
0
  6
CONTINUOUS
 62
     7
100
AcDbCircle
 10
-114.6629720504825
 20
-107.1032189429186
 30
0.0
 40
2.302612414982031
100
AcDbArc
 50
160.9427092113672
 51
181.2490539837045
  0
LWPOLYLINE
  5
1A4
330
1F
100
AcDbEntity
  8
0
  6
CONTINUOUS
 62
     7
100
AcDbPolyline
 90
        4
 70
     0
 43
0.0
 10
116.8393841810131
 20
-106.3513850705048
 10
116.7821476673395
 20
-106.2468954165425
 10
116.6936694112022
 20
-106.1664201142791
 10
116.6375815421816
 20
-106.1534121584093
210
0.0
220
0.0
230
-1.0
  0
LINE
  5
1A5
330
1F
100
AcDbEntity
  8
0
  6
CONTINUOUS
 62
     7
100
AcDbLine
 10
-116.9650373351232
 20
-108.417902629472
 30
0.0
 11
-116.9650373351232
 21
-107.1534121584093
 31
0.0
  0
LINE
  5
1A6
330
1F
100
AcDbEntity
  8
0
  6
CONTINUOUS
 62
     7
100
AcDbLine
 10
-116.9650373351232
 20
-108.417902629472
 30
0.0
 11
-117.9243781065852
 21
-108.417902629472
 31
0.0
  0
LINE
  5
1A7
330
1F
100
AcDbEntity
  8
0
  6
CONTINUOUS
 62
     7
100
AcDbLine
 10
-116.6097309855083
 20
-95.1534121584093
 30
0.0
 11
-117.9243781065852
 21
-95.1534121584093
 31
0.0
  0
LINE
  5
1A8
330
1F
100
AcDbEntity
  8
0
  6
CONTINUOUS
 62
   253
100
AcDbLine
 10
-108.2831951609303
 20
-129.1534121584093
 30
0.0
 11
-107.9243781065852
 21
-129.1534121584093
 31
0.0
  0
LINE
  5
1A9
330
1F
100
AcDbEntity
  8
0
  6
CONTINUOUS
 62
     7
100
AcDbLine
 10
-108.2831951609303
 20
-129.1534121584093
 30
0.0
 11
-109.1109574710928
 21
-120.6569256401555
 31
0.0
  0
LINE
  5
1AA
330
1F
100
AcDbEntity
  8
0
  6
CONTINUOUS
 62
     7
100
AcDbLine
 10
-109.1109574710928
 20
-120.6569256401555
 30
0.0
 11
-112.7448950287503
 21
-118.7237492647721
 31
0.0
  0
LWPOLYLINE
  5
1AB
330
1F
100
AcDbEntity
  8
0
  6
CONTINUOUS
 62
     7
100
AcDbPolyline
 90
       18
 70
     0
 43
0.0
 10
-113.2137645576212
 20
-118.1997440043164
 10
-113.1979227827378
 20
-118.238134243686
 10
-113.1804289855885
 20
-118.2758425095448
 10
-113.161342596875
 20
-118.3127711419058
 10
-113.1407230472969
 20
-118.3488224807855
 10
-113.1179015758018
 20
-118.3850143741625
 10
-113.0935155761161
 20
-118.4202193323135
 10
-113.0676452412476
 20
-118.4543497142782
 10
-113.0403707642039
 20
-118.4873178790963
 10
-113.0125973008398
 20
-118.5181688708971
 10
-112.9835684823492
 20
-118.5478893238726
 10
-112.953365647146
 20
-118.5764173052003
 10
-112.9220701336441
 20
-118.6036908820576
 10
-112.8888350512234
 20
-118.6303706535125
 10
-112.8545195274097
 20
-118.6557040179728
 10
-112.8192153626521
 20
-118.6796421337896
 10
-112.7830143573998
 20
-118.7021361593144
 10
-112.7448950287503
 20
-118.7237492647721
  0
LINE
  5
1AC
330
1F
100
AcDbEntity
  8
0
  6
CONTINUOUS
 62
     7
100
AcDbLine
 10
-113.2137645576212
 20
-118.1997440043164
 30
0.0
 11
-116.9650373351232
 21
-108.417902629472
 31
0.0
  0
LINE
  5
1AD
330
1F
100
AcDbEntity
  8
0
  6
CONTINUOUS
 62
     7
100
AcDbLine
 10
-113.7451763749642
 20
-110.9784192501269
 30
0.0
 11
-113.8091544174354
 21
-110.6363991068012
 31
0.0
  0
LINE
  5
1AE
330
1F
100
AcDbEntity
  8
0
  6
CONTINUOUS
 62
     7
100
AcDbLine
 10
-113.7451763749642
 20
-110.9784192501269
 30
0.0
 11
-111.3324697267307
 21
-117.173683574336
 31
0.0
  0
LINE
  5
1AF
330
1F
100
AcDbEntity
  8
0
  6
CONTINUOUS
 62
     7
100
AcDbLine
 10
-111.3324697267307
 20
-117.173683574336
 30
0.0
 11
-107.999682236191
 21
-118.9224453746702
 31
0.0
  0
LINE
  5
1B0
330
1F
100
AcDbEntity
  8
0
  6
CONTINUOUS
 62
     7
100
AcDbLine
 10
-107.999682236191
 20
-118.9224453746702
 30
0.0
 11
-107.9243822009474
 21
-118.9282939995833
 31
0.0
  0
LINE
  5
1B1
330
1F
100
AcDbEntity
  8
0
  6
CONTINUOUS
 62
     7
100
AcDbLine
 10
-109.1109574710928
 20
-120.6569256401555
 30
0.0
 11
-110.5760266868871
 21
-120.6569256401555
 31
0.0
  0
LINE
  5
1B2
330
1F
100
AcDbEntity
  8
0
  6
CONTINUOUS
 62
   253
100
AcDbLine
 10
-112.7448950287508
 20
-118.7237492647721
 30
0.0
 11
-113.9243863890435
 21
-118.7237492647721
 31
0.0
  0
LINE
  5
1B3
330
1F
100
AcDbEntity
  8
0
  6
CONTINUOUS
 62
     7
100
AcDbLine
 10
-110.1826350908427
 20
-125.1534121584093
 30
0.0
 11
-109.8745043763929
 21
-125.1534121584093
 31
0.0
  0
LWPOLYLINE
  5
1B4
330
1F
100
AcDbEntity
  8
0
  6
CONTINUOUS
 62
     7
100
AcDbPolyline
 90
        5
 70
     0
 43
0.0
 10
-108.6469234014321
 20
-130.1534121584093
 10
-108.5370862382009
 20
-130.117731592254
 10
-108.4511034529524
 20
-130.0338852340422
 10
-108.3890624567517
 20
-129.9311129842155
 10
-108.3398418542324
 20
-129.8073195265637
  0
ARC
  5
1B5
330
1F
100
AcDbEntity
  8
0
  6
CONTINUOUS
 62
     7
100
AcDbCircle
 10
-109.9474151073537
 20
-129.3386513772973
 30
0.0
 40
1.674497416626245
100
AcDbArc
 50
343.7466074120911
 51
6.351274476597723
  0
LINE
  5
1B6
330
1F
100
AcDbEntity
  8
0
  6
CONTINUOUS
 62
     7
100
AcDbLine
 10
-108.646923401432
 20
-130.1534121584093
 30
0.0
 11
-109.3109076973172
 21
-130.1534121584093
 31
0.0
  0
LINE
  5
1B7
330
1F
100
AcDbEntity
  8
0
  6
CONTINUOUS
 62
     7
100
AcDbLine
 10
-109.4912880918111
 20
-128.1534121584093
 30
0.0
 11
-109.3109076973173
 21
-130.1534121584093
 31
0.0
  0
LINE
  5
1B8
330
1F
100
AcDbEntity
  8
0
  6
CONTINUOUS
 62
     7
100
AcDbLine
 10
-109.3573589984277
 20
-128.1534121584093
 30
0.0
 11
-109.491288091811
 21
-128.1534121584093
 31
0.0
  0
LINE
  5
1B9
330
1F
100
AcDbEntity
  8
0
  6
CONTINUOUS
 62
     7
100
AcDbLine
 10
-109.5393149863797
 20
-126.1534121584092
 30
0.0
 11
-109.3573589984277
 21
-128.1534121584093
 31
0.0
  0
LWPOLYLINE
  5
1BA
330
1F
100
AcDbEntity
  8
0
  6
CONTINUOUS
 62
     7
100
AcDbPolyline
 90
        3
 70
     0
 43
0.0
 10
109.8745043763929
 20
-125.1534121584093
 10
109.7840947940625
 20
-125.2277264176599
 10
109.7294160354686
 20
-125.3292021230801
210
0.0
220
0.0
230
-1.0
  0
ARC
  5
1BB
330
1F
100
AcDbEntity
  8
0
  6
CONTINUOUS
 62
     7
100
AcDbCircle
 10
-112.2395572969313
 20
-126.3421851577176
 30
0.0
 40
2.70683279516137
100
AcDbArc
 50
3.999021570867455
 51
21.97684421045835
  0
LINE
  5
1BC
330
1F
100
AcDbEntity
  8
0
  6
CONTINUOUS
 62
     7
100
AcDbLine
 10
-107.9243781065852
 20
-130.1534121584093
 30
0.0
 11
-108.646923401432
 21
-130.1534121584093
 31
0.0
  0
LINE
  5
1BD
330
1F
100
AcDbEntity
  8
0
  6
CONTINUOUS
 62
     7
100
AcDbLine
 10
-118.2243689691564
 20
-99.18227967186877
 30
0.0
 11
-118.2243780950029
 21
-99.1717239938488
 31
0.0
  0
LINE
  5
1BE
330
1F
100
AcDbEntity
  8
0
  6
CONTINUOUS
 62
     7
100
AcDbLine
 10
-113.9243781065852
 20
-125.1534121584093
 30
0.0
 11
-111.9243781065852
 21
-125.1534121584093
 31
0.0
  0
LINE
  5
1BF
330
1F
100
AcDbEntity
  8
0
  6
CONTINUOUS
 62
     7
100
AcDbLine
 10
-111.9243781065852
 20
-125.1534121584093
 30
0.0
 11
-111.9243781065852
 21
-126.1534121584093
 31
0.0
  0
LINE
  5
1C0
330
1F
100
AcDbEntity
  8
0
  6
CONTINUOUS
 62
     7
100
AcDbLine
 10
-113.9243781065852
 20
-126.1534121584093
 30
0.0
 11
-113.9243781065852
 21
-125.1534121584093
 31
0.0
  0
ARC
  5
1C1
330
1F
100
AcDbEntity
  8
0
  6
CONTINUOUS
 62
     7
100
AcDbCircle
 10
-111.4243781065852
 20
-127.6534121584093
 30
0.0
 40
0.5000000000000004
100
AcDbArc
 50
180.0
 51
270.0
  0
ARC
  5
1C2
330
1F
100
AcDbEntity
  8
0
  6
CONTINUOUS
 62
     7
100
AcDbCircle
 10
-112.9243781065852
 20
-129.1534121584093
 30
0.0
 40
1.000000000000001
100
AcDbArc
 50
180.0
 51
270.0
  0
LINE
  5
1C3
330
1F
100
AcDbEntity
  8
0
  6
CONTINUOUS
 62
     7
100
AcDbLine
 10
-113.9243781065852
 20
-129.1534121584093
 30
0.0
 11
-113.9243781065852
 21
-126.1534121584093
 31
0.0
  0
LINE
  5
1C4
330
1F
100
AcDbEntity
  8
0
  6
CONTINUOUS
 62
     7
100
AcDbLine
 10
-111.9243781065852
 20
-126.1534121584093
 30
0.0
 11
-111.9243781065852
 21
-127.6534121584093
 31
0.0
  0
LINE
  5
1C5
330
1F
100
AcDbEntity
  8
0
  6
CONTINUOUS
 62
     7
100
AcDbLine
 10
-111.4243781065852
 20
-128.1534121584093
 30
0.0
 11
-109.491288091811
 21
-128.1534121584093
 31
0.0
  0
LINE
  5
1C6
330
1F
100
AcDbEntity
  8
0
  6
CONTINUOUS
 62
     7
100
AcDbLine
 10
-109.3109076973172
 20
-130.1534121584093
 30
0.0
 11
-112.9243781065852
 21
-130.1534121584093
 31
0.0
  0
LINE
  5
1C7
330
1F
100
AcDbEntity
  8
0
  6
CONTINUOUS
 62
     7
100
AcDbLine
 10
-76.9243781065852
 20
-165.5985019397851
 30
0.0
 11
-76.9243781065852
 21
-146.1534121584093
 31
0.0
  0
LINE
  5
1C8
330
1F
100
AcDbEntity
  8
0
  6
CONTINUOUS
 62
     7
100
AcDbLine
 10
-76.9243781065852
 20
-146.1534121584093
 30
0.0
 11
-76.9243781065852
 21
-146.1022519298903
 31
0.0
  0
LINE
  5
1C9
330
1F
100
AcDbEntity
  8
0
  6
CONTINUOUS
 62
     7
100
AcDbLine
 10
-76.9243781065852
 20
-187.1534121584093
 30
0.0
 11
-76.9243781065852
 21
-169.0170485220457
 31
0.0
  0
ARC
  5
1CA
330
1F
100
AcDbEntity
  8
0
  6
CONTINUOUS
 62
     7
100
AcDbCircle
 10
-104.6890484640024
 20
-196.4831012441069
 30
0.0
 40
27.18025947012558
100
AcDbArc
 50
268.4497415785608
 51
329.5708506757287
  0
ARC
  5
1CB
330
1F
100
AcDbEntity
  8
0
  6
CONTINUOUS
 62
     7
100
AcDbCircle
 10
-105.428732617144
 20
-195.1467983332968
 30
0.0
 40
28.50546552896528
100
AcDbArc
 50
328.0076749947717
 51
0.5058661258663619
  0
LINE
  5
1CC
330
1F
100
AcDbEntity
  8
0
  6
CONTINUOUS
 62
     7
100
AcDbLine
 10
-76.92437810658518
 20
-194.8951260078128
 30
0.0
 11
-76.9243781065852
 21
-187.1534121584093
 31
0.0
  0
LINE
  5
1CD
330
1F
100
AcDbEntity
  8
0
  6
CONTINUOUS
 62
     7
100
AcDbLine
 10
-76.9243781065852
 20
-146.1534121584093
 30
0.0
 11
-78.42437810656531
 21
-136.1534121585419
 31
0.0
  0
LINE
  5
1CE
330
1F
100
AcDbEntity
  8
0
  6
CONTINUOUS
 62
     7
100
AcDbLine
 10
-78.2914221647547
 20
-123.1534121584093
 30
0.0
 11
-78.2914221647547
 21
-113.1534121584093
 31
0.0
  0
LINE
  5
1CF
330
1F
100
AcDbEntity
  8
0
  6
CONTINUOUS
 62
     7
100
AcDbLine
 10
-117.9243781065852
 20
-106.6534026303468
 30
0.0
 11
-117.9243781065852
 21
-108.417902629472
 31
0.0
  0
LINE
  5
1D0
330
1F
100
AcDbEntity
  8
0
  6
CONTINUOUS
 62
     7
100
AcDbLine
 10
-117.9243781065852
 20
-95.1534121584093
 30
0.0
 11
-117.9243781065852
 21
-96.6534121584093
 31
0.0
  0
LINE
  5
1D1
330
1F
100
AcDbEntity
  8
0
  6
CONTINUOUS
 62
     7
100
AcDbLine
 10
-117.9243781065852
 20
-108.417902629472
 30
0.0
 11
-114.3640790098294
 21
-118.1997440043131
 31
0.0
  0
ARC
  5
1D2
330
1F
100
AcDbEntity
  8
0
  6
CONTINUOUS
 62
     7
100
AcDbCircle
 10
-113.4243863890435
 20
-117.8577238609874
 30
0.0
 40
0.9999999999999931
100
AcDbArc
 50
200.0
 51
240.0000000000002
  0
LINE
  5
1D3
330
1F
100
AcDbEntity
  8
0
  6
CONTINUOUS
 62
     7
100
AcDbLine
 10
-110.5760266868871
 20
-120.6569256401555
 30
0.0
 11
-110.1826350908427
 21
-125.1534121584093
 31
0.0
  0
LINE
  5
1D4
330
1F
100
AcDbEntity
  8
6
  6
CONTINUOUS
 62
     7
100
AcDbLine
 10
-76.9243781065852
 20
-165.5985019397851
 30
0.0
 11
-76.9243781065852
 21
-169.0170485220457
 31
0.0
  0
LINE
  5
1D5
330
1F
100
AcDbEntity
  8
6
  6
CONTINUOUS
 62
     7
100
AcDbLine
 10
-117.9243781065852
 20
-106.6534026303468
 30
0.0
 11
-117.9243781065852
 21
-96.6534121584093
 31
0.0
  0
ENDSEC
  0
SECTION
  2
OBJECTS
  0
DICTIONARY
  5
C
330
0
100
AcDbDictionary
  3
ACAD_GROUP
350
D
  3
ACAD_LAYOUT
350
1A
  3
ACAD_MATERIAL
350
43
  3
ACAD_MLEADERSTYLE
350
6B
  3
ACAD_MLINESTYLE
350
17
  3
ACAD_PLOTSETTINGS
350
19
  3
ACAD_SCALELIST
350
47
  3
ACAD_VISUALSTYLE
350
2A
  3
ACDBHEADERROUNDTRIPXREC
350
1D6
  3
ACDBVARIABLEDICTIONARY
350
1F7
  0
DICTIONARY
  5
1FE
330
8
100
AcDbDictionary
280
     1
  3
ACAD_XREC_ROUNDTRIP
360
1FF
  0
DICTIONARY
  5
D
102
{ACAD_REACTORS
330
C
102
}
330
C
100
AcDbDictionary
  0
DICTIONARY
  5
1A
102
{ACAD_REACTORS
330
C
102
}
330
C
100
AcDbDictionary
  0
DICTIONARY
  5
43
102
{ACAD_REACTORS
330
C
102
}
330
C
100
AcDbDictionary
  3
BYBLOCK
350
45
  3
BYLAYER
350
44
  3
GLOBAL
350
46
  0
DICTIONARY
  5
6B
102
{ACAD_REACTORS
330
C
102
}
330
C
100
AcDbDictionary
  3
STANDARD
350
6C
  0
DICTIONARY
  5
17
102
{ACAD_REACTORS
330
C
102
}
330
C
100
AcDbDictionary
  3
STANDARD
350
18
  0
DICTIONARY
  5
19
102
{ACAD_REACTORS
330
C
102
}
330
C
100
AcDbDictionary
  0
DICTIONARY
  5
47
102
{ACAD_REACTORS
330
C
102
}
330
C
100
AcDbDictionary
  3
A0
350
48
  3
A1
350
49
  3
A2
350
4A
  3
A3
350
4B
  3
A4
350
4C
  3
A5
350
4D
  3
A6
350
4E
  3
A7
350
4F
  3
A8
350
50
  3
A9
350
51
  3
B0
350
52
  3
B1
350
53
  3
B2
350
54
  3
B3
350
55
  3
B4
350
56
  3
B5
350
57
  3
B6
350
58
  3
B7
350
59
  3
B8
350
5A
  3
B9
350
5B
  3
C0
350
5C
  3
C1
350
5D
  3
C2
350
5E
  3
C3
350
5F
  3
C4
350
60
  3
C5
350
61
  3
C6
350
62
  3
C7
350
63
  3
C8
350
64
  3
C9
350
65
  3
D0
350
66
  3
D1
350
67
  3
D2
350
68
  0
DICTIONARY
  5
2A
102
{ACAD_REACTORS
330
C
102
}
330
C
100
AcDbDictionary
  3
2DWIREFRAME
350
2F
  3
BASIC
350
32
  3
BRIGHTEN
350
36
  3
COLORCHANGE
350
3A
  3
CONCEPTUAL
350
34
  3
DIM
350
35
  3
EDGECOLOROFF
350
3D
  3
FACEPATTERN
350
39
  3
FLAT
350
2B
  3
FLATWITHEDGES
350
2C
  3
GOURAUD
350
2D
  3
GOURAUDWITHEDGES
350
2E
  3
HIDDEN
350
31
  3
JITTEROFF
350
3B
  3
LINEPATTERN
350
38
  3
OVERHANGOFF
350
3C
  3
REALISTIC
350
33
  3
SHADED
350
42
  3
SHADED_WITH_EDGES
350
41
  3
SHADES_OF_GRAY
350
3E
  3
SKETCHY
350
3F
  3
THICKEN
350
37
  3
WIREFRAME
350
30
  3
X-RAY
350
40
  0
DICTIONARY
  5
1D6
102
{ACAD_REACTORS
330
C
102
}
330
C
100
AcDbDictionary
  3
CEPSNID
350
1E0
  3
CEPSNTYPE
350
1DF
  3
DIMSTYLEDATA
350
1F6
  3
FINGERPRINTGUID
350
1E1
  3
HYPERLINKBASE
350
1D9
  3
INSUNITS
350
1DE
  3
LAYOUTDICT
350
1DB
  3
LWETCUNION
350
1DD
  3
PLOTSETDICT
350
1DC
  3
PSVPSCALE
350
1E3
  3
PUCSBASE
350
1E6
  3
PUCSORGBACK
350
1EC
  3
PUCSORGBOTTOM
350
1E8
  3
PUCSORGFRONT
350
1EB
  3
PUCSORGLEFT
350
1E9
  3
PUCSORGRIGHT
350
1EA
  3
PUCSORGTOP
350
1E7
  3
PUCSORTHOREF
350
1E4
  3
PUCSORTHOVIEW
350
1E5
  3
STYLESHEET
350
1DA
  3
TSTACKALIGN
350
1D7
  3
TSTACKSIZE
350
1D8
  3
UCSBASE
350
1EF
  3
UCSORGBACK
350
1F5
  3
UCSORGBOTTOM
350
1F1
  3
UCSORGFRONT
350
1F4
  3
UCSORGLEFT
350
1F2
  3
UCSORGRIGHT
350
1F3
  3
UCSORGTOP
350
1F0
  3
UCSORTHOREF
350
1ED
  3
UCSORTHOVIEW
350
1EE
  3
VERSIONGUID
350
1E2
  0
DICTIONARY
  5
1F7
102
{ACAD_REACTORS
330
C
102
}
330
C
100
AcDbDictionary
  3
CANNOSCALE
350
200
  3
CMLEADERSTYLE
350
1F9
  3
CTABLESTYLE
350
1F8
  3
DIMASSOC
350
1FC
  3
HIDETEXT
350
1FD
  3
MSLTSCALE
350
201
  0
XRECORD
  5
1FF
102
{ACAD_REACTORS
330
1FE
102
}
330
1FE
100
AcDbXrecord
102
VTR_0.000_0.000_1.000_1.000_VISUALSTYLE
340
2F
102
VTR_0.000_0.000_1.000_1.000_GRIDDISPLAY
 70
     3
102
VTR_0.000_0.000_1.000_1.000_GRIDMAJOR
 70
     5
102
VTR_0.000_0.000_1.000_1.000_DEFAULTLIGHTING
280
     1
102
VTR_0.000_0.000_1.000_1.000_DEFAULTLIGHTINGTYPE
 70
     1
102
VTR_0.000_0.000_1.000_1.000_BRIGHTNESS
141
0.0
102
VTR_0.000_0.000_1.000_1.000_CONTRAST
142
0.0
  0
MATERIAL
  5
45
102
{ACAD_REACTORS
330
43
102
}
102
{ACAD_XDICTIONARY
360
204
102
}
330
43
100
AcDbMaterial
  1
BYBLOCK
  0
MATERIAL
  5
44
102
{ACAD_REACTORS
330
43
102
}
102
{ACAD_XDICTIONARY
360
202
102
}
330
43
100
AcDbMaterial
  1
BYLAYER
  0
MATERIAL
  5
46
102
{ACAD_REACTORS
330
43
102
}
102
{ACAD_XDICTIONARY
360
206
102
}
330
43
100
AcDbMaterial
  1
GLOBAL
  0
ACAD_PROXY_OBJECT
  5
6C
102
{ACAD_REACTORS
330
6B
102
}
330
6B
100
AcDbProxyObject
 90
      499
 91
      505
 93
      610
310
40901902A4063FBFFFFFE056BD1B81E855B9FC0AD7A3703D0AD73F4214DD185B99185C9900AD7A3703D0AC73F90141901A02B5E8DC0F42B1CFC02B5E8DC0F42B1CFE5764000000000000300FC0
340
14
340
0
340
11
340
0
 94
        0
1001
ACAD_MLEADERVER
1070
     2
  0
MLINESTYLE
  5
18
102
{ACAD_REACTORS
330
17
102
}
330
17
100
AcDbMlineStyle
  2
Standard
 70
     0
  3

 62
   256
 51
90.0
 52
90.0
 71
     2
 49
0.5
 62
   256
  6
BYLAYER
 49
-0.5
 62
   256
  6
BYLAYER
  0
ACAD_PROXY_OBJECT
  5
48
102
{ACAD_REACTORS
330
47
102
}
330
47
100
AcDbProxyObject
 90
      499
 91
      503
 93
       41
310
903313A31580
  0
ACAD_PROXY_OBJECT
  5
49
102
{ACAD_REACTORS
330
47
102
}
330
47
100
AcDbProxyObject
 90
      499
 91
      503
 93
      105
310
903313A324000000000000004000
  0
ACAD_PROXY_OBJECT
  5
4A
102
{ACAD_REACTORS
330
47
102
}
330
47
100
AcDbProxyObject
 90
      499
 91
      503
 93
      105
310
903313A344000000000000104000
  0
ACAD_PROXY_OBJECT
  5
4B
102
{ACAD_REACTORS
330
47
102
}
330
47
100
AcDbProxyObject
 90
      499
 91
      503
 93
      105
310
903313A354000000000000144000
  0
ACAD_PROXY_OBJECT
  5
4C
102
{ACAD_REACTORS
330
47
102
}
330
47
100
AcDbProxyObject
 90
      499
 91
      503
 93
      105
310
903313A384000000000000204000
  0
ACAD_PROXY_OBJECT
  5
4D
102
{ACAD_REACTORS
330
47
102
}
330
47
100
AcDbProxyObject
 90
      499
 91
      503
 93
      113
310
904313A31304000000000000244000
  0
ACAD_PROXY_OBJECT
  5
4E
102
{ACAD_REACTORS
330
47
102
}
330
47
100
AcDbProxyObject
 90
      499
 91
      503
 93
      113
310
904313A31364000000000000304000
  0
ACAD_PROXY_OBJECT
  5
4F
102
{ACAD_REACTORS
330
47
102
}
330
47
100
AcDbProxyObject
 90
      499
 91
      503
 93
      113
310
904313A32304000000000000344000
  0
ACAD_PROXY_OBJECT
  5
50
102
{ACAD_REACTORS
330
47
102
}
330
47
100
AcDbProxyObject
 90
      499
 91
      503
 93
      113
310
904313A333040000000000003E4000
  0
ACAD_PROXY_OBJECT
  5
51
102
{ACAD_REACTORS
330
47
102
}
330
47
100
AcDbProxyObject
 90
      499
 91
      503
 93
      113
310
904313A34304000000000000444000
  0
ACAD_PROXY_OBJECT
  5
52
102
{ACAD_REACTORS
330
47
102
}
330
47
100
AcDbProxyObject
 90
      499
 91
      503
 93
      113
310
904313A35304000000000000494000
  0
ACAD_PROXY_OBJECT
  5
53
102
{ACAD_REACTORS
330
47
102
}
330
47
100
AcDbProxyObject
 90
      499
 91
      503
 93
      121
310
905313A3130304000000000000594000
  0
ACAD_PROXY_OBJECT
  5
54
102
{ACAD_REACTORS
330
47
102
}
330
47
100
AcDbProxyObject
 90
      499
 91
      503
 93
      105
310
903323A310000000000000010100
  0
ACAD_PROXY_OBJECT
  5
55
102
{ACAD_REACTORS
330
47
102
}
330
47
100
AcDbProxyObject
 90
      499
 91
      503
 93
      105
310
903343A310000000000000410100
  0
ACAD_PROXY_OBJECT
  5
56
102
{ACAD_REACTORS
330
47
102
}
330
47
100
AcDbProxyObject
 90
      499
 91
      503
 93
      105
310
903383A310000000000000810100
  0
ACAD_PROXY_OBJECT
  5
57
102
{ACAD_REACTORS
330
47
102
}
330
47
100
AcDbProxyObject
 90
      499
 91
      503
 93
      113
310
90431303A310000000000000910100
  0
ACAD_PROXY_OBJECT
  5
58
102
{ACAD_REACTORS
330
47
102
}
330
47
100
AcDbProxyObject
 90
      499
 91
      503
 93
      121
310
9053130303A310000000000001650100
  0
ACAD_PROXY_OBJECT
  5
59
102
{ACAD_REACTORS
330
47
102
}
330
47
100
AcDbProxyObject
 90
      499
 91
      503
 93
      257
310
90E312F31323822203D2031272D3022000000000000200FC000000000000284000
  0
ACAD_PROXY_OBJECT
  5
5A
102
{ACAD_REACTORS
330
47
102
}
330
47
100
AcDbProxyObject
 90
      499
 91
      503
 93
      249
310
90D312F363422203D2031272D3022000000000000240FC000000000000284000
  0
ACAD_PROXY_OBJECT
  5
5B
102
{ACAD_REACTORS
330
47
102
}
330
47
100
AcDbProxyObject
 90
      499
 91
      503
 93
      249
310
90D312F333222203D2031272D3022000000000000280FC000000000000284000
  0
ACAD_PROXY_OBJECT
  5
5C
102
{ACAD_REACTORS
330
47
102
}
330
47
100
AcDbProxyObject
 90
      499
 91
      503
 93
      249
310
90D312F313622203D2031272D30220000000000002C0FC000000000000284000
  0
ACAD_PROXY_OBJECT
  5
5D
102
{ACAD_REACTORS
330
47
102
}
330
47
100
AcDbProxyObject
 90
      499
 91
      503
 93
      249
310
90D332F333222203D2031272D30220000000000002E0FC000000000000284000
  0
ACAD_PROXY_OBJECT
  5
5E
102
{ACAD_REACTORS
330
47
102
}
330
47
100
AcDbProxyObject
 90
      499
 91
      503
 93
      241
310
90C312F3822203D2031272D3022000000000000300FC000000000000284000
  0
ACAD_PROXY_OBJECT
  5
5F
102
{ACAD_REACTORS
330
47
102
}
330
47
100
AcDbProxyObject
 90
      499
 91
      503
 93
      249
310
90D332F313622203D2031272D3022000000000000320FC000000000000284000
  0
ACAD_PROXY_OBJECT
  5
60
102
{ACAD_REACTORS
330
47
102
}
330
47
100
AcDbProxyObject
 90
      499
 91
      503
 93
      241
310
90C312F3422203D2031272D3022000000000000340FC000000000000284000
  0
ACAD_PROXY_OBJECT
  5
61
102
{ACAD_REACTORS
330
47
102
}
330
47
100
AcDbProxyObject
 90
      499
 91
      503
 93
      241
310
90C332F3822203D2031272D3022000000000000360FC000000000000284000
  0
ACAD_PROXY_OBJECT
  5
62
102
{ACAD_REACTORS
330
47
102
}
330
47
100
AcDbProxyObject
 90
      499
 91
      503
 93
      241
310
90C312F3222203D2031272D3022000000000000380FC000000000000284000
  0
ACAD_PROXY_OBJECT
  5
63
102
{ACAD_REACTORS
330
47
102
}
330
47
100
AcDbProxyObject
 90
      499
 91
      503
 93
      241
310
90C332F3422203D2031272D30220000000000003A0FC000000000000284000
  0
ACAD_PROXY_OBJECT
  5
64
102
{ACAD_REACTORS
330
47
102
}
330
47
100
AcDbProxyObject
 90
      499
 91
      503
 93
      161
310
90A3122203D2031272D30224000000000000284000
  0
ACAD_PROXY_OBJECT
  5
65
102
{ACAD_REACTORS
330
47
102
}
330
47
100
AcDbProxyObject
 90
      499
 91
      503
 93
      257
310
90E312D312F3222203D2031272D30220000000000003E0FC000000000000284000
  0
ACAD_PROXY_OBJECT
  5
66
102
{ACAD_REACTORS
330
47
102
}
330
47
100
AcDbProxyObject
 90
      499
 91
      503
 93
      225
310
90A3322203D2031272D302200000000000002100000000000000284000
  0
ACAD_PROXY_OBJECT
  5
67
102
{ACAD_REACTORS
330
47
102
}
330
47
100
AcDbProxyObject
 90
      499
 91
      503
 93
      225
310
90A3622203D2031272D302200000000000006100000000000000284000
  0
ACAD_PROXY_OBJECT
  5
68
102
{ACAD_REACTORS
330
47
102
}
330
47
100
AcDbProxyObject
 90
      499
 91
      503
 93
      249
310
90D31272D3022203D2031272D30220000000000000A100000000000000284000
  0
ACAD_PROXY_OBJECT
  5
2F
102
{ACAD_REACTORS
330
2A
102
}
330
2A
100
AcDbProxyObject
 90
      499
 91
      501
 93
      436
310
42CC9915DA5C99599C985B595049028333333333333E33F0000000000000F90107901411070040501600405405064090741402480A0340
1001
ACAD
1000
AcDbSavedByObjectVersion
1070
     0
  0
ACAD_PROXY_OBJECT
  5
32
102
{ACAD_REACTORS
330
2A
102
}
330
2A
100
AcDbProxyObject
 90
      499
 91
      501
 93
      388
310
4150985CDA58D07406404333333333333E33F0000000000000F90107A41107004050150841D405064090741402480A0350
1001
ACAD
1000
AcDbSavedByObjectVersion
1070
     0
  0
ACAD_PROXY_OBJECT
  5
36
102
{ACAD_REACTORS
330
2A
102
}
330
2A
100
AcDbProxyObject
 90
      499
 91
      501
 93
      428
310
42109C9A59DA1D195B90C409028333333333333E33F0000000000000F9010790141107004050150841D405064090741402480A029950
1001
ACAD
1000
AcDbSavedByObjectVersion
1070
     0
  0
ACAD_PROXY_OBJECT
  5
3A
102
{ACAD_REACTORS
330
2A
102
}
330
2A
100
AcDbProxyObject
 90
      499
 91
      501
 93
      452
310
42D0DBDB1BDC90DA185B99D95104090240C333333333333E33F0000000000000F90108901411070040501508421405064090741402480A0350
1001
ACAD
1000
AcDbSavedByObjectVersion
1070
     0
  0
ACAD_PROXY_OBJECT
  5
34
102
{ACAD_REACTORS
330
2A
102
}
330
2A
100
AcDbProxyObject
 90
      499
 91
      501
 93
      500
310
4290DBDB98D95C1D1D585B10940D028333333333333E33F0000000000000F90107902409070040501000000000018199010841D405064090740C02480A0340
1001
ACAD
1000
AcDbSavedByObjectVersion
1070
     0
  0
ACAD_PROXY_OBJECT
  5
35
102
{ACAD_REACTORS
330
2A
102
}
330
2A
100
AcDbProxyObject
 90
      499
 91
      501
 93
      412
310
40D11A5B50B409028333333333333E33F0000000000000F9010790141107004050150841D405064090741402480A02677FFFFFD0
1001
ACAD
1000
AcDbSavedByObjectVersion
1070
     0
  0
ACAD_PROXY_OBJECT
  5
3D
102
{ACAD_REACTORS
330
2A
102
}
330
2A
100
AcDbProxyObject
 90
      499
 91
      501
 93
      452
310
43115919D950DBDB1BDC93D999916409028333333333333E33F0000000000000F9010790141107004050150841D405064090741402480A0350
1001
ACAD
1000
AcDbSavedByObjectVersion
1070
     0
  0
ACAD_PROXY_OBJECT
  5
39
102
{ACAD_REACTORS
330
2A
102
}
330
2A
100
AcDbProxyObject
 90
      499
 91
      501
 93
      444
310
42D19858D95C185D1D195C9B90F409028333333333333E33F0000000000000F9010790141107004050150841D405064090741402480A0350
1001
ACAD
1000
AcDbSavedByObjectVersion
1070
     0
  0
ACAD_PROXY_OBJECT
  5
2B
102
{ACAD_REACTORS
330
2A
102
}
330
2A
100
AcDbProxyObject
 90
      499
 91
      501
 93
      380
310
41119B185D240901404333333333333E33F0000000000000F9010740A907004050150841D405064090741402480A1B50
1001
ACAD
1000
AcDbSavedByObjectVersion
1070
     0
  0
ACAD_PROXY_OBJECT
  5
2C
102
{ACAD_REACTORS
330
2A
102
}
330
2A
100
AcDbProxyObject
 90
      499
 91
      501
 93
      468
310
43519B185D15DA5D1A115919D95CD0140901404333333333333E33F0000000000000F90107409019070040501600405405064090741402480A1B50
1001
ACAD
1000
AcDbSavedByObjectVersion
1070
     0
  0
ACAD_PROXY_OBJECT
  5
2D
102
{ACAD_REACTORS
330
2A
102
}
330
2A
100
AcDbProxyObject
 90
      499
 91
      501
 93
      404
310
41D1DBDD5C985D5910240902404333333333333E33F0000000000000F9010740A9070040501641D405064090741402480A1B50
1001
ACAD
1000
AcDbSavedByObjectVersion
1070
     0
  0
ACAD_PROXY_OBJECT
  5
2E
102
{ACAD_REACTORS
330
2A
102
}
330
2A
100
AcDbProxyObject
 90
      499
 91
      501
 93
      492
310
4411DBDD5C985D5915DA5D1A115919D95CD0340902404333333333333E33F0000000000000F90107409019070040501600405405064090741402480A1B50
1001
ACAD
1000
AcDbSavedByObjectVersion
1070
     0
  0
ACAD_PROXY_OBJECT
  5
31
102
{ACAD_REACTORS
330
2A
102
}
330
2A
100
AcDbProxyObject
 90
      499
 91
      501
 93
      476
310
41921A5919195B90640502408333333333333E33F0000000000000F901079024090700405020000000000001110200405405064090740C02480A0340
1001
ACAD
1000
AcDbSavedByObjectVersion
1070
     0
  0
ACAD_PROXY_OBJECT
  5
3B
102
{ACAD_REACTORS
330
2A
102
}
330
2A
100
AcDbProxyObject
 90
      499
 91
      501
 93
      428
310
42529A5D1D195C93D999914409028333333333333E33F0000000000000F9010790141107004050150A41D405064090741402480A0350
1001
ACAD
1000
AcDbSavedByObjectVersion
1070
     0
  0
ACAD_PROXY_OBJECT
  5
38
102
{ACAD_REACTORS
330
2A
102
}
330
2A
100
AcDbProxyObject
 90
      499
 91
      501
 93
      444
310
42D31A5B995C185D1D195C9B90E409028333333333333E33F0000000000000F9010790141107004050750841D405064090741402483A0350
1001
ACAD
1000
AcDbSavedByObjectVersion
1070
     0
  0
ACAD_PROXY_OBJECT
  5
3C
102
{ACAD_REACTORS
330
2A
102
}
330
2A
100
AcDbProxyObject
 90
      499
 91
      501
 93
      444
310
42D3DD995C9A185B99D3D999915409028333333333333E33F0000000000000F9010790141107004050150941D405064090741402480A0350
1001
ACAD
1000
AcDbSavedByObjectVersion
1070
     0
  0
ACAD_PROXY_OBJECT
  5
33
102
{ACAD_REACTORS
330
2A
102
}
330
2A
100
AcDbProxyObject
 90
      499
 91
      501
 93
      428
310
425499585B1A5CDD1A58D08409038333333333333E33F0000000000000F9010740A907004050150800405405064090740C02480A1B40
1001
ACAD
1000
AcDbSavedByObjectVersion
1070
     0
  0
ACAD_PROXY_OBJECT
  5
42
102
{ACAD_REACTORS
330
2A
102
}
330
2A
100
AcDbProxyObject
 90
      499
 91
      501
 93
      420
310
4194DA1859195911B40902404333333333333E33F0000000000000F9010740A41107004050150800405405064090840C02480A0B40
1001
ACAD
1000
AcDbSavedByObjectVersion
1070
     0
  0
ACAD_PROXY_OBJECT
  5
41
102
{ACAD_REACTORS
330
2A
102
}
330
2A
100
AcDbProxyObject
 90
      499
 91
      501
 93
      516
310
4454DA18591959081DDA5D1A08195919D95CD1A40902404333333333333E33F0000000000000F901074090142907004050250800405405064090740C02480A0B40
1001
ACAD
1000
AcDbSavedByObjectVersion
1070
     0
  0
ACAD_PROXY_OBJECT
  5
3E
102
{ACAD_REACTORS
330
2A
102
}
330
2A
100
AcDbProxyObject
 90
      499
 91
      501
 93
      532
310
4394DA1859195CC81BD98811DC985E5174090240C333333333333E33F0000000000000F901079024090741D01000000000000111010841D405064090740C02480A0340
1001
ACAD
1000
AcDbSavedByObjectVersion
1070
     0
  0
ACAD_PROXY_OBJECT
  5
3F
102
{ACAD_REACTORS
330
2A
102
}
330
2A
100
AcDbProxyObject
 90
      499
 91
      501
 93
      476
310
41D4DAD95D18DA1E51840502408333333333333E33F0000000000000F901079024090741D01000000000000111010B41D405064090741802480A0340
1001
ACAD
1000
AcDbSavedByObjectVersion
1070
     0
  0
ACAD_PROXY_OBJECT
  5
37
102
{ACAD_REACTORS
330
2A
102
}
330
2A
100
AcDbProxyObject
 90
      499
 91
      501
 93
      412
310
41D51A1A58DAD95B90D409028333333333333E33F0000000000000F9010790141107004050150C41D405064090741402480A0350
1001
ACAD
1000
AcDbSavedByObjectVersion
1070
     0
  0
ACAD_PROXY_OBJECT
  5
30
102
{ACAD_REACTORS
330
2A
102
}
330
2A
100
AcDbProxyObject
 90
      499
 91
      501
 93
      420
310
4255DA5C99599C985B595059028333333333333E33F0000000000000F90107901411070040501600405405064090740C02480A0340
1001
ACAD
1000
AcDbSavedByObjectVersion
1070
     0
  0
ACAD_PROXY_OBJECT
  5
40
102
{ACAD_REACTORS
330
2A
102
}
330
2A
100
AcDbProxyObject
 90
      499
 91
      501
 93
      404
310
41560B54985E51940902404000000000000E03F0000000000000F9010740501907004050150841D405064090740C02480A1B40
1001
ACAD
1000
AcDbSavedByObjectVersion
1070
     0
  0
XRECORD
  5
1E0
102
{ACAD_REACTORS
330
1D6
102
}
330
1D6
100
AcDbXrecord
340
0
  0
XRECORD
  5
1DF
102
{ACAD_REACTORS
330
1D6
102
}
330
1D6
100
AcDbXrecord
 90
        0
  0
XRECORD
  5
1F6
102
{ACAD_REACTORS
330
1D6
102
}
330
1D6
100
AcDbXrecord
1000
DSTYLE
1002
{
1070
   179
 70
     2
1070
   171
 70
     2
1070
   143
 40
25.4
1070
   274
 70
     2
1070
    41
 40
3.0
1070
   141
 40
0.09
1070
    43
 40
0.38
1070
   278
 70
    46
1070
    44
 40
1.5
1070
    42
 40
0.0625
1070
   147
 40
1.5
1070
   272
 70
     4
1070
    73
 70
     1
1070
   172
 70
     0
1070
    74
 70
     1
1070
   283
 70
     1
1070
   340
340
6F
1070
   140
 40
3.0
1070
   284
 70
     0
1070
    78
 70
     0
1002
}
  0
XRECORD
  5
1E1
102
{ACAD_REACTORS
330
1D6
102
}
330
1D6
100
AcDbXrecord
  1
{83535A94-72AE-4CD2-8206-235161114547}
  0
XRECORD
  5
1D9
102
{ACAD_REACTORS
330
1D6
102
}
330
1D6
100
AcDbXrecord
  1

  0
XRECORD
  5
1DE
102
{ACAD_REACTORS
330
1D6
102
}
330
1D6
100
AcDbXrecord
 90
        4
  0
XRECORD
  5
1DB
102
{ACAD_REACTORS
330
1D6
102
}
330
1D6
100
AcDbXrecord
340
1A
  0
XRECORD
  5
1DD
102
{ACAD_REACTORS
330
1D6
102
}
330
1D6
100
AcDbXrecord
 90
    10269
  0
XRECORD
  5
1DC
102
{ACAD_REACTORS
330
1D6
102
}
330
1D6
100
AcDbXrecord
340
19
  0
XRECORD
  5
1E3
102
{ACAD_REACTORS
330
1D6
102
}
330
1D6
100
AcDbXrecord
 40
0.0
  0
XRECORD
  5
1E6
102
{ACAD_REACTORS
330
1D6
102
}
330
1D6
100
AcDbXrecord
340
0
  0
XRECORD
  5
1EC
102
{ACAD_REACTORS
330
1D6
102
}
330
1D6
100
AcDbXrecord
 10
0.0
 20
0.0
 30
0.0
  0
XRECORD
  5
1E8
102
{ACAD_REACTORS
330
1D6
102
}
330
1D6
100
AcDbXrecord
 10
0.0
 20
0.0
 30
0.0
  0
XRECORD
  5
1EB
102
{ACAD_REACTORS
330
1D6
102
}
330
1D6
100
AcDbXrecord
 10
0.0
 20
0.0
 30
0.0
  0
XRECORD
  5
1E9
102
{ACAD_REACTORS
330
1D6
102
}
330
1D6
100
AcDbXrecord
 10
0.0
 20
0.0
 30
0.0
  0
XRECORD
  5
1EA
102
{ACAD_REACTORS
330
1D6
102
}
330
1D6
100
AcDbXrecord
 10
0.0
 20
0.0
 30
0.0
  0
XRECORD
  5
1E7
102
{ACAD_REACTORS
330
1D6
102
}
330
1D6
100
AcDbXrecord
 10
0.0
 20
0.0
 30
0.0
  0
XRECORD
  5
1E4
102
{ACAD_REACTORS
330
1D6
102
}
330
1D6
100
AcDbXrecord
340
0
  0
XRECORD
  5
1E5
102
{ACAD_REACTORS
330
1D6
102
}
330
1D6
100
AcDbXrecord
 70
     0
  0
XRECORD
  5
1DA
102
{ACAD_REACTORS
330
1D6
102
}
330
1D6
100
AcDbXrecord
  1

  0
XRECORD
  5
1D7
102
{ACAD_REACTORS
330
1D6
102
}
330
1D6
100
AcDbXrecord
 90
        1
  0
XRECORD
  5
1D8
102
{ACAD_REACTORS
330
1D6
102
}
330
1D6
100
AcDbXrecord
 90
       70
  0
XRECORD
  5
1EF
102
{ACAD_REACTORS
330
1D6
102
}
330
1D6
100
AcDbXrecord
340
0
  0
XRECORD
  5
1F5
102
{ACAD_REACTORS
330
1D6
102
}
330
1D6
100
AcDbXrecord
 10
0.0
 20
0.0
 30
0.0
  0
XRECORD
  5
1F1
102
{ACAD_REACTORS
330
1D6
102
}
330
1D6
100
AcDbXrecord
 10
0.0
 20
0.0
 30
0.0
  0
XRECORD
  5
1F4
102
{ACAD_REACTORS
330
1D6
102
}
330
1D6
100
AcDbXrecord
 10
0.0
 20
0.0
 30
0.0
  0
XRECORD
  5
1F2
102
{ACAD_REACTORS
330
1D6
102
}
330
1D6
100
AcDbXrecord
 10
0.0
 20
0.0
 30
0.0
  0
XRECORD
  5
1F3
102
{ACAD_REACTORS
330
1D6
102
}
330
1D6
100
AcDbXrecord
 10
0.0
 20
0.0
 30
0.0
  0
XRECORD
  5
1F0
102
{ACAD_REACTORS
330
1D6
102
}
330
1D6
100
AcDbXrecord
 10
0.0
 20
0.0
 30
0.0
  0
XRECORD
  5
1ED
102
{ACAD_REACTORS
330
1D6
102
}
330
1D6
100
AcDbXrecord
340
0
  0
XRECORD
  5
1EE
102
{ACAD_REACTORS
330
1D6
102
}
330
1D6
100
AcDbXrecord
 70
     0
  0
XRECORD
  5
1E2
102
{ACAD_REACTORS
330
1D6
102
}
330
1D6
100
AcDbXrecord
  1
{FAEB1C32-E019-11D5-929B-00C0DF256EC4}
  0
DICTIONARYVAR
  5
200
102
{ACAD_REACTORS
330
1F7
102
}
330
1F7
100
DictionaryVariables
280
     0
  1
1:1
  0
DICTIONARYVAR
  5
1F9
102
{ACAD_REACTORS
330
1F7
102
}
330
1F7
100
DictionaryVariables
280
     0
  1
Standard
  0
DICTIONARYVAR
  5
1F8
102
{ACAD_REACTORS
330
1F7
102
}
330
1F7
100
DictionaryVariables
280
     0
  1
Standard
  0
DICTIONARYVAR
  5
1FC
102
{ACAD_REACTORS
330
1F7
102
}
330
1F7
100
DictionaryVariables
280
     0
  1
2
  0
DICTIONARYVAR
  5
1FD
102
{ACAD_REACTORS
330
1F7
102
}
330
1F7
100
DictionaryVariables
280
     0
  1
1
  0
DICTIONARYVAR
  5
201
102
{ACAD_REACTORS
330
1F7
102
}
330
1F7
100
DictionaryVariables
280
     0
  1
1
  0
DICTIONARY
  5
204
330
45
100
AcDbDictionary
280
     1
  3
ACAD_XREC_ROUNDTRIP
360
205
  0
DICTIONARY
  5
202
330
44
100
AcDbDictionary
280
     1
  3
ACAD_XREC_ROUNDTRIP
360
203
  0
DICTIONARY
  5
206
330
46
100
AcDbDictionary
280
     1
  3
ACAD_XREC_ROUNDTRIP
360
207
  0
XRECORD
  5
205
102
{ACAD_REACTORS
330
204
102
}
330
204
100
AcDbXrecord
102
MATERIAL
148
0.0
149
0.0
149
0.0
 93
        0
 94
      127
282
     0
 72
     1
 77
     1
171
     1
175
     1
179
     1
273
     0
  0
XRECORD
  5
203
102
{ACAD_REACTORS
330
202
102
}
330
202
100
AcDbXrecord
102
MATERIAL
148
0.0
149
0.0
149
0.0
 93
        0
 94
      127
282
     0
 72
     1
 77
     1
171
     1
175
     1
179
     1
273
     0
  0
XRECORD
  5
207
102
{ACAD_REACTORS
330
206
102
}
330
206
100
AcDbXrecord
102
MATERIAL
148
0.0
149
0.0
149
0.0
 93
        0
 94
      127
282
     0
 72
     1
 77
     1
171
     1
175
     1
179
     1
273
     0
  0
ENDSEC
  0
EOF
