  0
SECTION
  2
HEADER
  9
$ACADVER
  1
AC1006
  9
$DWGCODEPAGE
  3
ansi_932
  9
$INSBASE
 10
0.0
 20
0.0
 30
0.0
  9
$EXTMIN
 10
-199.0500000000001
 20
50.47727272727273
  9
$EXTMAX
 10
-85.15000000000003
 20
115.0999999999999
  9
$LIMMIN
 10
0.0
 20
0.0
  9
$LIMMAX
 10
12.0
 20
9.0
  9
$ORTHOMODE
 70
     0
  9
$REGENMODE
 70
     1
  9
$FILLMODE
 70
     1
  9
$QTEXTMODE
 70
     0
  9
$MIRRTEXT
 70
     1
  9
$DRAGMODE
 70
     2
  9
$LTSCALE
 40
1.0
  9
$OSMODE
 70
    37
  9
$ATTMODE
 70
     1
  9
$TEXTSIZE
 40
0.2
  9
$TRACEWID
 40
0.05
  9
$TEXTSTYLE
  7
STANDARD
  9
$CLAYER
  8
0
  9
$CELTYPE
  6
BYLAYER
  9
$CECOLOR
 62
   256
  9
$DIMSCALE
 40
1.0
  9
$DIMASZ
 40
3.0
  9
$DIMEXO
 40
0.0625
  9
$DIMDLI
 40
0.38
  9
$DIMRND
 40
0.0
  9
$DIMDLE
 40
0.0
  9
$DIMEXE
 40
1.5
  9
$DIMTP
 40
0.0
  9
$DIMTM
 40
0.0
  9
$DIMTXT
 40
3.0
  9
$DIMCEN
 40
0.09
  9
$DIMTSZ
 40
0.0
  9
$DIMTOL
 70
     0
  9
$DIMLIM
 70
     0
  9
$DIMTIH
 70
     1
  9
$DIMTOH
 70
     1
  9
$DIMSE1
 70
     0
  9
$DIMSE2
 70
     0
  9
$DIMTAD
 70
     1
  9
$DIMZIN
 70
     0
  9
$DIMBLK
  1

  9
$DIMASO
 70
     1
  9
$DIMSHO
 70
     1
  9
$DIMPOST
  1

  9
$DIMAPOST
  1

  9
$DIMALT
 70
     0
  9
$DIMALTD
 70
     2
  9
$DIMALTF
 40
25.4
  9
$DIMLFAC
 40
1.0
  9
$DIMTOFL
 70
     0
  9
$DIMTVP
 40
0.0
  9
$DIMTIX
 70
     0
  9
$DIMSOXD
 70
     0
  9
$DIMSAH
 70
     0
  9
$DIMBLK1
  1

  9
$DIMBLK2
  1

  9
$LUNITS
 70
     2
  9
$LUPREC
 70
     4
  9
$SKETCHINC
 40
0.1
  9
$FILLETRAD
 40
0.5
  9
$AUNITS
 70
     0
  9
$AUPREC
 70
     0
  9
$MENU
  1
.
  9
$ELEVATION
 40
0.0
  9
$THICKNESS
 40
0.0
  9
$LIMCHECK
 70
     0
  9
$CHAMFERA
 40
0.0
  9
$CHAMFERB
 40
0.0
  9
$SKPOLY
 70
     0
  9
$TDCREATE
 40
2460733.438410972
  9
$TDUPDATE
 40
2460733.438411493
  9
$TDINDWG
 40
0.0000000116
  9
$TDUSRTIMER
 40
0.0000000116
  9
$USRTIMER
 70
     1
  9
$ANGBASE
 50
0.0
  9
$ANGDIR
 70
     0
  9
$PDMODE
 70
     0
  9
$PDSIZE
 40
0.0
  9
$PLINEWID
 40
0.0
  9
$COORDS
 70
     1
  9
$SPLFRAME
 70
     0
  9
$SPLINETYPE
 70
     6
  9
$SPLINESEGS
 70
     8
  9
$ATTDIA
 70
     0
  9
$ATTREQ
 70
     1
  9
$HANDLING
 70
     1
  9
$HANDSEED
  5
23E
  9
$SURFTAB1
 70
     6
  9
$SURFTAB2
 70
     6
  9
$SURFTYPE
 70
     6
  9
$SURFU
 70
     6
  9
$SURFV
 70
     6
  9
$UCSNAME
  2

  9
$UCSORG
 10
0.0
 20
0.0
 30
0.0
  9
$UCSXDIR
 10
1.0
 20
0.0
 30
0.0
  9
$UCSYDIR
 10
0.0
 20
1.0
 30
0.0
  9
$USERI1
 70
     0
  9
$USERI2
 70
     0
  9
$USERI3
 70
     0
  9
$USERI4
 70
     0
  9
$USERI5
 70
     0
  9
$USERR1
 40
0.0
  9
$USERR2
 40
0.0
  9
$USERR3
 40
0.0
  9
$USERR4
 40
0.0
  9
$USERR5
 40
0.0
  9
$WORLDVIEW
 70
     1
  0
ENDSEC
  0
SECTION
  2
TABLES
  0
TABLE
  2
VPORT
 70
     1
  0
VPORT
  2
*ACTIVE
 70
     0
 10
0.0
 20
0.0
 11
1.0
 21
1.0
 12
-142.1000000000001
 22
82.7886363636363
 13
0.0
 23
0.0
 14
0.5
 24
0.5
 15
0.5
 25
0.5
 16
0.0
 26
0.0
 36
1.0
 17
0.0
 27
0.0
 37
0.0
 40
64.62272727272715
 41
1.6
 42
50.0
 43
0.0
 44
0.0
 50
0.0
 51
0.0
 71
     0
 72
   100
 73
     1
 74
     3
 75
     0
 76
     0
 77
     0
 78
     0
  0
ENDTAB
  0
TABLE
  2
LTYPE
 70
     3
  0
LTYPE
  2
CONTINUOUS
 70
     0
  3
Solid line
 72
    65
 73
     0
 40
0.0
  0
LTYPE
  2
DOT
 70
     0
  3

 72
    65
 73
     0
 40
0.0
  0
LTYPE
  2
CENTER
 70
     0
  3

 72
    65
 73
     0
 40
0.0
  0
ENDTAB
  0
TABLE
  2
LAYER
 70
     1
  0
LAYER
  2
0
 70
     0
 62
     7
  6
CONTINUOUS
  0
ENDTAB
  0
TABLE
  2
STYLE
 70
     2
  0
STYLE
  2
STANDARD
 70
     0
 40
0.0
 41
1.0
 50
0.0
 71
     0
 42
0.2
  3
txt
  4

  0
STYLE
  2
ＭＳ_ゴシック
 70
     0
 40
0.0
 41
1.0
 50
0.0
 71
     0
 42
0.2
  3
ＭＳ ゴシック.shx
  4

  0
ENDTAB
  0
TABLE
  2
VIEW
 70
     0
  0
ENDTAB
  0
TABLE
  2
UCS
 70
     0
  0
ENDTAB
  0
ENDSEC
  0
SECTION
  2
BLOCKS
  0
BLOCK
  8
0
  2
D_FRAME_VIEW_5861
 70
     0
 10
0.0
 20
0.0
 30
0.0
  0
LINE
  5
70
  8
0
  6
CONTINUOUS
 62
     7
 10
-117.9699435380685
 20
113.2999999999998
 30
0.0
 11
-102.0300564619315
 21
113.2999999999998
 31
0.0
  0
LINE
  5
71
  8
0
  6
CONTINUOUS
 62
     7
 10
-119.822521212777
 20
113.2999999999998
 30
0.0
 11
-117.9699435380685
 21
113.2999999999998
 31
0.0
  0
LINE
  5
72
  8
0
  6
CONTINUOUS
 62
     7
 10
-102.0300564619315
 20
68.29999999999984
 30
0.0
 11
-117.9699435380685
 21
68.29999999999984
 31
0.0
  0
LINE
  5
73
  8
0
  6
CONTINUOUS
 62
     7
 10
-117.9699435380685
 20
68.29999999999984
 30
0.0
 11
-119.7067351081077
 21
68.29999999999984
 31
0.0
  0
LINE
  5
74
  8
0
  6
CONTINUOUS
 62
     7
 10
-101.1205925974346
 20
68.29999999999984
 30
0.0
 11
-102.0300564619315
 21
68.29999999999984
 31
0.0
  0
LINE
  5
75
  8
0
  6
CONTINUOUS
 62
     7
 10
-102.0300564619315
 20
113.2999999999998
 30
0.0
 11
-100.1774787872231
 21
113.2999999999998
 31
0.0
  0
LINE
  5
76
  8
0
  6
CONTINUOUS
 62
     7
 10
-100.1553769409687
 20
68.43572314805782
 30
0.0
 11
-101.1205925974346
 21
68.29999999999984
 31
0.0
  0
LINE
  5
77
  8
0
  6
CONTINUOUS
 62
     7
 10
-119.7067351081077
 20
68.29999999999984
 30
0.0
 11
-128.0000000000001
 21
68.29999999999984
 31
0.0
  0
POLYLINE
  5
78
  8
0
  6
CONTINUOUS
 62
     7
 66
     1
 10
0.0
 20
0.0
 30
0.0
  0
VERTEX
  5
138
  8
0
  6
CONTINUOUS
 62
     7
 10
-128.0000000000001
 20
68.29999999999984
 30
0.0
  0
VERTEX
  5
139
  8
0
  6
CONTINUOUS
 62
     7
 10
-128.0049564671794
 20
68.3000245671703
 30
0.0
  0
VERTEX
  5
13A
  8
0
  6
CONTINUOUS
 62
     7
 10
-128.0223993196316
 20
68.30050198150523
 30
0.0
  0
VERTEX
  5
13B
  8
0
  6
CONTINUOUS
 62
     7
 10
-128.039837982818
 20
68.30158959167655
 30
0.0
  0
VERTEX
  5
13C
  8
0
  6
CONTINUOUS
 62
     7
 10
-128.0573764913099
 20
68.30330304162985
 30
0.0
  0
VERTEX
  5
13D
  8
0
  6
CONTINUOUS
 62
     7
 10
-128.0748546740541
 20
68.3056349751728
 30
0.0
  0
VERTEX
  5
13E
  8
0
  6
CONTINUOUS
 62
     7
 10
-128.0923287756381
 20
68.30859861131042
 30
0.0
  0
VERTEX
  5
13F
  8
0
  6
CONTINUOUS
 62
     7
 10
-128.1097036733099
 20
68.31218332945411
 30
0.0
  0
VERTEX
  5
140
  8
0
  6
CONTINUOUS
 62
     7
 10
-128.1271018126033
 20
68.31642463955126
 30
0.0
  0
VERTEX
  5
141
  8
0
  6
CONTINUOUS
 62
     7
 10
-128.1443787356747
 20
68.32129886078565
 30
0.0
  0
VERTEX
  5
142
  8
0
  6
CONTINUOUS
 62
     7
 10
-128.1635414895658
 20
68.3275021892212
 30
0.0
  0
VERTEX
  5
143
  8
0
  6
CONTINUOUS
 62
     7
 10
-128.1825005736156
 20
68.334496465502
 30
0.0
  0
VERTEX
  5
144
  8
0
  6
CONTINUOUS
 62
     7
 10
-128.2012809857637
 20
68.3423036325574
 30
0.0
  0
VERTEX
  5
145
  8
0
  6
CONTINUOUS
 62
     7
 10
-128.2197963067941
 20
68.3509013654887
 30
0.0
  0
VERTEX
  5
146
  8
0
  6
CONTINUOUS
 62
     7
 10
-128.2382975651539
 20
68.36043854759329
 30
0.0
  0
VERTEX
  5
147
  8
0
  6
CONTINUOUS
 62
     7
 10
-128.2564607821585
 20
68.37078226129991
 30
0.0
  0
VERTEX
  5
148
  8
0
  6
CONTINUOUS
 62
     7
 10
-128.2743097590371
 20
68.38196392966977
 30
0.0
  0
VERTEX
  5
149
  8
0
  6
CONTINUOUS
 62
     7
 10
-128.2917500605035
 20
68.39394347413645
 30
0.0
  0
VERTEX
  5
14A
  8
0
  6
CONTINUOUS
 62
     7
 10
-128.3071384951815
 20
68.40545476206425
 30
0.0
  0
VERTEX
  5
14B
  8
0
  6
CONTINUOUS
 62
     7
 10
-128.3221353848849
 20
68.4176012633321
 30
0.0
  0
VERTEX
  5
14C
  8
0
  6
CONTINUOUS
 62
     7
 10
-128.3367558897893
 20
68.43041175520266
 30
0.0
  0
VERTEX
  5
14D
  8
0
  6
CONTINUOUS
 62
     7
 10
-128.3509287366428
 20
68.44384129689338
 30
0.0
  0
VERTEX
  5
14E
  8
0
  6
CONTINUOUS
 62
     7
 10
-128.3648358066715
 20
68.4581011345873
 30
0.0
  0
VERTEX
  5
14F
  8
0
  6
CONTINUOUS
 62
     7
 10
-128.3782244447992
 20
68.47297359532223
 30
0.0
  0
VERTEX
  5
150
  8
0
  6
CONTINUOUS
 62
     7
 10
-128.3911068803956
 20
68.4884949308481
 30
0.0
  0
VERTEX
  5
151
  8
0
  6
CONTINUOUS
 62
     7
 10
-128.4034091073292
 20
68.50460011488835
 30
0.0
  0
VERTEX
  5
152
  8
0
  6
CONTINUOUS
 62
     7
 10
-128.4143864187623
 20
68.52020740548495
 30
0.0
  0
VERTEX
  5
153
  8
0
  6
CONTINUOUS
 62
     7
 10
-128.4248035396618
 20
68.53629191766099
 30
0.0
  0
VERTEX
  5
154
  8
0
  6
CONTINUOUS
 62
     7
 10
-128.4347390724466
 20
68.55301462373632
 30
0.0
  0
VERTEX
  5
155
  8
0
  6
CONTINUOUS
 62
     7
 10
-128.4440403612387
 20
68.57015623221183
 30
0.0
  0
VERTEX
  5
156
  8
0
  6
CONTINUOUS
 62
     7
 10
-128.4527421753497
 20
68.58781059171362
 30
0.0
  0
VERTEX
  5
157
  8
0
  6
CONTINUOUS
 62
     7
 10
-128.4607610226973
 20
68.60583697580891
 30
0.0
  0
VERTEX
  5
158
  8
0
  6
CONTINUOUS
 62
     7
 10
-128.4681673038568
 20
68.62444551956855
 30
0.0
  0
VERTEX
  5
159
  8
0
  6
CONTINUOUS
 62
     7
 10
-128.4748469039847
 20
68.64341003296452
 30
0.0
  0
VERTEX
  5
15A
  8
0
  6
CONTINUOUS
 62
     7
 10
-128.4805767538985
 20
68.66199281318539
 30
0.0
  0
VERTEX
  5
15B
  8
0
  6
CONTINUOUS
 62
     7
 10
-128.4855953546838
 20
68.68084819972155
 30
0.0
  0
VERTEX
  5
15C
  8
0
  6
CONTINUOUS
 62
     7
 10
-128.4899332345378
 20
68.70017401782779
 30
0.0
  0
VERTEX
  5
15D
  8
0
  6
CONTINUOUS
 62
     7
 10
-128.493506659036
 20
68.71968077759831
 30
0.0
  0
VERTEX
  5
15E
  8
0
  6
CONTINUOUS
 62
     7
 10
-128.4963234390351
 20
68.7394786492582
 30
0.0
  0
VERTEX
  5
15F
  8
0
  6
CONTINUOUS
 62
     7
 10
-128.4983479957177
 20
68.75938873106833
 30
0.0
  0
VERTEX
  5
160
  8
0
  6
CONTINUOUS
 62
     7
 10
-128.4995859241716
 20
68.7796553601745
 30
0.0
  0
VERTEX
  5
161
  8
0
  6
CONTINUOUS
 62
     7
 10
-128.5000000000001
 20
68.79999999999986
 30
0.0
  0
SEQEND
  5
22A
  8
0
  6
CONTINUOUS
 62
     7
  0
LINE
  5
79
  8
0
  6
CONTINUOUS
 62
     7
 10
-99.35567249005908
 20
68.7775743161192
 30
0.0
 11
-100.1553769409687
 21
68.43572314805782
 31
0.0
  0
POLYLINE
  5
7A
  8
0
  6
CONTINUOUS
 62
     7
 66
     1
 10
0.0
 20
0.0
 30
0.0
  0
VERTEX
  5
162
  8
0
  6
CONTINUOUS
 62
     7
 10
-129.5000000000001
 20
72.29999999999986
 30
0.0
  0
VERTEX
  5
163
  8
0
  6
CONTINUOUS
 62
     7
 10
-129.4401741758181
 20
72.29821084812173
 30
0.0
  0
VERTEX
  5
164
  8
0
  6
CONTINUOUS
 62
     7
 10
-129.3801432382665
 20
72.29279514261773
 30
0.0
  0
VERTEX
  5
165
  8
0
  6
CONTINUOUS
 62
     7
 10
-129.3200626127157
 20
72.28368050868337
 30
0.0
  0
VERTEX
  5
166
  8
0
  6
CONTINUOUS
 62
     7
 10
-129.2600877245361
 20
72.2707945715142
 30
0.0
  0
VERTEX
  5
167
  8
0
  6
CONTINUOUS
 62
     7
 10
-129.1984437619346
 20
72.25345108024248
 30
0.0
  0
VERTEX
  5
168
  8
0
  6
CONTINUOUS
 62
     7
 10
-129.137072646617
 20
72.23182335772152
 30
0.0
  0
VERTEX
  5
169
  8
0
  6
CONTINUOUS
 62
     7
 10
-129.0762367985886
 20
72.20577705784144
 30
0.0
  0
VERTEX
  5
16A
  8
0
  6
CONTINUOUS
 62
     7
 10
-129.0161986378555
 20
72.17517783449246
 30
0.0
  0
VERTEX
  5
16B
  8
0
  6
CONTINUOUS
 62
     7
 10
-128.9706903935125
 20
72.14842670614608
 30
0.0
  0
VERTEX
  5
16C
  8
0
  6
CONTINUOUS
 62
     7
 10
-128.9257575645458
 20
72.11868241779538
 30
0.0
  0
VERTEX
  5
16D
  8
0
  6
CONTINUOUS
 62
     7
 10
-128.8816316517846
 20
72.08588810247112
 30
0.0
  0
VERTEX
  5
16E
  8
0
  6
CONTINUOUS
 62
     7
 10
-128.8385441560577
 20
72.04998689320405
 30
0.0
  0
VERTEX
  5
16F
  8
0
  6
CONTINUOUS
 62
     7
 10
-128.7967265781942
 20
72.01092192302494
 30
0.0
  0
VERTEX
  5
170
  8
0
  6
CONTINUOUS
 62
     7
 10
-128.756410419023
 20
71.96863632496456
 30
0.0
  0
VERTEX
  5
171
  8
0
  6
CONTINUOUS
 62
     7
 10
-128.726784007662
 20
71.9341410500412
 30
0.0
  0
VERTEX
  5
172
  8
0
  6
CONTINUOUS
 62
     7
 10
-128.6982294594016
 20
71.89763027484803
 30
0.0
  0
VERTEX
  5
173
  8
0
  6
CONTINUOUS
 62
     7
 10
-128.670916533018
 20
71.85912485616078
 30
0.0
  0
VERTEX
  5
174
  8
0
  6
CONTINUOUS
 62
     7
 10
-128.6508524954999
 20
71.82815133132978
 30
0.0
  0
VERTEX
  5
175
  8
0
  6
CONTINUOUS
 62
     7
 10
-128.6316545581743
 20
71.7959515754549
 30
0.0
  0
VERTEX
  5
176
  8
0
  6
CONTINUOUS
 62
     7
 10
-128.613420032571
 20
71.76257042370516
 30
0.0
  0
VERTEX
  5
177
  8
0
  6
CONTINUOUS
 62
     7
 10
-128.5962462302199
 20
71.72805271124962
 30
0.0
  0
VERTEX
  5
178
  8
0
  6
CONTINUOUS
 62
     7
 10
-128.5799155420241
 20
71.69171423215249
 30
0.0
  0
VERTEX
  5
179
  8
0
  6
CONTINUOUS
 62
     7
 10
-128.5648370582742
 20
71.6542114384673
 30
0.0
  0
VERTEX
  5
17A
  8
0
  6
CONTINUOUS
 62
     7
 10
-128.5511239233001
 20
71.61564884138289
 30
0.0
  0
VERTEX
  5
17B
  8
0
  6
CONTINUOUS
 62
     7
 10
-128.5415518222495
 20
71.58525647390996
 30
0.0
  0
VERTEX
  5
17C
  8
0
  6
CONTINUOUS
 62
     7
 10
-128.5328722926361
 20
71.55427078262903
 30
0.0
  0
VERTEX
  5
17D
  8
0
  6
CONTINUOUS
 62
     7
 10
-128.525131829338
 20
71.52276944582465
 30
0.0
  0
VERTEX
  5
17E
  8
0
  6
CONTINUOUS
 62
     7
 10
-128.5183769272335
 20
71.4908301417814
 30
0.0
  0
VERTEX
  5
17F
  8
0
  6
CONTINUOUS
 62
     7
 10
-128.5128421879992
 20
71.45968621934924
 30
0.0
  0
VERTEX
  5
180
  8
0
  6
CONTINUOUS
 62
     7
 10
-128.5082704774241
 20
71.42814796357162
 30
0.0
  0
VERTEX
  5
181
  8
0
  6
CONTINUOUS
 62
     7
 10
-128.5046810994224
 20
71.3963127940982
 30
0.0
  0
VERTEX
  5
182
  8
0
  6
CONTINUOUS
 62
     7
 10
-128.5020933579084
 20
71.36427813057864
 30
0.0
  0
VERTEX
  5
183
  8
0
  6
CONTINUOUS
 62
     7
 10
-128.5005265567962
 20
71.33214139266263
 30
0.0
  0
VERTEX
  5
184
  8
0
  6
CONTINUOUS
 62
     7
 10
-128.5000000000001
 20
71.29999999999986
 30
0.0
  0
SEQEND
  5
22B
  8
0
  6
CONTINUOUS
 62
     7
  0
LINE
  5
7B
  8
0
  6
CONTINUOUS
 62
     7
 10
-134.6562953995158
 20
72.29999999999986
 30
0.0
 11
-129.5000000000001
 21
72.29999999999986
 31
0.0
  0
POLYLINE
  5
7C
  8
0
  6
CONTINUOUS
 62
     7
 66
     1
 10
0.0
 20
0.0
 30
0.0
  0
VERTEX
  5
185
  8
0
  6
CONTINUOUS
 62
     7
 10
-134.3705252302859
 20
88.29999999999986
 30
0.0
  0
VERTEX
  5
186
  8
0
  6
CONTINUOUS
 62
     7
 10
-134.4670211437797
 20
88.25388134216024
 30
0.0
  0
VERTEX
  5
187
  8
0
  6
CONTINUOUS
 62
     7
 10
-134.5289154517403
 20
88.16621033313413
 30
0.0
  0
VERTEX
  5
188
  8
0
  6
CONTINUOUS
 62
     7
 10
-134.5735461081115
 20
88.06230083934786
 30
0.0
  0
SEQEND
  5
22C
  8
0
  6
CONTINUOUS
 62
     7
  0
ARC
  5
7D
  8
0
  6
CONTINUOUS
 62
     7
 10
-132.7436976360858
 20
87.47225105114775
 30
0.0
 40
1.922629497102793
 50
162.1276539240783
 51
174.1444614709597
  0
LINE
  5
7E
  8
0
  6
CONTINUOUS
 62
     7
 10
-134.2006714782876
 20
88.29999999999986
 30
0.0
 11
-134.3705252302859
 21
88.29999999999986
 31
0.0
  0
ARC
  5
7F
  8
0
  6
CONTINUOUS
 62
     7
 10
-135.7873198496329
 20
89.26482352800585
 30
0.0
 40
1.961756464020571
 50
337.3419336395
 51
1.027432017971591
  0
POLYLINE
  5
80
  8
0
  6
CONTINUOUS
 62
     7
 66
     1
 10
0.0
 20
0.0
 30
0.0
  0
VERTEX
  5
189
  8
0
  6
CONTINUOUS
 62
     7
 10
-133.9769712015931
 20
88.50909461055798
 30
0.0
  0
VERTEX
  5
18A
  8
0
  6
CONTINUOUS
 62
     7
 10
-134.0287359776692
 20
88.41976820785874
 30
0.0
  0
VERTEX
  5
18B
  8
0
  6
CONTINUOUS
 62
     7
 10
-134.1002082972104
 20
88.34023388488323
 30
0.0
  0
VERTEX
  5
18C
  8
0
  6
CONTINUOUS
 62
     7
 10
-134.2006714782876
 20
88.29999999999986
 30
0.0
  0
SEQEND
  5
22D
  8
0
  6
CONTINUOUS
 62
     7
  0
LINE
  5
81
  8
0
  6
CONTINUOUS
 62
     7
 10
-133.8258787875705
 20
95.29999999999986
 30
0.0
 11
-133.8258787875705
 21
89.29999999999986
 31
0.0
  0
POLYLINE
  5
82
  8
0
  6
CONTINUOUS
 62
     7
 66
     1
 10
0.0
 20
0.0
 30
0.0
  0
VERTEX
  5
18D
  8
0
  6
CONTINUOUS
 62
     7
 10
-134.2006714782876
 20
96.29999999999984
 30
0.0
  0
VERTEX
  5
18E
  8
0
  6
CONTINUOUS
 62
     7
 10
-134.0910662838294
 20
96.25207567955587
 30
0.0
  0
VERTEX
  5
18F
  8
0
  6
CONTINUOUS
 62
     7
 10
-134.0163445684323
 20
96.16156551581392
 30
0.0
  0
VERTEX
  5
190
  8
0
  6
CONTINUOUS
 62
     7
 10
-133.9601128972438
 20
96.05461115899944
 30
0.0
  0
SEQEND
  5
22E
  8
0
  6
CONTINUOUS
 62
     7
  0
ARC
  5
83
  8
0
  6
CONTINUOUS
 62
     7
 10
-135.8008048460827
 20
95.33793471282092
 30
0.0
 40
1.975290353094341
 50
358.899588324017
 51
21.27353302481071
  0
LINE
  5
84
  8
0
  6
CONTINUOUS
 62
     7
 10
-134.3705252302859
 20
96.29999999999984
 30
0.0
 11
-134.2006714782876
 21
96.29999999999984
 31
0.0
  0
ARC
  5
85
  8
0
  6
CONTINUOUS
 62
     7
 10
-133.0056627537211
 20
97.0796940916884
 30
0.0
 40
1.657262702600848
 50
185.1267893069314
 51
201.5188062372507
  0
POLYLINE
  5
86
  8
0
  6
CONTINUOUS
 62
     7
 66
     1
 10
0.0
 20
0.0
 30
0.0
  0
VERTEX
  5
191
  8
0
  6
CONTINUOUS
 62
     7
 10
-134.5474096402329
 20
96.47179919669175
 30
0.0
  0
VERTEX
  5
192
  8
0
  6
CONTINUOUS
 62
     7
 10
-134.4917375909865
 20
96.37467012694451
 30
0.0
  0
VERTEX
  5
193
  8
0
  6
CONTINUOUS
 62
     7
 10
-134.4047296546401
 20
96.30555336880309
 30
0.0
  0
VERTEX
  5
194
  8
0
  6
CONTINUOUS
 62
     7
 10
-134.3705252302859
 20
96.29999999999984
 30
0.0
  0
SEQEND
  5
22F
  8
0
  6
CONTINUOUS
 62
     7
  0
LINE
  5
87
  8
0
  6
CONTINUOUS
 62
     7
 10
-128.5000000000001
 20
71.29999999999986
 30
0.0
 11
-128.5000000000001
 21
68.79999999999986
 31
0.0
  0
LINE
  5
88
  8
0
  6
CONTINUOUS
 62
     7
 10
-100.1774787872231
 20
113.2999999999998
 30
0.0
 11
-85.535956416465
 21
113.2999999999998
 31
0.0
  0
LINE
  5
89
  8
0
  6
CONTINUOUS
 62
     7
 10
-134.4640435835351
 20
113.2999999999998
 30
0.0
 11
-119.822521212777
 21
113.2999999999998
 31
0.0
  0
POLYLINE
  5
8A
  8
0
  6
CONTINUOUS
 62
     7
 66
     1
 10
0.0
 20
0.0
 30
0.0
  0
VERTEX
  5
195
  8
0
  6
CONTINUOUS
 62
     7
 10
-85.62947476971416
 20
96.29999999999984
 30
0.0
  0
VERTEX
  5
196
  8
0
  6
CONTINUOUS
 62
     7
 10
-85.53297885622041
 20
96.34611865783945
 30
0.0
  0
VERTEX
  5
197
  8
0
  6
CONTINUOUS
 62
     7
 10
-85.4710845482598
 20
96.43378966686554
 30
0.0
  0
VERTEX
  5
198
  8
0
  6
CONTINUOUS
 62
     7
 10
-85.42645389188857
 20
96.53769916065183
 30
0.0
  0
SEQEND
  5
230
  8
0
  6
CONTINUOUS
 62
     7
  0
ARC
  5
8B
  8
0
  6
CONTINUOUS
 62
     7
 10
-87.25630236391515
 20
97.12774894885203
 30
0.0
 40
1.922629497103672
 50
342.1276539240833
 51
354.1444614709595
  0
LINE
  5
8C
  8
0
  6
CONTINUOUS
 62
     7
 10
-85.79932852171251
 20
96.29999999999984
 30
0.0
 11
-85.6294747697142
 21
96.29999999999984
 31
0.0
  0
ARC
  5
8D
  8
0
  6
CONTINUOUS
 62
     7
 10
-84.21268015036718
 20
95.33517647199383
 30
0.0
 40
1.961756464020571
 50
157.3419336395
 51
181.0274320179712
  0
POLYLINE
  5
8E
  8
0
  6
CONTINUOUS
 62
     7
 66
     1
 10
0.0
 20
0.0
 30
0.0
  0
VERTEX
  5
199
  8
0
  6
CONTINUOUS
 62
     7
 10
-86.02302879840698
 20
96.09090538944172
 30
0.0
  0
VERTEX
  5
19A
  8
0
  6
CONTINUOUS
 62
     7
 10
-85.97126402233084
 20
96.18023179214094
 30
0.0
  0
VERTEX
  5
19B
  8
0
  6
CONTINUOUS
 62
     7
 10
-85.89979170278968
 20
96.25976611511643
 30
0.0
  0
VERTEX
  5
19C
  8
0
  6
CONTINUOUS
 62
     7
 10
-85.79932852171251
 20
96.29999999999984
 30
0.0
  0
SEQEND
  5
231
  8
0
  6
CONTINUOUS
 62
     7
  0
LINE
  5
8F
  8
0
  6
CONTINUOUS
 62
     7
 10
-86.1741212124296
 20
89.29999999999986
 30
0.0
 11
-86.1741212124296
 21
95.29999999999986
 31
0.0
  0
POLYLINE
  5
90
  8
0
  6
CONTINUOUS
 62
     7
 66
     1
 10
0.0
 20
0.0
 30
0.0
  0
VERTEX
  5
19D
  8
0
  6
CONTINUOUS
 62
     7
 10
-85.79932852171251
 20
88.29999999999986
 30
0.0
  0
VERTEX
  5
19E
  8
0
  6
CONTINUOUS
 62
     7
 10
-85.90893371617067
 20
88.34792432044381
 30
0.0
  0
VERTEX
  5
19F
  8
0
  6
CONTINUOUS
 62
     7
 10
-85.98365543156774
 20
88.43843448418576
 30
0.0
  0
VERTEX
  5
1A0
  8
0
  6
CONTINUOUS
 62
     7
 10
-86.03988710275628
 20
88.54538884100026
 30
0.0
  0
SEQEND
  5
232
  8
0
  6
CONTINUOUS
 62
     7
  0
ARC
  5
91
  8
0
  6
CONTINUOUS
 62
     7
 10
-84.19919515391675
 20
89.26206528717887
 30
0.0
 40
1.975290353094932
 50
178.8995883240198
 51
201.2735330248071
  0
LINE
  5
92
  8
0
  6
CONTINUOUS
 62
     7
 10
-85.6294747697142
 20
88.29999999999986
 30
0.0
 11
-85.79932852171251
 21
88.29999999999986
 31
0.0
  0
ARC
  5
93
  8
0
  6
CONTINUOUS
 62
     7
 10
-86.99433724627927
 20
87.52030590831123
 30
0.0
 40
1.657262702601158
 50
5.126789306932836
 51
21.51880623724901
  0
POLYLINE
  5
94
  8
0
  6
CONTINUOUS
 62
     7
 66
     1
 10
0.0
 20
0.0
 30
0.0
  0
VERTEX
  5
1A1
  8
0
  6
CONTINUOUS
 62
     7
 10
-85.45259035976716
 20
88.12820080330793
 30
0.0
  0
VERTEX
  5
1A2
  8
0
  6
CONTINUOUS
 62
     7
 10
-85.50826240901354
 20
88.22532987305517
 30
0.0
  0
VERTEX
  5
1A3
  8
0
  6
CONTINUOUS
 62
     7
 10
-85.59527034535999
 20
88.29444663119659
 30
0.0
  0
VERTEX
  5
1A4
  8
0
  6
CONTINUOUS
 62
     7
 10
-85.62947476971416
 20
88.29999999999986
 30
0.0
  0
SEQEND
  5
233
  8
0
  6
CONTINUOUS
 62
     7
  0
LINE
  5
95
  8
0
  6
CONTINUOUS
 62
     7
 10
-121.85
 20
61.69999999999985
 30
0.0
 11
-109.85
 21
61.69999999999985
 31
0.0
  0
LINE
  5
96
  8
0
  6
CONTINUOUS
 62
     7
 10
-121.85
 20
61.69999999999985
 30
0.0
 11
-121.85
 21
62.59371817711853
 31
0.0
  0
ARC
  5
97
  8
0
  6
CONTINUOUS
 62
     7
 10
-119.8808428209038
 20
60.13291003982211
 30
0.0
 40
3.567844974019475
 50
88.82125528597341
 51
112.7874063439858
  0
POLYLINE
  5
98
  8
0
  6
CONTINUOUS
 62
     7
 66
     1
 10
0.0
 20
0.0
 30
0.0
  0
VERTEX
  5
1A5
  8
0
  6
CONTINUOUS
 62
     7
 10
-121.2627153860357
 20
63.4222786680503
 30
0.0
  0
VERTEX
  5
1A6
  8
0
  6
CONTINUOUS
 62
     7
 10
-121.4310383415612
 20
63.32382824671529
 30
0.0
  0
VERTEX
  5
1A7
  8
0
  6
CONTINUOUS
 62
     7
 10
-121.5714396489748
 20
63.21291983501231
 30
0.0
  0
VERTEX
  5
1A8
  8
0
  6
CONTINUOUS
 62
     7
 10
-121.6828643740232
 20
63.09126529333147
 30
0.0
  0
VERTEX
  5
1A9
  8
0
  6
CONTINUOUS
 62
     7
 10
-121.7559277947232
 20
62.97800335142931
 30
0.0
  0
VERTEX
  5
1AA
  8
0
  6
CONTINUOUS
 62
     7
 10
-121.8078659100334
 20
62.85803498063417
 30
0.0
  0
VERTEX
  5
1AB
  8
0
  6
CONTINUOUS
 62
     7
 10
-121.8453722988154
 20
62.68427651975167
 30
0.0
  0
VERTEX
  5
1AC
  8
0
  6
CONTINUOUS
 62
     7
 10
-121.85
 20
62.59371817711853
 30
0.0
  0
SEQEND
  5
234
  8
0
  6
CONTINUOUS
 62
     7
  0
LINE
  5
99
  8
0
  6
CONTINUOUS
 62
     7
 10
-119.8074468085107
 20
63.69999999999985
 30
0.0
 11
-111.8925531914894
 21
63.69999999999985
 31
0.0
  0
POLYLINE
  5
9A
  8
0
  6
CONTINUOUS
 62
     7
 66
     1
 10
0.0
 20
0.0
 30
0.0
  0
VERTEX
  5
1AD
  8
0
  6
CONTINUOUS
 62
     7
 10
-109.85
 20
62.59371817711853
 30
0.0
  0
VERTEX
  5
1AE
  8
0
  6
CONTINUOUS
 62
     7
 10
-109.8607269306246
 20
62.73047208776492
 30
0.0
  0
VERTEX
  5
1AF
  8
0
  6
CONTINUOUS
 62
     7
 10
-109.8932846375633
 20
62.86142476881221
 30
0.0
  0
VERTEX
  5
1B0
  8
0
  6
CONTINUOUS
 62
     7
 10
-109.9501425732444
 20
62.98912837645681
 30
0.0
  0
VERTEX
  5
1B1
  8
0
  6
CONTINUOUS
 62
     7
 10
-110.0311258915633
 20
63.10910694572716
 30
0.0
  0
VERTEX
  5
1B2
  8
0
  6
CONTINUOUS
 62
     7
 10
-110.1336521734169
 20
63.2177719352556
 30
0.0
  0
VERTEX
  5
1B3
  8
0
  6
CONTINUOUS
 62
     7
 10
-110.2594151948033
 20
63.317456292693
 30
0.0
  0
VERTEX
  5
1B4
  8
0
  6
CONTINUOUS
 62
     7
 10
-110.4141347034751
 20
63.41036219449011
 30
0.0
  0
SEQEND
  5
235
  8
0
  6
CONTINUOUS
 62
     7
  0
ARC
  5
9B
  8
0
  6
CONTINUOUS
 62
     7
 10
-111.7850958130438
 20
60.33048590857623
 30
0.0
 40
3.371227120869307
 50
66.00447402763258
 51
91.82660410761473
  0
LINE
  5
9C
  8
0
  6
CONTINUOUS
 62
     7
 10
-109.85
 20
62.59371817711853
 30
0.0
 11
-109.85
 21
61.69999999999985
 31
0.0
  0
LINE
  5
9D
  8
0
  6
CONTINUOUS
 62
     7
 10
-119.8074468085107
 20
64.69999999999985
 30
0.0
 11
-111.8925531914894
 21
64.69999999999985
 31
0.0
  0
LINE
  5
9E
  8
0
  6
CONTINUOUS
 62
     7
 10
-93.79085908718737
 20
72.02710039078882
 30
0.0
 11
-99.35567249005905
 21
68.77757431611921
 31
0.0
  0
LINE
  5
9F
  8
0
  6
CONTINUOUS
 62
     7
 10
-109.85
 20
64.69999999999985
 30
0.0
 11
-109.85
 21
62.59371817711853
 31
0.0
  0
LINE
  5
A0
  8
0
  6
CONTINUOUS
 62
     7
 10
-111.8925531914894
 20
64.69999999999985
 30
0.0
 11
-109.85
 21
64.69999999999985
 31
0.0
  0
LINE
  5
A1
  8
0
  6
CONTINUOUS
 62
     7
 10
-121.85
 20
62.59371817711853
 30
0.0
 11
-121.85
 21
64.69999999999985
 31
0.0
  0
LINE
  5
A2
  8
0
  6
CONTINUOUS
 62
     7
 10
-121.85
 20
64.69999999999985
 30
0.0
 11
-119.8074468085107
 21
64.69999999999985
 31
0.0
  0
LINE
  5
A3
  8
0
  6
CONTINUOUS
 62
     7
 10
-121.85
 20
64.69999999999985
 30
0.0
 11
-121.85
 21
68.29999999999983
 31
0.0
  0
LINE
  5
A4
  8
0
  6
CONTINUOUS
 62
     7
 10
-109.85
 20
68.29999999999984
 30
0.0
 11
-109.85
 21
64.69999999999985
 31
0.0
  0
ARC
  5
A5
  8
0
  6
CONTINUOUS
 62
     7
 10
-92.78233331154622
 20
70.30000000000733
 30
0.0
 40
1.999999999992522
 50
89.99999999994274
 51
120.2824334320004
  0
LINE
  5
A6
  8
0
  6
CONTINUOUS
 62
     7
 10
-85.82433414043591
 20
72.29999999999986
 30
0.0
 11
-92.78233331154425
 21
72.29999999999986
 31
0.0
  0
LINE
  5
A7
  8
0
  6
CONTINUOUS
 62
     7
 10
-134.6562953995158
 20
96.9316011004004
 30
0.0
 11
-134.6759089336874
 21
97.29999999999984
 31
0.0
  0
LINE
  5
A8
  8
0
  6
CONTINUOUS
 62
     7
 10
-85.34370460048426
 20
87.6683988995993
 30
0.0
 11
-85.32409106631272
 21
87.29999999999986
 31
0.0
  0
LINE
  5
A9
  8
0
  6
CONTINUOUS
 62
     7
 10
-85.32409106631272
 20
97.29999999999984
 30
0.0
 11
-85.34370460048429
 21
96.93160110039994
 31
0.0
  0
LINE
  5
AA
  8
0
  6
CONTINUOUS
 62
     7
 10
-134.6759089336874
 20
87.29999999999986
 30
0.0
 11
-134.6562953995158
 21
87.66839889959975
 31
0.0
  0
LINE
  5
AB
  8
0
  6
CONTINUOUS
 62
     7
 10
-134.6759089336874
 20
74.79999999999986
 30
0.0
 11
-134.6759089336874
 21
87.29999999999986
 31
0.0
  0
LINE
  5
AC
  8
0
  6
CONTINUOUS
 62
     7
 10
-134.85
 20
72.29999999999986
 30
0.0
 11
-134.85
 21
74.79999999999984
 31
0.0
  0
LINE
  5
AD
  8
0
  6
CONTINUOUS
 62
     7
 10
-134.85
 20
74.79999999999984
 30
0.0
 11
-134.6759089336874
 21
74.79999999999984
 31
0.0
  0
LINE
  5
AE
  8
0
  6
CONTINUOUS
 62
     7
 10
-134.6562953995158
 20
72.29999999999986
 30
0.0
 11
-134.85
 21
72.29999999999986
 31
0.0
  0
LINE
  5
AF
  8
0
  6
CONTINUOUS
 62
     7
 10
-85.15000000000003
 20
103.2999999999999
 30
0.0
 11
-85.1524500264991
 21
103.2884735315634
 31
0.0
  0
LINE
  5
B0
  8
0
  6
CONTINUOUS
 62
     7
 10
-85.1524500264991
 20
103.2884735315635
 30
0.0
 11
-85.15948925863931
 21
103.2999999999998
 31
0.0
  0
LINE
  5
B1
  8
0
  6
CONTINUOUS
 62
     7
 10
-85.15948925863931
 20
103.2999999999998
 30
0.0
 11
-85.32409106631272
 21
102.2999999999998
 31
0.0
  0
LINE
  5
B2
  8
0
  6
CONTINUOUS
 62
     7
 10
-85.32409106631272
 20
102.2999999999998
 30
0.0
 11
-85.32409106631272
 21
97.29999999999984
 31
0.0
  0
LINE
  5
B3
  8
0
  6
CONTINUOUS
 62
     7
 10
-85.15000000000006
 20
113.0999999999998
 30
0.0
 11
-85.15000000000006
 21
103.2999999999999
 31
0.0
  0
LINE
  5
B4
  8
0
  6
CONTINUOUS
 62
     7
 10
-85.32409106631272
 20
87.29999999999986
 30
0.0
 11
-85.32409106631272
 21
74.79999999999986
 31
0.0
  0
LINE
  5
B5
  8
0
  6
CONTINUOUS
 62
     7
 10
-85.15000000000006
 20
74.79999999999984
 30
0.0
 11
-85.15000000000006
 21
72.79999999999986
 31
0.0
  0
LINE
  5
B6
  8
0
  6
CONTINUOUS
 62
     7
 10
-85.32409106631272
 20
74.79999999999986
 30
0.0
 11
-85.15000000000006
 21
74.79999999999986
 31
0.0
  0
LINE
  5
B7
  8
0
  6
CONTINUOUS
 62
     7
 10
-134.6759089336874
 20
97.29999999999984
 30
0.0
 11
-134.6759089336874
 21
102.2999999999998
 31
0.0
  0
LINE
  5
B8
  8
0
  6
CONTINUOUS
 62
     7
 10
-134.6759089336874
 20
102.2999999999998
 30
0.0
 11
-134.8405107413608
 21
103.2999999999998
 31
0.0
  0
LINE
  5
B9
  8
0
  6
CONTINUOUS
 62
     7
 10
-134.8405107413608
 20
103.2999999999998
 30
0.0
 11
-134.847549973501
 21
103.2884735315634
 31
0.0
  0
LINE
  5
BA
  8
0
  6
CONTINUOUS
 62
     7
 10
-134.847549973501
 20
103.2884735315634
 30
0.0
 11
-134.85
 21
103.2999999999999
 31
0.0
  0
LINE
  5
BB
  8
0
  6
CONTINUOUS
 62
     7
 10
-134.85
 20
103.2999999999999
 30
0.0
 11
-134.85
 21
113.0999999999998
 31
0.0
  0
ARC
  5
BC
  8
0
  6
CONTINUOUS
 62
     7
 10
-134.65
 20
113.0999999999998
 30
0.0
 40
0.2000000000000057
 50
89.99999999999801
 51
180.0
  0
LINE
  5
BD
  8
0
  6
CONTINUOUS
 62
     7
 10
-134.65
 20
113.2999999999998
 30
0.0
 11
-134.4640435835351
 21
113.2999999999998
 31
0.0
  0
ARC
  5
BE
  8
0
  6
CONTINUOUS
 62
     7
 10
-85.65000000000006
 20
72.79999999999986
 30
0.0
 40
0.5000000000000004
 50
269.9999999999996
 51
0.0000000000005684
  0
LINE
  5
BF
  8
0
  6
CONTINUOUS
 62
     7
 10
-85.65000000000006
 20
72.29999999999986
 30
0.0
 11
-85.82433414043588
 21
72.29999999999986
 31
0.0
  0
ARC
  5
C0
  8
0
  6
CONTINUOUS
 62
     7
 10
-85.35000000000004
 20
113.0999999999998
 30
0.0
 40
0.199999999999978
 50
0.0
 51
90.0
  0
LINE
  5
C1
  8
0
  6
CONTINUOUS
 62
     7
 10
-85.53595641646494
 20
113.2999999999998
 30
0.0
 11
-85.35000000000004
 21
113.2999999999998
 31
0.0
  0
LINE
  5
C2
  8
0
  6
CONTINUOUS
 62
     7
 10
-85.31810561627437
 20
102.5091252561033
 30
0.0
 11
-85.1524500264991
 21
103.2884735315635
 31
0.0
  0
LINE
  5
C3
  8
0
  6
CONTINUOUS
 62
     7
 10
-134.6759089336874
 20
92.29999999999984
 30
0.0
 11
-134.6759089336874
 21
87.69125480798115
 31
0.0
  0
LINE
  5
C4
  8
0
  6
CONTINUOUS
 62
     7
 10
-134.6759089336874
 20
87.69125480798115
 30
0.0
 11
-134.6759089336874
 21
87.29999999999971
 31
0.0
  0
LINE
  5
C5
  8
0
  6
CONTINUOUS
 62
     7
 10
-134.6562953995158
 20
92.6683988995993
 30
0.0
 11
-134.6759089336874
 21
92.29999999999984
 31
0.0
  0
LINE
  5
C6
  8
0
  6
CONTINUOUS
 62
     7
 10
-85.32409106631269
 20
87.29999999999995
 30
0.0
 11
-85.32409106631269
 21
87.69081083303257
 31
0.0
  0
LINE
  5
C7
  8
0
  6
CONTINUOUS
 62
     7
 10
-85.32409106631269
 20
87.69081083303257
 30
0.0
 11
-85.32409106631272
 21
92.29999999999984
 31
0.0
  0
LINE
  5
C8
  8
0
  6
CONTINUOUS
 62
     7
 10
-85.32409106631272
 20
92.29999999999984
 30
0.0
 11
-85.34370460048429
 21
92.66839889959975
 31
0.0
  0
LINE
  5
C9
  8
0
  6
CONTINUOUS
 62
     7
 10
-134.3705252302859
 20
93.29999999999984
 30
0.0
 11
-133.8258787875705
 21
93.29999999999984
 31
0.0
  0
ARC
  5
CA
  8
0
  6
CONTINUOUS
 62
     7
 10
-133.0056627537211
 20
92.52030590831127
 30
0.0
 40
1.657262702600919
 50
158.4811937627499
 51
174.8732106930679
  0
POLYLINE
  5
CB
  8
0
  6
CONTINUOUS
 62
     7
 66
     1
 10
0.0
 20
0.0
 30
0.0
  0
VERTEX
  5
1B5
  8
0
  6
CONTINUOUS
 62
     7
 10
-134.5474096402329
 20
93.12820080330792
 30
0.0
  0
VERTEX
  5
1B6
  8
0
  6
CONTINUOUS
 62
     7
 10
-134.4917727922877
 20
93.22528671229935
 30
0.0
  0
VERTEX
  5
1B7
  8
0
  6
CONTINUOUS
 62
     7
 10
-134.413523133924
 20
93.29122400642572
 30
0.0
  0
VERTEX
  5
1B8
  8
0
  6
CONTINUOUS
 62
     7
 10
-134.3705252302859
 20
93.29999999999984
 30
0.0
  0
SEQEND
  5
236
  8
0
  6
CONTINUOUS
 62
     7
  0
LINE
  5
CC
  8
0
  6
CONTINUOUS
 62
     7
 10
-86.1741212124296
 20
93.29999999999984
 30
0.0
 11
-85.62947476971416
 21
93.29999999999984
 31
0.0
  0
POLYLINE
  5
CD
  8
0
  6
CONTINUOUS
 62
     7
 66
     1
 10
0.0
 20
0.0
 30
0.0
  0
VERTEX
  5
1B9
  8
0
  6
CONTINUOUS
 62
     7
 10
-85.62947476971416
 20
93.29999999999984
 30
0.0
  0
VERTEX
  5
1BA
  8
0
  6
CONTINUOUS
 62
     7
 10
-85.53303327937637
 20
93.2539395176049
 30
0.0
  0
VERTEX
  5
1BB
  8
0
  6
CONTINUOUS
 62
     7
 10
-85.4710845482598
 20
93.16621033313415
 30
0.0
  0
VERTEX
  5
1BC
  8
0
  6
CONTINUOUS
 62
     7
 10
-85.42645389188857
 20
93.06230083934784
 30
0.0
  0
SEQEND
  5
237
  8
0
  6
CONTINUOUS
 62
     7
  0
ARC
  5
CE
  8
0
  6
CONTINUOUS
 62
     7
 10
-87.25578214987736
 20
92.4723603355625
 30
0.0
 40
1.9221008489366
 50
5.853879910928583
 51
17.87400469403054
  0
ARC
  5
CF
  8
0
  6
CONTINUOUS
 62
     7
 10
-84.21268015036729
 20
94.26482352800585
 30
0.0
 40
1.96175646402046
 50
178.972567982028
 51
202.6580663605008
  0
POLYLINE
  5
D0
  8
0
  6
CONTINUOUS
 62
     7
 66
     1
 10
0.0
 20
0.0
 30
0.0
  0
VERTEX
  5
1BD
  8
0
  6
CONTINUOUS
 62
     7
 10
-86.02302879840698
 20
93.50909461055798
 30
0.0
  0
VERTEX
  5
1BE
  8
0
  6
CONTINUOUS
 62
     7
 10
-85.97126402233084
 20
93.41976820785874
 30
0.0
  0
VERTEX
  5
1BF
  8
0
  6
CONTINUOUS
 62
     7
 10
-85.89979170278968
 20
93.34023388488325
 30
0.0
  0
VERTEX
  5
1C0
  8
0
  6
CONTINUOUS
 62
     7
 10
-85.79932852171251
 20
93.29999999999984
 30
0.0
  0
SEQEND
  5
238
  8
0
  6
CONTINUOUS
 62
     7
  0
POLYLINE
  5
D1
  8
0
  6
CONTINUOUS
 62
     7
 66
     1
 10
0.0
 20
0.0
 30
0.0
  0
VERTEX
  5
1C1
  8
0
  6
CONTINUOUS
 62
     7
 10
-134.2006714782876
 20
93.29999999999984
 30
0.0
  0
VERTEX
  5
1C2
  8
0
  6
CONTINUOUS
 62
     7
 10
-134.0910662838294
 20
93.34792432044381
 30
0.0
  0
VERTEX
  5
1C3
  8
0
  6
CONTINUOUS
 62
     7
 10
-134.0163445684323
 20
93.43843448418576
 30
0.0
  0
VERTEX
  5
1C4
  8
0
  6
CONTINUOUS
 62
     7
 10
-133.9601128972438
 20
93.54538884100026
 30
0.0
  0
SEQEND
  5
239
  8
0
  6
CONTINUOUS
 62
     7
  0
ARC
  5
D2
  8
0
  6
CONTINUOUS
 62
     7
 10
-135.8008048460823
 20
94.26206528717864
 30
0.0
 40
1.975290353093869
 50
338.7264669751878
 51
1.100411675987289
  0
ARC
  5
D3
  8
0
  6
CONTINUOUS
 62
     7
 10
-101.1205925974346
 20
71.79999999999986
 30
0.0
 40
3.500000000000001
 50
285.3201694409689
 51
287.9295946357112
  0
LINE
  5
D4
  8
0
  6
CONTINUOUS
 62
     7
 10
-128.0
 20
68.29999999999984
 30
0.0
 11
-128.0630146985491
 21
68.29999999999984
 31
0.0
  0
LINE
  5
D5
  8
0
  6
CONTINUOUS
 62
     7
 10
-128.5000000000001
 20
68.32623383911022
 30
0.0
 11
-128.0630146985491
 21
68.29999999999984
 31
0.0
  0
LINE
  5
D6
  8
0
  6
CONTINUOUS
 62
     7
 10
-128.5000000000001
 20
68.32623383911022
 30
0.0
 11
-128.5000000000001
 21
68.79999999999986
 31
0.0
  0
ENDBLK
  8
0
  0
BLOCK
  8
0
  2
D_FRAME_VIEW_4964
 70
     0
 10
0.0
 20
0.0
 30
0.0
  0
LINE
  5
E1
  8
0
  6
CONTINUOUS
 62
     7
 10
-182.0152028867949
 20
113.2999999999998
 30
0.0
 11
-180.6920997883031
 21
113.2999999999998
 31
0.0
  0
LINE
  5
E2
  8
0
  6
CONTINUOUS
 62
     7
 10
-169.3079002116969
 20
113.2999999999998
 30
0.0
 11
-167.9847971132052
 21
113.2999999999998
 31
0.0
  0
LINE
  5
E3
  8
0
  6
CONTINUOUS
 62
     7
 10
-169.3079002116969
 20
72.29999999999986
 30
0.0
 11
-180.6920997883031
 21
72.29999999999986
 31
0.0
  0
LINE
  5
E4
  8
0
  6
CONTINUOUS
 62
     7
 10
-180.6920997883031
 20
72.29999999999986
 30
0.0
 11
-182.0703321825654
 21
72.29999999999986
 31
0.0
  0
LINE
  5
E5
  8
0
  6
CONTINUOUS
 62
     7
 10
-180.6920997883031
 20
113.2999999999998
 30
0.0
 11
-169.3079002116969
 21
113.2999999999998
 31
0.0
  0
LINE
  5
E6
  8
0
  6
CONTINUOUS
 62
     7
 10
-167.9296678174347
 20
72.29999999999986
 30
0.0
 11
-169.3079002116969
 21
72.29999999999986
 31
0.0
  0
POLYLINE
  5
E7
  8
0
  6
CONTINUOUS
 62
     7
 66
     1
 10
0.0
 20
0.0
 30
0.0
  0
VERTEX
  5
1C7
  8
0
  6
CONTINUOUS
 62
     7
 10
-185.648433267925
 20
72.52264990188723
 30
0.0
  0
VERTEX
  5
1C8
  8
0
  6
CONTINUOUS
 62
     7
 10
-185.6361239324276
 20
72.50502259875812
 30
0.0
  0
VERTEX
  5
1C9
  8
0
  6
CONTINUOUS
 62
     7
 10
-185.6231075303501
 20
72.48798938876162
 30
0.0
  0
VERTEX
  5
1CA
  8
0
  6
CONTINUOUS
 62
     7
 10
-185.6094290547018
 20
72.47158970056569
 30
0.0
  0
VERTEX
  5
1CB
  8
0
  6
CONTINUOUS
 62
     7
 10
-185.595133498492
 20
72.45586296283825
 30
0.0
  0
VERTEX
  5
1CC
  8
0
  6
CONTINUOUS
 62
     7
 10
-185.5797740990685
 20
72.440368045963
 30
0.0
  0
VERTEX
  5
1CD
  8
0
  6
CONTINUOUS
 62
     7
 10
-185.5638016881047
 20
72.4256002083794
 30
0.0
  0
VERTEX
  5
1CE
  8
0
  6
CONTINUOUS
 62
     7
 10
-185.5472663893729
 20
72.41158975277811
 30
0.0
  0
VERTEX
  5
1CF
  8
0
  6
CONTINUOUS
 62
     7
 10
-185.5302183266452
 20
72.3983669818499
 30
0.0
  0
VERTEX
  5
1D0
  8
0
  6
CONTINUOUS
 62
     7
 10
-185.5132178993515
 20
72.38630376510318
 30
0.0
  0
VERTEX
  5
1D1
  8
0
  6
CONTINUOUS
 62
     7
 10
-185.495772099608
 20
72.37498575995957
 30
0.0
  0
VERTEX
  5
1D2
  8
0
  6
CONTINUOUS
 62
     7
 10
-185.4779256281123
 20
72.36443157939944
 30
0.0
  0
VERTEX
  5
1D3
  8
0
  6
CONTINUOUS
 62
     7
 10
-185.459723185562
 20
72.35465983640319
 30
0.0
  0
VERTEX
  5
1D4
  8
0
  6
CONTINUOUS
 62
     7
 10
-185.4407019529975
 20
72.34545361732017
 30
0.0
  0
VERTEX
  5
1D5
  8
0
  6
CONTINUOUS
 62
     7
 10
-185.4213408549274
 20
72.33707218329265
 30
0.0
  0
VERTEX
  5
1D6
  8
0
  6
CONTINUOUS
 62
     7
 10
-185.4016866757121
 20
72.3295284316074
 30
0.0
  0
VERTEX
  5
1D7
  8
0
  6
CONTINUOUS
 62
     7
 10
-185.3817861997121
 20
72.32283525955123
 30
0.0
  0
VERTEX
  5
1D8
  8
0
  6
CONTINUOUS
 62
     7
 10
-185.3576582089441
 20
72.3159428392858
 30
0.0
  0
VERTEX
  5
1D9
  8
0
  6
CONTINUOUS
 62
     7
 10
-185.333240396285
 20
72.31027378144164
 30
0.0
  0
VERTEX
  5
1DA
  8
0
  6
CONTINUOUS
 62
     7
 10
-185.3086114538477
 20
72.30584106602645
 30
0.0
  0
VERTEX
  5
1DB
  8
0
  6
CONTINUOUS
 62
     7
 10
-185.2833195578077
 20
72.30259988116238
 30
0.0
  0
VERTEX
  5
1DC
  8
0
  6
CONTINUOUS
 62
     7
 10
-185.2578907005099
 20
72.30065093324482
 30
0.0
  0
VERTEX
  5
1DD
  8
0
  6
CONTINUOUS
 62
     7
 10
-185.232408120756
 20
72.29999999999986
 30
0.0
  0
SEQEND
  5
23A
  8
0
  6
CONTINUOUS
 62
     7
  0
LINE
  5
E8
  8
0
  6
CONTINUOUS
 62
     7
 10
-186.5000000000001
 20
73.79999999999986
 30
0.0
 11
-185.648433267925
 21
72.52264990188726
 31
0.0
  0
LINE
  5
E9
  8
0
  6
CONTINUOUS
 62
     7
 10
-186.5000000000001
 20
86.79999999999984
 30
0.0
 11
-186.5000000000001
 21
73.79999999999984
 31
0.0
  0
ARC
  5
EA
  8
0
  6
CONTINUOUS
 62
     7
 10
-188.5007870468588
 20
86.79921295314114
 30
0.0
 40
2.000787201658481
 50
0.0225383611054895
 51
89.9774616388943
  0
ARC
  5
EB
  8
0
  6
CONTINUOUS
 62
     7
 10
-188.4998627189489
 20
86.7998627189487
 30
0.0
 40
2.000137285762352
 50
90.0039325424811
 51
179.9960674575189
  0
LINE
  5
EC
  8
0
  6
CONTINUOUS
 62
     7
 10
-190.5000000000001
 20
73.79999999999987
 30
0.0
 11
-190.5000000000001
 21
86.79999999999984
 31
0.0
  0
LINE
  5
ED
  8
0
  6
CONTINUOUS
 62
     7
 10
-191.1666666666667
 20
72.79999999999983
 30
0.0
 11
-191.1118598277689
 21
72.88221025834665
 31
0.0
  0
LINE
  5
EE
  8
0
  6
CONTINUOUS
 62
     7
 10
-191.1118598277689
 20
72.88221025834665
 30
0.0
 11
-190.5000000000001
 21
73.79999999999986
 31
0.0
  0
LINE
  5
EF
  8
0
  6
CONTINUOUS
 62
     9
 10
-191.2413847737008
 20
72.79961371554734
 30
0.0
 11
-191.1988556574038
 21
72.79999999999986
 31
0.0
  0
LINE
  5
F0
  8
0
  6
CONTINUOUS
 62
     7
 10
-185.232408120756
 20
72.29999999999986
 30
0.0
 11
-182.0703321825654
 21
72.29999999999986
 31
0.0
  0
POLYLINE
  5
F1
  8
0
  6
CONTINUOUS
 62
     7
 66
     1
 10
0.0
 20
0.0
 30
0.0
  0
VERTEX
  5
1DE
  8
0
  6
CONTINUOUS
 62
     7
 10
-158.3364919659755
 20
72.29999999999986
 30
0.0
  0
VERTEX
  5
1DF
  8
0
  6
CONTINUOUS
 62
     7
 10
-158.2557646417789
 20
72.29760692168779
 30
0.0
  0
VERTEX
  5
1E0
  8
0
  6
CONTINUOUS
 62
     7
 10
-158.17520951375
 20
72.29032481153774
 30
0.0
  0
VERTEX
  5
1E1
  8
0
  6
CONTINUOUS
 62
     7
 10
-158.0951529241365
 20
72.27799935672903
 30
0.0
  0
VERTEX
  5
1E2
  8
0
  6
CONTINUOUS
 62
     7
 10
-158.0159212151858
 20
72.26047624444087
 30
0.0
  0
VERTEX
  5
1E3
  8
0
  6
CONTINUOUS
 62
     7
 10
-157.9378407291456
 20
72.23760116185254
 30
0.0
  0
VERTEX
  5
1E4
  8
0
  6
CONTINUOUS
 62
     7
 10
-157.8612378082634
 20
72.20921979614332
 30
0.0
  0
VERTEX
  5
1E5
  8
0
  6
CONTINUOUS
 62
     7
 10
-157.7864387947868
 20
72.17517783449246
 30
0.0
  0
VERTEX
  5
1E6
  8
0
  6
CONTINUOUS
 62
     7
 10
-157.7363026862107
 20
72.14842670614608
 30
0.0
  0
VERTEX
  5
1E7
  8
0
  6
CONTINUOUS
 62
     7
 10
-157.687062823078
 20
72.11868241779538
 30
0.0
  0
VERTEX
  5
1E8
  8
0
  6
CONTINUOUS
 62
     7
 10
-157.6389522651361
 20
72.08588810247112
 30
0.0
  0
VERTEX
  5
1E9
  8
0
  6
CONTINUOUS
 62
     7
 10
-157.5922040721323
 20
72.04998689320405
 30
0.0
  0
VERTEX
  5
1EA
  8
0
  6
CONTINUOUS
 62
     7
 10
-157.5470513038141
 20
72.01092192302494
 30
0.0
  0
VERTEX
  5
1EB
  8
0
  6
CONTINUOUS
 62
     7
 10
-157.5037270199289
 20
71.96863632496456
 30
0.0
  0
VERTEX
  5
1EC
  8
0
  6
CONTINUOUS
 62
     7
 10
-157.4762052077021
 20
71.93886966541255
 30
0.0
  0
VERTEX
  5
1ED
  8
0
  6
CONTINUOUS
 62
     7
 10
-157.4495480665545
 20
71.90750678060786
 30
0.0
  0
VERTEX
  5
1EE
  8
0
  6
CONTINUOUS
 62
     7
 10
-157.4238800307619
 20
71.8745849200778
 30
0.0
  0
VERTEX
  5
1EF
  8
0
  6
CONTINUOUS
 62
     7
 10
-157.3993255346
 20
71.84014133334964
 30
0.0
  0
VERTEX
  5
1F0
  8
0
  6
CONTINUOUS
 62
     7
 10
-157.3760090123446
 20
71.8042132699507
 30
0.0
  0
VERTEX
  5
1F1
  8
0
  6
CONTINUOUS
 62
     7
 10
-157.3540548982715
 20
71.76683797940825
 30
0.0
  0
VERTEX
  5
1F2
  8
0
  6
CONTINUOUS
 62
     7
 10
-157.3335876266563
 20
71.72805271124962
 30
0.0
  0
VERTEX
  5
1F3
  8
0
  6
CONTINUOUS
 62
     7
 10
-157.3186387130723
 20
71.6966193184351
 30
0.0
  0
VERTEX
  5
1F4
  8
0
  6
CONTINUOUS
 62
     7
 10
-157.3046697242278
 20
71.66421799371965
 30
0.0
  0
VERTEX
  5
1F5
  8
0
  6
CONTINUOUS
 62
     7
 10
-157.2917508398614
 20
71.63093838710763
 30
0.0
  0
VERTEX
  5
1F6
  8
0
  6
CONTINUOUS
 62
     7
 10
-157.2799522397119
 20
71.5968701486034
 30
0.0
  0
VERTEX
  5
1F7
  8
0
  6
CONTINUOUS
 62
     7
 10
-157.2693441035179
 20
71.56210292821137
 30
0.0
  0
VERTEX
  5
1F8
  8
0
  6
CONTINUOUS
 62
     7
 10
-157.2599966110181
 20
71.52672637593591
 30
0.0
  0
VERTEX
  5
1F9
  8
0
  6
CONTINUOUS
 62
     7
 10
-157.2519799419511
 20
71.4908301417814
 30
0.0
  0
VERTEX
  5
1FA
  8
0
  6
CONTINUOUS
 62
     7
 10
-157.2462064365043
 20
71.45968621934924
 30
0.0
  0
VERTEX
  5
1FB
  8
0
  6
CONTINUOUS
 62
     7
 10
-157.2414399658102
 20
71.42814796357162
 30
0.0
  0
VERTEX
  5
1FC
  8
0
  6
CONTINUOUS
 62
     7
 10
-157.2376995688667
 20
71.3963127940982
 30
0.0
  0
VERTEX
  5
1FD
  8
0
  6
CONTINUOUS
 62
     7
 10
-157.2350042846716
 20
71.36427813057864
 30
0.0
  0
VERTEX
  5
1FE
  8
0
  6
CONTINUOUS
 62
     7
 10
-157.2333731522228
 20
71.33214139266263
 30
0.0
  0
VERTEX
  5
1FF
  8
0
  6
CONTINUOUS
 62
     7
 10
-157.2328252105182
 20
71.29999999999986
 30
0.0
  0
SEQEND
  5
23B
  8
0
  6
CONTINUOUS
 62
     7
  0
LINE
  5
F2
  8
0
  6
CONTINUOUS
 62
     7
 10
-157.2328252105182
 20
71.29999999999986
 30
0.0
 11
-157.2328252105182
 21
68.79999999999986
 31
0.0
  0
LINE
  5
F3
  8
0
  6
CONTINUOUS
 62
     7
 10
-167.9296678174347
 20
72.29999999999986
 30
0.0
 11
-158.3364919659755
 21
72.29999999999986
 31
0.0
  0
LINE
  5
F4
  8
0
  6
CONTINUOUS
 62
     7
 10
-167.9847971132052
 20
113.2999999999998
 30
0.0
 11
-151.5219128329298
 21
113.2999999999998
 31
0.0
  0
LINE
  5
F5
  8
0
  6
CONTINUOUS
 62
     7
 10
-198.4780871670702
 20
113.2999999999998
 30
0.0
 11
-182.0152028867949
 21
113.2999999999998
 31
0.0
  0
LINE
  5
F6
  8
0
  6
CONTINUOUS
 62
     7
 10
-191.5000000000001
 20
72.29999999999987
 30
0.0
 11
-191.5000000000001
 21
72.23819654833032
 31
0.0
  0
LINE
  5
F7
  8
0
  6
CONTINUOUS
 62
     7
 10
-191.1975017131593
 20
72.7537474302609
 30
0.0
 11
-191.2530295218784
 21
72.67045571718228
 31
0.0
  0
LINE
  5
F8
  8
0
  6
CONTINUOUS
 62
     7
 10
-191.2530295218784
 20
72.67045571718228
 30
0.0
 11
-191.5000000000001
 21
72.29999999999987
 31
0.0
  0
LINE
  5
F9
  8
0
  6
CONTINUOUS
 62
     7
 10
-191.1666666666667
 20
72.79999999999987
 30
0.0
 11
-191.1975017131593
 21
72.75374743026092
 31
0.0
  0
LINE
  5
FA
  8
0
  6
CONTINUOUS
 62
     7
 10
-191.5000000000001
 20
71.29999999999986
 30
0.0
 11
-191.5000000000001
 21
72.23819654833032
 31
0.0
  0
LINE
  5
FB
  8
0
  6
CONTINUOUS
 62
     7
 10
-185.5000000000001
 20
72.29999999999981
 30
0.0
 11
-185.5000000000001
 21
71.29999999999986
 31
0.0
  0
ARC
  5
FC
  8
0
  6
CONTINUOUS
 62
     7
 10
-192.5000000000001
 20
69.29999999999984
 30
0.0
 40
0.9999999999999993
 50
283.1529324453435
 51
0.0
  0
LINE
  5
FD
  8
0
  6
CONTINUOUS
 62
     7
 10
-191.5000000000001
 20
69.29999999999984
 30
0.0
 11
-191.5000000000001
 21
71.29999999999986
 31
0.0
  0
LINE
  5
FE
  8
0
  6
CONTINUOUS
 62
     7
 10
-192.5000000000001
 20
68.29999999999984
 30
0.0
 11
-198.2013317191284
 21
68.29999999999984
 31
0.0
  0
LINE
  5
FF
  8
0
  6
CONTINUOUS
 62
     7
 10
-192.2724489861454
 20
68.32623383911022
 30
0.0
 11
-192.5
 21
68.29999999999984
 31
0.0
  0
LINE
  5
100
  8
0
  6
CONTINUOUS
 62
     7
 10
-157.4351914328679
 20
68.29999999999984
 30
0.0
 11
-184.5000000000001
 21
68.29999999999984
 31
0.0
  0
POLYLINE
  5
101
  8
0
  6
CONTINUOUS
 62
     7
 66
     1
 10
0.0
 20
0.0
 30
0.0
  0
VERTEX
  5
200
  8
0
  6
CONTINUOUS
 62
     7
 10
-157.4351914328679
 20
68.29999999999984
 30
0.0
  0
VERTEX
  5
201
  8
0
  6
CONTINUOUS
 62
     7
 10
-157.4331739497238
 20
68.3000245671703
 30
0.0
  0
VERTEX
  5
202
  8
0
  6
CONTINUOUS
 62
     7
 10
-157.4236886532627
 20
68.3008005298197
 30
0.0
  0
VERTEX
  5
203
  8
0
  6
CONTINUOUS
 62
     7
 10
-157.4142248002073
 20
68.30266409006337
 30
0.0
  0
VERTEX
  5
204
  8
0
  6
CONTINUOUS
 62
     7
 10
-157.4048089787105
 20
68.30561197158151
 30
0.0
  0
VERTEX
  5
205
  8
0
  6
CONTINUOUS
 62
     7
 10
-157.3952915511076
 20
68.30972503842167
 30
0.0
  0
VERTEX
  5
206
  8
0
  6
CONTINUOUS
 62
     7
 10
-157.3858518257512
 20
68.31495747960717
 30
0.0
  0
VERTEX
  5
207
  8
0
  6
CONTINUOUS
 62
     7
 10
-157.3765180534564
 20
68.32129886078565
 30
0.0
  0
VERTEX
  5
208
  8
0
  6
CONTINUOUS
 62
     7
 10
-157.3661400771005
 20
68.32977682016532
 30
0.0
  0
VERTEX
  5
209
  8
0
  6
CONTINUOUS
 62
     7
 10
-157.3559360084635
 20
68.33965347097335
 30
0.0
  0
VERTEX
  5
20A
  8
0
  6
CONTINUOUS
 62
     7
 10
-157.3459470039552
 20
68.3509013654887
 30
0.0
  0
VERTEX
  5
20B
  8
0
  6
CONTINUOUS
 62
     7
 10
-157.3384284599046
 20
68.3604764044091
 30
0.0
  0
VERTEX
  5
20C
  8
0
  6
CONTINUOUS
 62
     7
 10
-157.3310566618718
 20
68.3708550921603
 30
0.0
  0
VERTEX
  5
20D
  8
0
  6
CONTINUOUS
 62
     7
 10
-157.3238506098825
 20
68.38201744373762
 30
0.0
  0
VERTEX
  5
20E
  8
0
  6
CONTINUOUS
 62
     7
 10
-157.3168293039626
 20
68.39394347413645
 30
0.0
  0
VERTEX
  5
20F
  8
0
  6
CONTINUOUS
 62
     7
 10
-157.3085442166938
 20
68.40948594122298
 30
0.0
  0
VERTEX
  5
210
  8
0
  6
CONTINUOUS
 62
     7
 10
-157.3005621220965
 20
68.42613597900477
 30
0.0
  0
VERTEX
  5
211
  8
0
  6
CONTINUOUS
 62
     7
 10
-157.2929172099414
 20
68.44384129689338
 30
0.0
  0
VERTEX
  5
212
  8
0
  6
CONTINUOUS
 62
     7
 10
-157.2872825921417
 20
68.45815599707925
 30
0.0
  0
VERTEX
  5
213
  8
0
  6
CONTINUOUS
 62
     7
 10
-157.2818646656467
 20
68.47307553309925
 30
0.0
  0
VERTEX
  5
214
  8
0
  6
CONTINUOUS
 62
     7
 10
-157.2766783731406
 20
68.48856765551507
 30
0.0
  0
VERTEX
  5
215
  8
0
  6
CONTINUOUS
 62
     7
 10
-157.2717386573075
 20
68.50460011488835
 30
0.0
  0
VERTEX
  5
216
  8
0
  6
CONTINUOUS
 62
     7
 10
-157.2672970992625
 20
68.52026437189943
 30
0.0
  0
VERTEX
  5
217
  8
0
  6
CONTINUOUS
 62
     7
 10
-157.2630871270306
 20
68.53639653389236
 30
0.0
  0
VERTEX
  5
218
  8
0
  6
CONTINUOUS
 62
     7
 10
-157.2591201711066
 20
68.55296146271765
 30
0.0
  0
VERTEX
  5
219
  8
0
  6
CONTINUOUS
 62
     7
 10
-157.2554076619858
 20
68.56992402022577
 30
0.0
  0
VERTEX
  5
21A
  8
0
  6
CONTINUOUS
 62
     7
 10
-157.2518656811986
 20
68.58774836034718
 30
0.0
  0
VERTEX
  5
21B
  8
0
  6
CONTINUOUS
 62
     7
 10
-157.2486021213435
 20
68.6059683000652
 30
0.0
  0
VERTEX
  5
21C
  8
0
  6
CONTINUOUS
 62
     7
 10
-157.2456270146931
 20
68.62453760304821
 30
0.0
  0
VERTEX
  5
21D
  8
0
  6
CONTINUOUS
 62
     7
 10
-157.2429503935203
 20
68.64341003296452
 30
0.0
  0
VERTEX
  5
21E
  8
0
  6
CONTINUOUS
 62
     7
 10
-157.2406354999139
 20
68.66206705106006
 30
0.0
  0
VERTEX
  5
21F
  8
0
  6
CONTINUOUS
 62
     7
 10
-157.238610978643
 20
68.68098227873824
 30
0.0
  0
VERTEX
  5
220
  8
0
  6
CONTINUOUS
 62
     7
 10
-157.2368829331826
 20
68.70010682288962
 30
0.0
  0
VERTEX
  5
221
  8
0
  6
CONTINUOUS
 62
     7
 10
-157.2354574670081
 20
68.7193917904048
 30
0.0
  0
VERTEX
  5
222
  8
0
  6
CONTINUOUS
 62
     7
 10
-157.2343093838065
 20
68.73940028069629
 30
0.0
  0
VERTEX
  5
223
  8
0
  6
CONTINUOUS
 62
     7
 10
-157.2334864115409
 20
68.75954263997548
 30
0.0
  0
VERTEX
  5
224
  8
0
  6
CONTINUOUS
 62
     7
 10
-157.2329909028864
 20
68.7797616268681
 30
0.0
  0
VERTEX
  5
225
  8
0
  6
CONTINUOUS
 62
     7
 10
-157.2328252105182
 20
68.79999999999986
 30
0.0
  0
SEQEND
  5
23C
  8
0
  6
CONTINUOUS
 62
     7
  0
LINE
  5
102
  8
0
  6
CONTINUOUS
 62
     7
 10
-185.5000000000001
 20
69.29999999999984
 30
0.0
 11
-185.5000000000001
 21
71.29999999999986
 31
0.0
  0
LINE
  5
103
  8
0
  6
CONTINUOUS
 62
     7
 10
-151.7986682808717
 20
68.29999999999984
 30
0.0
 11
-157.4351914328679
 21
68.29999999999984
 31
0.0
  0
ARC
  5
104
  8
0
  6
CONTINUOUS
 62
     7
 10
-184.5000000000001
 20
69.29999999999984
 30
0.0
 40
1.000000000000001
 50
180.0
 51
270.0
  0
LINE
  5
105
  8
0
  6
CONTINUOUS
 62
     7
 10
-156.7639789939498
 20
64.69999999999985
 30
0.0
 11
-156.7639789939498
 21
68.29999999999983
 31
0.0
  0
LINE
  5
106
  8
0
  6
CONTINUOUS
 62
     7
 10
-157.7500000000001
 20
61.6999999999998
 30
0.0
 11
-156.7639789939498
 21
61.69999999999985
 31
0.0
  0
LINE
  5
107
  8
0
  6
CONTINUOUS
 62
     7
 10
-155.091577019472
 20
64.69999999999985
 30
0.0
 11
-156.7639789939498
 21
64.69999999999985
 31
0.0
  0
LINE
  5
108
  8
0
  6
CONTINUOUS
 62
     7
 10
-156.7639789939498
 20
61.69999999999985
 30
0.0
 11
-155.091577019472
 21
62.59371817711853
 31
0.0
  0
LINE
  5
109
  8
0
  6
CONTINUOUS
 62
     7
 10
-157.7500000000001
 20
68.29999999999984
 30
0.0
 11
-157.7500000000001
 21
61.6999999999998
 31
0.0
  0
LINE
  5
10A
  8
0
  6
CONTINUOUS
 62
     7
 10
-155.091577019472
 20
64.69999999999985
 30
0.0
 11
-152.2484633022822
 21
64.69999999999985
 31
0.0
  0
ARC
  5
10B
  8
0
  6
CONTINUOUS
 62
     7
 10
-150.2797918411993
 20
54.43406598220859
 30
0.0
 40
9.472760977864038
 50
101.9948905950647
 51
120.5280522704517
  0
ARC
  5
10C
  8
0
  6
CONTINUOUS
 62
     7
 10
-199.7187437840959
 20
54.4378293847382
 30
0.0
 40
9.468775434390245
 50
59.46801290263262
 51
78.00904423185085
  0
LINE
  5
10D
  8
0
  6
CONTINUOUS
 62
     7
 10
-193.2360210060503
 20
61.69999999999985
 30
0.0
 11
-194.9084229805281
 21
62.59371817711853
 31
0.0
  0
LINE
  5
10E
  8
0
  6
CONTINUOUS
 62
     7
 10
-197.7515366977179
 20
63.69999999999985
 30
0.0
 11
-198.4
 21
63.69999999999985
 31
0.0
  0
LINE
  5
10F
  8
0
  6
CONTINUOUS
 62
     7
 10
-193.2360210060503
 20
61.69999999999985
 30
0.0
 11
-195.4
 21
61.69999999999985
 31
0.0
  0
LINE
  5
110
  8
0
  6
CONTINUOUS
 62
     7
 10
-197.7515366977179
 20
64.69999999999985
 30
0.0
 11
-194.9084229805281
 21
64.69999999999985
 31
0.0
  0
LINE
  5
111
  8
0
  6
CONTINUOUS
 62
     7
 10
-193.2360210060503
 20
64.69999999999985
 30
0.0
 11
-193.2360210060503
 21
68.29999999999983
 31
0.0
  0
LINE
  5
112
  8
0
  6
CONTINUOUS
 62
     7
 10
-152.2484633022822
 20
63.69999999999985
 30
0.0
 11
-151.6000000000001
 21
63.69999999999985
 31
0.0
  0
LINE
  5
113
  8
0
  6
CONTINUOUS
 62
     7
 10
-156.7639789939498
 20
61.69999999999985
 30
0.0
 11
-154.6
 21
61.69999999999985
 31
0.0
  0
LINE
  5
114
  8
0
  6
CONTINUOUS
 62
     7
 10
-192.2500000000001
 20
61.6999999999998
 30
0.0
 11
-193.2360210060503
 21
61.69999999999985
 31
0.0
  0
LINE
  5
115
  8
0
  6
CONTINUOUS
 62
     7
 10
-194.9084229805281
 20
64.69999999999985
 30
0.0
 11
-193.2360210060503
 21
64.69999999999985
 31
0.0
  0
LINE
  5
116
  8
0
  6
CONTINUOUS
 62
     7
 10
-192.2500000000001
 20
61.6999999999998
 30
0.0
 11
-192.2500000000001
 21
68.33175416344798
 31
0.0
  0
LINE
  5
117
  8
0
  6
CONTINUOUS
 62
     7
 10
-199.0500000000001
 20
68.79999999999984
 30
0.0
 11
-199.0500000000001
 21
113.0999999999998
 31
0.0
  0
ARC
  5
118
  8
0
  6
CONTINUOUS
 62
     7
 10
-151.15
 20
113.0999999999998
 30
0.0
 40
0.1999999999999919
 50
0.0
 51
90.0
  0
LINE
  5
119
  8
0
  6
CONTINUOUS
 62
     7
 10
-151.5219128329298
 20
113.2999999999998
 30
0.0
 11
-151.15
 21
113.2999999999998
 31
0.0
  0
LINE
  5
11A
  8
0
  6
CONTINUOUS
 62
     7
 10
-150.95
 20
113.0999999999998
 30
0.0
 11
-150.95
 21
68.79999999999984
 31
0.0
  0
ARC
  5
11B
  8
0
  6
CONTINUOUS
 62
     7
 10
-198.8500000000001
 20
113.0999999999998
 30
0.0
 40
0.2000000000000057
 50
89.99999999999801
 51
180.0
  0
LINE
  5
11C
  8
0
  6
CONTINUOUS
 62
     7
 10
-198.85
 20
113.2999999999998
 30
0.0
 11
-198.4780871670702
 21
113.2999999999998
 31
0.0
  0
ARC
  5
11D
  8
0
  6
CONTINUOUS
 62
     7
 10
-198.5500000000001
 20
68.79999999999984
 30
0.0
 40
0.5000000000000004
 50
179.9999999999999
 51
270.0
  0
LINE
  5
11E
  8
0
  6
CONTINUOUS
 62
     7
 10
-198.2013317191284
 20
68.29999999999984
 30
0.0
 11
-198.5500000000001
 21
68.29999999999984
 31
0.0
  0
ARC
  5
11F
  8
0
  6
CONTINUOUS
 62
     7
 10
-151.45
 20
68.79999999999984
 30
0.0
 40
0.5000000000000004
 50
270.0
 51
0.0000000000000568
  0
LINE
  5
120
  8
0
  6
CONTINUOUS
 62
     7
 10
-151.45
 20
68.29999999999984
 30
0.0
 11
-151.7986682808717
 21
68.29999999999984
 31
0.0
  0
LINE
  5
121
  8
0
  6
CONTINUOUS
 62
     7
 10
-197.7515366977179
 20
64.69999999999985
 30
0.0
 11
-198.4
 21
64.69999999999985
 31
0.0
  0
LINE
  5
122
  8
0
  6
CONTINUOUS
 62
     7
 10
-152.2484633022822
 20
64.69999999999985
 30
0.0
 11
-151.6000000000001
 21
64.69999999999985
 31
0.0
  0
LINE
  5
123
  8
0
  6
CONTINUOUS
 62
     7
 10
-192.2500000000001
 20
68.29999999999984
 30
0.0
 11
-191.9000000000001
 21
68.29999999999984
 31
0.0
  0
LINE
  5
124
  8
0
  6
CONTINUOUS
 62
     7
 10
-191.9000000000001
 20
68.29999999999984
 30
0.0
 11
-191.8518518518519
 21
68.29999999999984
 31
0.0
  0
LINE
  5
125
  8
0
  6
CONTINUOUS
 62
     7
 10
-191.5000000000001
 20
69.29999999999984
 30
0.0
 11
-191.5000000000001
 21
68.29999999999984
 31
0.0
  0
LINE
  5
126
  8
0
  6
CONTINUOUS
 62
     7
 10
-191.5000000000001
 20
68.29999999999984
 30
0.0
 11
-191.8518518518519
 21
68.29999999999984
 31
0.0
  0
ARC
  5
127
  8
0
  6
CONTINUOUS
 62
     7
 10
-184.6765710221608
 20
72.1890561361678
 30
0.0
 40
3.877790852918652
 50
261.3766959742371
 51
270.4043120665467
  0
POLYLINE
  5
128
  8
0
  6
CONTINUOUS
 62
     7
 66
     1
 10
0.0
 20
0.0
 30
0.0
  0
VERTEX
  5
226
  8
0
  6
CONTINUOUS
 62
     7
 10
-185.2579972490157
 20
68.35510185348463
 30
0.0
  0
VERTEX
  5
227
  8
0
  6
CONTINUOUS
 62
     7
 10
-185.3663940885498
 20
68.38604950503985
 30
0.0
  0
VERTEX
  5
228
  8
0
  6
CONTINUOUS
 62
     7
 10
-185.457438213239
 20
68.44060612011556
 30
0.0
  0
VERTEX
  5
229
  8
0
  6
CONTINUOUS
 62
     7
 10
-185.5000000000001
 20
68.53877408765577
 30
0.0
  0
SEQEND
  5
23D
  8
0
  6
CONTINUOUS
 62
     7
  0
LINE
  5
129
  8
0
  6
CONTINUOUS
 62
     7
 10
-185.5000000000001
 20
68.53877408765577
 30
0.0
 11
-185.5000000000001
 21
69.29999999999984
 31
0.0
  0
LINE
  5
12A
  8
0
  6
CONTINUOUS
 62
     7
 10
-154.6000000000001
 20
64.69999999999985
 30
0.0
 11
-154.6000000000001
 21
68.29999999999983
 31
0.0
  0
LINE
  5
12B
  8
0
  6
CONTINUOUS
 62
     7
 10
-198.4
 20
63.69999999999985
 30
0.0
 11
-195.4000000000001
 21
61.69999999999985
 31
0.0
  0
LINE
  5
12C
  8
0
  6
CONTINUOUS
 62
     7
 10
-195.4
 20
68.29999999999984
 30
0.0
 11
-195.4
 21
64.69999999999985
 31
0.0
  0
LINE
  5
12D
  8
0
  6
CONTINUOUS
 62
     7
 10
-154.6
 20
61.69999999999985
 30
0.0
 11
-151.6000000000001
 21
63.69999999999985
 31
0.0
  0
LINE
  5
12E
  8
0
  6
CONTINUOUS
 62
     7
 10
-198.4
 20
64.69999999999985
 30
0.0
 11
-198.4
 21
63.69999999999984
 31
0.0
  0
LINE
  5
12F
  8
0
  6
CONTINUOUS
 62
     7
 10
-151.6000000000001
 20
63.69999999999985
 30
0.0
 11
-151.6000000000001
 21
64.69999999999985
 31
0.0
  0
ENDBLK
  8
0
  0
ENDSEC
  0
SECTION
  2
ENTITIES
  0
INSERT
  5
D7
  8
0
  6
DOT
 62
     7
  2
D_FRAME_VIEW_5861
 10
0.0
 20
0.0
 30
0.0
  0
TEXT
  5
D9
  8
0
  6
CONTINUOUS
 62
     9
 10
-168.2090940352633
 20
49.95454545454545
 30
0.0
 40
5.0
  1
ＳＢＡ－３６
  0
LINE
  5
DA
  8
0
  6
CENTER
 62
     1
 10
-110.0
 20
58.29999999999983
 30
0.0
 11
-110.0000000000001
 21
115.0999999999999
 31
0.0
  0
LINE
  5
DC
  8
0
  6
CENTER
 62
     1
 10
-175.0
 20
56.79999999999985
 30
0.0
 11
-175.0
 21
115.0999999999998
 31
0.0
  0
LINE
  5
DD
  8
0
  6
CENTER
 62
     1
 10
-115.85
 20
70.29999999999984
 30
0.0
 11
-115.85
 21
62.69999999999984
 31
0.0
  0
INSERT
  5
130
  8
0
  6
DOT
 62
     7
  2
D_FRAME_VIEW_4964
 10
0.0
 20
0.0
 30
0.0
  0
ENDSEC
  0
EOF
