  0
SECTION
  2
HEADER
  9
$ACADVER
  1
AC1014
  9
$ACADMAINTVER
 70
     9
  9
$DWGCODEPAGE
  3
ANSI_932
  9
$INSBASE
 10
0.0
 20
0.0
 30
0.0
  9
$EXTMIN
 10
7516.5342703033
 20
-1216.1186063052
 30
0.0
  9
$EXTMAX
 10
7809.826584758252
 20
-1043.9679160651
 30
0.0
  9
$LIMMIN
 10
0.0
 20
0.0
  9
$LIMMAX
 10
12.0
 20
9.0
  9
$ORTHOMODE
 70
     0
  9
$REGENMODE
 70
     1
  9
$FILLMODE
 70
     1
  9
$QTEXTMODE
 70
     0
  9
$MIRRTEXT
 70
     1
  9
$DRAGMODE
 70
     2
  9
$LTSCALE
 40
1.0
  9
$OSMODE
 70
    37
  9
$ATTMODE
 70
     1
  9
$TEXTSIZE
 40
0.2
  9
$TRACEWID
 40
0.05
  9
$TEXTSTYLE
  7
STANDARD
  9
$CLAYER
  8
0
  9
$CELTYPE
  6
BYLAYER
  9
$CECOLOR
 62
   256
  9
$CELTSCALE
 40
1.0
  9
$DELOBJ
 70
     1
  9
$DISPSILH
 70
     0
  9
$DIMSCALE
 40
1.0
  9
$DIMASZ
 40
2.0
  9
$DIMEXO
 40
0.0625
  9
$DIMDLI
 40
0.38
  9
$DIMRND
 40
0.0
  9
$DIMDLE
 40
0.0
  9
$DIMEXE
 40
1.0
  9
$DIMTP
 40
0.0
  9
$DIMTM
 40
0.0
  9
$DIMTXT
 40
3.5
  9
$DIMCEN
 40
0.09
  9
$DIMTSZ
 40
0.0
  9
$DIMTOL
 70
     0
  9
$DIMLIM
 70
     0
  9
$DIMTIH
 70
     1
  9
$DIMTOH
 70
     1
  9
$DIMSE1
 70
     0
  9
$DIMSE2
 70
     0
  9
$DIMTAD
 70
     1
  9
$DIMZIN
 70
     0
  9
$DIMBLK
  1

  9
$DIMASO
 70
     1
  9
$DIMSHO
 70
     1
  9
$DIMPOST
  1

  9
$DIMAPOST
  1

  9
$DIMALT
 70
     0
  9
$DIMALTD
 70
     2
  9
$DIMALTF
 40
25.4
  9
$DIMLFAC
 40
1.0
  9
$DIMTOFL
 70
     0
  9
$DIMTVP
 40
0.0
  9
$DIMTIX
 70
     0
  9
$DIMSOXD
 70
     0
  9
$DIMSAH
 70
     0
  9
$DIMBLK1
  1

  9
$DIMBLK2
  1

  9
$DIMSTYLE
  2
STANDARD
  9
$DIMCLRD
 70
     0
  9
$DIMCLRE
 70
     0
  9
$DIMCLRT
 70
     0
  9
$DIMTFAC
 40
1.0
  9
$DIMGAP
 40
1.75
  9
$DIMJUST
 70
     0
  9
$DIMSD1
 70
     0
  9
$DIMSD2
 70
     0
  9
$DIMTOLJ
 70
     1
  9
$DIMTZIN
 70
     0
  9
$DIMALTZ
 70
     0
  9
$DIMALTTZ
 70
     0
  9
$DIMFIT
 70
     3
  9
$DIMUPT
 70
     0
  9
$DIMUNIT
 70
     2
  9
$DIMDEC
 70
     2
  9
$DIMTDEC
 70
     4
  9
$DIMALTU
 70
     2
  9
$DIMALTTD
 70
     2
  9
$DIMTXSTY
  7
ＭＳ_ゴシック
  9
$DIMAUNIT
 70
     0
  9
$LUNITS
 70
     2
  9
$LUPREC
 70
     4
  9
$SKETCHINC
 40
0.1
  9
$FILLETRAD
 40
0.5
  9
$AUNITS
 70
     0
  9
$AUPREC
 70
     0
  9
$MENU
  1
.
  9
$ELEVATION
 40
0.0
  9
$PELEVATION
 40
0.0
  9
$THICKNESS
 40
0.0
  9
$LIMCHECK
 70
     0
  9
$CHAMFERA
 40
0.0
  9
$CHAMFERB
 40
0.0
  9
$CHAMFERC
 40
0.0
  9
$CHAMFERD
 40
0.0
  9
$SKPOLY
 70
     0
  9
$TDCREATE
 40
2459905.607877373
  9
$TDUPDATE
 40
2459905.607877616
  9
$TDINDWG
 40
0.0000000116
  9
$TDUSRTIMER
 40
0.0000000116
  9
$USRTIMER
 70
     1
  9
$ANGBASE
 50
0.0
  9
$ANGDIR
 70
     0
  9
$PDMODE
 70
     0
  9
$PDSIZE
 40
0.0
  9
$PLINEWID
 40
0.0
  9
$COORDS
 70
     1
  9
$SPLFRAME
 70
     0
  9
$SPLINETYPE
 70
     6
  9
$SPLINESEGS
 70
     8
  9
$ATTDIA
 70
     0
  9
$ATTREQ
 70
     1
  9
$HANDLING
 70
     1
  9
$HANDSEED
  5
333
  9
$SURFTAB1
 70
     6
  9
$SURFTAB2
 70
     6
  9
$SURFTYPE
 70
     6
  9
$SURFU
 70
     6
  9
$SURFV
 70
     6
  9
$UCSNAME
  2

  9
$UCSORG
 10
0.0
 20
0.0
 30
0.0
  9
$UCSXDIR
 10
1.0
 20
0.0
 30
0.0
  9
$UCSYDIR
 10
0.0
 20
1.0
 30
0.0
  9
$PUCSNAME
  2

  9
$PUCSORG
 10
0.0
 20
0.0
 30
0.0
  9
$PUCSXDIR
 10
1.0
 20
0.0
 30
0.0
  9
$PUCSYDIR
 10
0.0
 20
1.0
 30
0.0
  9
$USERI1
 70
     0
  9
$USERI2
 70
     0
  9
$USERI3
 70
     0
  9
$USERI4
 70
     0
  9
$USERI5
 70
     0
  9
$USERR1
 40
0.0
  9
$USERR2
 40
0.0
  9
$USERR3
 40
0.0
  9
$USERR4
 40
0.0
  9
$USERR5
 40
0.0
  9
$WORLDVIEW
 70
     1
  9
$SHADEDGE
 70
     3
  9
$SHADEDIF
 70
    70
  9
$TILEMODE
 70
     1
  9
$MAXACTVP
 70
    64
  9
$PINSBASE
 10
0.0
 20
0.0
 30
0.0
  9
$PLIMCHECK
 70
     0
  9
$PEXTMIN
 10
1.000000000000000E+20
 20
1.000000000000000E+20
 30
1.000000000000000E+20
  9
$PEXTMAX
 10
-1.000000000000000E+20
 20
-1.000000000000000E+20
 30
-1.000000000000000E+20
  9
$PLIMMIN
 10
0.0
 20
0.0
  9
$PLIMMAX
 10
12.0
 20
9.0
  9
$UNITMODE
 70
     0
  9
$VISRETAIN
 70
     1
  9
$PLINEGEN
 70
     0
  9
$PSLTSCALE
 70
     1
  9
$TREEDEPTH
 70
  3020
  9
$PICKSTYLE
 70
     1
  9
$CMLSTYLE
  2
STANDARD
  9
$CMLJUST
 70
     0
  9
$CMLSCALE
 40
1.0
  9
$PROXYGRAPHICS
 70
     1
  9
$MEASUREMENT
 70
     1
  0
ENDSEC
  0
SECTION
  2
CLASSES
  0
CLASS
  1
ACDBDICTIONARYWDFLT
  2
AcDbDictionaryWithDefault
  3
ObjectDBX Classes
 90
        0
280
     0
281
     0
  0
CLASS
  1
VISUALSTYLE
  2
AcDbVisualStyle
  3
ObjectDBX Classes
 90
     4095
280
     0
281
     0
  0
CLASS
  1
MATERIAL
  2
AcDbMaterial
  3
ObjectDBX Classes
 90
     1153
280
     0
281
     0
  0
CLASS
  1
SCALE
  2
AcDbScale
  3
ObjectDBX Classes
 90
     1153
280
     0
281
     0
  0
CLASS
  1
TABLESTYLE
  2
AcDbTableStyle
  3
ObjectDBX Classes
 90
     4095
280
     0
281
     0
  0
CLASS
  1
MLEADERSTYLE
  2
AcDbMLeaderStyle
  3
ACDB_MLEADERSTYLE_CLASS
 90
     4095
280
     0
281
     0
  0
CLASS
  1
SUN
  2
AcDbSun
  3
SCENEOE
 90
     1153
280
     0
281
     0
  0
CLASS
  1
DICTIONARYVAR
  2
AcDbDictionaryVar
  3
ObjectDBX Classes
 90
        0
280
     0
281
     0
  0
CLASS
  1
XRECORD
  2
AcDbXrecord
  3
ObjectDBX Classes
 90
        0
280
     0
281
     0
  0
CLASS
  1
LWPOLYLINE
  2
AcDbPolyline
  3
ObjectDBX Classes
 90
        0
280
     0
281
     1
  0
CLASS
  1
HATCH
  2
AcDbHatch
  3
ObjectDBX Classes
 90
        0
280
     0
281
     1
  0
CLASS
  1
ACDBPLACEHOLDER
  2
AcDbPlaceHolder
  3
ObjectDBX Classes
 90
        0
280
     0
281
     0
  0
CLASS
  1
LAYOUT
  2
AcDbLayout
  3
ObjectDBX Classes
 90
        0
280
     0
281
     0
  0
ENDSEC
  0
SECTION
  2
TABLES
  0
TABLE
  2
VPORT
  5
8
102
{ACAD_XDICTIONARY
360
328
102
}
330
0
100
AcDbSymbolTable
 70
     1
  0
VPORT
  5
29
330
8
100
AcDbSymbolTableRecord
100
AcDbViewportTableRecord
  2
*ACTIVE
 70
     0
 10
0.0
 20
0.0
 11
1.0
 21
1.0
 12
7663.180427530776
 22
-1130.04326118515
 13
0.0
 23
0.0
 14
0.5
 24
0.5
 15
0.5
 25
0.5
 16
0.0
 26
0.0
 36
1.0
 17
0.0
 27
0.0
 37
0.0
 40
172.1506902400999
 41
1.6
 42
50.0
 43
0.0
 44
0.0
 50
0.0
 51
0.0
 71
     0
 72
   100
 73
     1
 74
     3
 75
     0
 76
     0
 77
     0
 78
     0
  0
ENDTAB
  0
TABLE
  2
LTYPE
  5
5
330
0
100
AcDbSymbolTable
 70
     2
  0
LTYPE
  5
14
330
5
100
AcDbSymbolTableRecord
100
AcDbLinetypeTableRecord
  2
BYBLOCK
 70
     0
  3

 72
    65
 73
     0
 40
0.0
  0
LTYPE
  5
15
330
5
100
AcDbSymbolTableRecord
100
AcDbLinetypeTableRecord
  2
BYLAYER
 70
     0
  3

 72
    65
 73
     0
 40
0.0
  0
LTYPE
  5
16
330
5
100
AcDbSymbolTableRecord
100
AcDbLinetypeTableRecord
  2
CONTINUOUS
 70
     0
  3
Solid line
 72
    65
 73
     0
 40
0.0
  0
LTYPE
  5
280
330
5
100
AcDbSymbolTableRecord
100
AcDbLinetypeTableRecord
  2
CENTER
 70
     0
  3

 72
    65
 73
     0
 40
0.0
  0
ENDTAB
  0
TABLE
  2
LAYER
  5
2
330
0
100
AcDbSymbolTable
 70
     2
  0
LAYER
  5
10
330
2
100
AcDbSymbolTableRecord
100
AcDbLayerTableRecord
  2
0
 70
     0
 62
     7
  6
CONTINUOUS
  0
LAYER
  5
6E
330
2
100
AcDbSymbolTableRecord
100
AcDbLayerTableRecord
  2
1
 70
     0
 62
     7
  6
CONTINUOUS
  0
ENDTAB
  0
TABLE
  2
STYLE
  5
3
330
0
100
AcDbSymbolTable
 70
     2
  0
STYLE
  5
11
330
3
100
AcDbSymbolTableRecord
100
AcDbTextStyleTableRecord
  2
STANDARD
 70
     0
 40
0.0
 41
1.0
 50
0.0
 71
     0
 42
0.2
  3
txt
  4

  0
STYLE
  5
6F
330
3
100
AcDbSymbolTableRecord
100
AcDbTextStyleTableRecord
  2
ＭＳ_ゴシック
 70
     0
 40
0.0
 41
1.0
 50
0.0
 71
     0
 42
0.2
  3
ＭＳ ゴシック.shx
  4

  0
ENDTAB
  0
TABLE
  2
VIEW
  5
6
330
0
100
AcDbSymbolTable
 70
     0
  0
ENDTAB
  0
TABLE
  2
UCS
  5
7
330
0
100
AcDbSymbolTable
 70
     0
  0
ENDTAB
  0
TABLE
  2
APPID
  5
9
330
0
100
AcDbSymbolTable
 70
     2
  0
APPID
  5
12
330
9
100
AcDbSymbolTableRecord
100
AcDbRegAppTableRecord
  2
ACAD
 70
     0
  0
APPID
  5
332
330
9
100
AcDbSymbolTableRecord
100
AcDbRegAppTableRecord
  2
ACAD_MLEADERVER
 70
     0
  0
ENDTAB
  0
TABLE
  2
DIMSTYLE
  5
A
330
0
100
AcDbSymbolTable
 70
     1
  0
DIMSTYLE
105
27
330
A
100
AcDbSymbolTableRecord
100
AcDbDimStyleTableRecord
  2
STANDARD
 70
     0
  3

  4

  5

  6

  7

 40
1.0
 41
0.18
 42
0.0625
 43
0.38
 44
0.18
 45
0.0
 46
0.0
 47
0.0
 48
0.0
140
0.18
141
0.09
142
0.0
143
25.4
144
1.0
145
0.0
146
1.0
147
0.09
 71
     0
 72
     0
 73
     1
 74
     1
 75
     0
 76
     0
 77
     0
 78
     0
170
     0
171
     2
172
     0
173
     0
174
     0
175
     0
176
     0
177
     0
178
     0
270
     2
271
     4
272
     4
273
     2
274
     2
340
11
275
     0
280
     0
281
     0
282
     0
283
     1
284
     0
285
     0
286
     0
287
     3
288
     0
  0
ENDTAB
  0
TABLE
  2
BLOCK_RECORD
  5
1
330
0
100
AcDbSymbolTable
 70
     0
  0
BLOCK_RECORD
  5
1F
330
1
100
AcDbSymbolTableRecord
100
AcDbBlockTableRecord
  2
*MODEL_SPACE
  0
BLOCK_RECORD
  5
1B
330
1
100
AcDbSymbolTableRecord
100
AcDbBlockTableRecord
  2
*PAPER_SPACE
  0
ENDTAB
  0
ENDSEC
  0
SECTION
  2
BLOCKS
  0
BLOCK
  5
20
330
1F
100
AcDbEntity
  8
0
100
AcDbBlockBegin
  2
*MODEL_SPACE
 70
     0
 10
0.0
 20
0.0
 30
0.0
  3
*MODEL_SPACE
  1

  0
ENDBLK
  5
21
330
1F
100
AcDbEntity
  8
0
100
AcDbBlockEnd
  0
BLOCK
  5
1C
330
1B
100
AcDbEntity
 67
     1
  8
0
100
AcDbBlockBegin
  2
*PAPER_SPACE
 70
     0
 10
0.0
 20
0.0
 30
0.0
  3
*PAPER_SPACE
  1

  0
ENDBLK
  5
1D
330
1B
100
AcDbEntity
 67
     1
  8
0
100
AcDbBlockEnd
  0
ENDSEC
  0
SECTION
  2
ENTITIES
  0
LINE
  5
70
330
1F
100
AcDbEntity
  8
1
  6
CONTINUOUS
 62
     7
100
AcDbLine
 10
7732.6069219439
 20
-1105.9182934864
 30
0.0
 11
7732.6069219439
 21
-1133.9182934864
 31
0.0
  0
ARC
  5
71
330
1F
100
AcDbEntity
  8
1
  6
CONTINUOUS
 62
     7
100
AcDbCircle
 10
7759.6106510043
 20
-1133.9182934852
 30
0.0
 40
3.0
100
AcDbArc
 50
90.0
 51
169.6951535312
  0
ARC
  5
72
330
1F
100
AcDbEntity
  8
1
  6
CONTINUOUS
 62
     7
100
AcDbCircle
 10
7752.6069219439
 20
-1084.1682934864
 30
0.0
 40
11.0
100
AcDbArc
 50
46.8634412131
 51
73.1365587869
  0
ARC
  5
73
330
1F
100
AcDbEntity
  8
1
  6
CONTINUOUS
 62
     7
100
AcDbCircle
 10
7547.5166642514
 20
-1077.4182934355
 30
0.0
 40
2.017606052
100
AcDbArc
 50
270.0
 51
90.0
  0
LINE
  5
74
330
1F
100
AcDbEntity
  8
1
  6
CONTINUOUS
 62
     7
100
AcDbLine
 10
7726.6069219439
 20
-1105.9182934864
 30
0.0
 11
7723.5702656281
 21
-1106.4704128166
 31
0.0
  0
LINE
  5
75
330
1F
100
AcDbEntity
  8
1
  6
CONTINUOUS
 62
     7
100
AcDbLine
 10
7778.0569219439
 20
-1053.9682934864
 30
0.0
 11
7778.0569219439
 21
-1150.8682934864
 31
0.0
  0
ARC
  5
76
330
1F
100
AcDbEntity
  8
1
  6
CONTINUOUS
 62
     7
100
AcDbCircle
 10
7778.6069219439
 20
-1053.4182934864
 30
0.0
 40
2.0
100
AcDbArc
 50
0.0
 51
90.0
  0
ARC
  5
77
330
1F
100
AcDbEntity
  8
1
  6
CONTINUOUS
 62
     7
100
AcDbCircle
 10
7752.6069219439
 20
-1144.1682939502
 30
0.0
 40
5.5
100
AcDbArc
 50
0.0
 51
65.3800342696
  0
LINE
  5
78
330
1F
100
AcDbEntity
  8
1
  6
CONTINUOUS
 62
     7
100
AcDbLine
 10
7622.1280567748
 20
-1076.1413058289
 30
0.0
 11
7620.7292572408
 21
-1078.5640976913
 31
0.0
  0
LINE
  5
79
330
1F
100
AcDbEntity
  8
1
  6
CONTINUOUS
 62
     7
100
AcDbLine
 10
7767.1069219439
 20
-1095.414564426
 30
0.0
 11
7767.1069219439
 21
-1091.9182934864
 31
0.0
  0
LINE
  5
7A
330
1F
100
AcDbEntity
  8
1
  6
CONTINUOUS
 62
     7
100
AcDbLine
 10
7745.085787113
 20
-1128.6952811442
 30
0.0
 11
7746.484586647
 21
-1126.2724892819
 31
0.0
  0
LINE
  5
7B
330
1F
100
AcDbEntity
  8
1
  6
CONTINUOUS
 62
     7
100
AcDbLine
 10
7763.1069219439
 20
-1130.9182934864
 30
0.0
 11
7763.1069219439
 21
-1135.8182934864
 31
0.0
  0
LINE
  5
7C
330
1F
100
AcDbEntity
  8
1
  6
CONTINUOUS
 62
     7
100
AcDbLine
 10
7738.1069219439
 20
-1095.414564426
 30
0.0
 11
7738.1069219439
 21
-1091.9182934864
 31
0.0
  0
ARC
  5
7D
330
1F
100
AcDbEntity
  8
1
  6
CONTINUOUS
 62
     7
100
AcDbCircle
 10
7752.6069219439
 20
-1120.6682934866
 30
0.0
 40
11.0
100
AcDbArc
 50
46.8634412131
 51
73.1365587869
  0
ARC
  5
7E
330
1F
100
AcDbEntity
  8
1
  6
CONTINUOUS
 62
     7
100
AcDbCircle
 10
7614.6069219439
 20
-1084.1682934866
 30
0.0
 40
11.0
100
AcDbArc
 50
226.863441213
 51
253.1365587869
  0
LINE
  5
7F
330
1F
100
AcDbEntity
  8
1
  6
CONTINUOUS
 62
     7
100
AcDbLine
 10
7747.1069219439
 20
-1053.9682934864
 30
0.0
 11
7747.1069219439
 21
-1060.6682934864
 31
0.0
  0
LINE
  5
80
330
1F
100
AcDbEntity
  8
1
  6
CONTINUOUS
 62
     7
100
AcDbLine
 10
7760.1280567748
 20
-1076.1413058287
 30
0.0
 11
7758.7292572408
 21
-1078.5640976911
 31
0.0
  0
LINE
  5
81
330
1F
100
AcDbEntity
  8
1
  6
CONTINUOUS
 62
     7
100
AcDbLine
 10
7750.8147136659
 20
-1092.2724892817
 30
0.0
 11
7749.415914132
 21
-1094.695281144
 31
0.0
  0
LINE
  5
82
330
1F
100
AcDbEntity
  8
1
  6
CONTINUOUS
 62
     7
100
AcDbLine
 10
7620.1069219439
 20
-1150.8682934864
 30
0.0
 11
7633.6069219439
 21
-1150.8682934864
 31
0.0
  0
ARC
  5
83
330
1F
100
AcDbEntity
  8
1
  6
CONTINUOUS
 62
     7
100
AcDbCircle
 10
7706.6069219439
 20
-1084.1682934866
 30
0.0
 40
11.0
100
AcDbArc
 50
46.8634412131
 51
73.1365587869
  0
LINE
  5
84
330
1F
100
AcDbEntity
  8
1
  6
CONTINUOUS
 62
     7
100
AcDbLine
 10
7616.3991302219
 20
-1076.0640976913
 30
0.0
 11
7617.7979297559
 21
-1073.6413058289
 31
0.0
  0
ARC
  5
85
330
1F
100
AcDbEntity
  8
1
  6
CONTINUOUS
 62
     7
100
AcDbCircle
 10
7706.6069219439
 20
-1120.6682934866
 30
0.0
 40
11.0
100
AcDbArc
 50
46.8634412131
 51
73.1365587869
  0
LINE
  5
86
330
1F
100
AcDbEntity
  8
1
  6
CONTINUOUS
 62
     7
100
AcDbLine
 10
7733.6069219439
 20
-1053.9682934864
 30
0.0
 11
7747.1069219439
 21
-1053.9682934864
 31
0.0
  0
LINE
  5
87
330
1F
100
AcDbEntity
  8
1
  6
CONTINUOUS
 62
     7
100
AcDbLine
 10
7672.6069219438
 20
-1202.1186063052
 30
0.0
 11
7674.6269442156
 21
-1202.1186063052
 31
0.0
  0
LINE
  5
88
330
1F
100
AcDbEntity
  8
1
  6
CONTINUOUS
 62
     7
100
AcDbLine
 10
7754.8982087792
 20
-1065.6682934864
 30
0.0
 11
7750.3156351086
 21
-1065.6682934864
 31
0.0
  0
CIRCLE
  5
89
330
1F
100
AcDbEntity
  8
1
  6
CONTINUOUS
 62
     7
100
AcDbCircle
 10
7752.6069219439
 20
-1120.6682934866
 30
0.0
 40
8.3
  0
LINE
  5
8A
330
1F
100
AcDbEntity
  8
1
  6
CONTINUOUS
 62
     7
100
AcDbLine
 10
7758.1069219439
 20
-1053.9682934864
 30
0.0
 11
7758.1069219439
 21
-1060.6682934864
 31
0.0
  0
LINE
  5
8B
330
1F
100
AcDbEntity
  8
1
  6
CONTINUOUS
 62
     7
100
AcDbLine
 10
7778.6069219439
 20
-1051.4182934864
 30
0.0
 11
7581.6069219439
 21
-1051.4182934864
 31
0.0
  0
LINE
  5
8C
330
1F
100
AcDbEntity
  8
1
  6
CONTINUOUS
 62
     7
100
AcDbLine
 10
7758.1069219439
 20
-1053.9682934864
 30
0.0
 11
7778.0569219439
 21
-1053.9682934864
 31
0.0
  0
LINE
  5
8D
330
1F
100
AcDbEntity
  8
1
  6
CONTINUOUS
 62
     7
100
AcDbLine
 10
7585.6069219439
 20
-1151.4182934864
 30
0.0
 11
7585.6069219439
 21
-1053.4182934864
 31
0.0
  0
LINE
  5
8E
330
1F
100
AcDbEntity
  8
1
  6
CONTINUOUS
 62
     7
100
AcDbLine
 10
7721.1069219439
 20
-1112.9182934864
 30
0.0
 11
7726.0069219439
 21
-1112.9182934864
 31
0.0
  0
ARC
  5
8F
330
1F
100
AcDbEntity
  8
1
  6
CONTINUOUS
 62
     7
100
AcDbCircle
 10
7587.6069219439
 20
-1053.4182934864
 30
0.0
 40
2.0
100
AcDbArc
 50
90.0
 51
180.0
  0
LINE
  5
90
330
1F
100
AcDbEntity
  8
1
  6
CONTINUOUS
 62
     7
100
AcDbLine
 10
7772.6069219439
 20
-1098.9182934864
 30
0.0
 11
7769.5702656281
 21
-1098.3661741562
 31
0.0
  0
LINE
  5
91
330
1F
100
AcDbEntity
  8
1
  6
CONTINUOUS
 62
     7
100
AcDbLine
 10
7760.1280567748
 20
-1112.6413058289
 30
0.0
 11
7758.7292572408
 21
-1115.0640976913
 31
0.0
  0
LINE
  5
92
330
1F
100
AcDbEntity
  8
1
  6
CONTINUOUS
 62
     7
100
AcDbLine
 10
7699.085787113
 20
-1092.1952811442
 30
0.0
 11
7700.484586647
 21
-1089.7724892819
 31
0.0
  0
LINE
  5
93
330
1F
100
AcDbEntity
  8
1
  6
CONTINUOUS
 62
     7
100
AcDbLine
 10
7607.085787113
 20
-1092.1952811442
 30
0.0
 11
7608.484586647
 21
-1089.7724892819
 31
0.0
  0
LINE
  5
94
330
1F
100
AcDbEntity
  8
1
  6
CONTINUOUS
 62
     7
100
AcDbLine
 10
7780.6069219439
 20
-1151.4182934864
 30
0.0
 11
7780.6069219439
 21
-1053.4182934864
 31
0.0
  0
LINE
  5
95
330
1F
100
AcDbEntity
  8
1
  6
CONTINUOUS
 62
     7
100
AcDbLine
 10
7745.085787113
 20
-1092.195281144
 30
0.0
 11
7746.484586647
 21
-1089.7724892817
 31
0.0
  0
LINE
  5
96
330
1F
100
AcDbEntity
  8
1
  6
CONTINUOUS
 62
     7
100
AcDbLine
 10
7770.1069219702
 20
-1068.4182934864
 30
0.0
 11
7756.1069219439
 21
-1068.4182934863
 31
0.0
  0
ARC
  5
97
330
1F
100
AcDbEntity
  8
1
  6
CONTINUOUS
 62
     7
100
AcDbCircle
 10
7770.1069219427
 20
-1109.4220225468
 30
0.0
 40
3.0
100
AcDbArc
 50
100.3048464688
 51
180.0
  0
LINE
  5
98
330
1F
100
AcDbEntity
  8
1
  6
CONTINUOUS
 62
     7
100
AcDbLine
 10
7767.1069219439
 20
-1091.9182934864
 30
0.0
 11
7772.0069219439
 21
-1091.9182934864
 31
0.0
  0
LINE
  5
99
330
1F
100
AcDbEntity
  8
1
  6
CONTINUOUS
 62
     7
100
AcDbLine
 10
7772.6069219439
 20
-1105.9182934864
 30
0.0
 11
7772.6069219439
 21
-1133.9182934864
 31
0.0
  0
ARC
  5
9A
330
1F
100
AcDbEntity
  8
1
  6
CONTINUOUS
 62
     7
100
AcDbCircle
 10
7706.6069219439
 20
-1120.6682934866
 30
0.0
 40
11.0
100
AcDbArc
 50
226.863441213
 51
253.1365587869
  0
CIRCLE
  5
9B
330
1F
100
AcDbEntity
  8
1
  6
CONTINUOUS
 62
     7
100
AcDbCircle
 10
7752.6069219439
 20
-1060.6682930226
 30
0.0
 40
2.1
  0
LINE
  5
9C
330
1F
100
AcDbEntity
  8
1
  6
CONTINUOUS
 62
     7
100
AcDbLine
 10
7756.1069219439
 20
-1068.4182934864
 30
0.0
 11
7756.659041274
 21
-1071.4549498021
 31
0.0
  0
ARC
  5
9D
330
1F
100
AcDbEntity
  8
1
  6
CONTINUOUS
 62
     7
100
AcDbCircle
 10
7752.6069219439
 20
-1060.6682930226
 30
0.0
 40
5.5
100
AcDbArc
 50
294.6199657304
 51
0.0
  0
LINE
  5
9E
330
1F
100
AcDbEntity
  8
1
  6
CONTINUOUS
 62
     7
100
AcDbLine
 10
7579.6069219439
 20
-1131.4180829319
 30
0.0
 11
7579.6069219439
 21
-1073.4185040409
 31
0.0
  0
ARC
  5
9F
330
1F
100
AcDbEntity
  8
1
  6
CONTINUOUS
 62
     7
100
AcDbCircle
 10
7752.6069219439
 20
-1144.1682939502
 30
0.0
 40
5.5
100
AcDbArc
 50
114.6199657303
 51
180.0
  0
CIRCLE
  5
A0
330
1F
100
AcDbEntity
  8
1
  6
CONTINUOUS
 62
     7
100
AcDbCircle
 10
7660.6069219439
 20
-1084.1682934866
 30
0.0
 40
8.3
  0
LINE
  5
A1
330
1F
100
AcDbEntity
  8
1
  6
CONTINUOUS
 62
     7
100
AcDbLine
 10
7759.6106510043
 20
-1130.9182934864
 30
0.0
 11
7763.1069219439
 21
-1130.9182934864
 31
0.0
  0
ARC
  5
A2
330
1F
100
AcDbEntity
  8
1
  6
CONTINUOUS
 62
     7
100
AcDbCircle
 10
7770.1069219427
 20
-1095.414564426
 30
0.0
 40
3.0
100
AcDbArc
 50
180.0
 51
259.6951535312
  0
LINE
  5
A3
330
1F
100
AcDbEntity
  8
1
  6
CONTINUOUS
 62
     7
100
AcDbLine
 10
7756.1069219439
 20
-1136.4182934864
 30
0.0
 11
7770.1069219702
 21
-1136.4182934864
 31
0.0
  0
LINE
  5
A4
330
1F
100
AcDbEntity
  8
1
  6
CONTINUOUS
 62
     7
100
AcDbLine
 10
7747.1069219439
 20
-1150.8682934864
 30
0.0
 11
7747.1069219439
 21
-1144.1682934864
 31
0.0
  0
LINE
  5
A5
330
1F
100
AcDbEntity
  8
1
  6
CONTINUOUS
 62
     7
100
AcDbLine
 10
7758.1069219439
 20
-1150.8682934864
 30
0.0
 11
7758.1069219439
 21
-1144.1682934864
 31
0.0
  0
LINE
  5
A6
330
1F
100
AcDbEntity
  8
1
  6
CONTINUOUS
 62
     7
100
AcDbLine
 10
7763.1069219439
 20
-1073.9182934864
 30
0.0
 11
7763.1069219439
 21
-1069.0182934864
 31
0.0
  0
LINE
  5
A7
330
1F
100
AcDbEntity
  8
1
  6
CONTINUOUS
 62
     7
100
AcDbLine
 10
7767.1069219439
 20
-1112.9182934864
 30
0.0
 11
7772.0069219439
 21
-1112.9182934864
 31
0.0
  0
ARC
  5
A8
330
1F
100
AcDbEntity
  8
1
  6
CONTINUOUS
 62
     7
100
AcDbCircle
 10
7752.6069219439
 20
-1084.1682934864
 30
0.0
 40
11.0
100
AcDbArc
 50
226.863441213
 51
253.1365587869
  0
LINE
  5
A9
330
1F
100
AcDbEntity
  8
1
  6
CONTINUOUS
 62
     7
100
AcDbLine
 10
7767.1069219439
 20
-1109.4220225468
 30
0.0
 11
7767.1069219439
 21
-1112.9182934864
 31
0.0
  0
LINE
  5
AA
330
1F
100
AcDbEntity
  8
1
  6
CONTINUOUS
 62
     7
100
AcDbLine
 10
7778.6069219439
 20
-1153.4182934864
 30
0.0
 11
7581.6069219439
 21
-1153.4182934864
 31
0.0
  0
LINE
  5
AB
330
1F
100
AcDbEntity
  8
1
  6
CONTINUOUS
 62
     7
100
AcDbLine
 10
7738.1069219439
 20
-1091.9182934864
 30
0.0
 11
7733.2069219439
 21
-1091.9182934864
 31
0.0
  0
LINE
  5
AC
330
1F
100
AcDbEntity
  8
1
  6
CONTINUOUS
 62
     7
100
AcDbLine
 10
7588.1569219439
 20
-1150.8682934864
 30
0.0
 11
7588.1569219439
 21
-1053.9682934864
 31
0.0
  0
LINE
  5
AD
330
1F
100
AcDbEntity
  8
1
  6
CONTINUOUS
 62
     7
100
AcDbLine
 10
7745.6031928835
 20
-1130.9182934864
 30
0.0
 11
7742.1069219439
 21
-1130.9182934864
 31
0.0
  0
LINE
  5
AE
330
1F
100
AcDbEntity
  8
1
  6
CONTINUOUS
 62
     7
100
AcDbLine
 10
7772.6069219439
 20
-1070.9182934864
 30
0.0
 11
7772.6069219439
 21
-1098.9182934864
 31
0.0
  0
LINE
  5
AF
330
1F
100
AcDbEntity
  8
1
  6
CONTINUOUS
 62
     7
100
AcDbLine
 10
7742.1069219439
 20
-1130.9182934864
 30
0.0
 11
7742.1069219439
 21
-1135.8182934864
 31
0.0
  0
CIRCLE
  5
B0
330
1F
100
AcDbEntity
  8
1
  6
CONTINUOUS
 62
     7
100
AcDbCircle
 10
7614.6069219439
 20
-1144.1682939502
 30
0.0
 40
2.1
  0
LINE
  5
B1
330
1F
100
AcDbEntity
  8
1
  6
CONTINUOUS
 62
     7
100
AcDbLine
 10
7643.1069219176
 20
-1136.4182934864
 30
0.0
 11
7657.1069219439
 21
-1136.4182934864
 31
0.0
  0
LINE
  5
B2
330
1F
100
AcDbEntity
  8
1
  6
CONTINUOUS
 62
     7
100
AcDbLine
 10
7754.3991302219
 20
-1076.0640976911
 30
0.0
 11
7755.7979297559
 21
-1073.6413058287
 31
0.0
  0
ARC
  5
B3
330
1F
100
AcDbEntity
  8
1
  6
CONTINUOUS
 62
     7
100
AcDbCircle
 10
7759.6106510043
 20
-1070.9182934876
 30
0.0
 40
3.0
100
AcDbArc
 50
190.3048464688
 51
270.0
  0
LINE
  5
B4
330
1F
100
AcDbEntity
  8
1
  6
CONTINUOUS
 62
     7
100
AcDbLine
 10
7629.1069219439
 20
-1095.414564426
 30
0.0
 11
7629.1069219439
 21
-1091.9182934864
 31
0.0
  0
LINE
  5
B5
330
1F
100
AcDbEntity
  8
1
  6
CONTINUOUS
 62
     7
100
AcDbLine
 10
7588.1569219439
 20
-1053.9682934864
 30
0.0
 11
7609.1069219439
 21
-1053.9682934864
 31
0.0
  0
LINE
  5
B6
330
1F
100
AcDbEntity
  8
1
  6
CONTINUOUS
 62
     7
100
AcDbLine
 10
7634.6069219439
 20
-1098.9182934864
 30
0.0
 11
7631.5702656281
 21
-1098.3661741562
 31
0.0
  0
LINE
  5
B7
330
1F
100
AcDbEntity
  8
1
  6
CONTINUOUS
 62
     7
100
AcDbLine
 10
7579.6069219439
 20
-1064.9182934832
 30
0.0
 11
7585.6069219439
 21
-1066.4182934832
 31
0.0
  0
LINE
  5
B8
330
1F
100
AcDbEntity
  8
1
  6
CONTINUOUS
 62
     7
100
AcDbLine
 10
7756.1069219439
 20
-1136.4182934864
 30
0.0
 11
7756.659041274
 21
-1133.3816371706
 31
0.0
  0
ARC
  5
B9
330
1F
100
AcDbEntity
  8
1
  6
CONTINUOUS
 62
     7
100
AcDbCircle
 10
7752.6069219439
 20
-1060.6682930226
 30
0.0
 40
5.5
100
AcDbArc
 50
180.0
 51
245.3800342697
  0
LINE
  5
BA
330
1F
100
AcDbEntity
  8
1
  6
CONTINUOUS
 62
     7
100
AcDbLine
 10
7609.1069219439
 20
-1150.8682934864
 30
0.0
 11
7609.1069219439
 21
-1144.1682934864
 31
0.0
  0
LINE
  5
BB
330
1F
100
AcDbEntity
  8
1
  6
CONTINUOUS
 62
     7
100
AcDbLine
 10
7772.6069219439
 20
-1105.9182934864
 30
0.0
 11
7769.5702656281
 21
-1106.4704128165
 31
0.0
  0
ARC
  5
BC
330
1F
100
AcDbEntity
  8
1
  6
CONTINUOUS
 62
     7
100
AcDbCircle
 10
7745.6031928835
 20
-1133.9182934852
 30
0.0
 40
3.0
100
AcDbArc
 50
10.3048464688
 51
90.0
  0
ARC
  5
BD
330
1F
100
AcDbEntity
  8
1
  6
CONTINUOUS
 62
     7
100
AcDbCircle
 10
7621.6106510043
 20
-1070.9182934876
 30
0.0
 40
3.0
100
AcDbArc
 50
190.3048464688
 51
270.0
  0
LINE
  5
BE
330
1F
100
AcDbEntity
  8
1
  6
CONTINUOUS
 62
     7
100
AcDbLine
 10
7600.1069219439
 20
-1112.9182934864
 30
0.0
 11
7595.2069219439
 21
-1112.9182934864
 31
0.0
  0
LINE
  5
BF
330
1F
100
AcDbEntity
  8
1
  6
CONTINUOUS
 62
     7
100
AcDbLine
 10
7759.6106510043
 20
-1073.9182934864
 30
0.0
 11
7763.1069219439
 21
-1073.9182934864
 31
0.0
  0
ARC
  5
C0
330
1F
100
AcDbEntity
  8
1
  6
CONTINUOUS
 62
     7
100
AcDbCircle
 10
7632.1069219427
 20
-1095.414564426
 30
0.0
 40
3.0
100
AcDbArc
 50
180.0
 51
259.6951535312
  0
LINE
  5
C1
330
1F
100
AcDbEntity
  8
1
  6
CONTINUOUS
 62
     7
100
AcDbLine
 10
7735.1069219176
 20
-1136.4182934864
 30
0.0
 11
7749.1069219439
 21
-1136.4182934864
 31
0.0
  0
LINE
  5
C2
330
1F
100
AcDbEntity
  8
1
  6
CONTINUOUS
 62
     7
100
AcDbLine
 10
7678.1069219702
 20
-1068.4182934864
 30
0.0
 11
7664.1069219439
 21
-1068.4182934863
 31
0.0
  0
LINE
  5
C3
330
1F
100
AcDbEntity
  8
1
  6
CONTINUOUS
 62
     7
100
AcDbLine
 10
7585.6069219439
 20
-1073.4185040409
 30
0.0
 11
7579.6069216724
 21
-1073.4185040409
 31
0.0
  0
LINE
  5
C4
330
1F
100
AcDbEntity
  8
1
  6
CONTINUOUS
 62
     7
100
AcDbLine
 10
7611.1069219439
 20
-1068.4182934864
 30
0.0
 11
7597.1069219176
 21
-1068.4182934864
 31
0.0
  0
LINE
  5
C5
330
1F
100
AcDbEntity
  8
1
  6
CONTINUOUS
 62
     7
100
AcDbLine
 10
7609.1069219439
 20
-1053.9682934864
 30
0.0
 11
7609.1069219439
 21
-1060.6682934864
 31
0.0
  0
LINE
  5
C6
330
1F
100
AcDbEntity
  8
1
  6
CONTINUOUS
 62
     7
100
AcDbLine
 10
7632.1069219702
 20
-1068.4182934864
 30
0.0
 11
7618.1069219439
 21
-1068.4182934863
 31
0.0
  0
LINE
  5
C7
330
1F
100
AcDbEntity
  8
1
  6
CONTINUOUS
 62
     7
100
AcDbLine
 10
7618.1069219439
 20
-1068.4182934864
 30
0.0
 11
7618.659041274
 21
-1071.4549498021
 31
0.0
  0
ARC
  5
C8
330
1F
100
AcDbEntity
  8
1
  6
CONTINUOUS
 62
     7
100
AcDbCircle
 10
7614.6069219439
 20
-1144.1682939502
 30
0.0
 40
5.5
100
AcDbArc
 50
114.6199657303
 51
180.0
  0
LINE
  5
C9
330
1F
100
AcDbEntity
  8
1
  6
CONTINUOUS
 62
     7
100
AcDbLine
 10
7600.1069219439
 20
-1109.4220225468
 30
0.0
 11
7600.1069219439
 21
-1112.9182934864
 31
0.0
  0
LINE
  5
CA
330
1F
100
AcDbEntity
  8
1
  6
CONTINUOUS
 62
     7
100
AcDbLine
 10
7749.1069219439
 20
-1136.4182934864
 30
0.0
 11
7748.5548026138
 21
-1133.3816371706
 31
0.0
  0
LINE
  5
CB
330
1F
100
AcDbEntity
  8
1
  6
CONTINUOUS
 62
     7
100
AcDbLine
 10
7594.6069219439
 20
-1105.9182934864
 30
0.0
 11
7594.6069219439
 21
-1133.9182934864
 31
0.0
  0
ARC
  5
CC
330
1F
100
AcDbEntity
  8
1
  6
CONTINUOUS
 62
     7
100
AcDbCircle
 10
7778.6069219439
 20
-1151.4182934864
 30
0.0
 40
2.0
100
AcDbArc
 50
270.0
 51
0.0
  0
LINE
  5
CD
330
1F
100
AcDbEntity
  8
1
  6
CONTINUOUS
 62
     7
100
AcDbLine
 10
7758.1069219439
 20
-1150.8682934864
 30
0.0
 11
7778.0569219439
 21
-1150.8682934864
 31
0.0
  0
CIRCLE
  5
CE
330
1F
100
AcDbEntity
  8
1
  6
CONTINUOUS
 62
     7
100
AcDbCircle
 10
7660.6069219439
 20
-1060.6682930226
 30
0.0
 40
2.1
  0
LINE
  5
CF
330
1F
100
AcDbEntity
  8
1
  6
CONTINUOUS
 62
     7
100
AcDbLine
 10
7733.6069219439
 20
-1150.8682934864
 30
0.0
 11
7747.1069219439
 21
-1150.8682934864
 31
0.0
  0
LINE
  5
D0
330
1F
100
AcDbEntity
  8
1
  6
CONTINUOUS
 62
     7
100
AcDbLine
 10
7621.6106510043
 20
-1073.9182934864
 30
0.0
 11
7625.1069219439
 21
-1073.9182934864
 31
0.0
  0
LINE
  5
D1
330
1F
100
AcDbEntity
  8
1
  6
CONTINUOUS
 62
     7
100
AcDbLine
 10
7634.6069219439
 20
-1070.9182934864
 30
0.0
 11
7634.6069219439
 21
-1098.9182934864
 31
0.0
  0
ARC
  5
D2
330
1F
100
AcDbEntity
  8
1
  6
CONTINUOUS
 62
     7
100
AcDbCircle
 10
7587.6069219439
 20
-1151.4182934864
 30
0.0
 40
2.0
100
AcDbArc
 50
180.0
 51
270.0
  0
LINE
  5
D3
330
1F
100
AcDbEntity
  8
1
  6
CONTINUOUS
 62
     7
100
AcDbLine
 10
7594.6069219439
 20
-1098.9182934864
 30
0.0
 11
7597.6435782597
 21
-1098.3661741562
 31
0.0
  0
ARC
  5
D4
330
1F
100
AcDbEntity
  8
1
  6
CONTINUOUS
 62
     7
100
AcDbCircle
 10
7597.1069219451
 20
-1095.414564426
 30
0.0
 40
3.0
100
AcDbArc
 50
280.3048464688
 51
0.0
  0
CIRCLE
  5
D5
330
1F
100
AcDbEntity
  8
1
  6
CONTINUOUS
 62
     7
100
AcDbCircle
 10
7752.6069219439
 20
-1144.1682939502
 30
0.0
 40
2.1
  0
ARC
  5
D6
330
1F
100
AcDbEntity
  8
1
  6
CONTINUOUS
 62
     7
100
AcDbCircle
 10
7614.6069219439
 20
-1144.1682939502
 30
0.0
 40
5.5
100
AcDbArc
 50
0.0
 51
65.3800342696
  0
LINE
  5
D7
330
1F
100
AcDbEntity
  8
1
  6
CONTINUOUS
 62
     7
100
AcDbLine
 10
7588.1569219439
 20
-1150.8682934864
 30
0.0
 11
7609.1069219439
 21
-1150.8682934864
 31
0.0
  0
LINE
  5
D8
330
1F
100
AcDbEntity
  8
1
  6
CONTINUOUS
 62
     7
100
AcDbLine
 10
7620.1069219439
 20
-1053.9682934864
 30
0.0
 11
7633.6069219439
 21
-1053.9682934864
 31
0.0
  0
CIRCLE
  5
D9
330
1F
100
AcDbEntity
  8
1
  6
CONTINUOUS
 62
     7
100
AcDbCircle
 10
7629.6069219439
 20
-1102.4182934864
 30
0.0
 40
2.0
  0
LINE
  5
DA
330
1F
100
AcDbEntity
  8
1
  6
CONTINUOUS
 62
     7
100
AcDbLine
 10
7594.6069219494
 20
-1070.9182934858
 30
0.0
 11
7594.6069219439
 21
-1098.9182934864
 31
0.0
  0
LINE
  5
DB
330
1F
100
AcDbEntity
  8
1
  6
CONTINUOUS
 62
     7
100
AcDbLine
 10
7616.8982087792
 20
-1139.1682934864
 30
0.0
 11
7612.3156351086
 21
-1139.1682934864
 31
0.0
  0
LINE
  5
DC
330
1F
100
AcDbEntity
  8
1
  6
CONTINUOUS
 62
     7
100
AcDbLine
 10
7655.1069219439
 20
-1053.9682934864
 30
0.0
 11
7655.1069219439
 21
-1060.6682934864
 31
0.0
  0
LINE
  5
DD
330
1F
100
AcDbEntity
  8
1
  6
CONTINUOUS
 62
     7
100
AcDbLine
 10
7616.3991302219
 20
-1112.5640976913
 30
0.0
 11
7617.7979297559
 21
-1110.1413058289
 31
0.0
  0
LINE
  5
DE
330
1F
100
AcDbEntity
  8
1
  6
CONTINUOUS
 62
     7
100
AcDbLine
 10
7714.1280567748
 20
-1112.6413058289
 30
0.0
 11
7712.7292572408
 21
-1115.0640976913
 31
0.0
  0
LINE
  5
DF
330
1F
100
AcDbEntity
  8
1
  6
CONTINUOUS
 62
     7
100
AcDbLine
 10
7612.8147136659
 20
-1128.7724892819
 30
0.0
 11
7611.415914132
 21
-1131.1952811442
 31
0.0
  0
ARC
  5
E0
330
1F
100
AcDbEntity
  8
1
  6
CONTINUOUS
 62
     7
100
AcDbCircle
 10
7547.5166642514
 20
-1102.4182934889
 30
0.0
 40
2.017606052
100
AcDbArc
 50
270.9956556568
 51
90.0
  0
LINE
  5
E1
330
1F
100
AcDbEntity
  8
1
  6
CONTINUOUS
 62
     7
100
AcDbLine
 10
7718.6069219439
 20
-1201.1186063052
 30
0.0
 11
7729.1069219439
 21
-1201.1186063052
 31
0.0
  0
LINE
  5
E2
330
1F
100
AcDbEntity
  8
1
  6
CONTINUOUS
 62
     7
100
AcDbLine
 10
7662.3991302219
 20
-1076.0640976913
 30
0.0
 11
7663.7979297559
 21
-1073.6413058289
 31
0.0
  0
ARC
  5
E3
330
1F
100
AcDbEntity
  8
1
  6
CONTINUOUS
 62
     7
100
AcDbCircle
 10
7648.606921944
 20
-1192.7186063052
 30
0.0
 40
9.4
100
AcDbArc
 50
270.0
 51
90.0
  0
LINE
  5
E4
330
1F
100
AcDbEntity
  8
1
  6
CONTINUOUS
 62
     7
100
AcDbLine
 10
7742.1069219439
 20
-1073.9182934864
 30
0.0
 11
7742.1069219439
 21
-1069.0182934864
 31
0.0
  0
ARC
  5
E5
330
1F
100
AcDbEntity
  8
1
  6
CONTINUOUS
 62
     7
100
AcDbCircle
 10
7752.6069219439
 20
-1120.6682934866
 30
0.0
 40
11.0
100
AcDbArc
 50
226.863441213
 51
253.1365587869
  0
ARC
  5
E6
330
1F
100
AcDbEntity
  8
1
  6
CONTINUOUS
 62
     7
100
AcDbCircle
 10
7718.6069219439
 20
-1192.7186063052
 30
0.0
 40
9.4
100
AcDbArc
 50
90.0
 51
270.0
  0
ARC
  5
E7
330
1F
100
AcDbEntity
  8
1
  6
CONTINUOUS
 62
     7
100
AcDbCircle
 10
7660.6069219439
 20
-1084.1682934866
 30
0.0
 40
11.0
100
AcDbArc
 50
46.8634412131
 51
73.1365587869
  0
ARC
  5
E8
330
1F
100
AcDbEntity
  8
1
  6
CONTINUOUS
 62
     7
100
AcDbCircle
 10
7683.6069219439
 20
-1192.7186063052
 30
0.0
 40
13.0
100
AcDbArc
 50
226.3091047206999
 51
313.6908952793
  0
LINE
  5
E9
330
1F
100
AcDbEntity
  8
1
  6
CONTINUOUS
 62
     7
100
AcDbLine
 10
7718.6069219439
 20
-1181.2186063256
 30
0.0
 11
7719.9762417775
 21
-1181.2186063255
 31
0.0
  0
ARC
  5
EA
330
1F
100
AcDbEntity
  8
1
  6
CONTINUOUS
 62
     7
100
AcDbCircle
 10
7614.6069219439
 20
-1120.6682934866
 30
0.0
 40
11.0
100
AcDbArc
 50
226.863441213
 51
253.1365587869
  0
LINE
  5
EB
330
1F
100
AcDbEntity
  8
1
  6
CONTINUOUS
 62
     7
100
AcDbLine
 10
7704.8147136659
 20
-1128.7724892819
 30
0.0
 11
7703.415914132
 21
-1131.1952811442
 31
0.0
  0
ARC
  5
EC
330
1F
100
AcDbEntity
  8
1
  6
CONTINUOUS
 62
     7
100
AcDbCircle
 10
7735.1069219451
 20
-1095.414564426
 30
0.0
 40
3.0
100
AcDbArc
 50
280.3048464688
 51
0.0
  0
CIRCLE
  5
ED
330
1F
100
AcDbEntity
  8
1
  6
CONTINUOUS
 62
     7
100
AcDbCircle
 10
7614.6069219439
 20
-1084.1682934866
 30
0.0
 40
8.3
  0
CIRCLE
  5
EE
330
1F
100
AcDbEntity
  8
1
  6
CONTINUOUS
 62
     7
100
AcDbCircle
 10
7706.6069219439
 20
-1084.1682934866
 30
0.0
 40
8.3
  0
LINE
  5
EF
330
1F
100
AcDbEntity
  8
1
  6
CONTINUOUS
 62
     7
100
AcDbLine
 10
7589.1069219494
 20
-1185.3186063052
 30
0.0
 11
7591.6069219495
 21
-1185.3186063052
 31
0.0
  0
LINE
  5
F0
330
1F
100
AcDbEntity
  8
1
  6
CONTINUOUS
 62
     7
100
AcDbLine
 10
7589.1069219494
 20
-1200.1186063052
 30
0.0
 11
7591.6069219495
 21
-1200.1186063052
 31
0.0
  0
LINE
  5
F1
330
1F
100
AcDbEntity
  8
1
  6
CONTINUOUS
 62
     7
100
AcDbLine
 10
7672.6069219438
 20
-1181.2186063256
 30
0.0
 11
7673.9762417775
 21
-1181.2186063255
 31
0.0
  0
ARC
  5
F2
330
1F
100
AcDbEntity
  8
1
  6
CONTINUOUS
 62
     7
100
AcDbCircle
 10
7660.6069219439
 20
-1084.1682934866
 30
0.0
 40
11.0
100
AcDbArc
 50
226.863441213
 51
253.1365587869
  0
LINE
  5
F3
330
1F
100
AcDbEntity
  8
1
  6
CONTINUOUS
 62
     7
100
AcDbLine
 10
7648.606921944
 20
-1201.1186063052
 30
0.0
 11
7638.1069219439
 21
-1201.1186063052
 31
0.0
  0
CIRCLE
  5
F4
330
1F
100
AcDbEntity
  8
1
  6
CONTINUOUS
 62
     7
100
AcDbCircle
 10
7706.6069219439
 20
-1120.6682934866
 30
0.0
 40
8.3
  0
LINE
  5
F5
330
1F
100
AcDbEntity
  8
1
  6
CONTINUOUS
 62
     7
100
AcDbLine
 10
7668.1280567748
 20
-1076.1413058289
 30
0.0
 11
7666.7292572408
 21
-1078.5640976913
 31
0.0
  0
LINE
  5
F6
330
1F
100
AcDbEntity
  8
1
  6
CONTINUOUS
 62
     7
100
AcDbLine
 10
7732.6069219439
 20
-1070.9182934864
 30
0.0
 11
7732.6069219439
 21
-1098.9182934864
 31
0.0
  0
ARC
  5
F7
330
1F
100
AcDbEntity
  8
1
  6
CONTINUOUS
 62
     7
100
AcDbCircle
 10
7729.6069219439
 20
-1192.7186063052
 30
0.0
 40
15.0
100
AcDbArc
 50
50.0554946892
 51
129.9445053108
  0
LINE
  5
F8
330
1F
100
AcDbEntity
  8
1
  6
CONTINUOUS
 62
     7
100
AcDbLine
 10
7612.8147136659
 20
-1092.2724892819
 30
0.0
 11
7611.415914132
 21
-1094.6952811442
 31
0.0
  0
CIRCLE
  5
F9
330
1F
100
AcDbEntity
  8
1
  6
CONTINUOUS
 62
     7
100
AcDbCircle
 10
7614.6069219439
 20
-1120.6682934866
 30
0.0
 40
8.3
  0
LINE
  5
FA
330
1F
100
AcDbEntity
  8
1
  6
CONTINUOUS
 62
     7
100
AcDbLine
 10
7740.6069219441
 20
-1183.3186063052
 30
0.0
 11
7718.6069219439
 21
-1183.3186063052
 31
0.0
  0
LINE
  5
FB
330
1F
100
AcDbEntity
  8
1
  6
CONTINUOUS
 62
     7
100
AcDbLine
 10
7754.3991302219
 20
-1112.5640976913
 30
0.0
 11
7755.7979297559
 21
-1110.1413058289
 31
0.0
  0
ARC
  5
FC
330
1F
100
AcDbEntity
  8
1
  6
CONTINUOUS
 62
     7
100
AcDbCircle
 10
7745.6031928835
 20
-1070.9182934876
 30
0.0
 40
3.0
100
AcDbArc
 50
270.0
 51
349.6951535312
  0
LINE
  5
FD
330
1F
100
AcDbEntity
  8
1
  6
CONTINUOUS
 62
     7
100
AcDbLine
 10
7607.085787113
 20
-1128.6952811442
 30
0.0
 11
7608.484586647
 21
-1126.2724892819
 31
0.0
  0
LINE
  5
FE
330
1F
100
AcDbEntity
  8
1
  6
CONTINUOUS
 62
     7
100
AcDbLine
 10
7557.5342699963
 20
-1153.418293494
 30
0.0
 11
7521.5342703033
 21
-1153.418293494
 31
0.0
  0
ARC
  5
FF
330
1F
100
AcDbEntity
  8
1
  6
CONTINUOUS
 62
     7
100
AcDbCircle
 10
7735.1069219176
 20
-1070.9182934864
 30
0.0
 40
2.5
100
AcDbArc
 50
90.0
 51
180.0
  0
LINE
  5
100
330
1F
100
AcDbEntity
  8
1
  6
CONTINUOUS
 62
     7
100
AcDbLine
 10
7739.2376021103
 20
-1181.2186063256
 30
0.0
 11
7740.606921944
 21
-1181.2186063256
 31
0.0
  0
LINE
  5
101
330
1F
100
AcDbEntity
  8
1
  6
CONTINUOUS
 62
     7
100
AcDbLine
 10
7732.6069219439
 20
-1098.9182934864
 30
0.0
 11
7735.6435782597
 21
-1098.3661741562
 31
0.0
  0
LINE
  5
102
330
1F
100
AcDbEntity
  8
1
  6
CONTINUOUS
 62
     7
100
AcDbLine
 10
7721.1069219439
 20
-1109.4220225468
 30
0.0
 11
7721.1069219439
 21
-1112.9182934864
 31
0.0
  0
LINE
  5
103
330
1F
100
AcDbEntity
  8
1
  6
CONTINUOUS
 62
     7
100
AcDbLine
 10
7704.8147136659
 20
-1092.2724892819
 30
0.0
 11
7703.415914132
 21
-1094.6952811442
 31
0.0
  0
ARC
  5
104
330
1F
100
AcDbEntity
  8
1
  6
CONTINUOUS
 62
     7
100
AcDbCircle
 10
7706.6069219439
 20
-1084.1682934866
 30
0.0
 40
11.0
100
AcDbArc
 50
226.863441213
 51
253.1365587869
  0
ARC
  5
105
330
1F
100
AcDbEntity
  8
1
  6
CONTINUOUS
 62
     7
100
AcDbCircle
 10
7547.5166642514
 20
-1127.4182935391
 30
0.0
 40
2.017606052
100
AcDbArc
 50
270.0
 51
90.0
  0
LINE
  5
106
330
1F
100
AcDbEntity
  8
1
  6
CONTINUOUS
 62
     7
100
AcDbLine
 10
7699.085787113
 20
-1128.6952811442
 30
0.0
 11
7700.484586647
 21
-1126.2724892819
 31
0.0
  0
LINE
  5
107
330
1F
100
AcDbEntity
  8
1
  6
CONTINUOUS
 62
     7
100
AcDbLine
 10
7622.1280567748
 20
-1112.6413058289
 30
0.0
 11
7620.7292572408
 21
-1115.0640976913
 31
0.0
  0
ARC
  5
108
330
1F
100
AcDbEntity
  8
1
  6
CONTINUOUS
 62
     7
100
AcDbCircle
 10
7740.6069219441
 20
-1192.7186063052
 30
0.0
 40
8.4
100
AcDbArc
 50
270.0
 51
90.0
  0
LINE
  5
109
330
1F
100
AcDbEntity
  8
1
  6
CONTINUOUS
 62
     7
100
AcDbLine
 10
7745.6031928835
 20
-1073.9182934864
 30
0.0
 11
7742.1069219439
 21
-1073.9182934864
 31
0.0
  0
ARC
  5
10A
330
1F
100
AcDbEntity
  8
1
  6
CONTINUOUS
 62
     7
100
AcDbCircle
 10
7740.6069219441
 20
-1192.7186063052
 30
0.0
 40
9.4
100
AcDbArc
 50
270.0
 51
90.0
  0
ARC
  5
10B
330
1F
100
AcDbEntity
  8
1
  6
CONTINUOUS
 62
     7
100
AcDbCircle
 10
7614.6069219439
 20
-1084.1682934866
 30
0.0
 40
11.0
100
AcDbArc
 50
46.8634412131
 51
73.1365587869
  0
LINE
  5
10C
330
1F
100
AcDbEntity
  8
1
  6
CONTINUOUS
 62
     7
100
AcDbLine
 10
7708.3991302219
 20
-1112.5640976913
 30
0.0
 11
7709.7979297559
 21
-1110.1413058289
 31
0.0
  0
LINE
  5
10D
330
1F
100
AcDbEntity
  8
1
  6
CONTINUOUS
 62
     7
100
AcDbLine
 10
7749.1069219439
 20
-1068.4182934864
 30
0.0
 11
7748.5548026138
 21
-1071.4549498021
 31
0.0
  0
LINE
  5
10E
330
1F
100
AcDbEntity
  8
1
  6
CONTINUOUS
 62
     7
100
AcDbLine
 10
7658.8147136659
 20
-1092.2724892819
 30
0.0
 11
7657.415914132
 21
-1094.6952811442
 31
0.0
  0
LINE
  5
10F
330
1F
100
AcDbEntity
  8
1
  6
CONTINUOUS
 62
     7
100
AcDbLine
 10
7708.3991302219
 20
-1076.0640976913
 30
0.0
 11
7709.7979297559
 21
-1073.6413058289
 31
0.0
  0
LINE
  5
110
330
1F
100
AcDbEntity
  8
1
  6
CONTINUOUS
 62
     7
100
AcDbLine
 10
7653.085787113
 20
-1092.1952811442
 30
0.0
 11
7654.484586647
 21
-1089.7724892819
 31
0.0
  0
LINE
  5
111
330
1F
100
AcDbEntity
  8
1
  6
CONTINUOUS
 62
     7
100
AcDbLine
 10
7718.6069219439
 20
-1202.1186063052
 30
0.0
 11
7720.6269442157
 21
-1202.1186063052
 31
0.0
  0
ARC
  5
112
330
1F
100
AcDbEntity
  8
1
  6
CONTINUOUS
 62
     7
100
AcDbCircle
 10
7614.6069219439
 20
-1120.6682934866
 30
0.0
 40
11.0
100
AcDbArc
 50
46.8634412131
 51
73.1365587869
  0
LINE
  5
113
330
1F
100
AcDbEntity
  8
1
  6
CONTINUOUS
 62
     7
100
AcDbLine
 10
7554.5342710818
 20
-1150.8421128939
 30
0.0
 11
7524.5799067285
 21
-1150.5807051164
 31
0.0
  0
LINE
  5
114
330
1F
100
AcDbEntity
  8
1
  6
CONTINUOUS
 62
     7
100
AcDbLine
 10
7750.8147136659
 20
-1128.7724892819
 30
0.0
 11
7749.415914132
 21
-1131.1952811442
 31
0.0
  0
LINE
  5
115
330
1F
100
AcDbEntity
  8
1
  6
CONTINUOUS
 62
     7
100
AcDbLine
 10
7714.1280567748
 20
-1076.1413058289
 30
0.0
 11
7712.7292572408
 21
-1078.5640976913
 31
0.0
  0
CIRCLE
  5
116
330
1F
100
AcDbEntity
  8
1
  6
CONTINUOUS
 62
     7
100
AcDbCircle
 10
7752.6069219439
 20
-1084.1682934864
 30
0.0
 40
8.3
  0
ARC
  5
117
330
1F
100
AcDbEntity
  8
1
  6
CONTINUOUS
 62
     7
100
AcDbCircle
 10
7724.1069219427
 20
-1109.4220225468
 30
0.0
 40
3.0
100
AcDbArc
 50
100.3048464688
 51
180.0
  0
LINE
  5
118
330
1F
100
AcDbEntity
  8
1
  6
CONTINUOUS
 62
     7
100
AcDbLine
 10
7735.1069219176
 20
-1068.4182934864
 30
0.0
 11
7749.1069219439
 21
-1068.4182934863
 31
0.0
  0
ARC
  5
119
330
1F
100
AcDbEntity
  8
1
  6
CONTINUOUS
 62
     7
100
AcDbCircle
 10
7683.6069219439
 20
-1192.7186063052
 30
0.0
 40
15.0
100
AcDbArc
 50
230.0554948123
 51
309.9445050745
  0
ARC
  5
11A
330
1F
100
AcDbEntity
  8
1
  6
CONTINUOUS
 62
     7
100
AcDbCircle
 10
7729.606921944
 20
-1192.7186063052
 30
0.0
 40
15.0
100
AcDbArc
 50
230.0554948123
 51
309.9445051895
  0
ARC
  5
11B
330
1F
100
AcDbEntity
  8
1
  6
CONTINUOUS
 62
     7
100
AcDbCircle
 10
7740.606921944
 20
-1192.7186063052
 30
0.0
 40
11.5
100
AcDbArc
 50
270.0
 51
90.0
  0
ARC
  5
11C
330
1F
100
AcDbEntity
  8
1
  6
CONTINUOUS
 62
     7
100
AcDbCircle
 10
7637.6069219439
 20
-1192.7186063052
 30
0.0
 40
15.0
100
AcDbArc
 50
50.0554946892
 51
129.9445053108
  0
ARC
  5
11D
330
1F
100
AcDbEntity
  8
1
  6
CONTINUOUS
 62
     7
100
AcDbCircle
 10
7660.6069217281
 20
-1120.6683468512
 30
0.0
 40
10.1
100
AcDbArc
 50
44.9340039207
 51
135.0659960793
  0
CIRCLE
  5
11E
330
1F
100
AcDbEntity
  8
1
  6
CONTINUOUS
 62
     7
100
AcDbCircle
 10
7660.6069217281
 20
-1120.6683468512
 30
0.0
 40
8.2
  0
LINE
  5
11F
330
1F
100
AcDbEntity
  8
1
  6
CONTINUOUS
 62
     7
100
AcDbLine
 10
7729.1069219439
 20
-1201.1186063052
 30
0.0
 11
7729.1069219439
 21
-1184.3186063052
 31
0.0
  0
ARC
  5
120
330
1F
100
AcDbEntity
  8
1
  6
CONTINUOUS
 62
     7
100
AcDbCircle
 10
7729.606921944
 20
-1192.7186063052
 30
0.0
 40
13.0
100
AcDbArc
 50
226.3091047206999
 51
313.6908952793
  0
LINE
  5
121
330
1F
100
AcDbEntity
  8
1
  6
CONTINUOUS
 62
     7
100
AcDbLine
 10
7694.606921944
 20
-1183.3186063052
 30
0.0
 11
7672.6069219438
 21
-1183.3186063052
 31
0.0
  0
LINE
  5
122
330
1F
100
AcDbEntity
  8
1
  6
CONTINUOUS
 62
     7
100
AcDbLine
 10
7672.6069219439
 20
-1201.1186063052
 30
0.0
 11
7683.1069219439
 21
-1201.1186063052
 31
0.0
  0
ARC
  5
123
330
1F
100
AcDbEntity
  8
1
  6
CONTINUOUS
 62
     7
100
AcDbCircle
 10
7672.6069219438
 20
-1192.7186063052
 30
0.0
 40
9.4
100
AcDbArc
 50
90.0
 51
270.0
  0
LINE
  5
124
330
1F
100
AcDbEntity
  8
1
  6
CONTINUOUS
 62
     7
100
AcDbLine
 10
7684.1069219439
 20
-1201.1186063052
 30
0.0
 11
7684.1069219439
 21
-1184.3186063052
 31
0.0
  0
LINE
  5
125
330
1F
100
AcDbEntity
  8
1
  6
CONTINUOUS
 62
     7
100
AcDbLine
 10
7694.606921944
 20
-1184.3186063052
 30
0.0
 11
7684.1069219439
 21
-1184.3186063052
 31
0.0
  0
LINE
  5
126
330
1F
100
AcDbEntity
  8
1
  6
CONTINUOUS
 62
     7
100
AcDbLine
 10
7648.606921944
 20
-1184.3186063052
 30
0.0
 11
7638.1069219439
 21
-1184.3186063052
 31
0.0
  0
LINE
  5
127
330
1F
100
AcDbEntity
  8
1
  6
CONTINUOUS
 62
     7
100
AcDbLine
 10
7694.606921944
 20
-1202.1186063052
 30
0.0
 11
7692.5868996722
 21
-1202.1186063052
 31
0.0
  0
LINE
  5
128
330
1F
100
AcDbEntity
  8
1
  6
CONTINUOUS
 62
     7
100
AcDbLine
 10
7653.4569217281
 20
-1124.6830074845
 30
0.0
 11
7653.4569217281
 21
-1127.8018943558
 31
0.0
  0
ARC
  5
129
330
1F
100
AcDbEntity
  8
1
  6
CONTINUOUS
 62
     7
100
AcDbCircle
 10
7683.6069219439
 20
-1192.7186063052
 30
0.0
 40
15.0
100
AcDbArc
 50
50.0554946892
 51
129.9445053108
  0
LINE
  5
12A
330
1F
100
AcDbEntity
  8
1
  6
CONTINUOUS
 62
     7
100
AcDbLine
 10
7718.6069219439
 20
-1184.3186063052
 30
0.0
 11
7729.1069219439
 21
-1184.3186063052
 31
0.0
  0
LINE
  5
12B
330
1F
100
AcDbEntity
  8
1
  6
CONTINUOUS
 62
     7
100
AcDbLine
 10
7653.4569217281
 20
-1113.5347993467
 30
0.0
 11
7653.4569217281
 21
-1116.653686218
 31
0.0
  0
LINE
  5
12C
330
1F
100
AcDbEntity
  8
1
  6
CONTINUOUS
 62
     7
100
AcDbLine
 10
7589.1069219592
 20
-1207.7186063056
 30
0.0
 11
7589.1069219592
 21
-1177.7186063052
 31
0.0
  0
LINE
  5
12D
330
1F
100
AcDbEntity
  8
1
  6
CONTINUOUS
 62
     7
100
AcDbLine
 10
7647.237602086
 20
-1204.2186063052
 30
0.0
 11
7648.606921944
 21
-1204.2186126855
 31
0.0
  0
LINE
  5
12E
330
1F
100
AcDbEntity
  8
1
  6
CONTINUOUS
 62
     7
100
AcDbLine
 10
7694.606921944
 20
-1201.1186063052
 30
0.0
 11
7684.1069219439
 21
-1201.1186063052
 31
0.0
  0
LINE
  5
12F
330
1F
100
AcDbEntity
  8
1
  6
CONTINUOUS
 62
     7
100
AcDbLine
 10
7591.6069219495
 20
-1183.3186063056
 30
0.0
 11
7591.6069219495
 21
-1202.1186063048
 31
0.0
  0
ARC
  5
130
330
1F
100
AcDbEntity
  8
1
  6
CONTINUOUS
 62
     7
100
AcDbCircle
 10
7660.6069217281
 20
-1120.6683468512
 30
0.0
 40
10.1
100
AcDbArc
 50
224.9340039207
 51
315.0659960793
  0
LINE
  5
131
330
1F
100
AcDbEntity
  8
1
  6
CONTINUOUS
 62
     7
100
AcDbLine
 10
7667.7569217281
 20
-1127.8018943558
 30
0.0
 11
7667.7569217281
 21
-1124.6830074845
 31
0.0
  0
LINE
  5
132
330
1F
100
AcDbEntity
  8
1
  6
CONTINUOUS
 62
     7
100
AcDbLine
 10
7683.1069219439
 20
-1201.1186063052
 30
0.0
 11
7683.1069219439
 21
-1184.3186063052
 31
0.0
  0
LINE
  5
133
330
1F
100
AcDbEntity
  8
1
  6
CONTINUOUS
 62
     7
100
AcDbLine
 10
7638.1069219439
 20
-1201.1186063052
 30
0.0
 11
7638.1069219439
 21
-1184.3186063052
 31
0.0
  0
LINE
  5
134
330
1F
100
AcDbEntity
  8
1
  6
CONTINUOUS
 62
     7
100
AcDbLine
 10
7693.2376021103
 20
-1181.2186063256
 30
0.0
 11
7694.606921944
 21
-1181.2186063256
 31
0.0
  0
LINE
  5
135
330
1F
100
AcDbEntity
  8
1
  6
CONTINUOUS
 62
     7
100
AcDbLine
 10
7740.6069219441
 20
-1184.3186063052
 30
0.0
 11
7730.1069219439
 21
-1184.3186063052
 31
0.0
  0
LINE
  5
136
330
1F
100
AcDbEntity
  8
1
  6
CONTINUOUS
 62
     7
100
AcDbLine
 10
7672.6069222505
 20
-1204.2186063052
 30
0.0
 11
7673.9762418105
 21
-1204.2186062957
 31
0.0
  0
LINE
  5
137
330
1F
100
AcDbEntity
  8
1
  6
CONTINUOUS
 62
     7
100
AcDbLine
 10
7740.6069219441
 20
-1202.1186063052
 30
0.0
 11
7738.5868996723
 21
-1202.1186063052
 31
0.0
  0
ARC
  5
138
330
1F
100
AcDbEntity
  8
1
  6
CONTINUOUS
 62
     7
100
AcDbCircle
 10
7694.606921944
 20
-1192.7186063052
 30
0.0
 40
11.5
100
AcDbArc
 50
270.0
 51
90.0
  0
ARC
  5
139
330
1F
100
AcDbEntity
  8
1
  6
CONTINUOUS
 62
     7
100
AcDbCircle
 10
7694.606921944
 20
-1192.7186063052
 30
0.0
 40
8.4
100
AcDbArc
 50
270.0
 51
90.0
  0
ARC
  5
13A
330
1F
100
AcDbEntity
  8
1
  6
CONTINUOUS
 62
     7
100
AcDbCircle
 10
7648.606921944
 20
-1192.7186063052
 30
0.0
 40
11.5
100
AcDbArc
 50
270.0
 51
90.0
  0
LINE
  5
13B
330
1F
100
AcDbEntity
  8
1
  6
CONTINUOUS
 62
     7
100
AcDbLine
 10
7648.606921944
 20
-1202.1186063052
 30
0.0
 11
7646.5868996722
 21
-1202.1186063052
 31
0.0
  0
ARC
  5
13C
330
1F
100
AcDbEntity
  8
1
  6
CONTINUOUS
 62
     7
100
AcDbCircle
 10
7694.606921944
 20
-1192.7186063052
 30
0.0
 40
9.4
100
AcDbArc
 50
270.0
 51
90.0
  0
ARC
  5
13D
330
1F
100
AcDbEntity
  8
1
  6
CONTINUOUS
 62
     7
100
AcDbCircle
 10
7648.606921944
 20
-1192.7186063052
 30
0.0
 40
8.4
100
AcDbArc
 50
270.0
 51
90.0
  0
LINE
  5
13E
330
1F
100
AcDbEntity
  8
1
  6
CONTINUOUS
 62
     7
100
AcDbLine
 10
7740.6069219441
 20
-1201.1186063052
 30
0.0
 11
7730.1069219439
 21
-1201.1186063052
 31
0.0
  0
ARC
  5
13F
330
1F
100
AcDbEntity
  8
1
  6
CONTINUOUS
 62
     7
100
AcDbCircle
 10
7672.6069219439
 20
-1192.7186063052
 30
0.0
 40
11.5
100
AcDbArc
 50
90.0
 51
270.0
  0
LINE
  5
140
330
1F
100
AcDbEntity
  8
1
  6
CONTINUOUS
 62
     7
100
AcDbLine
 10
7719.9762418106
 20
-1204.2186062957
 30
0.0
 11
7718.6069219439
 21
-1204.2186063042
 31
0.0
  0
LINE
  5
141
330
1F
100
AcDbEntity
  8
1
  6
CONTINUOUS
 62
     7
100
AcDbLine
 10
7730.1069219439
 20
-1201.1186063052
 30
0.0
 11
7730.1069219439
 21
-1184.3186063052
 31
0.0
  0
ARC
  5
142
330
1F
100
AcDbEntity
  8
1
  6
CONTINUOUS
 62
     7
100
AcDbCircle
 10
7718.6069219439
 20
-1192.7186063052
 30
0.0
 40
11.5
100
AcDbArc
 50
90.0
 51
270.0
  0
ARC
  5
143
330
1F
100
AcDbEntity
  8
1
  6
CONTINUOUS
 62
     7
100
AcDbCircle
 10
7672.6069219439
 20
-1192.7186063052
 30
0.0
 40
8.4
100
AcDbArc
 50
90.0
 51
270.0
  0
LINE
  5
144
330
1F
100
AcDbEntity
  8
1
  6
CONTINUOUS
 62
     7
100
AcDbLine
 10
7777.1069219286
 20
-1177.7186063048
 30
0.0
 11
7777.1069219286
 21
-1207.7186063052
 31
0.0
  0
LINE
  5
145
330
1F
100
AcDbEntity
  8
1
  6
CONTINUOUS
 62
     7
100
AcDbLine
 10
7774.6069219383
 20
-1183.3186063056
 30
0.0
 11
7774.6069219383
 21
-1202.1186063048
 31
0.0
  0
LINE
  5
146
330
1F
100
AcDbEntity
  8
1
  6
CONTINUOUS
 62
     7
100
AcDbLine
 10
7667.7569217281
 20
-1116.653686218
 30
0.0
 11
7667.7569217281
 21
-1113.5347993467
 31
0.0
  0
LINE
  5
147
330
1F
100
AcDbEntity
  8
1
  6
CONTINUOUS
 62
     7
100
AcDbLine
 10
7578.6069219527
 20
-1177.7186122116
 30
0.0
 11
7579.6069219439
 21
-1178.7186122116
 31
0.0
  0
ARC
  5
148
330
1F
100
AcDbEntity
  8
1
  6
CONTINUOUS
 62
     7
100
AcDbCircle
 10
7718.6069219439
 20
-1192.7186063052
 30
0.0
 40
8.4
100
AcDbArc
 50
90.0
 51
270.0
  0
LINE
  5
149
330
1F
100
AcDbEntity
  8
1
  6
CONTINUOUS
 62
     7
100
AcDbLine
 10
7672.6069219439
 20
-1184.3186063052
 30
0.0
 11
7683.1069219439
 21
-1184.3186063052
 31
0.0
  0
LINE
  5
14A
330
1F
100
AcDbEntity
  8
1
  6
CONTINUOUS
 62
     7
100
AcDbLine
 10
7728.8069219439
 20
-1123.4182930226
 30
0.0
 11
7727.6069219439
 21
-1123.4182930226
 31
0.0
  0
LINE
  5
14B
330
1F
100
AcDbEntity
  8
1
  6
CONTINUOUS
 62
     7
100
AcDbLine
 10
7638.6069219439
 20
-1123.4182930226
 30
0.0
 11
7639.6069219439
 21
-1123.4182930226
 31
0.0
  0
LINE
  5
14C
330
1F
100
AcDbEntity
  8
1
  6
CONTINUOUS
 62
     7
100
AcDbLine
 10
7727.6069219439
 20
-1124.4182930226
 30
0.0
 11
7728.8069219439
 21
-1124.4182930226
 31
0.0
  0
LINE
  5
14D
330
1F
100
AcDbEntity
  8
1
  6
CONTINUOUS
 62
     7
100
AcDbLine
 10
7684.4069219439
 20
-1124.4182930226
 30
0.0
 11
7684.4069219439
 21
-1123.4182930226
 31
0.0
  0
LINE
  5
14E
330
1F
100
AcDbEntity
  8
0
  6
CONTINUOUS
 62
     7
100
AcDbLine
 10
7638.6069219439
 20
-1148.8682934864
 30
0.0
 11
7638.6069219439
 21
-1150.8682936525
 31
0.0
  0
LINE
  5
14F
330
1F
100
AcDbEntity
  8
1
  6
CONTINUOUS
 62
     7
100
AcDbLine
 10
7728.8069219439
 20
-1081.4182930226
 30
0.0
 11
7727.6069219439
 21
-1081.4182930226
 31
0.0
  0
LINE
  5
150
330
1F
100
AcDbEntity
  8
1
  6
CONTINUOUS
 62
     7
100
AcDbLine
 10
7682.8069219439
 20
-1123.4182930226
 30
0.0
 11
7681.6069219439
 21
-1123.4182930226
 31
0.0
  0
LINE
  5
151
330
1F
100
AcDbEntity
  8
0
  6
CONTINUOUS
 62
     7
100
AcDbLine
 10
7638.6069219439
 20
-1053.9682936526
 30
0.0
 11
7638.6069219439
 21
-1055.9682934864
 31
0.0
  0
LINE
  5
152
330
1F
100
AcDbEntity
  8
1
  6
CONTINUOUS
 62
     7
100
AcDbLine
 10
7682.8069219439
 20
-1081.4182930226
 30
0.0
 11
7681.6069219439
 21
-1081.4182930226
 31
0.0
  0
LINE
  5
153
330
1F
100
AcDbEntity
  8
1
  6
CONTINUOUS
 62
     7
100
AcDbLine
 10
7638.6069219439
 20
-1081.4182930226
 30
0.0
 11
7639.6069219439
 21
-1081.4182930226
 31
0.0
  0
LINE
  5
154
330
1F
100
AcDbEntity
  8
1
  6
CONTINUOUS
 62
     7
100
AcDbLine
 10
7730.4069219439
 20
-1123.4182930226
 30
0.0
 11
7731.6069219439
 21
-1123.4182930226
 31
0.0
  0
LINE
  5
155
330
1F
100
AcDbEntity
  8
1
  6
CONTINUOUS
 62
     7
100
AcDbLine
 10
7727.6069219439
 20
-1080.4182930226
 30
0.0
 11
7728.8069219439
 21
-1080.4182930226
 31
0.0
  0
LINE
  5
156
330
1F
100
AcDbEntity
  8
1
  6
CONTINUOUS
 62
     7
100
AcDbLine
 10
7639.6069219439
 20
-1124.4182930226
 30
0.0
 11
7638.6069219439
 21
-1124.4182930226
 31
0.0
  0
LINE
  5
157
330
1F
100
AcDbEntity
  8
1
  6
CONTINUOUS
 62
     7
100
AcDbLine
 10
7731.6069219439
 20
-1080.4182930226
 30
0.0
 11
7730.4069219439
 21
-1080.4182930226
 31
0.0
  0
LINE
  5
158
330
1F
100
AcDbEntity
  8
1
  6
CONTINUOUS
 62
     7
100
AcDbLine
 10
7730.4069219439
 20
-1081.4182930226
 30
0.0
 11
7731.6069219439
 21
-1081.4182930226
 31
0.0
  0
LINE
  5
159
330
1F
100
AcDbEntity
  8
1
  6
CONTINUOUS
 62
     7
100
AcDbLine
 10
7684.4069219439
 20
-1081.4182930226
 30
0.0
 11
7685.6069219439
 21
-1081.4182930226
 31
0.0
  0
LINE
  5
15A
330
1F
100
AcDbEntity
  8
1
  6
CONTINUOUS
 62
     7
100
AcDbLine
 10
7684.4069219439
 20
-1080.4182930226
 30
0.0
 11
7684.4069219439
 21
-1081.4182930226
 31
0.0
  0
LINE
  5
15B
330
1F
100
AcDbEntity
  8
0
  6
CONTINUOUS
 62
     7
100
AcDbLine
 10
7636.6069219439
 20
-1055.9682934864
 30
0.0
 11
7636.6069219439
 21
-1053.9679275754
 31
0.0
  0
LINE
  5
15C
330
1F
100
AcDbEntity
  8
1
  6
CONTINUOUS
 62
     7
100
AcDbLine
 10
7685.6069219439
 20
-1080.4182930226
 30
0.0
 11
7684.4069219439
 21
-1080.4182930226
 31
0.0
  0
LINE
  5
15D
330
1F
100
AcDbEntity
  8
0
  6
CONTINUOUS
 62
     7
100
AcDbLine
 10
7636.6069219439
 20
-1150.8679275758
 30
0.0
 11
7636.6069219439
 21
-1148.8682934864
 31
0.0
  0
LINE
  5
15E
330
1F
100
AcDbEntity
  8
1
  6
CONTINUOUS
 62
     7
100
AcDbLine
 10
7635.6069219439
 20
-1124.4182930226
 30
0.0
 11
7636.6069219439
 21
-1124.4182930226
 31
0.0
  0
LINE
  5
15F
330
1F
100
AcDbEntity
  8
1
  6
CONTINUOUS
 62
     7
100
AcDbLine
 10
7636.6069219439
 20
-1081.4182930226
 30
0.0
 11
7635.6069219439
 21
-1081.4182930226
 31
0.0
  0
LINE
  5
160
330
1F
100
AcDbEntity
  8
1
  6
CONTINUOUS
 62
     7
100
AcDbLine
 10
7682.8069219439
 20
-1124.4182930226
 30
0.0
 11
7682.8069219439
 21
-1123.4182930226
 31
0.0
  0
LINE
  5
161
330
1F
100
AcDbEntity
  8
1
  6
CONTINUOUS
 62
     7
100
AcDbLine
 10
7728.8069219439
 20
-1124.4182930226
 30
0.0
 11
7728.8069219439
 21
-1123.4182930226
 31
0.0
  0
LINE
  5
162
330
1F
100
AcDbEntity
  8
1
  6
CONTINUOUS
 62
     7
100
AcDbLine
 10
7681.6069219439
 20
-1124.4182930226
 30
0.0
 11
7682.8069219439
 21
-1124.4182930226
 31
0.0
  0
LINE
  5
163
330
1F
100
AcDbEntity
  8
1
  6
CONTINUOUS
 62
     7
100
AcDbLine
 10
7731.6069219439
 20
-1124.4182930226
 30
0.0
 11
7730.4069219439
 21
-1124.4182930226
 31
0.0
  0
LINE
  5
164
330
1F
100
AcDbEntity
  8
1
  6
CONTINUOUS
 62
     7
100
AcDbLine
 10
7639.6069219439
 20
-1080.4182930226
 30
0.0
 11
7638.6069219439
 21
-1080.4182930226
 31
0.0
  0
LINE
  5
165
330
1F
100
AcDbEntity
  8
1
  6
CONTINUOUS
 62
     7
100
AcDbLine
 10
7732.1069219439
 20
-1112.4182930226
 30
0.0
 11
7731.6069219439
 21
-1112.4182930226
 31
0.0
  0
LINE
  5
166
330
1F
100
AcDbEntity
  8
1
  6
CONTINUOUS
 62
     7
100
AcDbLine
 10
7681.1069219439
 20
-1127.4182930226
 30
0.0
 11
7681.6069219439
 21
-1127.4182930226
 31
0.0
  0
LINE
  5
167
330
1F
100
AcDbEntity
  8
1
  6
CONTINUOUS
 62
     7
100
AcDbLine
 10
7682.1069219439
 20
-1081.4182930226
 30
0.0
 11
7682.1069219439
 21
-1091.9182930226
 31
0.0
  0
LINE
  5
168
330
1F
100
AcDbEntity
  8
1
  6
CONTINUOUS
 62
     7
100
AcDbLine
 10
7685.1069219439
 20
-1120.4182930226
 30
0.0
 11
7685.0569219436
 21
-1120.4182930226
 31
0.0
  0
LINE
  5
169
330
1F
100
AcDbEntity
  8
1
  6
CONTINUOUS
 62
     7
100
AcDbLine
 10
7686.1069219439
 20
-1127.4182930226
 30
0.0
 11
7685.6069219439
 21
-1127.4182930226
 31
0.0
  0
LINE
  5
16A
330
1F
100
AcDbEntity
  8
1
  6
CONTINUOUS
 62
     7
100
AcDbLine
 10
7685.1069219439
 20
-1081.4182930226
 30
0.0
 11
7685.1069219439
 21
-1091.9182930226
 31
0.0
  0
ARC
  5
16B
330
1F
100
AcDbEntity
  8
1
  6
CONTINUOUS
 62
     7
100
AcDbCircle
 10
7681.6069219439
 20
-1126.9182930226
 30
0.0
 40
0.5
100
AcDbArc
 50
270.0
 51
0.0
  0
LINE
  5
16C
330
1F
100
AcDbEntity
  8
1
  6
CONTINUOUS
 62
     7
100
AcDbLine
 10
7636.1069219439
 20
-1084.4182930226
 30
0.0
 11
7636.1569219442
 21
-1084.4182930226
 31
0.0
  0
LINE
  5
16D
330
1F
100
AcDbEntity
  8
1
  6
CONTINUOUS
 62
     7
100
AcDbLine
 10
7685.1069219439
 20
-1084.4182930226
 30
0.0
 11
7685.0569219436
 21
-1084.4182930226
 31
0.0
  0
ARC
  5
16E
330
1F
100
AcDbEntity
  8
1
  6
CONTINUOUS
 62
     7
100
AcDbCircle
 10
7732.1069219439
 20
-1126.9182930226
 30
0.0
 40
0.5
100
AcDbArc
 50
270.0
 51
0.0
  0
LINE
  5
16F
330
1F
100
AcDbEntity
  8
1
  6
CONTINUOUS
 62
     7
100
AcDbLine
 10
7681.1069219439
 20
-1112.4182930226
 30
0.0
 11
7681.6069219439
 21
-1112.4182930226
 31
0.0
  0
ARC
  5
170
330
1F
100
AcDbEntity
  8
1
  6
CONTINUOUS
 62
     7
100
AcDbCircle
 10
7681.1069219439
 20
-1091.9182930226
 30
0.0
 40
0.5
100
AcDbArc
 50
180.0
 51
270.0
  0
LINE
  5
171
330
1F
100
AcDbEntity
  8
1
  6
CONTINUOUS
 62
     7
100
AcDbLine
 10
7635.1069219439
 20
-1112.4182930226
 30
0.0
 11
7635.6069219439
 21
-1112.4182930226
 31
0.0
  0
LINE
  5
172
330
1F
100
AcDbEntity
  8
1
  6
CONTINUOUS
 62
     7
100
AcDbLine
 10
7685.0569219436
 20
-1119.4182930226
 30
0.0
 11
7685.1069219439
 21
-1119.4182930226
 31
0.0
  0
LINE
  5
173
330
1F
100
AcDbEntity
  8
1
  6
CONTINUOUS
 62
     7
100
AcDbLine
 10
7728.1069219439
 20
-1084.4182930226
 30
0.0
 11
7728.1569219442
 21
-1084.4182930226
 31
0.0
  0
ARC
  5
174
330
1F
100
AcDbEntity
  8
1
  6
CONTINUOUS
 62
     7
100
AcDbCircle
 10
7727.6069219439
 20
-1112.9182930226
 30
0.0
 40
0.5
100
AcDbArc
 50
0.0
 51
90.0
  0
LINE
  5
175
330
1F
100
AcDbEntity
  8
1
  6
CONTINUOUS
 62
     7
100
AcDbLine
 10
7639.0569219436
 20
-1119.4182930226
 30
0.0
 11
7639.1069219439
 21
-1119.4182930226
 31
0.0
  0
LINE
  5
176
330
1F
100
AcDbEntity
  8
1
  6
CONTINUOUS
 62
     7
100
AcDbLine
 10
7682.1069219439
 20
-1123.4182930226
 30
0.0
 11
7682.1069219439
 21
-1112.9182930226
 31
0.0
  0
ARC
  5
177
330
1F
100
AcDbEntity
  8
1
  6
CONTINUOUS
 62
     7
100
AcDbCircle
 10
7635.1069219439
 20
-1112.9182930226
 30
0.0
 40
0.5
100
AcDbArc
 50
90.0
 51
180.0
  0
ARC
  5
178
330
1F
100
AcDbEntity
  8
1
  6
CONTINUOUS
 62
     7
100
AcDbCircle
 10
7731.0569219436
 20
-1084.9182930226
 30
0.0
 40
0.5
100
AcDbArc
 50
90.0
 51
270.0
  0
ARC
  5
179
330
1F
100
AcDbEntity
  8
1
  6
CONTINUOUS
 62
     7
100
AcDbCircle
 10
7727.1069219439
 20
-1126.9182930226
 30
0.0
 40
0.5
100
AcDbArc
 50
180.0
 51
270.0
  0
LINE
  5
17A
330
1F
100
AcDbEntity
  8
1
  6
CONTINUOUS
 62
     7
100
AcDbLine
 10
7728.1069219439
 20
-1126.9182930226
 30
0.0
 11
7728.1069219439
 21
-1124.4182930226
 31
0.0
  0
ARC
  5
17B
330
1F
100
AcDbEntity
  8
1
  6
CONTINUOUS
 62
     7
100
AcDbCircle
 10
7635.6069219439
 20
-1112.9182930226
 30
0.0
 40
0.5
100
AcDbArc
 50
0.0
 51
90.0
  0
LINE
  5
17C
330
1F
100
AcDbEntity
  8
1
  6
CONTINUOUS
 62
     7
100
AcDbLine
 10
7731.0569219436
 20
-1085.4182930226
 30
0.0
 11
7731.1069219439
 21
-1085.4182930226
 31
0.0
  0
LINE
  5
17D
330
1F
100
AcDbEntity
  8
1
  6
CONTINUOUS
 62
     7
100
AcDbLine
 10
7731.0569219436
 20
-1119.4182930226
 30
0.0
 11
7731.1069219439
 21
-1119.4182930226
 31
0.0
  0
ARC
  5
17E
330
1F
100
AcDbEntity
  8
1
  6
CONTINUOUS
 62
     7
100
AcDbCircle
 10
7685.6069219439
 20
-1077.9182930226
 30
0.0
 40
0.5
100
AcDbArc
 50
90.0
 51
180.0
  0
ARC
  5
17F
330
1F
100
AcDbEntity
  8
1
  6
CONTINUOUS
 62
     7
100
AcDbCircle
 10
7681.1069219439
 20
-1077.9182930226
 30
0.0
 40
0.5
100
AcDbArc
 50
90.0
 51
180.0
  0
ARC
  5
180
330
1F
100
AcDbEntity
  8
1
  6
CONTINUOUS
 62
     7
100
AcDbCircle
 10
7639.6069219439
 20
-1077.9182930226
 30
0.0
 40
0.5
100
AcDbArc
 50
90.0
 51
180.0
  0
LINE
  5
181
330
1F
100
AcDbEntity
  8
1
  6
CONTINUOUS
 62
     7
100
AcDbLine
 10
7731.1069219439
 20
-1084.4182930226
 30
0.0
 11
7731.0569219436
 21
-1084.4182930226
 31
0.0
  0
ARC
  5
182
330
1F
100
AcDbEntity
  8
1
  6
CONTINUOUS
 62
     7
100
AcDbCircle
 10
7686.1069219439
 20
-1077.9182930226
 30
0.0
 40
0.5
100
AcDbArc
 50
0.0
 51
90.0
  0
ARC
  5
183
330
1F
100
AcDbEntity
  8
1
  6
CONTINUOUS
 62
     7
100
AcDbCircle
 10
7639.6069219439
 20
-1091.9182930226
 30
0.0
 40
0.5
100
AcDbArc
 50
180.0
 51
270.0
  0
LINE
  5
184
330
1F
100
AcDbEntity
  8
1
  6
CONTINUOUS
 62
     7
100
AcDbLine
 10
7636.1069219439
 20
-1077.9182930226
 30
0.0
 11
7636.1069219439
 21
-1080.4182930226
 31
0.0
  0
ARC
  5
185
330
1F
100
AcDbEntity
  8
1
  6
CONTINUOUS
 62
     7
100
AcDbCircle
 10
7686.1069219439
 20
-1091.9182930226
 30
0.0
 40
0.5
100
AcDbArc
 50
270.0
 51
0.0
  0
LINE
  5
186
330
1F
100
AcDbEntity
  8
1
  6
CONTINUOUS
 62
     7
100
AcDbLine
 10
7636.1569219442
 20
-1085.4182930226
 30
0.0
 11
7636.1069219439
 21
-1085.4182930226
 31
0.0
  0
LINE
  5
187
330
1F
100
AcDbEntity
  8
1
  6
CONTINUOUS
 62
     7
100
AcDbLine
 10
7731.1069219439
 20
-1120.4182930226
 30
0.0
 11
7731.0569219436
 21
-1120.4182930226
 31
0.0
  0
LINE
  5
188
330
1F
100
AcDbEntity
  8
1
  6
CONTINUOUS
 62
     7
100
AcDbLine
 10
7686.1069219439
 20
-1092.4182930226
 30
0.0
 11
7685.6069219439
 21
-1092.4182930226
 31
0.0
  0
LINE
  5
189
330
1F
100
AcDbEntity
  8
1
  6
CONTINUOUS
 62
     7
100
AcDbLine
 10
7640.1069219439
 20
-1092.4182930226
 30
0.0
 11
7639.6069219439
 21
-1092.4182930226
 31
0.0
  0
ARC
  5
18A
330
1F
100
AcDbEntity
  8
1
  6
CONTINUOUS
 62
     7
100
AcDbCircle
 10
7686.1069219439
 20
-1126.9182930226
 30
0.0
 40
0.5
100
AcDbArc
 50
270.0
 51
0.0
  0
LINE
  5
18B
330
1F
100
AcDbEntity
  8
1
  6
CONTINUOUS
 62
     7
100
AcDbLine
 10
7681.1069219439
 20
-1077.4182930226
 30
0.0
 11
7681.6069219439
 21
-1077.4182930226
 31
0.0
  0
ARC
  5
18C
330
1F
100
AcDbEntity
  8
1
  6
CONTINUOUS
 62
     7
100
AcDbCircle
 10
7686.1069219439
 20
-1112.9182930226
 30
0.0
 40
0.5
100
AcDbArc
 50
0.0
 51
90.0
  0
LINE
  5
18D
330
1F
100
AcDbEntity
  8
1
  6
CONTINUOUS
 62
     7
100
AcDbLine
 10
7635.1069219439
 20
-1077.4182930226
 30
0.0
 11
7635.6069219439
 21
-1077.4182930226
 31
0.0
  0
ARC
  5
18E
330
1F
100
AcDbEntity
  8
1
  6
CONTINUOUS
 62
     7
100
AcDbCircle
 10
7681.6069219439
 20
-1091.9182930226
 30
0.0
 40
0.5
100
AcDbArc
 50
270.0
 51
0.0
  0
ARC
  5
18F
330
1F
100
AcDbEntity
  8
1
  6
CONTINUOUS
 62
     7
100
AcDbCircle
 10
7681.1069219439
 20
-1112.9182930226
 30
0.0
 40
0.5
100
AcDbArc
 50
90.0
 51
180.0
  0
LINE
  5
190
330
1F
100
AcDbEntity
  8
1
  6
CONTINUOUS
 62
     7
100
AcDbLine
 10
7686.1069219439
 20
-1077.4182930226
 30
0.0
 11
7685.6069219439
 21
-1077.4182930226
 31
0.0
  0
LINE
  5
191
330
1F
100
AcDbEntity
  8
1
  6
CONTINUOUS
 62
     7
100
AcDbLine
 10
7727.1069219439
 20
-1127.4182930226
 30
0.0
 11
7727.6069219439
 21
-1127.4182930226
 31
0.0
  0
LINE
  5
192
330
1F
100
AcDbEntity
  8
1
  6
CONTINUOUS
 62
     7
100
AcDbLine
 10
7682.1069219439
 20
-1077.9182930226
 30
0.0
 11
7682.1069219439
 21
-1080.4182930226
 31
0.0
  0
ARC
  5
193
330
1F
100
AcDbEntity
  8
1
  6
CONTINUOUS
 62
     7
100
AcDbCircle
 10
7636.1569219442
 20
-1084.9182930226
 30
0.0
 40
0.5
100
AcDbArc
 50
270.0
 51
90.0
  0
LINE
  5
194
330
1F
100
AcDbEntity
  8
1
  6
CONTINUOUS
 62
     7
100
AcDbLine
 10
7732.1069219439
 20
-1127.4182930226
 30
0.0
 11
7731.6069219439
 21
-1127.4182930226
 31
0.0
  0
LINE
  5
195
330
1F
100
AcDbEntity
  8
1
  6
CONTINUOUS
 62
     7
100
AcDbLine
 10
7685.1069219439
 20
-1077.9182930226
 30
0.0
 11
7685.1069219439
 21
-1080.4182930226
 31
0.0
  0
ARC
  5
196
330
1F
100
AcDbEntity
  8
1
  6
CONTINUOUS
 62
     7
100
AcDbCircle
 10
7681.6069219439
 20
-1112.9182930226
 30
0.0
 40
0.5
100
AcDbArc
 50
0.0
 51
90.0
  0
ARC
  5
197
330
1F
100
AcDbEntity
  8
1
  6
CONTINUOUS
 62
     7
100
AcDbCircle
 10
7685.6069219439
 20
-1091.9182930226
 30
0.0
 40
0.5
100
AcDbArc
 50
180.0
 51
270.0
  0
LINE
  5
198
330
1F
100
AcDbEntity
  8
1
  6
CONTINUOUS
 62
     7
100
AcDbLine
 10
7640.1069219439
 20
-1077.4182930226
 30
0.0
 11
7639.6069219439
 21
-1077.4182930226
 31
0.0
  0
LINE
  5
199
330
1F
100
AcDbEntity
  8
1
  6
CONTINUOUS
 62
     7
100
AcDbLine
 10
7685.0569219436
 20
-1085.4182930226
 30
0.0
 11
7685.1069219439
 21
-1085.4182930226
 31
0.0
  0
ARC
  5
19A
330
1F
100
AcDbEntity
  8
1
  6
CONTINUOUS
 62
     7
100
AcDbCircle
 10
7731.6069219439
 20
-1126.9182930226
 30
0.0
 40
0.5
100
AcDbArc
 50
180.0
 51
270.0
  0
LINE
  5
19B
330
1F
100
AcDbEntity
  8
1
  6
CONTINUOUS
 62
     7
100
AcDbLine
 10
7731.1069219439
 20
-1126.9182930226
 30
0.0
 11
7731.1069219439
 21
-1124.4182930226
 31
0.0
  0
ARC
  5
19C
330
1F
100
AcDbEntity
  8
1
  6
CONTINUOUS
 62
     7
100
AcDbCircle
 10
7681.1069219439
 20
-1126.9182930226
 30
0.0
 40
0.5
100
AcDbArc
 50
180.0
 51
270.0
  0
ARC
  5
19D
330
1F
100
AcDbEntity
  8
1
  6
CONTINUOUS
 62
     7
100
AcDbCircle
 10
7727.1069219439
 20
-1091.9182930226
 30
0.0
 40
0.5
100
AcDbArc
 50
180.0
 51
270.0
  0
LINE
  5
19E
330
1F
100
AcDbEntity
  8
1
  6
CONTINUOUS
 62
     7
100
AcDbLine
 10
7681.1069219439
 20
-1092.4182930226
 30
0.0
 11
7681.6069219439
 21
-1092.4182930226
 31
0.0
  0
LINE
  5
19F
330
1F
100
AcDbEntity
  8
1
  6
CONTINUOUS
 62
     7
100
AcDbLine
 10
7636.1069219439
 20
-1081.4182930226
 30
0.0
 11
7636.1069219439
 21
-1091.9182930226
 31
0.0
  0
LINE
  5
1A0
330
1F
100
AcDbEntity
  8
1
  6
CONTINUOUS
 62
     7
100
AcDbLine
 10
7639.1069219439
 20
-1077.9182930226
 30
0.0
 11
7639.1069219439
 21
-1080.4182930226
 31
0.0
  0
ARC
  5
1A1
330
1F
100
AcDbEntity
  8
1
  6
CONTINUOUS
 62
     7
100
AcDbCircle
 10
7681.6069219439
 20
-1077.9182930226
 30
0.0
 40
0.5
100
AcDbArc
 50
0.0
 51
90.0
  0
LINE
  5
1A2
330
1F
100
AcDbEntity
  8
1
  6
CONTINUOUS
 62
     7
100
AcDbLine
 10
7728.1069219439
 20
-1123.4182930226
 30
0.0
 11
7728.1069219439
 21
-1112.9182930226
 31
0.0
  0
LINE
  5
1A3
330
1F
100
AcDbEntity
  8
1
  6
CONTINUOUS
 62
     7
100
AcDbLine
 10
7682.1069219439
 20
-1126.9182930226
 30
0.0
 11
7682.1069219439
 21
-1124.4182930226
 31
0.0
  0
LINE
  5
1A4
330
1F
100
AcDbEntity
  8
1
  6
CONTINUOUS
 62
     7
100
AcDbLine
 10
7686.1069219439
 20
-1112.4182930226
 30
0.0
 11
7685.6069219439
 21
-1112.4182930226
 31
0.0
  0
LINE
  5
1A5
330
1F
100
AcDbEntity
  8
1
  6
CONTINUOUS
 62
     7
100
AcDbLine
 10
7635.1069219439
 20
-1127.4182930226
 30
0.0
 11
7635.6069219439
 21
-1127.4182930226
 31
0.0
  0
LINE
  5
1A6
330
1F
100
AcDbEntity
  8
1
  6
CONTINUOUS
 62
     7
100
AcDbLine
 10
7639.1069219439
 20
-1120.4182930226
 30
0.0
 11
7639.0569219436
 21
-1120.4182930226
 31
0.0
  0
LINE
  5
1A7
330
1F
100
AcDbEntity
  8
1
  6
CONTINUOUS
 62
     7
100
AcDbLine
 10
7682.1069219439
 20
-1120.4182930226
 30
0.0
 11
7682.1569219442
 21
-1120.4182930226
 31
0.0
  0
ARC
  5
1A8
330
1F
100
AcDbEntity
  8
1
  6
CONTINUOUS
 62
     7
100
AcDbCircle
 10
7731.0569219436
 20
-1119.9182930226
 30
0.0
 40
0.5
100
AcDbArc
 50
90.0
 51
270.0
  0
LINE
  5
1A9
330
1F
100
AcDbEntity
  8
1
  6
CONTINUOUS
 62
     7
100
AcDbLine
 10
7636.1569219442
 20
-1119.4182930226
 30
0.0
 11
7636.1069219439
 21
-1119.4182930226
 31
0.0
  0
LINE
  5
1AA
330
1F
100
AcDbEntity
  8
1
  6
CONTINUOUS
 62
     7
100
AcDbLine
 10
7728.1569219442
 20
-1085.4182930226
 30
0.0
 11
7728.1069219439
 21
-1085.4182930226
 31
0.0
  0
ARC
  5
1AB
330
1F
100
AcDbEntity
  8
1
  6
CONTINUOUS
 62
     7
100
AcDbCircle
 10
7728.1569219442
 20
-1084.9182930226
 30
0.0
 40
0.5
100
AcDbArc
 50
270.0
 51
90.0
  0
ARC
  5
1AC
330
1F
100
AcDbEntity
  8
1
  6
CONTINUOUS
 62
     7
100
AcDbCircle
 10
7728.1569219442
 20
-1119.9182930226
 30
0.0
 40
0.5
100
AcDbArc
 50
270.0
 51
90.0
  0
ARC
  5
1AD
330
1F
100
AcDbEntity
  8
1
  6
CONTINUOUS
 62
     7
100
AcDbCircle
 10
7639.6069219439
 20
-1126.9182930226
 30
0.0
 40
0.5
100
AcDbArc
 50
180.0
 51
270.0
  0
LINE
  5
1AE
330
1F
100
AcDbEntity
  8
1
  6
CONTINUOUS
 62
     7
100
AcDbLine
 10
7639.1069219439
 20
-1084.4182930226
 30
0.0
 11
7639.0569219436
 21
-1084.4182930226
 31
0.0
  0
LINE
  5
1AF
330
1F
100
AcDbEntity
  8
1
  6
CONTINUOUS
 62
     7
100
AcDbLine
 10
7636.1069219439
 20
-1126.9182930226
 30
0.0
 11
7636.1069219439
 21
-1124.4182930226
 31
0.0
  0
LINE
  5
1B0
330
1F
100
AcDbEntity
  8
1
  6
CONTINUOUS
 62
     7
100
AcDbLine
 10
7682.1069219439
 20
-1084.4182930226
 30
0.0
 11
7682.1569219442
 21
-1084.4182930226
 31
0.0
  0
ARC
  5
1B1
330
1F
100
AcDbEntity
  8
1
  6
CONTINUOUS
 62
     7
100
AcDbCircle
 10
7635.6069219439
 20
-1077.9182930226
 30
0.0
 40
0.5
100
AcDbArc
 50
0.0
 51
90.0
  0
LINE
  5
1B2
330
1F
100
AcDbEntity
  8
1
  6
CONTINUOUS
 62
     7
100
AcDbLine
 10
7681.6069219439
 20
-1080.4182930226
 30
0.0
 11
7682.8069219439
 21
-1080.4182930226
 31
0.0
  0
ARC
  5
1B3
330
1F
100
AcDbEntity
  8
1
  6
CONTINUOUS
 62
     7
100
AcDbCircle
 10
7635.6069219439
 20
-1091.9182930226
 30
0.0
 40
0.5
100
AcDbArc
 50
270.0
 51
0.0
  0
ARC
  5
1B4
330
1F
100
AcDbEntity
  8
1
  6
CONTINUOUS
 62
     7
100
AcDbCircle
 10
7635.1069219439
 20
-1077.9182930226
 30
0.0
 40
0.5
100
AcDbArc
 50
90.0
 51
180.0
  0
LINE
  5
1B5
330
1F
100
AcDbEntity
  8
1
  6
CONTINUOUS
 62
     7
100
AcDbLine
 10
7684.4069219439
 20
-1123.4182930226
 30
0.0
 11
7685.6069219439
 21
-1123.4182930226
 31
0.0
  0
LINE
  5
1B6
330
1F
100
AcDbEntity
  8
1
  6
CONTINUOUS
 62
     7
100
AcDbLine
 10
7639.1069219439
 20
-1123.4182930226
 30
0.0
 11
7639.1069219439
 21
-1112.9182930226
 31
0.0
  0
ARC
  5
1B7
330
1F
100
AcDbEntity
  8
1
  6
CONTINUOUS
 62
     7
100
AcDbCircle
 10
7682.1569219442
 20
-1084.9182930226
 30
0.0
 40
0.5
100
AcDbArc
 50
270.0
 51
90.0
  0
LINE
  5
1B8
330
1F
100
AcDbEntity
  8
1
  6
CONTINUOUS
 62
     7
100
AcDbLine
 10
7636.1069219439
 20
-1123.4182930226
 30
0.0
 11
7636.1069219439
 21
-1112.9182930226
 31
0.0
  0
LINE
  5
1B9
330
1F
100
AcDbEntity
  8
1
  6
CONTINUOUS
 62
     7
100
AcDbLine
 10
7640.1069219439
 20
-1112.4182930226
 30
0.0
 11
7639.6069219439
 21
-1112.4182930226
 31
0.0
  0
LINE
  5
1BA
330
1F
100
AcDbEntity
  8
1
  6
CONTINUOUS
 62
     7
100
AcDbLine
 10
7639.1069219439
 20
-1126.9182930226
 30
0.0
 11
7639.1069219439
 21
-1124.4182930226
 31
0.0
  0
LINE
  5
1BB
330
1F
100
AcDbEntity
  8
1
  6
CONTINUOUS
 62
     7
100
AcDbLine
 10
7730.4069219439
 20
-1080.4182930226
 30
0.0
 11
7730.4069219439
 21
-1081.4182930226
 31
0.0
  0
LINE
  5
1BC
330
1F
100
AcDbEntity
  8
1
  6
CONTINUOUS
 62
     7
100
AcDbLine
 10
7636.6069219439
 20
-1123.4182930226
 30
0.0
 11
7635.6069219439
 21
-1123.4182930226
 31
0.0
  0
LINE
  5
1BD
330
1F
100
AcDbEntity
  8
1
  6
CONTINUOUS
 62
     7
100
AcDbLine
 10
7682.1569219442
 20
-1085.4182930226
 30
0.0
 11
7682.1069219439
 21
-1085.4182930226
 31
0.0
  0
ARC
  5
1BE
330
1F
100
AcDbEntity
  8
1
  6
CONTINUOUS
 62
     7
100
AcDbCircle
 10
7640.1069219439
 20
-1126.9182930226
 30
0.0
 40
0.5
100
AcDbArc
 50
270.0
 51
0.0
  0
LINE
  5
1BF
330
1F
100
AcDbEntity
  8
1
  6
CONTINUOUS
 62
     7
100
AcDbLine
 10
7639.0569219436
 20
-1085.4182930226
 30
0.0
 11
7639.1069219439
 21
-1085.4182930226
 31
0.0
  0
ARC
  5
1C0
330
1F
100
AcDbEntity
  8
1
  6
CONTINUOUS
 62
     7
100
AcDbCircle
 10
7635.6069219439
 20
-1126.9182930226
 30
0.0
 40
0.5
100
AcDbArc
 50
270.0
 51
0.0
  0
LINE
  5
1C1
330
1F
100
AcDbEntity
  8
1
  6
CONTINUOUS
 62
     7
100
AcDbLine
 10
7682.8069219439
 20
-1080.4182930226
 30
0.0
 11
7682.8069219439
 21
-1081.4182930226
 31
0.0
  0
LINE
  5
1C2
330
1F
100
AcDbEntity
  8
1
  6
CONTINUOUS
 62
     7
100
AcDbLine
 10
7728.1569219442
 20
-1119.4182930226
 30
0.0
 11
7728.1069219439
 21
-1119.4182930226
 31
0.0
  0
LINE
  5
1C3
330
1F
100
AcDbEntity
  8
1
  6
CONTINUOUS
 62
     7
100
AcDbLine
 10
7730.4069219439
 20
-1124.4182930226
 30
0.0
 11
7730.4069219439
 21
-1123.4182930226
 31
0.0
  0
LINE
  5
1C4
330
1F
100
AcDbEntity
  8
1
  6
CONTINUOUS
 62
     7
100
AcDbLine
 10
7682.1569219442
 20
-1119.4182930226
 30
0.0
 11
7682.1069219439
 21
-1119.4182930226
 31
0.0
  0
LINE
  5
1C5
330
1F
100
AcDbEntity
  8
1
  6
CONTINUOUS
 62
     7
100
AcDbLine
 10
7685.6069219439
 20
-1124.4182930226
 30
0.0
 11
7684.4069219439
 21
-1124.4182930226
 31
0.0
  0
ARC
  5
1C6
330
1F
100
AcDbEntity
  8
1
  6
CONTINUOUS
 62
     7
100
AcDbCircle
 10
7640.1069219439
 20
-1112.9182930226
 30
0.0
 40
0.5
100
AcDbArc
 50
0.0
 51
90.0
  0
LINE
  5
1C7
330
1F
100
AcDbEntity
  8
1
  6
CONTINUOUS
 62
     7
100
AcDbLine
 10
7728.8069219439
 20
-1080.4182930226
 30
0.0
 11
7728.8069219439
 21
-1081.4182930226
 31
0.0
  0
LINE
  5
1C8
330
1F
100
AcDbEntity
  8
1
  6
CONTINUOUS
 62
     7
100
AcDbLine
 10
7636.1069219439
 20
-1120.4182930226
 30
0.0
 11
7636.1569219442
 21
-1120.4182930226
 31
0.0
  0
ARC
  5
1C9
330
1F
100
AcDbEntity
  8
1
  6
CONTINUOUS
 62
     7
100
AcDbCircle
 10
7685.0569219436
 20
-1084.9182930226
 30
0.0
 40
0.5
100
AcDbArc
 50
90.0
 51
270.0
  0
LINE
  5
1CA
330
1F
100
AcDbEntity
  8
1
  6
CONTINUOUS
 62
     7
100
AcDbLine
 10
7728.1069219439
 20
-1120.4182930226
 30
0.0
 11
7728.1569219442
 21
-1120.4182930226
 31
0.0
  0
ARC
  5
1CB
330
1F
100
AcDbEntity
  8
1
  6
CONTINUOUS
 62
     7
100
AcDbCircle
 10
7639.6069219439
 20
-1112.9182930226
 30
0.0
 40
0.5
100
AcDbArc
 50
90.0
 51
180.0
  0
ARC
  5
1CC
330
1F
100
AcDbEntity
  8
1
  6
CONTINUOUS
 62
     7
100
AcDbCircle
 10
7636.1569219442
 20
-1119.9182930226
 30
0.0
 40
0.5
100
AcDbArc
 50
270.0
 51
90.0
  0
ARC
  5
1CD
330
1F
100
AcDbEntity
  8
1
  6
CONTINUOUS
 62
     7
100
AcDbCircle
 10
7685.0569219436
 20
-1119.9182930226
 30
0.0
 40
0.5
100
AcDbArc
 50
90.0
 51
270.0
  0
ARC
  5
1CE
330
1F
100
AcDbEntity
  8
1
  6
CONTINUOUS
 62
     7
100
AcDbCircle
 10
7635.1069219439
 20
-1126.9182930226
 30
0.0
 40
0.5
100
AcDbArc
 50
180.0
 51
270.0
  0
ARC
  5
1CF
330
1F
100
AcDbEntity
  8
1
  6
CONTINUOUS
 62
     7
100
AcDbCircle
 10
7639.0569219436
 20
-1084.9182930226
 30
0.0
 40
0.5
100
AcDbArc
 50
90.0
 51
270.0
  0
LINE
  5
1D0
330
1F
100
AcDbEntity
  8
1
  6
CONTINUOUS
 62
     7
100
AcDbLine
 10
7640.1069219439
 20
-1127.4182930226
 30
0.0
 11
7639.6069219439
 21
-1127.4182930226
 31
0.0
  0
ARC
  5
1D1
330
1F
100
AcDbEntity
  8
1
  6
CONTINUOUS
 62
     7
100
AcDbCircle
 10
7682.1569219442
 20
-1119.9182930226
 30
0.0
 40
0.5
100
AcDbArc
 50
270.0
 51
90.0
  0
LINE
  5
1D2
330
1F
100
AcDbEntity
  8
1
  6
CONTINUOUS
 62
     7
100
AcDbLine
 10
7635.6069219439
 20
-1080.4182930226
 30
0.0
 11
7636.6069219439
 21
-1080.4182930226
 31
0.0
  0
ARC
  5
1D3
330
1F
100
AcDbEntity
  8
1
  6
CONTINUOUS
 62
     7
100
AcDbCircle
 10
7635.1069219439
 20
-1091.9182930226
 30
0.0
 40
0.5
100
AcDbArc
 50
180.0
 51
270.0
  0
ARC
  5
1D4
330
1F
100
AcDbEntity
  8
1
  6
CONTINUOUS
 62
     7
100
AcDbCircle
 10
7639.0569219436
 20
-1119.9182930226
 30
0.0
 40
0.5
100
AcDbArc
 50
90.0
 51
270.0
  0
LINE
  5
1D5
330
1F
100
AcDbEntity
  8
1
  6
CONTINUOUS
 62
     7
100
AcDbLine
 10
7635.1069219439
 20
-1092.4182930226
 30
0.0
 11
7635.6069219439
 21
-1092.4182930226
 31
0.0
  0
ARC
  5
1D6
330
1F
100
AcDbEntity
  8
1
  6
CONTINUOUS
 62
     7
100
AcDbCircle
 10
7732.1069219439
 20
-1077.9182930226
 30
0.0
 40
0.5
100
AcDbArc
 50
0.0
 51
90.0
  0
LINE
  5
1D7
330
1F
100
AcDbEntity
  8
1
  6
CONTINUOUS
 62
     7
100
AcDbLine
 10
7703.1069219439
 20
-1068.4182934864
 30
0.0
 11
7702.5548026138
 21
-1071.4549498021
 31
0.0
  0
LINE
  5
1D8
330
1F
100
AcDbEntity
  8
1
  6
CONTINUOUS
 62
     7
100
AcDbLine
 10
7696.1069219439
 20
-1073.9182934864
 30
0.0
 11
7696.1069219439
 21
-1069.0182934864
 31
0.0
  0
LINE
  5
1D9
330
1F
100
AcDbEntity
  8
1
  6
CONTINUOUS
 62
     7
100
AcDbLine
 10
7693.2376020546
 20
-1204.2186063147
 30
0.0
 11
7694.606921944
 21
-1204.2186063052
 31
0.0
  0
LINE
  5
1DA
330
1F
100
AcDbEntity
  8
1
  6
CONTINUOUS
 62
     7
100
AcDbLine
 10
7699.6031928835
 20
-1073.9182934864
 30
0.0
 11
7696.1069219439
 21
-1073.9182934864
 31
0.0
  0
LINE
  5
1DB
330
1F
100
AcDbEntity
  8
1
  6
CONTINUOUS
 62
     7
100
AcDbLine
 10
7629.1069219439
 20
-1109.4220225468
 30
0.0
 11
7629.1069219439
 21
-1112.9182934864
 31
0.0
  0
LINE
  5
1DC
330
1F
100
AcDbEntity
  8
1
  6
CONTINUOUS
 62
     7
100
AcDbLine
 10
7732.6069219439
 20
-1105.9182934864
 30
0.0
 11
7735.6435782597
 21
-1106.4704128166
 31
0.0
  0
ARC
  5
1DD
330
1F
100
AcDbEntity
  8
1
  6
CONTINUOUS
 62
     7
100
AcDbCircle
 10
7699.6031928835
 20
-1070.9182934876
 30
0.0
 40
3.0
100
AcDbArc
 50
270.0
 51
349.6951535312
  0
LINE
  5
1DE
330
1F
100
AcDbEntity
  8
1
  6
CONTINUOUS
 62
     7
100
AcDbLine
 10
7640.6069219439
 20
-1070.9182934864
 30
0.0
 11
7640.6069219439
 21
-1098.9182934864
 31
0.0
  0
LINE
  5
1DF
330
1F
100
AcDbEntity
  8
1
  6
CONTINUOUS
 62
     7
100
AcDbLine
 10
7629.1069219439
 20
-1112.9182934864
 30
0.0
 11
7634.0069219439
 21
-1112.9182934864
 31
0.0
  0
LINE
  5
1E0
330
1F
100
AcDbEntity
  8
1
  6
CONTINUOUS
 62
     7
100
AcDbLine
 10
7653.6031928835
 20
-1073.9182934864
 30
0.0
 11
7650.1069219439
 21
-1073.9182934864
 31
0.0
  0
LINE
  5
1E1
330
1F
100
AcDbEntity
  8
1
  6
CONTINUOUS
 62
     7
100
AcDbLine
 10
7686.6069219439
 20
-1098.9182934864
 30
0.0
 11
7689.6435782597
 21
-1098.3661741562
 31
0.0
  0
LINE
  5
1E2
330
1F
100
AcDbEntity
  8
1
  6
CONTINUOUS
 62
     7
100
AcDbLine
 10
7731.1069219439
 20
-1123.4182930226
 30
0.0
 11
7731.1069219439
 21
-1112.9182930226
 31
0.0
  0
ARC
  5
1E3
330
1F
100
AcDbEntity
  8
1
  6
CONTINUOUS
 62
     7
100
AcDbCircle
 10
7727.6069219439
 20
-1126.9182930226
 30
0.0
 40
0.5
100
AcDbArc
 50
270.0
 51
0.0
  0
LINE
  5
1E4
330
1F
100
AcDbEntity
  8
1
  6
CONTINUOUS
 62
     7
100
AcDbLine
 10
7685.1069219439
 20
-1126.9182930226
 30
0.0
 11
7685.1069219439
 21
-1124.4182930226
 31
0.0
  0
ARC
  5
1E5
330
1F
100
AcDbEntity
  8
1
  6
CONTINUOUS
 62
     7
100
AcDbCircle
 10
7732.1069219439
 20
-1112.9182930226
 30
0.0
 40
0.5
100
AcDbArc
 50
0.0
 51
90.0
  0
LINE
  5
1E6
330
1F
100
AcDbEntity
  8
1
  6
CONTINUOUS
 62
     7
100
AcDbLine
 10
7685.1069219439
 20
-1123.4182930226
 30
0.0
 11
7685.1069219439
 21
-1112.9182930226
 31
0.0
  0
ARC
  5
1E7
330
1F
100
AcDbEntity
  8
1
  6
CONTINUOUS
 62
     7
100
AcDbCircle
 10
7685.6069219439
 20
-1126.9182930226
 30
0.0
 40
0.5
100
AcDbArc
 50
180.0
 51
270.0
  0
LINE
  5
1E8
330
1F
100
AcDbEntity
  8
1
  6
CONTINUOUS
 62
     7
100
AcDbLine
 10
7692.1069219439
 20
-1095.414564426
 30
0.0
 11
7692.1069219439
 21
-1091.9182934864
 31
0.0
  0
LINE
  5
1E9
330
1F
100
AcDbEntity
  8
1
  6
CONTINUOUS
 62
     7
100
AcDbLine
 10
7727.1069219439
 20
-1112.4182930226
 30
0.0
 11
7727.6069219439
 21
-1112.4182930226
 31
0.0
  0
LINE
  5
1EA
330
1F
100
AcDbEntity
  8
1
  6
CONTINUOUS
 62
     7
100
AcDbLine
 10
7634.6069219439
 20
-1105.9182934864
 30
0.0
 11
7631.5702656281
 21
-1106.4704128165
 31
0.0
  0
ARC
  5
1EB
330
1F
100
AcDbEntity
  8
1
  6
CONTINUOUS
 62
     7
100
AcDbCircle
 10
7685.6069219439
 20
-1112.9182930226
 30
0.0
 40
0.5
100
AcDbArc
 50
90.0
 51
180.0
  0
LINE
  5
1EC
330
1F
100
AcDbEntity
  8
1
  6
CONTINUOUS
 62
     7
100
AcDbLine
 10
7732.1069219439
 20
-1077.4182930226
 30
0.0
 11
7731.6069219439
 21
-1077.4182930226
 31
0.0
  0
LINE
  5
1ED
330
1F
100
AcDbEntity
  8
1
  6
CONTINUOUS
 62
     7
100
AcDbLine
 10
7632.1069219702
 20
-1136.4182934864
 30
0.0
 11
7618.1069219439
 21
-1136.4182934864
 31
0.0
  0
LINE
  5
1EE
330
1F
100
AcDbEntity
  8
1
  6
CONTINUOUS
 62
     7
100
AcDbLine
 10
7727.1069219439
 20
-1077.4182930226
 30
0.0
 11
7727.6069219439
 21
-1077.4182930226
 31
0.0
  0
ARC
  5
1EF
330
1F
100
AcDbEntity
  8
1
  6
CONTINUOUS
 62
     7
100
AcDbCircle
 10
7643.1069219176
 20
-1070.9182934864
 30
0.0
 40
2.5
100
AcDbArc
 50
90.0
 51
180.0
  0
LINE
  5
1F0
330
1F
100
AcDbEntity
  8
1
  6
CONTINUOUS
 62
     7
100
AcDbLine
 10
7738.1069219439
 20
-1109.4220225468
 30
0.0
 11
7738.1069219439
 21
-1112.9182934864
 31
0.0
  0
LINE
  5
1F1
330
1F
100
AcDbEntity
  8
1
  6
CONTINUOUS
 62
     7
100
AcDbLine
 10
7728.1069219439
 20
-1081.4182930226
 30
0.0
 11
7728.1069219439
 21
-1091.9182930226
 31
0.0
  0
LINE
  5
1F2
330
1F
100
AcDbEntity
  8
1
  6
CONTINUOUS
 62
     7
100
AcDbLine
 10
7657.1069219439
 20
-1068.4182934864
 30
0.0
 11
7656.5548026138
 21
-1071.4549498021
 31
0.0
  0
LINE
  5
1F3
330
1F
100
AcDbEntity
  8
1
  6
CONTINUOUS
 62
     7
100
AcDbLine
 10
7731.1069219439
 20
-1077.9182930226
 30
0.0
 11
7731.1069219439
 21
-1080.4182930226
 31
0.0
  0
LINE
  5
1F4
330
1F
100
AcDbEntity
  8
1
  6
CONTINUOUS
 62
     7
100
AcDbLine
 10
7728.1069219439
 20
-1077.9182930226
 30
0.0
 11
7728.1069219439
 21
-1080.4182930226
 31
0.0
  0
LINE
  5
1F5
330
1F
100
AcDbEntity
  8
1
  6
CONTINUOUS
 62
     7
100
AcDbLine
 10
7625.1069219439
 20
-1130.9182934864
 30
0.0
 11
7625.1069219439
 21
-1135.8182934864
 31
0.0
  0
LINE
  5
1F6
330
1F
100
AcDbEntity
  8
1
  6
CONTINUOUS
 62
     7
100
AcDbLine
 10
7634.6069219439
 20
-1105.9182934864
 30
0.0
 11
7634.6069219439
 21
-1133.9182934864
 31
0.0
  0
ARC
  5
1F7
330
1F
100
AcDbEntity
  8
1
  6
CONTINUOUS
 62
     7
100
AcDbCircle
 10
7689.1069219176
 20
-1070.9182934864
 30
0.0
 40
2.5
100
AcDbArc
 50
90.0
 51
180.0
  0
LINE
  5
1F8
330
1F
100
AcDbEntity
  8
1
  6
CONTINUOUS
 62
     7
100
AcDbLine
 10
7618.1069219439
 20
-1136.4182934864
 30
0.0
 11
7618.659041274
 21
-1133.3816371706
 31
0.0
  0
ARC
  5
1F9
330
1F
100
AcDbEntity
  8
1
  6
CONTINUOUS
 62
     7
100
AcDbCircle
 10
7731.6069219439
 20
-1112.9182930226
 30
0.0
 40
0.5
100
AcDbArc
 50
90.0
 51
180.0
  0
ARC
  5
1FA
330
1F
100
AcDbEntity
  8
1
  6
CONTINUOUS
 62
     7
100
AcDbCircle
 10
7735.1069219451
 20
-1109.4220225468
 30
0.0
 40
3.0
100
AcDbArc
 50
0.0
 51
79.6951535312
  0
LINE
  5
1FB
330
1F
100
AcDbEntity
  8
1
  6
CONTINUOUS
 62
     7
100
AcDbLine
 10
7727.1069219439
 20
-1092.4182930226
 30
0.0
 11
7727.6069219439
 21
-1092.4182930226
 31
0.0
  0
ARC
  5
1FC
330
1F
100
AcDbEntity
  8
1
  6
CONTINUOUS
 62
     7
100
AcDbCircle
 10
7727.6069219439
 20
-1091.9182930226
 30
0.0
 40
0.5
100
AcDbArc
 50
270.0
 51
0.0
  0
ARC
  5
1FD
330
1F
100
AcDbEntity
  8
1
  6
CONTINUOUS
 62
     7
100
AcDbCircle
 10
7632.1069219702
 20
-1133.9182934864
 30
0.0
 40
2.5
100
AcDbArc
 50
270.0
 51
0.0
  0
LINE
  5
1FE
330
1F
100
AcDbEntity
  8
1
  6
CONTINUOUS
 62
     7
100
AcDbLine
 10
7646.1069219439
 20
-1095.414564426
 30
0.0
 11
7646.1069219439
 21
-1091.9182934864
 31
0.0
  0
ARC
  5
1FF
330
1F
100
AcDbEntity
  8
1
  6
CONTINUOUS
 62
     7
100
AcDbCircle
 10
7727.1069219439
 20
-1077.9182930226
 30
0.0
 40
0.5
100
AcDbArc
 50
90.0
 51
180.0
  0
LINE
  5
200
330
1F
100
AcDbEntity
  8
1
  6
CONTINUOUS
 62
     7
100
AcDbLine
 10
7732.1069219439
 20
-1092.4182930226
 30
0.0
 11
7731.6069219439
 21
-1092.4182930226
 31
0.0
  0
ARC
  5
201
330
1F
100
AcDbEntity
  8
1
  6
CONTINUOUS
 62
     7
100
AcDbCircle
 10
7727.1069219439
 20
-1112.9182930226
 30
0.0
 40
0.5
100
AcDbArc
 50
90.0
 51
180.0
  0
LINE
  5
202
330
1F
100
AcDbEntity
  8
1
  6
CONTINUOUS
 62
     7
100
AcDbLine
 10
7738.1069219439
 20
-1112.9182934864
 30
0.0
 11
7733.2069219439
 21
-1112.9182934864
 31
0.0
  0
LINE
  5
203
330
1F
100
AcDbEntity
  8
1
  6
CONTINUOUS
 62
     7
100
AcDbLine
 10
7686.6069219439
 20
-1070.9182934864
 30
0.0
 11
7686.6069219439
 21
-1098.9182934864
 31
0.0
  0
LINE
  5
204
330
1F
100
AcDbEntity
  8
1
  6
CONTINUOUS
 62
     7
100
AcDbLine
 10
7689.1069219176
 20
-1068.4182934864
 30
0.0
 11
7703.1069219439
 21
-1068.4182934863
 31
0.0
  0
LINE
  5
205
330
1F
100
AcDbEntity
  8
1
  6
CONTINUOUS
 62
     7
100
AcDbLine
 10
7639.1069219439
 20
-1081.4182930226
 30
0.0
 11
7639.1069219439
 21
-1091.9182930226
 31
0.0
  0
ARC
  5
206
330
1F
100
AcDbEntity
  8
1
  6
CONTINUOUS
 62
     7
100
AcDbCircle
 10
7731.6069219439
 20
-1091.9182930226
 30
0.0
 40
0.5
100
AcDbArc
 50
180.0
 51
270.0
  0
ARC
  5
207
330
1F
100
AcDbEntity
  8
1
  6
CONTINUOUS
 62
     7
100
AcDbCircle
 10
7689.1069219451
 20
-1095.414564426
 30
0.0
 40
3.0
100
AcDbArc
 50
280.3048464687
 51
0.0
  0
ARC
  5
208
330
1F
100
AcDbEntity
  8
1
  6
CONTINUOUS
 62
     7
100
AcDbCircle
 10
7640.1069219439
 20
-1077.9182930226
 30
0.0
 40
0.5
100
AcDbArc
 50
0.0
 51
90.0
  0
ARC
  5
209
330
1F
100
AcDbEntity
  8
1
  6
CONTINUOUS
 62
     7
100
AcDbCircle
 10
7640.1069219439
 20
-1091.9182930226
 30
0.0
 40
0.5
100
AcDbArc
 50
270.0
 51
0.0
  0
LINE
  5
20A
330
1F
100
AcDbEntity
  8
1
  6
CONTINUOUS
 62
     7
100
AcDbLine
 10
7739.2376020861
 20
-1204.2186063052
 30
0.0
 11
7740.606921944
 21
-1204.2186063052
 31
0.0
  0
LINE
  5
20B
330
1F
100
AcDbEntity
  8
1
  6
CONTINUOUS
 62
     7
100
AcDbLine
 10
7621.6106510043
 20
-1130.9182934864
 30
0.0
 11
7625.1069219439
 21
-1130.9182934864
 31
0.0
  0
LINE
  5
20C
330
1F
100
AcDbEntity
  8
1
  6
CONTINUOUS
 62
     7
100
AcDbLine
 10
7692.1069219439
 20
-1091.9182934864
 30
0.0
 11
7687.2069219439
 21
-1091.9182934864
 31
0.0
  0
LINE
  5
20D
330
1F
100
AcDbEntity
  8
1
  6
CONTINUOUS
 62
     7
100
AcDbLine
 10
7643.1069219176
 20
-1068.4182934864
 30
0.0
 11
7657.1069219439
 21
-1068.4182934863
 31
0.0
  0
LINE
  5
20E
330
1F
100
AcDbEntity
  8
1
  6
CONTINUOUS
 62
     7
100
AcDbLine
 10
7640.6069219439
 20
-1098.9182934864
 30
0.0
 11
7643.6435782597
 21
-1098.3661741562
 31
0.0
  0
ARC
  5
20F
330
1F
100
AcDbEntity
  8
1
  6
CONTINUOUS
 62
     7
100
AcDbCircle
 10
7727.6069219439
 20
-1077.9182930226
 30
0.0
 40
0.5
100
AcDbArc
 50
0.0
 51
90.0
  0
LINE
  5
210
330
1F
100
AcDbEntity
  8
1
  6
CONTINUOUS
 62
     7
100
AcDbLine
 10
7731.1069219439
 20
-1081.4182930226
 30
0.0
 11
7731.1069219439
 21
-1091.9182930226
 31
0.0
  0
ARC
  5
211
330
1F
100
AcDbEntity
  8
1
  6
CONTINUOUS
 62
     7
100
AcDbCircle
 10
7621.6106510043
 20
-1133.9182934852
 30
0.0
 40
3.0
100
AcDbArc
 50
90.0
 51
169.6951535312
  0
ARC
  5
212
330
1F
100
AcDbEntity
  8
1
  6
CONTINUOUS
 62
     7
100
AcDbCircle
 10
7632.1069219427
 20
-1109.4220225468
 30
0.0
 40
3.0
100
AcDbArc
 50
100.3048464688
 51
180.0
  0
ARC
  5
213
330
1F
100
AcDbEntity
  8
1
  6
CONTINUOUS
 62
     7
100
AcDbCircle
 10
7653.6031928835
 20
-1070.9182934876
 30
0.0
 40
3.0
100
AcDbArc
 50
270.0
 51
349.6951535312
  0
ARC
  5
214
330
1F
100
AcDbEntity
  8
1
  6
CONTINUOUS
 62
     7
100
AcDbCircle
 10
7643.1069219451
 20
-1095.414564426
 30
0.0
 40
3.0
100
AcDbArc
 50
280.3048464688
 51
0.0
  0
ARC
  5
215
330
1F
100
AcDbEntity
  8
1
  6
CONTINUOUS
 62
     7
100
AcDbCircle
 10
7732.1069219439
 20
-1091.9182930226
 30
0.0
 40
0.5
100
AcDbArc
 50
270.0
 51
0.0
  0
ARC
  5
216
330
1F
100
AcDbEntity
  8
1
  6
CONTINUOUS
 62
     7
100
AcDbCircle
 10
7678.1069219702
 20
-1133.9182934864
 30
0.0
 40
2.5
100
AcDbArc
 50
270.0
 51
0.0
  0
LINE
  5
217
330
1F
100
AcDbEntity
  8
1
  6
CONTINUOUS
 62
     7
100
AcDbLine
 10
7579.6069219439
 20
-1174.7186063052
 30
0.0
 11
7579.6069219439
 21
-1210.7186063052
 31
0.0
  0
ARC
  5
218
330
1F
100
AcDbEntity
  8
1
  6
CONTINUOUS
 62
     7
100
AcDbCircle
 10
7597.1069219176
 20
-1070.9182934864
 30
0.0
 40
2.5
100
AcDbArc
 50
90.0
 51
180.0
  0
LINE
  5
219
330
1F
100
AcDbEntity
  8
1
  6
CONTINUOUS
 62
     7
100
AcDbLine
 10
7648.606921944
 20
-1183.3186063052
 30
0.0
 11
7626.6069219438
 21
-1183.3186063052
 31
0.0
  0
ARC
  5
21A
330
1F
100
AcDbEntity
  8
1
  6
CONTINUOUS
 62
     7
100
AcDbCircle
 10
7526.5342706778
 20
-1144.4182934893
 30
0.0
 40
2.0
100
AcDbArc
 50
90.0
 51
180.0
  0
LINE
  5
21B
330
1F
100
AcDbEntity
  8
1
  6
CONTINUOUS
 62
     7
100
AcDbLine
 10
7684.7069219439
 20
-1150.8682936535
 30
0.0
 11
7684.7069219439
 21
-1053.9682936536
 31
0.0
  0
LINE
  5
21C
330
1F
100
AcDbEntity
  8
1
  6
CONTINUOUS
 62
     7
100
AcDbLine
 10
7598.1069219439
 20
-1177.7186063052
 30
0.0
 11
7578.6069219527
 21
-1177.7186063052
 31
0.0
  0
LINE
  5
21D
330
1F
100
AcDbEntity
  8
1
  6
CONTINUOUS
 62
     7
100
AcDbLine
 10
7682.5069219439
 20
-1053.9679160651
 30
0.0
 11
7682.5069219439
 21
-1150.8679160655
 31
0.0
  0
LINE
  5
21E
330
1F
100
AcDbEntity
  8
1
  6
CONTINUOUS
 62
     7
100
AcDbLine
 10
7777.1069219286
 20
-1202.1186063048
 30
0.0
 11
7768.1069219439
 21
-1202.1186063048
 31
0.0
  0
LINE
  5
21F
330
1F
100
AcDbEntity
  8
1
  6
CONTINUOUS
 62
     7
100
AcDbLine
 10
7554.5342710818
 20
-1144.4182934893
 30
0.0
 11
7554.5342710818
 21
-1153.418293494
 31
0.0
  0
ARC
  5
220
330
1F
100
AcDbEntity
  8
1
  6
CONTINUOUS
 62
     7
100
AcDbCircle
 10
7643.1069219176
 20
-1133.9182934864
 30
0.0
 40
2.5
100
AcDbArc
 50
180.0
 51
270.0
  0
ARC
  5
221
330
1F
100
AcDbEntity
  8
1
  6
CONTINUOUS
 62
     7
100
AcDbCircle
 10
7626.6069219438
 20
-1192.7186063052
 30
0.0
 40
9.4
100
AcDbArc
 50
90.0
 51
270.0
  0
LINE
  5
222
330
1F
100
AcDbEntity
  8
1
  6
CONTINUOUS
 62
     7
100
AcDbLine
 10
7650.1069219439
 20
-1073.9182934864
 30
0.0
 11
7650.1069219439
 21
-1069.0182934864
 31
0.0
  0
LINE
  5
223
330
1F
100
AcDbEntity
  8
1
  6
CONTINUOUS
 62
     7
100
AcDbLine
 10
7778.6069219439
 20
-1210.7186063052
 30
0.0
 11
7579.6069219439
 21
-1210.7186063052
 31
0.0
  0
ARC
  5
224
330
1F
100
AcDbEntity
  8
1
  6
CONTINUOUS
 62
     7
100
AcDbCircle
 10
7552.5342706576
 20
-1144.4182934893
 30
0.0
 40
2.0
100
AcDbArc
 50
0.0
 51
90.0
  0
LINE
  5
225
330
1F
100
AcDbEntity
  8
1
  6
CONTINUOUS
 62
     7
100
AcDbLine
 10
7646.1069219439
 20
-1091.9182934864
 30
0.0
 11
7641.2069219439
 21
-1091.9182934864
 31
0.0
  0
ARC
  5
226
330
1F
100
AcDbEntity
  8
1
  6
CONTINUOUS
 62
     7
100
AcDbCircle
 10
7731.6069219439
 20
-1077.9182930226
 30
0.0
 40
0.5
100
AcDbArc
 50
90.0
 51
180.0
  0
ARC
  5
227
330
1F
100
AcDbEntity
  8
1
  6
CONTINUOUS
 62
     7
100
AcDbCircle
 10
7768.1069219439
 20
-1192.7186063052
 30
0.0
 40
15.0
100
AcDbArc
 50
90.0
 51
270.0
  0
LINE
  5
228
330
1F
100
AcDbEntity
  8
1
  6
CONTINUOUS
 62
     7
100
AcDbLine
 10
7554.5342703034
 20
-1128.9181988122
 30
0.0
 11
7554.5342703034
 21
-1075.9183881625
 31
0.0
  0
LINE
  5
229
330
1F
100
AcDbEntity
  8
1
  6
CONTINUOUS
 62
     7
100
AcDbLine
 10
7777.1069219286
 20
-1183.3186063056
 30
0.0
 11
7768.1069219439
 21
-1183.3186063056
 31
0.0
  0
ARC
  5
22A
330
1F
100
AcDbEntity
  8
1
  6
CONTINUOUS
 62
     7
100
AcDbCircle
 10
7689.1069219176
 20
-1133.9182934864
 30
0.0
 40
2.5
100
AcDbArc
 50
180.0
 51
270.0
  0
LINE
  5
22B
330
1F
100
AcDbEntity
  8
1
  6
CONTINUOUS
 62
     7
100
AcDbLine
 10
7524.5342711019
 20
-1144.4182934893
 30
0.0
 11
7524.5342711019
 21
-1153.418293494
 31
0.0
  0
ARC
  5
22C
330
1F
100
AcDbEntity
  8
1
  6
CONTINUOUS
 62
     7
100
AcDbCircle
 10
7768.1069219439
 20
-1192.7186063056
 30
0.0
 40
9.4
100
AcDbArc
 50
90.0
 51
270.0
  0
ARC
  5
22D
330
1F
100
AcDbEntity
  8
1
  6
CONTINUOUS
 62
     7
100
AcDbCircle
 10
7770.1069219702
 20
-1070.9182934864
 30
0.0
 40
2.5
100
AcDbArc
 50
0.0
 51
90.0
  0
LINE
  5
22E
330
1F
100
AcDbEntity
  8
1
  6
CONTINUOUS
 62
     7
100
AcDbLine
 10
7547.5168172345
 20
-1125.4006874929
 30
0.0
 11
7521.5342703034
 21
-1125.1739412409
 31
0.0
  0
LINE
  5
22F
330
1F
100
AcDbEntity
  8
1
  6
CONTINUOUS
 62
     7
100
AcDbLine
 10
7585.6069219439
 20
-1174.7186063052
 30
0.0
 11
7585.6069219439
 21
-1208.7186063052
 31
0.0
  0
LINE
  5
230
330
1F
100
AcDbEntity
  8
1
  6
CONTINUOUS
 62
     7
100
AcDbLine
 10
7589.1069219592
 20
-1183.3186063056
 30
0.0
 11
7598.1069219439
 21
-1183.3186063056
 31
0.0
  0
ARC
  5
231
330
1F
100
AcDbEntity
  8
1
  6
CONTINUOUS
 62
     7
100
AcDbCircle
 10
7626.6069219439
 20
-1192.7186063052
 30
0.0
 40
8.4
100
AcDbArc
 50
90.0
 51
270.0
  0
LINE
  5
232
330
1F
100
AcDbEntity
  8
1
  6
CONTINUOUS
 62
     7
100
AcDbLine
 10
7521.5342703034
 20
-1153.4182934908
 30
0.0
 11
7521.5342703033
 21
-1051.4182934838
 31
0.0
  0
LINE
  5
233
330
1F
100
AcDbEntity
  8
1
  6
CONTINUOUS
 62
     7
100
AcDbLine
 10
7626.6069219439
 20
-1184.3186063052
 30
0.0
 11
7637.1069219439
 21
-1184.3186063052
 31
0.0
  0
ARC
  5
234
330
1F
100
AcDbEntity
  8
1
  6
CONTINUOUS
 62
     7
100
AcDbCircle
 10
7552.0342703034
 20
-1128.9181988122
 30
0.0
 40
2.5
100
AcDbArc
 50
270.000177852
 51
0.0
  0
LINE
  5
235
330
1F
100
AcDbEntity
  8
1
  6
CONTINUOUS
 62
     7
100
AcDbLine
 10
7554.5342710818
 20
-1060.4182934856
 30
0.0
 11
7554.5342710818
 21
-1051.4182934838
 31
0.0
  0
ARC
  5
236
330
1F
100
AcDbEntity
  8
1
  6
CONTINUOUS
 62
     7
100
AcDbCircle
 10
7778.6069219439
 20
-1208.7186063052
 30
0.0
 40
2.0
100
AcDbArc
 50
270.0
 51
0.0
  0
LINE
  5
237
330
1F
100
AcDbEntity
  8
1
  6
CONTINUOUS
 62
     7
100
AcDbLine
 10
7780.6069219439
 20
-1174.7186063052
 30
0.0
 11
7780.6069219439
 21
-1208.7186063052
 31
0.0
  0
LINE
  5
238
330
1F
100
AcDbEntity
  8
1
  6
CONTINUOUS
 62
     7
100
AcDbLine
 10
7554.5342710818
 20
-1053.9944740839
 30
0.0
 11
7524.5799067285
 21
-1054.2558818614
 31
0.0
  0
LINE
  5
239
330
1F
100
AcDbEntity
  8
1
  6
CONTINUOUS
 62
     7
100
AcDbLine
 10
7521.5342703034
 20
-1131.4182934873
 30
0.0
 11
7552.0342780636
 21
-1131.4181988122
 31
0.0
  0
LINE
  5
23A
330
1F
100
AcDbEntity
  8
1
  6
CONTINUOUS
 62
     7
100
AcDbLine
 10
7524.5342711019
 20
-1060.4182934856
 30
0.0
 11
7524.5342711019
 21
-1051.4182934838
 31
0.0
  0
ARC
  5
23B
330
1F
100
AcDbEntity
  8
1
  6
CONTINUOUS
 62
     7
100
AcDbCircle
 10
7552.5342709599
 20
-1060.4182934856
 30
0.0
 40
2.0
100
AcDbArc
 50
270.0
 51
0.0
  0
ARC
  5
23C
330
1F
100
AcDbEntity
  8
1
  6
CONTINUOUS
 62
     7
100
AcDbCircle
 10
7526.5342709801
 20
-1060.4182934856
 30
0.0
 40
2.0
100
AcDbArc
 50
180.0
 51
270.0
  0
ARC
  5
23D
330
1F
100
AcDbEntity
  8
1
  6
CONTINUOUS
 62
     7
100
AcDbCircle
 10
7637.6069219439
 20
-1192.7186063052
 30
0.0
 40
13.0
100
AcDbArc
 50
226.3091047206999
 51
313.6908952793
  0
ARC
  5
23E
330
1F
100
AcDbEntity
  8
1
  6
CONTINUOUS
 62
     7
100
AcDbCircle
 10
7724.1069219702
 20
-1133.9182934864
 30
0.0
 40
2.5
100
AcDbArc
 50
270.0
 51
0.0
  0
LINE
  5
23F
330
1F
100
AcDbEntity
  8
1
  6
CONTINUOUS
 62
     7
100
AcDbLine
 10
7626.6069219438
 20
-1202.1186063052
 30
0.0
 11
7628.6269442156
 21
-1202.1186063052
 31
0.0
  0
ARC
  5
240
330
1F
100
AcDbEntity
  8
1
  6
CONTINUOUS
 62
     7
100
AcDbCircle
 10
7724.1069219702
 20
-1070.9182934864
 30
0.0
 40
2.5
100
AcDbArc
 50
0.0
 51
90.0
  0
ARC
  5
241
330
1F
100
AcDbEntity
  8
1
  6
CONTINUOUS
 62
     7
100
AcDbCircle
 10
7552.0342703034
 20
-1075.9183881625
 30
0.0
 40
2.5
100
AcDbArc
 50
0.0
 51
89.999822148
  0
LINE
  5
242
330
1F
100
AcDbEntity
  8
1
  6
CONTINUOUS
 62
     7
100
AcDbLine
 10
7547.5168172345
 20
-1100.4006874427
 30
0.0
 11
7521.5342703034
 21
-1100.1739411907
 31
0.0
  0
ARC
  5
243
330
1F
100
AcDbEntity
  8
1
  6
CONTINUOUS
 62
     7
100
AcDbCircle
 10
7678.1069219702
 20
-1070.9182934864
 30
0.0
 40
2.5
100
AcDbArc
 50
0.0
 51
90.0
  0
LINE
  5
244
330
1F
100
AcDbEntity
  8
1
  6
CONTINUOUS
 62
     7
100
AcDbLine
 10
7626.6069219438
 20
-1181.2186063256
 30
0.0
 11
7627.9762417775
 21
-1181.2186063255
 31
0.0
  0
LINE
  5
245
330
1F
100
AcDbEntity
  8
1
  6
CONTINUOUS
 62
     7
100
AcDbLine
 10
7626.6069219439
 20
-1201.1186063052
 30
0.0
 11
7637.1069219439
 21
-1201.1186063052
 31
0.0
  0
LINE
  5
246
330
1F
100
AcDbEntity
  8
1
  6
CONTINUOUS
 62
     7
100
AcDbLine
 10
7647.2376021103
 20
-1181.2186063256
 30
0.0
 11
7648.606921944
 21
-1181.2186063256
 31
0.0
  0
LINE
  5
247
330
1F
100
AcDbEntity
  8
1
  6
CONTINUOUS
 62
     7
100
AcDbLine
 10
7547.5168172345
 20
-1079.4358994817
 30
0.0
 11
7521.5342703034
 21
-1079.6626457337
 31
0.0
  0
CIRCLE
  5
248
330
1F
100
AcDbEntity
  8
1
  6
CONTINUOUS
 62
     7
100
AcDbCircle
 10
7706.6069219439
 20
-1144.1682939502
 30
0.0
 40
2.1
  0
LINE
  5
249
330
1F
100
AcDbEntity
  8
1
  6
CONTINUOUS
 62
     7
100
AcDbLine
 10
7732.1069219439
 20
-1148.8682934864
 30
0.0
 11
7733.6069219439
 21
-1150.8682934864
 31
0.0
  0
ARC
  5
24A
330
1F
100
AcDbEntity
  8
1
  6
CONTINUOUS
 62
     7
100
AcDbCircle
 10
7724.1069219427
 20
-1095.414564426
 30
0.0
 40
3.0
100
AcDbArc
 50
180.0
 51
259.6951535312
  0
ARC
  5
24B
330
1F
100
AcDbEntity
  8
1
  6
CONTINUOUS
 62
     7
100
AcDbCircle
 10
7706.6069219439
 20
-1144.1682939502
 30
0.0
 40
5.5
100
AcDbArc
 50
114.6199657303
 51
180.0
  0
LINE
  5
24C
330
1F
100
AcDbEntity
  8
1
  6
CONTINUOUS
 62
     7
100
AcDbLine
 10
7557.5342699963
 20
-1051.4182934838
 30
0.0
 11
7521.5342703033
 21
-1051.4182934838
 31
0.0
  0
ARC
  5
24D
330
1F
100
AcDbEntity
  8
1
  6
CONTINUOUS
 62
     7
100
AcDbCircle
 10
7581.6069219439
 20
-1053.4182934864
 30
0.0
 40
2.0
100
AcDbArc
 50
90.0
 51
180.0
  0
LINE
  5
24E
330
1F
100
AcDbEntity
  8
1
  6
CONTINUOUS
 62
     7
100
AcDbLine
 10
7728.5069219439
 20
-1150.8679115316
 30
0.0
 11
7730.7069219439
 21
-1150.8682936545
 31
0.0
  0
LINE
  5
24F
330
1F
100
AcDbEntity
  8
1
  6
CONTINUOUS
 62
     7
100
AcDbLine
 10
7708.8982087792
 20
-1139.1682934864
 30
0.0
 11
7704.3156351086
 21
-1139.1682934864
 31
0.0
  0
ARC
  5
250
330
1F
100
AcDbEntity
  8
1
  6
CONTINUOUS
 62
     7
100
AcDbCircle
 10
7587.6069219439
 20
-1208.7186063052
 30
0.0
 40
2.0
100
AcDbArc
 50
180.0
 51
270.0
  0
LINE
  5
251
330
1F
100
AcDbEntity
  8
1
  6
CONTINUOUS
 62
     7
100
AcDbLine
 10
7780.6069219439
 20
-1207.7186063052
 30
0.0
 11
7768.1069219439
 21
-1207.7186063052
 31
0.0
  0
LINE
  5
252
330
1F
100
AcDbEntity
  8
1
  6
CONTINUOUS
 62
     7
100
AcDbLine
 10
7730.7069219439
 20
-1150.8682934864
 30
0.0
 11
7730.7069219439
 21
-1148.8682934864
 31
0.0
  0
LINE
  5
253
330
1F
100
AcDbEntity
  8
1
  6
CONTINUOUS
 62
     7
100
AcDbLine
 10
7666.1069219439
 20
-1150.8682934864
 30
0.0
 11
7679.6069219439
 21
-1150.8682934864
 31
0.0
  0
LINE
  5
254
330
1F
100
AcDbEntity
  8
1
  6
CONTINUOUS
 62
     7
100
AcDbLine
 10
7684.7069219439
 20
-1148.8682934864
 30
0.0
 11
7686.1069219439
 21
-1148.8682934864
 31
0.0
  0
LINE
  5
255
330
1F
100
AcDbEntity
  8
1
  6
CONTINUOUS
 62
     7
100
AcDbLine
 10
7682.5069219439
 20
-1055.9682934864
 30
0.0
 11
7681.1069219439
 21
-1055.9682934864
 31
0.0
  0
LINE
  5
256
330
1F
100
AcDbEntity
  8
1
  6
CONTINUOUS
 62
     7
100
AcDbLine
 10
7636.6069219439
 20
-1055.9682934864
 30
0.0
 11
7635.1069219439
 21
-1055.9682934864
 31
0.0
  0
LINE
  5
257
330
1F
100
AcDbEntity
  8
1
  6
CONTINUOUS
 62
     7
100
AcDbLine
 10
7721.1069219439
 20
-1091.9182934864
 30
0.0
 11
7726.0069219439
 21
-1091.9182934864
 31
0.0
  0
LINE
  5
258
330
1F
100
AcDbEntity
  8
1
  6
CONTINUOUS
 62
     7
100
AcDbLine
 10
7636.6069219439
 20
-1148.8682934864
 30
0.0
 11
7635.1069219439
 21
-1148.8682934864
 31
0.0
  0
ARC
  5
259
330
1F
100
AcDbEntity
  8
1
  6
CONTINUOUS
 62
     7
100
AcDbCircle
 10
7735.1069219176
 20
-1133.9182934864
 30
0.0
 40
2.5
100
AcDbArc
 50
180.0
 51
270.0
  0
LINE
  5
25A
330
1F
100
AcDbEntity
  8
1
  6
CONTINUOUS
 62
     7
100
AcDbLine
 10
7684.7069219439
 20
-1053.9682934864
 30
0.0
 11
7684.7069219439
 21
-1055.9682934864
 31
0.0
  0
LINE
  5
25B
330
1F
100
AcDbEntity
  8
1
  6
CONTINUOUS
 62
     7
100
AcDbLine
 10
7666.1069219439
 20
-1053.9682934864
 30
0.0
 11
7679.6069219439
 21
-1053.9682934864
 31
0.0
  0
LINE
  5
25C
330
1F
100
AcDbEntity
  8
1
  6
CONTINUOUS
 62
     7
100
AcDbLine
 10
7557.5342702491
 20
-1051.4182934898
 30
0.0
 11
7557.5342702986
 21
-1153.4182934888
 31
0.0
  0
ARC
  5
25D
330
1F
100
AcDbEntity
  8
1
  6
CONTINUOUS
 62
     7
100
AcDbCircle
 10
7770.1069219702
 20
-1133.9182934864
 30
0.0
 40
2.5
100
AcDbArc
 50
270.0
 51
0.0
  0
ARC
  5
25E
330
1F
100
AcDbEntity
  8
1
  6
CONTINUOUS
 62
     7
100
AcDbCircle
 10
7637.6069219439
 20
-1192.7186063052
 30
0.0
 40
15.0
100
AcDbArc
 50
230.0554947536
 51
309.9445051895
  0
ARC
  5
25F
330
1F
100
AcDbEntity
  8
1
  6
CONTINUOUS
 62
     7
100
AcDbCircle
 10
7626.6069219439
 20
-1192.7186063052
 30
0.0
 40
11.5
100
AcDbArc
 50
90.0
 51
270.0
  0
LINE
  5
260
330
1F
100
AcDbEntity
  8
1
  6
CONTINUOUS
 62
     7
100
AcDbLine
 10
7552.5342706576
 20
-1142.4182934889
 30
0.0
 11
7521.5342703034
 21
-1142.4182934889
 31
0.0
  0
LINE
  5
261
330
1F
100
AcDbEntity
  8
1
  6
CONTINUOUS
 62
     7
100
AcDbLine
 10
7768.1069219439
 20
-1177.7186063052
 30
0.0
 11
7780.6069219439
 21
-1177.7186063052
 31
0.0
  0
LINE
  5
262
330
1F
100
AcDbEntity
  8
1
  6
CONTINUOUS
 62
     7
100
AcDbLine
 10
7637.1069219439
 20
-1201.1186063052
 30
0.0
 11
7637.1069219439
 21
-1184.3186063052
 31
0.0
  0
LINE
  5
263
330
1F
100
AcDbEntity
  8
1
  6
CONTINUOUS
 62
     7
100
AcDbLine
 10
7681.1069219439
 20
-1148.8682934864
 30
0.0
 11
7679.6069219439
 21
-1150.8682934864
 31
0.0
  0
LINE
  5
264
330
1F
100
AcDbEntity
  8
1
  6
CONTINUOUS
 62
     7
100
AcDbLine
 10
7589.1069219592
 20
-1202.1186063048
 30
0.0
 11
7598.1069219439
 21
-1202.1186063048
 31
0.0
  0
LINE
  5
265
330
1F
100
AcDbEntity
  8
1
  6
CONTINUOUS
 62
     7
100
AcDbLine
 10
7547.5168172325
 20
-1075.4006873893
 30
0.0
 11
7521.5342703034
 21
-1075.1739411374
 31
0.0
  0
LINE
  5
266
330
1F
100
AcDbEntity
  8
1
  6
CONTINUOUS
 62
     7
100
AcDbLine
 10
7701.1069219439
 20
-1150.8682934864
 30
0.0
 11
7701.1069219439
 21
-1144.1682934864
 31
0.0
  0
LINE
  5
267
330
1F
100
AcDbEntity
  8
1
  6
CONTINUOUS
 62
     7
100
AcDbLine
 10
7635.1069219439
 20
-1055.9682934864
 30
0.0
 11
7633.6069219439
 21
-1053.9682934864
 31
0.0
  0
LINE
  5
268
330
1F
100
AcDbEntity
  8
1
  6
CONTINUOUS
 62
     7
100
AcDbLine
 10
7730.7069219439
 20
-1148.8682934864
 30
0.0
 11
7732.1069219439
 21
-1148.8682934864
 31
0.0
  0
CIRCLE
  5
269
330
1F
100
AcDbEntity
  8
1
  6
CONTINUOUS
 62
     7
100
AcDbCircle
 10
7691.6069219441
 20
-1102.4182934864
 30
0.0
 40
2.0
  0
CIRCLE
  5
26A
330
1F
100
AcDbEntity
  8
1
  6
CONTINUOUS
 62
     7
100
AcDbCircle
 10
7675.6069219439
 20
-1102.4182934864
 30
0.0
 40
2.0
  0
CIRCLE
  5
26B
330
1F
100
AcDbEntity
  8
1
  6
CONTINUOUS
 62
     7
100
AcDbCircle
 10
7737.6069219441
 20
-1102.4182934864
 30
0.0
 40
2.0
  0
LINE
  5
26C
330
1F
100
AcDbEntity
  8
1
  6
CONTINUOUS
 62
     7
100
AcDbLine
 10
7727.1069219439
 20
-1055.9682934864
 30
0.0
 11
7725.6069219439
 21
-1053.9682934864
 31
0.0
  0
ARC
  5
26D
330
1F
100
AcDbEntity
  8
1
  6
CONTINUOUS
 62
     7
100
AcDbCircle
 10
7581.6069219439
 20
-1151.4182934864
 30
0.0
 40
2.0
100
AcDbArc
 50
180.0
 51
270.0
  0
LINE
  5
26E
330
1F
100
AcDbEntity
  8
1
  6
CONTINUOUS
 62
     7
100
AcDbLine
 10
7547.5517233743
 20
-1104.4355949138
 30
0.0
 11
7521.5342703034
 21
-1104.662645787
 31
0.0
  0
LINE
  5
26F
330
1F
100
AcDbEntity
  8
1
  6
CONTINUOUS
 62
     7
100
AcDbLine
 10
7585.6069219439
 20
-1207.7186063052
 30
0.0
 11
7598.1069219439
 21
-1207.7186063052
 31
0.0
  0
LINE
  5
270
330
1F
100
AcDbEntity
  8
1
  6
CONTINUOUS
 62
     7
100
AcDbLine
 10
7627.9762418105
 20
-1204.2186062957
 30
0.0
 11
7626.6069219438
 21
-1204.2186063042
 31
0.0
  0
LINE
  5
271
330
1F
100
AcDbEntity
  8
1
  6
CONTINUOUS
 62
     7
100
AcDbLine
 10
7552.5342709599
 20
-1062.4182934858
 30
0.0
 11
7521.5342703034
 21
-1062.4182934858
 31
0.0
  0
LINE
  5
272
330
1F
100
AcDbEntity
  8
1
  6
CONTINUOUS
 62
     7
100
AcDbLine
 10
7579.6069219439
 20
-1174.7186063052
 30
0.0
 11
7780.6069219439
 21
-1174.7186063052
 31
0.0
  0
ARC
  5
273
330
1F
100
AcDbEntity
  8
1
  6
CONTINUOUS
 62
     7
100
AcDbCircle
 10
7598.1069219439
 20
-1192.7186063052
 30
0.0
 40
15.0
100
AcDbArc
 50
270.0
 51
90.0
  0
LINE
  5
274
330
1F
100
AcDbEntity
  8
1
  6
CONTINUOUS
 62
     7
100
AcDbLine
 10
7547.5168172325
 20
-1129.4358995853
 30
0.0
 11
7521.5342703034
 21
-1129.6626458372
 31
0.0
  0
LINE
  5
275
330
1F
100
AcDbEntity
  8
1
  6
CONTINUOUS
 62
     7
100
AcDbLine
 10
7521.5342703034
 20
-1073.4182934873
 30
0.0
 11
7552.0342780636
 21
-1073.4183881625
 31
0.0
  0
LINE
  5
276
330
1F
100
AcDbEntity
  8
1
  6
CONTINUOUS
 62
     7
100
AcDbLine
 10
7712.1069219439
 20
-1150.8682934864
 30
0.0
 11
7712.1069219439
 21
-1144.1682934864
 31
0.0
  0
ARC
  5
277
330
1F
100
AcDbEntity
  8
1
  6
CONTINUOUS
 62
     7
100
AcDbCircle
 10
7598.1069219439
 20
-1192.7186063056
 30
0.0
 40
9.4
100
AcDbArc
 50
270.0
 51
90.0
  0
LINE
  5
278
330
1F
100
AcDbEntity
  8
1
  6
CONTINUOUS
 62
     7
100
AcDbLine
 10
7684.7069219439
 20
-1055.9682934864
 30
0.0
 11
7686.1069219439
 21
-1055.9682934864
 31
0.0
  0
LINE
  5
279
330
1F
100
AcDbEntity
  8
1
  6
CONTINUOUS
 62
     7
100
AcDbLine
 10
7721.1069219439
 20
-1095.414564426
 30
0.0
 11
7721.1069219439
 21
-1091.9182934864
 31
0.0
  0
LINE
  5
27A
330
1F
100
AcDbEntity
  8
1
  6
CONTINUOUS
 62
     7
100
AcDbLine
 10
7682.5069219439
 20
-1150.8682934864
 30
0.0
 11
7682.5069219439
 21
-1148.8682934864
 31
0.0
  0
LINE
  5
27B
330
1F
100
AcDbEntity
  8
1
  6
CONTINUOUS
 62
     7
100
AcDbLine
 10
7638.6069219439
 20
-1148.8682934864
 30
0.0
 11
7640.1069219439
 21
-1148.8682934864
 31
0.0
  0
LINE
  5
27C
330
1F
100
AcDbEntity
  8
1
  6
CONTINUOUS
 62
     7
100
AcDbLine
 10
7686.1069219439
 20
-1055.9682934864
 30
0.0
 11
7687.6069219439
 21
-1053.9682934864
 31
0.0
  0
ARC
  5
27D
330
1F
100
AcDbEntity
  8
1
  6
CONTINUOUS
 62
     7
100
AcDbCircle
 10
7632.1069219702
 20
-1070.9182934864
 30
0.0
 40
2.5
100
AcDbArc
 50
0.0
 51
90.0
  0
LINE
  5
27E
330
1F
100
AcDbEntity
  8
1
  6
CONTINUOUS
 62
     7
100
AcDbLine
 10
7725.6069219439
 20
-1053.9682934864
 30
0.0
 11
7712.1069219439
 21
-1053.9682934864
 31
0.0
  0
LINE
  5
27F
330
1F
100
AcDbEntity
  8
0
  6
CENTER
 62
     1
100
AcDbLine
 10
7683.606921943899
 20
-1216.1186063052
 30
0.0
 11
7683.606921943899
 21
-1169.3186063052
 31
0.0
  0
LINE
  5
281
330
1F
100
AcDbEntity
  8
0
  6
CENTER
 62
     1
100
AcDbLine
 10
7683.5069219439
 20
-1043.9679160651
 30
0.0
 11
7683.5069219439
 21
-1160.8679160655
 31
0.0
  0
LINE
  5
282
330
1F
100
AcDbEntity
  8
0
  6
CENTER
 62
     1
100
AcDbLine
 10
7562.5342699963
 20
-1102.418293494
 30
0.0
 11
7516.5342703033
 21
-1102.418293494
 31
0.0
  0
LINE
  5
283
330
1F
100
AcDbEntity
  8
1
  6
CONTINUOUS
 62
     7
100
AcDbLine
 10
7684.7069219439
 20
-1053.9682936536
 30
0.0
 11
7682.5069219439
 21
-1053.9679160651
 31
0.0
  0
ARC
  5
284
330
1F
100
AcDbEntity
  8
1
  6
CONTINUOUS
 62
     7
100
AcDbCircle
 10
7597.1069219176
 20
-1133.9182934864
 30
0.0
 40
2.5
100
AcDbArc
 50
180.0
 51
270.0
  0
LINE
  5
285
330
1F
100
AcDbEntity
  8
1
  6
CONTINUOUS
 62
     7
100
AcDbLine
 10
7727.1069219439
 20
-1148.8682934864
 30
0.0
 11
7725.6069219439
 21
-1150.8682934864
 31
0.0
  0
LINE
  5
286
330
1F
100
AcDbEntity
  8
1
  6
CONTINUOUS
 62
     7
100
AcDbLine
 10
7728.5069219439
 20
-1055.9682934864
 30
0.0
 11
7727.1069219439
 21
-1055.9682934864
 31
0.0
  0
LINE
  5
287
330
1F
100
AcDbEntity
  8
1
  6
CONTINUOUS
 62
     7
100
AcDbLine
 10
7638.6069219439
 20
-1053.9682936526
 30
0.0
 11
7636.6069219439
 21
-1053.9679275754
 31
0.0
  0
LINE
  5
288
330
1F
100
AcDbEntity
  8
1
  6
CONTINUOUS
 62
     7
100
AcDbLine
 10
7682.5069219439
 20
-1148.8682934864
 30
0.0
 11
7681.1069219439
 21
-1148.8682934864
 31
0.0
  0
LINE
  5
289
330
1F
100
AcDbEntity
  8
1
  6
CONTINUOUS
 62
     7
100
AcDbLine
 10
7636.6069219439
 20
-1150.8679275758
 30
0.0
 11
7638.6069219439
 21
-1150.8682936525
 31
0.0
  0
LINE
  5
28A
330
1F
100
AcDbEntity
  8
1
  6
CONTINUOUS
 62
     7
100
AcDbLine
 10
7725.6069219439
 20
-1150.8682934864
 30
0.0
 11
7712.1069219439
 21
-1150.8682934864
 31
0.0
  0
LINE
  5
28B
330
1F
100
AcDbEntity
  8
1
  6
CONTINUOUS
 62
     7
100
AcDbLine
 10
7686.1069219439
 20
-1148.8682934864
 30
0.0
 11
7687.6069219439
 21
-1150.8682934864
 31
0.0
  0
LINE
  5
28C
330
1F
100
AcDbEntity
  8
1
  6
CONTINUOUS
 62
     7
100
AcDbLine
 10
7635.1069219439
 20
-1148.8682934864
 30
0.0
 11
7633.6069219439
 21
-1150.8682934864
 31
0.0
  0
ARC
  5
28D
330
1F
100
AcDbEntity
  8
1
  6
CONTINUOUS
 62
     7
100
AcDbCircle
 10
7706.6069219439
 20
-1144.1682939502
 30
0.0
 40
5.5
100
AcDbArc
 50
0.0
 51
65.3800342696
  0
LINE
  5
28E
330
1F
100
AcDbEntity
  8
1
  6
CONTINUOUS
 62
     7
100
AcDbLine
 10
7730.7069219439
 20
-1053.9682934864
 30
0.0
 11
7730.7069219439
 21
-1055.9682934864
 31
0.0
  0
CIRCLE
  5
28F
330
1F
100
AcDbEntity
  8
1
  6
CONTINUOUS
 62
     7
100
AcDbCircle
 10
7767.6069219439
 20
-1102.4182934864
 30
0.0
 40
2.0
  0
LINE
  5
290
330
1F
100
AcDbEntity
  8
1
  6
CONTINUOUS
 62
     7
100
AcDbLine
 10
7728.5069219439
 20
-1150.8682934864
 30
0.0
 11
7728.5069219439
 21
-1148.8682934864
 31
0.0
  0
LINE
  5
291
330
1F
100
AcDbEntity
  8
1
  6
CONTINUOUS
 62
     7
100
AcDbLine
 10
7640.1069219439
 20
-1148.8682934864
 30
0.0
 11
7641.6069219439
 21
-1150.8682934864
 31
0.0
  0
LINE
  5
292
330
1F
100
AcDbEntity
  8
1
  6
CONTINUOUS
 62
     7
100
AcDbLine
 10
7728.5069219439
 20
-1148.8682934864
 30
0.0
 11
7727.1069219439
 21
-1148.8682934864
 31
0.0
  0
LINE
  5
293
330
1F
100
AcDbEntity
  8
1
  6
CONTINUOUS
 62
     7
100
AcDbLine
 10
7728.5069219439
 20
-1053.9682934864
 30
0.0
 11
7728.5069219439
 21
-1055.9682934864
 31
0.0
  0
LINE
  5
294
330
1F
100
AcDbEntity
  8
1
  6
CONTINUOUS
 62
     7
100
AcDbLine
 10
7726.6069219439
 20
-1098.9182934864
 30
0.0
 11
7723.5702656281
 21
-1098.3661741562
 31
0.0
  0
LINE
  5
295
330
1F
100
AcDbEntity
  8
1
  6
CONTINUOUS
 62
     7
100
AcDbLine
 10
7682.5069219439
 20
-1150.8679160655
 30
0.0
 11
7684.7069219439
 21
-1150.8682936535
 31
0.0
  0
LINE
  5
296
330
1F
100
AcDbEntity
  8
1
  6
CONTINUOUS
 62
     7
100
AcDbLine
 10
7732.1069219439
 20
-1055.9682934864
 30
0.0
 11
7733.6069219439
 21
-1053.9682934864
 31
0.0
  0
LINE
  5
297
330
1F
100
AcDbEntity
  8
1
  6
CONTINUOUS
 62
     7
100
AcDbLine
 10
7681.1069219439
 20
-1055.9682934864
 30
0.0
 11
7679.6069219439
 21
-1053.9682934864
 31
0.0
  0
MTEXT
  5
298
330
1F
100
AcDbEntity
  8
1
 62
     7
100
AcDbMText
 10
7784.793207801738
 20
-1203.746851727273
 30
0.0
 40
3.0
 41
0.0
 71
     1
 72
     1
  1
{\fＭＳ ゴシック;\W1.169367;\Q15;ＳＢＥ－４Ｗ}
  0
LINE
  5
299
330
1F
100
AcDbEntity
  8
1
  6
CONTINUOUS
 62
     7
100
AcDbLine
 10
7655.1069219439
 20
-1150.8682934864
 30
0.0
 11
7655.1069219439
 21
-1144.1682934864
 31
0.0
  0
ARC
  5
29A
330
1F
100
AcDbEntity
  8
1
  6
CONTINUOUS
 62
     7
100
AcDbCircle
 10
7689.1069219451
 20
-1109.4220225468
 30
0.0
 40
3.0
100
AcDbArc
 50
0.0
 51
79.6951535313
  0
LINE
  5
29B
330
1F
100
AcDbEntity
  8
1
  6
CONTINUOUS
 62
     7
100
AcDbLine
 10
7703.1069219439
 20
-1136.4182934864
 30
0.0
 11
7702.5548026138
 21
-1133.3816371706
 31
0.0
  0
LINE
  5
29C
330
1F
100
AcDbEntity
  8
1
  6
CONTINUOUS
 62
     7
100
AcDbLine
 10
7638.6069219439
 20
-1055.9682934864
 30
0.0
 11
7640.1069219439
 21
-1055.9682934864
 31
0.0
  0
LINE
  5
29D
330
1F
100
AcDbEntity
  8
1
  6
CONTINUOUS
 62
     7
100
AcDbLine
 10
7657.1069219439
 20
-1136.4182934864
 30
0.0
 11
7656.5548026138
 21
-1133.3816371706
 31
0.0
  0
CIRCLE
  5
29E
330
1F
100
AcDbEntity
  8
1
  6
CONTINUOUS
 62
     7
100
AcDbCircle
 10
7645.6069219441
 20
-1102.4182934864
 30
0.0
 40
2.0
  0
LINE
  5
29F
330
1F
100
AcDbEntity
  8
1
  6
CONTINUOUS
 62
     7
100
AcDbLine
 10
7686.6069219439
 20
-1105.9182934864
 30
0.0
 11
7689.6435782597
 21
-1106.4704128165
 31
0.0
  0
LINE
  5
2A0
330
1F
100
AcDbEntity
  8
1
  6
CONTINUOUS
 62
     7
100
AcDbLine
 10
7730.7069219439
 20
-1053.9682936546
 30
0.0
 11
7728.5069219439
 21
-1053.9679115311
 31
0.0
  0
LINE
  5
2A1
330
1F
100
AcDbEntity
  8
1
  6
CONTINUOUS
 62
     7
100
AcDbLine
 10
7730.7069219439
 20
-1055.9682934864
 30
0.0
 11
7732.1069219439
 21
-1055.9682934864
 31
0.0
  0
ARC
  5
2A2
330
1F
100
AcDbEntity
  8
1
  6
CONTINUOUS
 62
     7
100
AcDbCircle
 10
7678.1069219427
 20
-1095.414564426
 30
0.0
 40
3.0
100
AcDbArc
 50
180.0
 51
259.6951535313
  0
ARC
  5
2A3
330
1F
100
AcDbEntity
  8
1
  6
CONTINUOUS
 62
     7
100
AcDbCircle
 10
7667.6106510043
 20
-1133.9182934852
 30
0.0
 40
3.0
100
AcDbArc
 50
90.0
 51
169.6951535312
  0
CIRCLE
  5
2A4
330
1F
100
AcDbEntity
  8
1
  6
CONTINUOUS
 62
     7
100
AcDbCircle
 10
7706.6069219439
 20
-1060.6682930226
 30
0.0
 40
2.1
  0
LINE
  5
2A5
330
1F
100
AcDbEntity
  8
1
  6
CONTINUOUS
 62
     7
100
AcDbLine
 10
7724.1069219702
 20
-1068.4182934864
 30
0.0
 11
7710.1069219439
 21
-1068.4182934863
 31
0.0
  0
LINE
  5
2A6
330
1F
100
AcDbEntity
  8
1
  6
CONTINUOUS
 62
     7
100
AcDbLine
 10
7646.1069219439
 20
-1112.9182934864
 30
0.0
 11
7641.2069219439
 21
-1112.9182934864
 31
0.0
  0
LINE
  5
2A7
330
1F
100
AcDbEntity
  8
1
  6
CONTINUOUS
 62
     7
100
AcDbLine
 10
7692.1069219439
 20
-1112.9182934864
 30
0.0
 11
7687.2069219439
 21
-1112.9182934864
 31
0.0
  0
LINE
  5
2A8
330
1F
100
AcDbEntity
  8
1
  6
CONTINUOUS
 62
     7
100
AcDbLine
 10
7662.8982087792
 20
-1139.1682934864
 30
0.0
 11
7658.3156351086
 21
-1139.1682934864
 31
0.0
  0
LINE
  5
2A9
330
1F
100
AcDbEntity
  8
1
  6
CONTINUOUS
 62
     7
100
AcDbLine
 10
7640.1069219439
 20
-1055.9682934864
 30
0.0
 11
7641.6069219439
 21
-1053.9682934864
 31
0.0
  0
LINE
  5
2AA
330
1F
100
AcDbEntity
  8
1
  6
CONTINUOUS
 62
     7
100
AcDbLine
 10
7687.6069219439
 20
-1150.8682934864
 30
0.0
 11
7701.1069219439
 21
-1150.8682934864
 31
0.0
  0
CIRCLE
  5
2AB
330
1F
100
AcDbEntity
  8
1
  6
CONTINUOUS
 62
     7
100
AcDbCircle
 10
7721.6069219439
 20
-1102.4182934864
 30
0.0
 40
2.0
  0
LINE
  5
2AC
330
1F
100
AcDbEntity
  8
1
  6
CONTINUOUS
 62
     7
100
AcDbLine
 10
7717.1069219439
 20
-1073.9182934864
 30
0.0
 11
7717.1069219439
 21
-1069.0182934864
 31
0.0
  0
ARC
  5
2AD
330
1F
100
AcDbEntity
  8
1
  6
CONTINUOUS
 62
     7
100
AcDbCircle
 10
7667.6106510043
 20
-1070.9182934876
 30
0.0
 40
3.0
100
AcDbArc
 50
190.3048464688
 51
270.0
  0
ARC
  5
2AE
330
1F
100
AcDbEntity
  8
1
  6
CONTINUOUS
 62
     7
100
AcDbCircle
 10
7660.6069219439
 20
-1144.1682939502
 30
0.0
 40
5.5
100
AcDbArc
 50
0.0
 51
65.3800342697
  0
LINE
  5
2AF
330
1F
100
AcDbEntity
  8
1
  6
CONTINUOUS
 62
     7
100
AcDbLine
 10
7701.1069219439
 20
-1053.9682934864
 30
0.0
 11
7701.1069219439
 21
-1060.6682934864
 31
0.0
  0
LINE
  5
2B0
330
1F
100
AcDbEntity
  8
1
  6
CONTINUOUS
 62
     7
100
AcDbLine
 10
7640.6069219439
 20
-1105.9182934864
 30
0.0
 11
7640.6069219439
 21
-1133.9182934864
 31
0.0
  0
LINE
  5
2B1
330
1F
100
AcDbEntity
  8
1
  6
CONTINUOUS
 62
     7
100
AcDbLine
 10
7680.6069219439
 20
-1098.9182934864
 30
0.0
 11
7677.5702656281
 21
-1098.3661741562
 31
0.0
  0
LINE
  5
2B2
330
1F
100
AcDbEntity
  8
1
  6
CONTINUOUS
 62
     7
100
AcDbLine
 10
7675.1069219439
 20
-1109.4220225468
 30
0.0
 11
7675.1069219439
 21
-1112.9182934864
 31
0.0
  0
LINE
  5
2B3
330
1F
100
AcDbEntity
  8
1
  6
CONTINUOUS
 62
     7
100
AcDbLine
 10
7641.6069219439
 20
-1150.8682934864
 30
0.0
 11
7655.1069219439
 21
-1150.8682934864
 31
0.0
  0
LINE
  5
2B4
330
1F
100
AcDbEntity
  8
1
  6
CONTINUOUS
 62
     7
100
AcDbLine
 10
7664.1069219439
 20
-1136.4182934864
 30
0.0
 11
7664.659041274
 21
-1133.3816371706
 31
0.0
  0
ARC
  5
2B5
330
1F
100
AcDbEntity
  8
1
  6
CONTINUOUS
 62
     7
100
AcDbCircle
 10
7660.6069219439
 20
-1144.1682939502
 30
0.0
 40
5.5
100
AcDbArc
 50
114.6199657303
 51
180.0
  0
CIRCLE
  5
2B6
330
1F
100
AcDbEntity
  8
1
  6
CONTINUOUS
 62
     7
100
AcDbCircle
 10
7660.6069219439
 20
-1144.1682939502
 30
0.0
 40
2.1
  0
LINE
  5
2B7
330
1F
100
AcDbEntity
  8
1
  6
CONTINUOUS
 62
     7
100
AcDbLine
 10
7708.8982087792
 20
-1065.6682934864
 30
0.0
 11
7704.3156351086
 21
-1065.6682934864
 31
0.0
  0
LINE
  5
2B8
330
1F
100
AcDbEntity
  8
1
  6
CONTINUOUS
 62
     7
100
AcDbLine
 10
7689.1069219176
 20
-1136.4182934864
 30
0.0
 11
7703.1069219439
 21
-1136.4182934864
 31
0.0
  0
LINE
  5
2B9
330
1F
100
AcDbEntity
  8
1
  6
CONTINUOUS
 62
     7
100
AcDbLine
 10
7653.6031928835
 20
-1130.9182934864
 30
0.0
 11
7650.1069219439
 21
-1130.9182934864
 31
0.0
  0
LINE
  5
2BA
330
1F
100
AcDbEntity
  8
1
  6
CONTINUOUS
 62
     7
100
AcDbLine
 10
7666.1069219439
 20
-1150.8682934864
 30
0.0
 11
7666.1069219439
 21
-1144.1682934864
 31
0.0
  0
LINE
  5
2BB
330
1F
100
AcDbEntity
  8
1
  6
CONTINUOUS
 62
     7
100
AcDbLine
 10
7726.6069219439
 20
-1105.9182934864
 30
0.0
 11
7726.6069219439
 21
-1133.9182934864
 31
0.0
  0
LINE
  5
2BC
330
1F
100
AcDbEntity
  8
1
  6
CONTINUOUS
 62
     7
100
AcDbLine
 10
7675.1069219439
 20
-1095.414564426
 30
0.0
 11
7675.1069219439
 21
-1091.9182934864
 31
0.0
  0
LINE
  5
2BD
330
1F
100
AcDbEntity
  8
1
  6
CONTINUOUS
 62
     7
100
AcDbLine
 10
7640.6069219439
 20
-1105.9182934864
 30
0.0
 11
7643.6435782597
 21
-1106.4704128165
 31
0.0
  0
LINE
  5
2BE
330
1F
100
AcDbEntity
  8
1
  6
CONTINUOUS
 62
     7
100
AcDbLine
 10
7671.1069219439
 20
-1130.9182934864
 30
0.0
 11
7671.1069219439
 21
-1135.8182934864
 31
0.0
  0
ARC
  5
2BF
330
1F
100
AcDbEntity
  8
1
  6
CONTINUOUS
 62
     7
100
AcDbCircle
 10
7713.6106510043
 20
-1070.9182934876
 30
0.0
 40
3.0
100
AcDbArc
 50
190.3048464688
 51
270.0
  0
LINE
  5
2C0
330
1F
100
AcDbEntity
  8
1
  6
CONTINUOUS
 62
     7
100
AcDbLine
 10
7712.1069219439
 20
-1053.9682934864
 30
0.0
 11
7712.1069219439
 21
-1060.6682934864
 31
0.0
  0
ARC
  5
2C1
330
1F
100
AcDbEntity
  8
1
  6
CONTINUOUS
 62
     7
100
AcDbCircle
 10
7653.6031928835
 20
-1133.9182934852
 30
0.0
 40
3.0
100
AcDbArc
 50
10.3048464688
 51
90.0
  0
LINE
  5
2C2
330
1F
100
AcDbEntity
  8
1
  6
CONTINUOUS
 62
     7
100
AcDbLine
 10
7675.1069219439
 20
-1091.9182934864
 30
0.0
 11
7680.0069219439
 21
-1091.9182934864
 31
0.0
  0
LINE
  5
2C3
330
1F
100
AcDbEntity
  8
1
  6
CONTINUOUS
 62
     7
100
AcDbLine
 10
7667.6106510043
 20
-1073.9182934864
 30
0.0
 11
7671.1069219439
 21
-1073.9182934864
 31
0.0
  0
ARC
  5
2C4
330
1F
100
AcDbEntity
  8
1
  6
CONTINUOUS
 62
     7
100
AcDbCircle
 10
7643.1069219451
 20
-1109.4220225468
 30
0.0
 40
3.0
100
AcDbArc
 50
0.0
 51
79.6951535312
  0
LINE
  5
2C5
330
1F
100
AcDbEntity
  8
1
  6
CONTINUOUS
 62
     7
100
AcDbLine
 10
7667.6106510043
 20
-1130.9182934864
 30
0.0
 11
7671.1069219439
 21
-1130.9182934864
 31
0.0
  0
LINE
  5
2C6
330
1F
100
AcDbEntity
  8
1
  6
CONTINUOUS
 62
     7
100
AcDbLine
 10
7664.1069219439
 20
-1068.4182934864
 30
0.0
 11
7664.659041274
 21
-1071.4549498021
 31
0.0
  0
ARC
  5
2C7
330
1F
100
AcDbEntity
  8
1
  6
CONTINUOUS
 62
     7
100
AcDbCircle
 10
7678.1069219427
 20
-1109.4220225468
 30
0.0
 40
3.0
100
AcDbArc
 50
100.3048464687
 51
180.0
  0
LINE
  5
2C8
330
1F
100
AcDbEntity
  8
1
  6
CONTINUOUS
 62
     7
100
AcDbLine
 10
7687.6069219439
 20
-1053.9682934864
 30
0.0
 11
7701.1069219439
 21
-1053.9682934864
 31
0.0
  0
ARC
  5
2C9
330
1F
100
AcDbEntity
  8
1
  6
CONTINUOUS
 62
     7
100
AcDbCircle
 10
7706.6069219439
 20
-1060.6682930226
 30
0.0
 40
5.5
100
AcDbArc
 50
294.6199657304
 51
0.0
  0
LINE
  5
2CA
330
1F
100
AcDbEntity
  8
1
  6
CONTINUOUS
 62
     7
100
AcDbLine
 10
7710.1069219439
 20
-1068.4182934864
 30
0.0
 11
7710.659041274
 21
-1071.4549498021
 31
0.0
  0
LINE
  5
2CB
330
1F
100
AcDbEntity
  8
1
  6
CONTINUOUS
 62
     7
100
AcDbLine
 10
7680.6069219439
 20
-1105.9182934864
 30
0.0
 11
7680.6069219439
 21
-1133.9182934864
 31
0.0
  0
LINE
  5
2CC
330
1F
100
AcDbEntity
  8
1
  6
CONTINUOUS
 62
     7
100
AcDbLine
 10
7680.6069219439
 20
-1070.9182934864
 30
0.0
 11
7680.6069219439
 21
-1098.9182934864
 31
0.0
  0
LINE
  5
2CD
330
1F
100
AcDbEntity
  8
1
  6
CONTINUOUS
 62
     7
100
AcDbLine
 10
7671.1069219439
 20
-1073.9182934864
 30
0.0
 11
7671.1069219439
 21
-1069.0182934864
 31
0.0
  0
LINE
  5
2CE
330
1F
100
AcDbEntity
  8
1
  6
CONTINUOUS
 62
     7
100
AcDbLine
 10
7646.1069219439
 20
-1109.4220225468
 30
0.0
 11
7646.1069219439
 21
-1112.9182934864
 31
0.0
  0
LINE
  5
2CF
330
1F
100
AcDbEntity
  8
1
  6
CONTINUOUS
 62
     7
100
AcDbLine
 10
7579.6069219439
 20
-1053.4182934864
 30
0.0
 11
7579.6069219439
 21
-1064.9182934832
 31
0.0
  0
LINE
  5
2D0
330
1F
100
AcDbEntity
  8
1
  6
CONTINUOUS
 62
     7
100
AcDbLine
 10
7710.1069219439
 20
-1136.4182934864
 30
0.0
 11
7724.1069219702
 21
-1136.4182934864
 31
0.0
  0
LINE
  5
2D1
330
1F
100
AcDbEntity
  8
1
  6
CONTINUOUS
 62
     7
100
AcDbLine
 10
7696.1069219439
 20
-1130.9182934864
 30
0.0
 11
7696.1069219439
 21
-1135.8182934864
 31
0.0
  0
LINE
  5
2D2
330
1F
100
AcDbEntity
  8
1
  6
CONTINUOUS
 62
     7
100
AcDbLine
 10
7616.8982087792
 20
-1065.6682934864
 30
0.0
 11
7612.3156351086
 21
-1065.6682934864
 31
0.0
  0
LINE
  5
2D3
330
1F
100
AcDbEntity
  8
1
  6
CONTINUOUS
 62
     7
100
AcDbLine
 10
7650.1069219439
 20
-1130.9182934864
 30
0.0
 11
7650.1069219439
 21
-1135.8182934864
 31
0.0
  0
ARC
  5
2D4
330
1F
100
AcDbEntity
  8
1
  6
CONTINUOUS
 62
     7
100
AcDbCircle
 10
7614.6069219439
 20
-1060.6682930226
 30
0.0
 40
5.5
100
AcDbArc
 50
180.0
 51
245.3800342697
  0
ARC
  5
2D5
330
1F
100
AcDbEntity
  8
1
  6
CONTINUOUS
 62
     7
100
AcDbCircle
 10
7607.6031928835
 20
-1070.9182934876
 30
0.0
 40
3.0
100
AcDbArc
 50
270.0
 51
349.6951535312
  0
ARC
  5
2D6
330
1F
100
AcDbEntity
  8
1
  6
CONTINUOUS
 62
     7
100
AcDbCircle
 10
7713.6106510043
 20
-1133.9182934852
 30
0.0
 40
3.0
100
AcDbArc
 50
90.0
 51
169.6951535312
  0
LINE
  5
2D7
330
1F
100
AcDbEntity
  8
1
  6
CONTINUOUS
 62
     7
100
AcDbLine
 10
7641.6069219439
 20
-1053.9682934864
 30
0.0
 11
7655.1069219439
 21
-1053.9682934864
 31
0.0
  0
LINE
  5
2D8
330
1F
100
AcDbEntity
  8
1
  6
CONTINUOUS
 62
     7
100
AcDbLine
 10
7604.1069219439
 20
-1130.9182934864
 30
0.0
 11
7604.1069219439
 21
-1135.8182934864
 31
0.0
  0
LINE
  5
2D9
330
1F
100
AcDbEntity
  8
1
  6
CONTINUOUS
 62
     7
100
AcDbLine
 10
7585.6069219439
 20
-1131.4180829319
 30
0.0
 11
7579.6069216724
 21
-1131.4180829319
 31
0.0
  0
LINE
  5
2DA
330
1F
100
AcDbEntity
  8
1
  6
CONTINUOUS
 62
     7
100
AcDbLine
 10
7754.8982087792
 20
-1139.1682934864
 30
0.0
 11
7750.3156351086
 21
-1139.1682934864
 31
0.0
  0
ARC
  5
2DB
330
1F
100
AcDbEntity
  8
1
  6
CONTINUOUS
 62
     7
100
AcDbCircle
 10
7699.6031928835
 20
-1133.9182934852
 30
0.0
 40
3.0
100
AcDbArc
 50
10.3048464688
 51
90.0
  0
LINE
  5
2DC
330
1F
100
AcDbEntity
  8
1
  6
CONTINUOUS
 62
     7
100
AcDbLine
 10
7717.1069219439
 20
-1130.9182934864
 30
0.0
 11
7717.1069219439
 21
-1135.8182934864
 31
0.0
  0
LINE
  5
2DD
330
1F
100
AcDbEntity
  8
1
  6
CONTINUOUS
 62
     7
100
AcDbLine
 10
7680.6069219439
 20
-1105.9182934864
 30
0.0
 11
7677.5702656281
 21
-1106.4704128165
 31
0.0
  0
LINE
  5
2DE
330
1F
100
AcDbEntity
  8
1
  6
CONTINUOUS
 62
     7
100
AcDbLine
 10
7726.6069219439
 20
-1070.9182934864
 30
0.0
 11
7726.6069219439
 21
-1098.9182934864
 31
0.0
  0
LINE
  5
2DF
330
1F
100
AcDbEntity
  8
1
  6
CONTINUOUS
 62
     7
100
AcDbLine
 10
7600.1069219439
 20
-1091.9182934864
 30
0.0
 11
7595.2069219439
 21
-1091.9182934864
 31
0.0
  0
LINE
  5
2E0
330
1F
100
AcDbEntity
  8
1
  6
CONTINUOUS
 62
     7
100
AcDbLine
 10
7666.1069219439
 20
-1053.9682934864
 30
0.0
 11
7666.1069219439
 21
-1060.6682934864
 31
0.0
  0
LINE
  5
2E1
330
1F
100
AcDbEntity
  8
1
  6
CONTINUOUS
 62
     7
100
AcDbLine
 10
7664.1069219439
 20
-1136.4182934864
 30
0.0
 11
7678.1069219702
 21
-1136.4182934864
 31
0.0
  0
CIRCLE
  5
2E2
330
1F
100
AcDbEntity
  8
1
  6
CONTINUOUS
 62
     7
100
AcDbCircle
 10
7614.6069219439
 20
-1060.6682930226
 30
0.0
 40
2.1
  0
LINE
  5
2E3
330
1F
100
AcDbEntity
  8
1
  6
CONTINUOUS
 62
     7
100
AcDbLine
 10
7713.6106510043
 20
-1130.9182934864
 30
0.0
 11
7717.1069219439
 21
-1130.9182934864
 31
0.0
  0
ARC
  5
2E4
330
1F
100
AcDbEntity
  8
1
  6
CONTINUOUS
 62
     7
100
AcDbCircle
 10
7607.6031928835
 20
-1133.9182934852
 30
0.0
 40
3.0
100
AcDbArc
 50
10.3048464688
 51
90.0
  0
ARC
  5
2E5
330
1F
100
AcDbEntity
  8
1
  6
CONTINUOUS
 62
     7
100
AcDbCircle
 10
7660.6069219439
 20
-1060.6682930226
 30
0.0
 40
5.5
100
AcDbArc
 50
180.0
 51
245.3800342697
  0
LINE
  5
2E6
330
1F
100
AcDbEntity
  8
1
  6
CONTINUOUS
 62
     7
100
AcDbLine
 10
7597.1069219176
 20
-1136.4182934864
 30
0.0
 11
7611.1069219439
 21
-1136.4182934864
 31
0.0
  0
LINE
  5
2E7
330
1F
100
AcDbEntity
  8
1
  6
CONTINUOUS
 62
     7
100
AcDbLine
 10
7600.1069219439
 20
-1095.414564426
 30
0.0
 11
7600.1069219439
 21
-1091.9182934864
 31
0.0
  0
LINE
  5
2E8
330
1F
100
AcDbEntity
  8
1
  6
CONTINUOUS
 62
     7
100
AcDbLine
 10
7607.6031928835
 20
-1073.9182934864
 30
0.0
 11
7604.1069219439
 21
-1073.9182934864
 31
0.0
  0
LINE
  5
2E9
330
1F
100
AcDbEntity
  8
1
  6
CONTINUOUS
 62
     7
100
AcDbLine
 10
7699.6031928835
 20
-1130.9182934864
 30
0.0
 11
7696.1069219439
 21
-1130.9182934864
 31
0.0
  0
LINE
  5
2EA
330
1F
100
AcDbEntity
  8
1
  6
CONTINUOUS
 62
     7
100
AcDbLine
 10
7713.6106510043
 20
-1073.9182934864
 30
0.0
 11
7717.1069219439
 21
-1073.9182934864
 31
0.0
  0
CIRCLE
  5
2EB
330
1F
100
AcDbEntity
  8
1
  6
CONTINUOUS
 62
     7
100
AcDbCircle
 10
7599.6069219441
 20
-1102.4182934864
 30
0.0
 40
2.0
  0
LINE
  5
2EC
330
1F
100
AcDbEntity
  8
1
  6
CONTINUOUS
 62
     7
100
AcDbLine
 10
7620.1069219439
 20
-1053.9682934864
 30
0.0
 11
7620.1069219439
 21
-1060.6682934864
 31
0.0
  0
LINE
  5
2ED
330
1F
100
AcDbEntity
  8
1
  6
CONTINUOUS
 62
     7
100
AcDbLine
 10
7611.1069219439
 20
-1068.4182934864
 30
0.0
 11
7610.5548026138
 21
-1071.4549498021
 31
0.0
  0
LINE
  5
2EE
330
1F
100
AcDbEntity
  8
1
  6
CONTINUOUS
 62
     7
100
AcDbLine
 10
7675.1069219439
 20
-1112.9182934864
 30
0.0
 11
7680.0069219439
 21
-1112.9182934864
 31
0.0
  0
LINE
  5
2EF
330
1F
100
AcDbEntity
  8
1
  6
CONTINUOUS
 62
     7
100
AcDbLine
 10
7686.6069219439
 20
-1105.9182934864
 30
0.0
 11
7686.6069219439
 21
-1133.9182934864
 31
0.0
  0
LINE
  5
2F0
330
1F
100
AcDbEntity
  8
1
  6
CONTINUOUS
 62
     7
100
AcDbLine
 10
7594.6069219439
 20
-1105.9182934864
 30
0.0
 11
7597.6435782597
 21
-1106.4704128165
 31
0.0
  0
ARC
  5
2F1
330
1F
100
AcDbEntity
  8
1
  6
CONTINUOUS
 62
     7
100
AcDbCircle
 10
7660.6069219439
 20
-1060.6682930226
 30
0.0
 40
5.5
100
AcDbArc
 50
294.6199657303
 51
0.0
  0
LINE
  5
2F2
330
1F
100
AcDbEntity
  8
1
  6
CONTINUOUS
 62
     7
100
AcDbLine
 10
7607.6031928835
 20
-1130.9182934864
 30
0.0
 11
7604.1069219439
 21
-1130.9182934864
 31
0.0
  0
ARC
  5
2F3
330
1F
100
AcDbEntity
  8
1
  6
CONTINUOUS
 62
     7
100
AcDbCircle
 10
7597.1069219451
 20
-1109.4220225468
 30
0.0
 40
3.0
100
AcDbArc
 50
0.0
 51
79.6951535312
  0
LINE
  5
2F4
330
1F
100
AcDbEntity
  8
1
  6
CONTINUOUS
 62
     7
100
AcDbLine
 10
7625.1069219439
 20
-1073.9182934864
 30
0.0
 11
7625.1069219439
 21
-1069.0182934864
 31
0.0
  0
ARC
  5
2F5
330
1F
100
AcDbEntity
  8
1
  6
CONTINUOUS
 62
     7
100
AcDbCircle
 10
7614.6069219439
 20
-1060.6682930226
 30
0.0
 40
5.5
100
AcDbArc
 50
294.6199657304
 51
0.0
  0
LINE
  5
2F6
330
1F
100
AcDbEntity
  8
1
  6
CONTINUOUS
 62
     7
100
AcDbLine
 10
7692.1069219439
 20
-1109.4220225468
 30
0.0
 11
7692.1069219439
 21
-1112.9182934864
 31
0.0
  0
LINE
  5
2F7
330
1F
100
AcDbEntity
  8
1
  6
CONTINUOUS
 62
     7
100
AcDbLine
 10
7662.8982087792
 20
-1065.6682934864
 30
0.0
 11
7658.3156351086
 21
-1065.6682934864
 31
0.0
  0
LINE
  5
2F8
330
1F
100
AcDbEntity
  8
1
  6
CONTINUOUS
 62
     7
100
AcDbLine
 10
7710.1069219439
 20
-1136.4182934864
 30
0.0
 11
7710.659041274
 21
-1133.3816371706
 31
0.0
  0
LINE
  5
2F9
330
1F
100
AcDbEntity
  8
1
  6
CONTINUOUS
 62
     7
100
AcDbLine
 10
7611.1069219439
 20
-1136.4182934864
 30
0.0
 11
7610.5548026138
 21
-1133.3816371706
 31
0.0
  0
ARC
  5
2FA
330
1F
100
AcDbEntity
  8
1
  6
CONTINUOUS
 62
     7
100
AcDbCircle
 10
7706.6069219439
 20
-1060.6682930226
 30
0.0
 40
5.5
100
AcDbArc
 50
180.0
 51
245.3800342697
  0
LINE
  5
2FB
330
1F
100
AcDbEntity
  8
1
  6
CONTINUOUS
 62
     7
100
AcDbLine
 10
7604.1069219439
 20
-1073.9182934864
 30
0.0
 11
7604.1069219439
 21
-1069.0182934864
 31
0.0
  0
LINE
  5
2FC
330
1F
100
AcDbEntity
  8
1
  6
CONTINUOUS
 62
     7
100
AcDbLine
 10
7620.1069219439
 20
-1150.8682934864
 30
0.0
 11
7620.1069219439
 21
-1144.1682934864
 31
0.0
  0
LINE
  5
2FD
330
1F
100
AcDbEntity
  8
1
  6
CONTINUOUS
 62
     7
100
AcDbLine
 10
7629.1069219439
 20
-1091.9182934864
 30
0.0
 11
7634.0069219439
 21
-1091.9182934864
 31
0.0
  0
LINE
  5
2FE
330
1F
100
AcDbEntity
  8
1
  6
CONTINUOUS
 62
     7
100
AcDbLine
 10
7579.6069219439
 20
-1139.9182934895
 30
0.0
 11
7585.6069219439
 21
-1138.4182934895
 31
0.0
  0
LINE
  5
2FF
330
1F
100
AcDbEntity
  8
1
  6
CONTINUOUS
 62
     7
100
AcDbLine
 10
7579.6069219439
 20
-1151.4182934864
 30
0.0
 11
7579.6069219439
 21
-1139.9182934895
 31
0.0
  0
ENDSEC
  0
SECTION
  2
OBJECTS
  0
DICTIONARY
  5
C
330
0
100
AcDbDictionary
  3
ACAD_GROUP
350
D
  3
ACAD_LAYOUT
350
1A
  3
ACAD_MATERIAL
350
43
  3
ACAD_MLEADERSTYLE
350
6B
  3
ACAD_MLINESTYLE
350
17
  3
ACAD_PLOTSETTINGS
350
19
  3
ACAD_SCALELIST
350
47
  3
ACAD_VISUALSTYLE
350
2A
  3
ACDBHEADERROUNDTRIPXREC
350
300
  3
ACDBVARIABLEDICTIONARY
350
321
  0
DICTIONARY
  5
328
330
8
100
AcDbDictionary
280
     1
  3
ACAD_XREC_ROUNDTRIP
360
329
  0
DICTIONARY
  5
D
102
{ACAD_REACTORS
330
C
102
}
330
C
100
AcDbDictionary
  0
DICTIONARY
  5
1A
102
{ACAD_REACTORS
330
C
102
}
330
C
100
AcDbDictionary
  0
DICTIONARY
  5
43
102
{ACAD_REACTORS
330
C
102
}
330
C
100
AcDbDictionary
  3
BYBLOCK
350
45
  3
BYLAYER
350
44
  3
GLOBAL
350
46
  0
DICTIONARY
  5
6B
102
{ACAD_REACTORS
330
C
102
}
330
C
100
AcDbDictionary
  3
STANDARD
350
6C
  0
DICTIONARY
  5
17
102
{ACAD_REACTORS
330
C
102
}
330
C
100
AcDbDictionary
  3
STANDARD
350
18
  0
DICTIONARY
  5
19
102
{ACAD_REACTORS
330
C
102
}
330
C
100
AcDbDictionary
  0
DICTIONARY
  5
47
102
{ACAD_REACTORS
330
C
102
}
330
C
100
AcDbDictionary
  3
A0
350
48
  3
A1
350
49
  3
A2
350
4A
  3
A3
350
4B
  3
A4
350
4C
  3
A5
350
4D
  3
A6
350
4E
  3
A7
350
4F
  3
A8
350
50
  3
A9
350
51
  3
B0
350
52
  3
B1
350
53
  3
B2
350
54
  3
B3
350
55
  3
B4
350
56
  3
B5
350
57
  3
B6
350
58
  3
B7
350
59
  3
B8
350
5A
  3
B9
350
5B
  3
C0
350
5C
  3
C1
350
5D
  3
C2
350
5E
  3
C3
350
5F
  3
C4
350
60
  3
C5
350
61
  3
C6
350
62
  3
C7
350
63
  3
C8
350
64
  3
C9
350
65
  3
D0
350
66
  3
D1
350
67
  3
D2
350
68
  0
DICTIONARY
  5
2A
102
{ACAD_REACTORS
330
C
102
}
330
C
100
AcDbDictionary
  3
2DWIREFRAME
350
2F
  3
BASIC
350
32
  3
BRIGHTEN
350
36
  3
COLORCHANGE
350
3A
  3
CONCEPTUAL
350
34
  3
DIM
350
35
  3
EDGECOLOROFF
350
3D
  3
FACEPATTERN
350
39
  3
FLAT
350
2B
  3
FLATWITHEDGES
350
2C
  3
GOURAUD
350
2D
  3
GOURAUDWITHEDGES
350
2E
  3
HIDDEN
350
31
  3
JITTEROFF
350
3B
  3
LINEPATTERN
350
38
  3
OVERHANGOFF
350
3C
  3
REALISTIC
350
33
  3
SHADED
350
42
  3
SHADED_WITH_EDGES
350
41
  3
SHADES_OF_GRAY
350
3E
  3
SKETCHY
350
3F
  3
THICKEN
350
37
  3
WIREFRAME
350
30
  3
X-RAY
350
40
  0
DICTIONARY
  5
300
102
{ACAD_REACTORS
330
C
102
}
330
C
100
AcDbDictionary
  3
CEPSNID
350
30A
  3
CEPSNTYPE
350
309
  3
DIMSTYLEDATA
350
320
  3
FINGERPRINTGUID
350
30B
  3
HYPERLINKBASE
350
303
  3
INSUNITS
350
308
  3
LAYOUTDICT
350
305
  3
LWETCUNION
350
307
  3
PLOTSETDICT
350
306
  3
PSVPSCALE
350
30D
  3
PUCSBASE
350
310
  3
PUCSORGBACK
350
316
  3
PUCSORGBOTTOM
350
312
  3
PUCSORGFRONT
350
315
  3
PUCSORGLEFT
350
313
  3
PUCSORGRIGHT
350
314
  3
PUCSORGTOP
350
311
  3
PUCSORTHOREF
350
30E
  3
PUCSORTHOVIEW
350
30F
  3
STYLESHEET
350
304
  3
TSTACKALIGN
350
301
  3
TSTACKSIZE
350
302
  3
UCSBASE
350
319
  3
UCSORGBACK
350
31F
  3
UCSORGBOTTOM
350
31B
  3
UCSORGFRONT
350
31E
  3
UCSORGLEFT
350
31C
  3
UCSORGRIGHT
350
31D
  3
UCSORGTOP
350
31A
  3
UCSORTHOREF
350
317
  3
UCSORTHOVIEW
350
318
  3
VERSIONGUID
350
30C
  0
DICTIONARY
  5
321
102
{ACAD_REACTORS
330
C
102
}
330
C
100
AcDbDictionary
  3
CANNOSCALE
350
32A
  3
CMLEADERSTYLE
350
323
  3
CTABLESTYLE
350
322
  3
DIMASSOC
350
326
  3
HIDETEXT
350
327
  3
MSLTSCALE
350
32B
  0
XRECORD
  5
329
102
{ACAD_REACTORS
330
328
102
}
330
328
100
AcDbXrecord
102
VTR_0.000_0.000_1.000_1.000_VISUALSTYLE
340
2F
102
VTR_0.000_0.000_1.000_1.000_GRIDDISPLAY
 70
     3
102
VTR_0.000_0.000_1.000_1.000_GRIDMAJOR
 70
     5
102
VTR_0.000_0.000_1.000_1.000_DEFAULTLIGHTING
280
     1
102
VTR_0.000_0.000_1.000_1.000_DEFAULTLIGHTINGTYPE
 70
     1
102
VTR_0.000_0.000_1.000_1.000_BRIGHTNESS
141
0.0
102
VTR_0.000_0.000_1.000_1.000_CONTRAST
142
0.0
  0
MATERIAL
  5
45
102
{ACAD_REACTORS
330
43
102
}
102
{ACAD_XDICTIONARY
360
32E
102
}
330
43
100
AcDbMaterial
  1
BYBLOCK
  0
MATERIAL
  5
44
102
{ACAD_REACTORS
330
43
102
}
102
{ACAD_XDICTIONARY
360
32C
102
}
330
43
100
AcDbMaterial
  1
BYLAYER
  0
MATERIAL
  5
46
102
{ACAD_REACTORS
330
43
102
}
102
{ACAD_XDICTIONARY
360
330
102
}
330
43
100
AcDbMaterial
  1
GLOBAL
  0
ACAD_PROXY_OBJECT
  5
6C
102
{ACAD_REACTORS
330
6B
102
}
330
6B
100
AcDbProxyObject
 90
      499
 91
      505
 93
      610
310
40901902A4063FBFFFFFE056BD1B81E855B9FC0AD7A3703D0AD73F4214DD185B99185C9900AD7A3703D0AC73F90141901A02B5E8DC0F42B1CFC02B5E8DC0F42B1CFE5764000000000000300FC0
340
14
340
0
340
11
340
0
 94
        0
1001
ACAD_MLEADERVER
1070
     2
  0
MLINESTYLE
  5
18
102
{ACAD_REACTORS
330
17
102
}
330
17
100
AcDbMlineStyle
  2
Standard
 70
     0
  3

 62
   256
 51
90.0
 52
90.0
 71
     2
 49
0.5
 62
   256
  6
BYLAYER
 49
-0.5
 62
   256
  6
BYLAYER
  0
ACAD_PROXY_OBJECT
  5
48
102
{ACAD_REACTORS
330
47
102
}
330
47
100
AcDbProxyObject
 90
      499
 91
      503
 93
       41
310
903313A31580
  0
ACAD_PROXY_OBJECT
  5
49
102
{ACAD_REACTORS
330
47
102
}
330
47
100
AcDbProxyObject
 90
      499
 91
      503
 93
      105
310
903313A324000000000000004000
  0
ACAD_PROXY_OBJECT
  5
4A
102
{ACAD_REACTORS
330
47
102
}
330
47
100
AcDbProxyObject
 90
      499
 91
      503
 93
      105
310
903313A344000000000000104000
  0
ACAD_PROXY_OBJECT
  5
4B
102
{ACAD_REACTORS
330
47
102
}
330
47
100
AcDbProxyObject
 90
      499
 91
      503
 93
      105
310
903313A354000000000000144000
  0
ACAD_PROXY_OBJECT
  5
4C
102
{ACAD_REACTORS
330
47
102
}
330
47
100
AcDbProxyObject
 90
      499
 91
      503
 93
      105
310
903313A384000000000000204000
  0
ACAD_PROXY_OBJECT
  5
4D
102
{ACAD_REACTORS
330
47
102
}
330
47
100
AcDbProxyObject
 90
      499
 91
      503
 93
      113
310
904313A31304000000000000244000
  0
ACAD_PROXY_OBJECT
  5
4E
102
{ACAD_REACTORS
330
47
102
}
330
47
100
AcDbProxyObject
 90
      499
 91
      503
 93
      113
310
904313A31364000000000000304000
  0
ACAD_PROXY_OBJECT
  5
4F
102
{ACAD_REACTORS
330
47
102
}
330
47
100
AcDbProxyObject
 90
      499
 91
      503
 93
      113
310
904313A32304000000000000344000
  0
ACAD_PROXY_OBJECT
  5
50
102
{ACAD_REACTORS
330
47
102
}
330
47
100
AcDbProxyObject
 90
      499
 91
      503
 93
      113
310
904313A333040000000000003E4000
  0
ACAD_PROXY_OBJECT
  5
51
102
{ACAD_REACTORS
330
47
102
}
330
47
100
AcDbProxyObject
 90
      499
 91
      503
 93
      113
310
904313A34304000000000000444000
  0
ACAD_PROXY_OBJECT
  5
52
102
{ACAD_REACTORS
330
47
102
}
330
47
100
AcDbProxyObject
 90
      499
 91
      503
 93
      113
310
904313A35304000000000000494000
  0
ACAD_PROXY_OBJECT
  5
53
102
{ACAD_REACTORS
330
47
102
}
330
47
100
AcDbProxyObject
 90
      499
 91
      503
 93
      121
310
905313A3130304000000000000594000
  0
ACAD_PROXY_OBJECT
  5
54
102
{ACAD_REACTORS
330
47
102
}
330
47
100
AcDbProxyObject
 90
      499
 91
      503
 93
      105
310
903323A310000000000000010100
  0
ACAD_PROXY_OBJECT
  5
55
102
{ACAD_REACTORS
330
47
102
}
330
47
100
AcDbProxyObject
 90
      499
 91
      503
 93
      105
310
903343A310000000000000410100
  0
ACAD_PROXY_OBJECT
  5
56
102
{ACAD_REACTORS
330
47
102
}
330
47
100
AcDbProxyObject
 90
      499
 91
      503
 93
      105
310
903383A310000000000000810100
  0
ACAD_PROXY_OBJECT
  5
57
102
{ACAD_REACTORS
330
47
102
}
330
47
100
AcDbProxyObject
 90
      499
 91
      503
 93
      113
310
90431303A310000000000000910100
  0
ACAD_PROXY_OBJECT
  5
58
102
{ACAD_REACTORS
330
47
102
}
330
47
100
AcDbProxyObject
 90
      499
 91
      503
 93
      121
310
9053130303A310000000000001650100
  0
ACAD_PROXY_OBJECT
  5
59
102
{ACAD_REACTORS
330
47
102
}
330
47
100
AcDbProxyObject
 90
      499
 91
      503
 93
      257
310
90E312F31323822203D2031272D3022000000000000200FC000000000000284000
  0
ACAD_PROXY_OBJECT
  5
5A
102
{ACAD_REACTORS
330
47
102
}
330
47
100
AcDbProxyObject
 90
      499
 91
      503
 93
      249
310
90D312F363422203D2031272D3022000000000000240FC000000000000284000
  0
ACAD_PROXY_OBJECT
  5
5B
102
{ACAD_REACTORS
330
47
102
}
330
47
100
AcDbProxyObject
 90
      499
 91
      503
 93
      249
310
90D312F333222203D2031272D3022000000000000280FC000000000000284000
  0
ACAD_PROXY_OBJECT
  5
5C
102
{ACAD_REACTORS
330
47
102
}
330
47
100
AcDbProxyObject
 90
      499
 91
      503
 93
      249
310
90D312F313622203D2031272D30220000000000002C0FC000000000000284000
  0
ACAD_PROXY_OBJECT
  5
5D
102
{ACAD_REACTORS
330
47
102
}
330
47
100
AcDbProxyObject
 90
      499
 91
      503
 93
      249
310
90D332F333222203D2031272D30220000000000002E0FC000000000000284000
  0
ACAD_PROXY_OBJECT
  5
5E
102
{ACAD_REACTORS
330
47
102
}
330
47
100
AcDbProxyObject
 90
      499
 91
      503
 93
      241
310
90C312F3822203D2031272D3022000000000000300FC000000000000284000
  0
ACAD_PROXY_OBJECT
  5
5F
102
{ACAD_REACTORS
330
47
102
}
330
47
100
AcDbProxyObject
 90
      499
 91
      503
 93
      249
310
90D332F313622203D2031272D3022000000000000320FC000000000000284000
  0
ACAD_PROXY_OBJECT
  5
60
102
{ACAD_REACTORS
330
47
102
}
330
47
100
AcDbProxyObject
 90
      499
 91
      503
 93
      241
310
90C312F3422203D2031272D3022000000000000340FC000000000000284000
  0
ACAD_PROXY_OBJECT
  5
61
102
{ACAD_REACTORS
330
47
102
}
330
47
100
AcDbProxyObject
 90
      499
 91
      503
 93
      241
310
90C332F3822203D2031272D3022000000000000360FC000000000000284000
  0
ACAD_PROXY_OBJECT
  5
62
102
{ACAD_REACTORS
330
47
102
}
330
47
100
AcDbProxyObject
 90
      499
 91
      503
 93
      241
310
90C312F3222203D2031272D3022000000000000380FC000000000000284000
  0
ACAD_PROXY_OBJECT
  5
63
102
{ACAD_REACTORS
330
47
102
}
330
47
100
AcDbProxyObject
 90
      499
 91
      503
 93
      241
310
90C332F3422203D2031272D30220000000000003A0FC000000000000284000
  0
ACAD_PROXY_OBJECT
  5
64
102
{ACAD_REACTORS
330
47
102
}
330
47
100
AcDbProxyObject
 90
      499
 91
      503
 93
      161
310
90A3122203D2031272D30224000000000000284000
  0
ACAD_PROXY_OBJECT
  5
65
102
{ACAD_REACTORS
330
47
102
}
330
47
100
AcDbProxyObject
 90
      499
 91
      503
 93
      257
310
90E312D312F3222203D2031272D30220000000000003E0FC000000000000284000
  0
ACAD_PROXY_OBJECT
  5
66
102
{ACAD_REACTORS
330
47
102
}
330
47
100
AcDbProxyObject
 90
      499
 91
      503
 93
      225
310
90A3322203D2031272D302200000000000002100000000000000284000
  0
ACAD_PROXY_OBJECT
  5
67
102
{ACAD_REACTORS
330
47
102
}
330
47
100
AcDbProxyObject
 90
      499
 91
      503
 93
      225
310
90A3622203D2031272D302200000000000006100000000000000284000
  0
ACAD_PROXY_OBJECT
  5
68
102
{ACAD_REACTORS
330
47
102
}
330
47
100
AcDbProxyObject
 90
      499
 91
      503
 93
      249
310
90D31272D3022203D2031272D30220000000000000A100000000000000284000
  0
ACAD_PROXY_OBJECT
  5
2F
102
{ACAD_REACTORS
330
2A
102
}
330
2A
100
AcDbProxyObject
 90
      499
 91
      501
 93
      436
310
42CC9915DA5C99599C985B595049028333333333333E33F0000000000000F90107901411070040501600405405064090741402480A0340
1001
ACAD
1000
AcDbSavedByObjectVersion
1070
     0
  0
ACAD_PROXY_OBJECT
  5
32
102
{ACAD_REACTORS
330
2A
102
}
330
2A
100
AcDbProxyObject
 90
      499
 91
      501
 93
      388
310
4150985CDA58D07406404333333333333E33F0000000000000F90107A41107004050150841D405064090741402480A0350
1001
ACAD
1000
AcDbSavedByObjectVersion
1070
     0
  0
ACAD_PROXY_OBJECT
  5
36
102
{ACAD_REACTORS
330
2A
102
}
330
2A
100
AcDbProxyObject
 90
      499
 91
      501
 93
      428
310
42109C9A59DA1D195B90C409028333333333333E33F0000000000000F9010790141107004050150841D405064090741402480A029950
1001
ACAD
1000
AcDbSavedByObjectVersion
1070
     0
  0
ACAD_PROXY_OBJECT
  5
3A
102
{ACAD_REACTORS
330
2A
102
}
330
2A
100
AcDbProxyObject
 90
      499
 91
      501
 93
      452
310
42D0DBDB1BDC90DA185B99D95104090240C333333333333E33F0000000000000F90108901411070040501508421405064090741402480A0350
1001
ACAD
1000
AcDbSavedByObjectVersion
1070
     0
  0
ACAD_PROXY_OBJECT
  5
34
102
{ACAD_REACTORS
330
2A
102
}
330
2A
100
AcDbProxyObject
 90
      499
 91
      501
 93
      500
310
4290DBDB98D95C1D1D585B10940D028333333333333E33F0000000000000F90107902409070040501000000000018199010841D405064090740C02480A0340
1001
ACAD
1000
AcDbSavedByObjectVersion
1070
     0
  0
ACAD_PROXY_OBJECT
  5
35
102
{ACAD_REACTORS
330
2A
102
}
330
2A
100
AcDbProxyObject
 90
      499
 91
      501
 93
      412
310
40D11A5B50B409028333333333333E33F0000000000000F9010790141107004050150841D405064090741402480A02677FFFFFD0
1001
ACAD
1000
AcDbSavedByObjectVersion
1070
     0
  0
ACAD_PROXY_OBJECT
  5
3D
102
{ACAD_REACTORS
330
2A
102
}
330
2A
100
AcDbProxyObject
 90
      499
 91
      501
 93
      452
310
43115919D950DBDB1BDC93D999916409028333333333333E33F0000000000000F9010790141107004050150841D405064090741402480A0350
1001
ACAD
1000
AcDbSavedByObjectVersion
1070
     0
  0
ACAD_PROXY_OBJECT
  5
39
102
{ACAD_REACTORS
330
2A
102
}
330
2A
100
AcDbProxyObject
 90
      499
 91
      501
 93
      444
310
42D19858D95C185D1D195C9B90F409028333333333333E33F0000000000000F9010790141107004050150841D405064090741402480A0350
1001
ACAD
1000
AcDbSavedByObjectVersion
1070
     0
  0
ACAD_PROXY_OBJECT
  5
2B
102
{ACAD_REACTORS
330
2A
102
}
330
2A
100
AcDbProxyObject
 90
      499
 91
      501
 93
      380
310
41119B185D240901404333333333333E33F0000000000000F9010740A907004050150841D405064090741402480A1B50
1001
ACAD
1000
AcDbSavedByObjectVersion
1070
     0
  0
ACAD_PROXY_OBJECT
  5
2C
102
{ACAD_REACTORS
330
2A
102
}
330
2A
100
AcDbProxyObject
 90
      499
 91
      501
 93
      468
310
43519B185D15DA5D1A115919D95CD0140901404333333333333E33F0000000000000F90107409019070040501600405405064090741402480A1B50
1001
ACAD
1000
AcDbSavedByObjectVersion
1070
     0
  0
ACAD_PROXY_OBJECT
  5
2D
102
{ACAD_REACTORS
330
2A
102
}
330
2A
100
AcDbProxyObject
 90
      499
 91
      501
 93
      404
310
41D1DBDD5C985D5910240902404333333333333E33F0000000000000F9010740A9070040501641D405064090741402480A1B50
1001
ACAD
1000
AcDbSavedByObjectVersion
1070
     0
  0
ACAD_PROXY_OBJECT
  5
2E
102
{ACAD_REACTORS
330
2A
102
}
330
2A
100
AcDbProxyObject
 90
      499
 91
      501
 93
      492
310
4411DBDD5C985D5915DA5D1A115919D95CD0340902404333333333333E33F0000000000000F90107409019070040501600405405064090741402480A1B50
1001
ACAD
1000
AcDbSavedByObjectVersion
1070
     0
  0
ACAD_PROXY_OBJECT
  5
31
102
{ACAD_REACTORS
330
2A
102
}
330
2A
100
AcDbProxyObject
 90
      499
 91
      501
 93
      476
310
41921A5919195B90640502408333333333333E33F0000000000000F901079024090700405020000000000001110200405405064090740C02480A0340
1001
ACAD
1000
AcDbSavedByObjectVersion
1070
     0
  0
ACAD_PROXY_OBJECT
  5
3B
102
{ACAD_REACTORS
330
2A
102
}
330
2A
100
AcDbProxyObject
 90
      499
 91
      501
 93
      428
310
42529A5D1D195C93D999914409028333333333333E33F0000000000000F9010790141107004050150A41D405064090741402480A0350
1001
ACAD
1000
AcDbSavedByObjectVersion
1070
     0
  0
ACAD_PROXY_OBJECT
  5
38
102
{ACAD_REACTORS
330
2A
102
}
330
2A
100
AcDbProxyObject
 90
      499
 91
      501
 93
      444
310
42D31A5B995C185D1D195C9B90E409028333333333333E33F0000000000000F9010790141107004050750841D405064090741402483A0350
1001
ACAD
1000
AcDbSavedByObjectVersion
1070
     0
  0
ACAD_PROXY_OBJECT
  5
3C
102
{ACAD_REACTORS
330
2A
102
}
330
2A
100
AcDbProxyObject
 90
      499
 91
      501
 93
      444
310
42D3DD995C9A185B99D3D999915409028333333333333E33F0000000000000F9010790141107004050150941D405064090741402480A0350
1001
ACAD
1000
AcDbSavedByObjectVersion
1070
     0
  0
ACAD_PROXY_OBJECT
  5
33
102
{ACAD_REACTORS
330
2A
102
}
330
2A
100
AcDbProxyObject
 90
      499
 91
      501
 93
      428
310
425499585B1A5CDD1A58D08409038333333333333E33F0000000000000F9010740A907004050150800405405064090740C02480A1B40
1001
ACAD
1000
AcDbSavedByObjectVersion
1070
     0
  0
ACAD_PROXY_OBJECT
  5
42
102
{ACAD_REACTORS
330
2A
102
}
330
2A
100
AcDbProxyObject
 90
      499
 91
      501
 93
      420
310
4194DA1859195911B40902404333333333333E33F0000000000000F9010740A41107004050150800405405064090840C02480A0B40
1001
ACAD
1000
AcDbSavedByObjectVersion
1070
     0
  0
ACAD_PROXY_OBJECT
  5
41
102
{ACAD_REACTORS
330
2A
102
}
330
2A
100
AcDbProxyObject
 90
      499
 91
      501
 93
      516
310
4454DA18591959081DDA5D1A08195919D95CD1A40902404333333333333E33F0000000000000F901074090142907004050250800405405064090740C02480A0B40
1001
ACAD
1000
AcDbSavedByObjectVersion
1070
     0
  0
ACAD_PROXY_OBJECT
  5
3E
102
{ACAD_REACTORS
330
2A
102
}
330
2A
100
AcDbProxyObject
 90
      499
 91
      501
 93
      532
310
4394DA1859195CC81BD98811DC985E5174090240C333333333333E33F0000000000000F901079024090741D01000000000000111010841D405064090740C02480A0340
1001
ACAD
1000
AcDbSavedByObjectVersion
1070
     0
  0
ACAD_PROXY_OBJECT
  5
3F
102
{ACAD_REACTORS
330
2A
102
}
330
2A
100
AcDbProxyObject
 90
      499
 91
      501
 93
      476
310
41D4DAD95D18DA1E51840502408333333333333E33F0000000000000F901079024090741D01000000000000111010B41D405064090741802480A0340
1001
ACAD
1000
AcDbSavedByObjectVersion
1070
     0
  0
ACAD_PROXY_OBJECT
  5
37
102
{ACAD_REACTORS
330
2A
102
}
330
2A
100
AcDbProxyObject
 90
      499
 91
      501
 93
      412
310
41D51A1A58DAD95B90D409028333333333333E33F0000000000000F9010790141107004050150C41D405064090741402480A0350
1001
ACAD
1000
AcDbSavedByObjectVersion
1070
     0
  0
ACAD_PROXY_OBJECT
  5
30
102
{ACAD_REACTORS
330
2A
102
}
330
2A
100
AcDbProxyObject
 90
      499
 91
      501
 93
      420
310
4255DA5C99599C985B595059028333333333333E33F0000000000000F90107901411070040501600405405064090740C02480A0340
1001
ACAD
1000
AcDbSavedByObjectVersion
1070
     0
  0
ACAD_PROXY_OBJECT
  5
40
102
{ACAD_REACTORS
330
2A
102
}
330
2A
100
AcDbProxyObject
 90
      499
 91
      501
 93
      404
310
41560B54985E51940902404000000000000E03F0000000000000F9010740501907004050150841D405064090740C02480A1B40
1001
ACAD
1000
AcDbSavedByObjectVersion
1070
     0
  0
XRECORD
  5
30A
102
{ACAD_REACTORS
330
300
102
}
330
300
100
AcDbXrecord
340
0
  0
XRECORD
  5
309
102
{ACAD_REACTORS
330
300
102
}
330
300
100
AcDbXrecord
 90
        0
  0
XRECORD
  5
320
102
{ACAD_REACTORS
330
300
102
}
330
300
100
AcDbXrecord
1000
DSTYLE
1002
{
1070
   179
 70
     2
1070
   171
 70
     2
1070
   143
 40
25.4
1070
   274
 70
     2
1070
    41
 40
2.0
1070
   141
 40
0.09
1070
    43
 40
0.38
1070
   278
 70
    46
1070
    44
 40
1.0
1070
    42
 40
0.0625
1070
   147
 40
1.75
1070
   272
 70
     4
1070
    73
 70
     1
1070
   172
 70
     0
1070
    74
 70
     1
1070
   283
 70
     1
1070
   340
340
6F
1070
   140
 40
3.5
1070
   284
 70
     0
1070
    78
 70
     0
1002
}
  0
XRECORD
  5
30B
102
{ACAD_REACTORS
330
300
102
}
330
300
100
AcDbXrecord
  1
{D096A460-57E6-45FB-B75E-DD85EB36F6FD}
  0
XRECORD
  5
303
102
{ACAD_REACTORS
330
300
102
}
330
300
100
AcDbXrecord
  1

  0
XRECORD
  5
308
102
{ACAD_REACTORS
330
300
102
}
330
300
100
AcDbXrecord
 90
        4
  0
XRECORD
  5
305
102
{ACAD_REACTORS
330
300
102
}
330
300
100
AcDbXrecord
340
1A
  0
XRECORD
  5
307
102
{ACAD_REACTORS
330
300
102
}
330
300
100
AcDbXrecord
 90
    10269
  0
XRECORD
  5
306
102
{ACAD_REACTORS
330
300
102
}
330
300
100
AcDbXrecord
340
19
  0
XRECORD
  5
30D
102
{ACAD_REACTORS
330
300
102
}
330
300
100
AcDbXrecord
 40
0.0
  0
XRECORD
  5
310
102
{ACAD_REACTORS
330
300
102
}
330
300
100
AcDbXrecord
340
0
  0
XRECORD
  5
316
102
{ACAD_REACTORS
330
300
102
}
330
300
100
AcDbXrecord
 10
0.0
 20
0.0
 30
0.0
  0
XRECORD
  5
312
102
{ACAD_REACTORS
330
300
102
}
330
300
100
AcDbXrecord
 10
0.0
 20
0.0
 30
0.0
  0
XRECORD
  5
315
102
{ACAD_REACTORS
330
300
102
}
330
300
100
AcDbXrecord
 10
0.0
 20
0.0
 30
0.0
  0
XRECORD
  5
313
102
{ACAD_REACTORS
330
300
102
}
330
300
100
AcDbXrecord
 10
0.0
 20
0.0
 30
0.0
  0
XRECORD
  5
314
102
{ACAD_REACTORS
330
300
102
}
330
300
100
AcDbXrecord
 10
0.0
 20
0.0
 30
0.0
  0
XRECORD
  5
311
102
{ACAD_REACTORS
330
300
102
}
330
300
100
AcDbXrecord
 10
0.0
 20
0.0
 30
0.0
  0
XRECORD
  5
30E
102
{ACAD_REACTORS
330
300
102
}
330
300
100
AcDbXrecord
340
0
  0
XRECORD
  5
30F
102
{ACAD_REACTORS
330
300
102
}
330
300
100
AcDbXrecord
 70
     0
  0
XRECORD
  5
304
102
{ACAD_REACTORS
330
300
102
}
330
300
100
AcDbXrecord
  1

  0
XRECORD
  5
301
102
{ACAD_REACTORS
330
300
102
}
330
300
100
AcDbXrecord
 90
        1
  0
XRECORD
  5
302
102
{ACAD_REACTORS
330
300
102
}
330
300
100
AcDbXrecord
 90
       70
  0
XRECORD
  5
319
102
{ACAD_REACTORS
330
300
102
}
330
300
100
AcDbXrecord
340
0
  0
XRECORD
  5
31F
102
{ACAD_REACTORS
330
300
102
}
330
300
100
AcDbXrecord
 10
0.0
 20
0.0
 30
0.0
  0
XRECORD
  5
31B
102
{ACAD_REACTORS
330
300
102
}
330
300
100
AcDbXrecord
 10
0.0
 20
0.0
 30
0.0
  0
XRECORD
  5
31E
102
{ACAD_REACTORS
330
300
102
}
330
300
100
AcDbXrecord
 10
0.0
 20
0.0
 30
0.0
  0
XRECORD
  5
31C
102
{ACAD_REACTORS
330
300
102
}
330
300
100
AcDbXrecord
 10
0.0
 20
0.0
 30
0.0
  0
XRECORD
  5
31D
102
{ACAD_REACTORS
330
300
102
}
330
300
100
AcDbXrecord
 10
0.0
 20
0.0
 30
0.0
  0
XRECORD
  5
31A
102
{ACAD_REACTORS
330
300
102
}
330
300
100
AcDbXrecord
 10
0.0
 20
0.0
 30
0.0
  0
XRECORD
  5
317
102
{ACAD_REACTORS
330
300
102
}
330
300
100
AcDbXrecord
340
0
  0
XRECORD
  5
318
102
{ACAD_REACTORS
330
300
102
}
330
300
100
AcDbXrecord
 70
     0
  0
XRECORD
  5
30C
102
{ACAD_REACTORS
330
300
102
}
330
300
100
AcDbXrecord
  1
{FAEB1C32-E019-11D5-929B-00C0DF256EC4}
  0
DICTIONARYVAR
  5
32A
102
{ACAD_REACTORS
330
321
102
}
330
321
100
DictionaryVariables
280
     0
  1
1:1
  0
DICTIONARYVAR
  5
323
102
{ACAD_REACTORS
330
321
102
}
330
321
100
DictionaryVariables
280
     0
  1
Standard
  0
DICTIONARYVAR
  5
322
102
{ACAD_REACTORS
330
321
102
}
330
321
100
DictionaryVariables
280
     0
  1
Standard
  0
DICTIONARYVAR
  5
326
102
{ACAD_REACTORS
330
321
102
}
330
321
100
DictionaryVariables
280
     0
  1
2
  0
DICTIONARYVAR
  5
327
102
{ACAD_REACTORS
330
321
102
}
330
321
100
DictionaryVariables
280
     0
  1
1
  0
DICTIONARYVAR
  5
32B
102
{ACAD_REACTORS
330
321
102
}
330
321
100
DictionaryVariables
280
     0
  1
1
  0
DICTIONARY
  5
32E
330
45
100
AcDbDictionary
280
     1
  3
ACAD_XREC_ROUNDTRIP
360
32F
  0
DICTIONARY
  5
32C
330
44
100
AcDbDictionary
280
     1
  3
ACAD_XREC_ROUNDTRIP
360
32D
  0
DICTIONARY
  5
330
330
46
100
AcDbDictionary
280
     1
  3
ACAD_XREC_ROUNDTRIP
360
331
  0
XRECORD
  5
32F
102
{ACAD_REACTORS
330
32E
102
}
330
32E
100
AcDbXrecord
102
MATERIAL
148
0.0
149
0.0
149
0.0
 93
        0
 94
      127
282
     0
 72
     1
 77
     1
171
     1
175
     1
179
     1
273
     0
  0
XRECORD
  5
32D
102
{ACAD_REACTORS
330
32C
102
}
330
32C
100
AcDbXrecord
102
MATERIAL
148
0.0
149
0.0
149
0.0
 93
        0
 94
      127
282
     0
 72
     1
 77
     1
171
     1
175
     1
179
     1
273
     0
  0
XRECORD
  5
331
102
{ACAD_REACTORS
330
330
102
}
330
330
100
AcDbXrecord
102
MATERIAL
148
0.0
149
0.0
149
0.0
 93
        0
 94
      127
282
     0
 72
     1
 77
     1
171
     1
175
     1
179
     1
273
     0
  0
ENDSEC
  0
EOF
