  0
SECTION
  2
HEADER
  9
$ACADVER
  1
AC1004
  9
$INSBASE
 10
0.0
 20
0.0
  9
$EXTMIN
 10
0.0
 20
0.0
  9
$EXTMAX
 10
404.2371507359818
 20
269.5227272727273
  9
$LIMMIN
 10
0.0
 20
0.0
  9
$LIMMAX
 10
12.0
 20
9.0
  9
$ORTHOMODE
 70
     0
  9
$REGENMODE
 70
     1
  9
$FILLMODE
 70
     1
  9
$QTEXTMODE
 70
     0
  9
$DRAGMODE
 70
     2
  9
$LTSCALE
 40
1.0
  9
$OSMODE
 70
    37
  9
$ATTMODE
 70
     1
  9
$TEXTSIZE
 40
0.2
  9
$TRACEWID
 40
0.05
  9
$TEXTSTYLE
  7
STANDARD
  9
$CLAYER
  8
0
  9
$CELTYPE
  6
BYLAYER
  9
$CECOLOR
 62
   256
  9
$DIMSCALE
 40
1.0
  9
$DIMASZ
 40
3.0
  9
$DIMEXO
 40
0.0625
  9
$DIMDLI
 40
0.38
  9
$DIMRND
 40
0.0
  9
$DIMDLE
 40
0.0
  9
$DIMEXE
 40
1.5
  9
$DIMTP
 40
0.0
  9
$DIMTM
 40
0.0
  9
$DIMTXT
 40
3.0
  9
$DIMCEN
 40
0.09
  9
$DIMTSZ
 40
0.0
  9
$DIMTOL
 70
     0
  9
$DIMLIM
 70
     0
  9
$DIMTIH
 70
     1
  9
$DIMTOH
 70
     1
  9
$DIMSE1
 70
     0
  9
$DIMSE2
 70
     0
  9
$DIMTAD
 70
     1
  9
$DIMZIN
 70
     0
  9
$DIMBLK
  1

  9
$DIMASO
 70
     1
  9
$DIMSHO
 70
     1
  9
$DIMPOST
  1

  9
$DIMAPOST
  1

  9
$DIMALT
 70
     0
  9
$DIMALTD
 70
     2
  9
$DIMALTF
 40
25.4
  9
$DIMLFAC
 40
1.0
  9
$DIMTOFL
 70
     0
  9
$DIMTVP
 40
0.0
  9
$DIMTIX
 70
     0
  9
$DIMSOXD
 70
     0
  9
$DIMSAH
 70
     0
  9
$DIMBLK1
  1

  9
$DIMBLK2
  1

  9
$LUNITS
 70
     2
  9
$LUPREC
 70
     4
  9
$SKETCHINC
 40
0.1
  9
$FILLETRAD
 40
0.5
  9
$AUNITS
 70
     0
  9
$AUPREC
 70
     0
  9
$MENU
  1
.
  9
$ELEVATION
 40
0.0
  9
$THICKNESS
 40
0.0
  9
$LIMCHECK
 70
     0
  9
$CHAMFERA
 40
0.0
  9
$CHAMFERB
 40
0.0
  9
$SKPOLY
 70
     0
  9
$TDCREATE
 40
2460038.690002847
  9
$TDUPDATE
 40
2460038.69000728
  9
$TDINDWG
 40
0.0000000116
  9
$TDUSRTIMER
 40
0.0000000116
  9
$USRTIMER
 70
     1
  9
$ANGBASE
 50
0.0
  9
$ANGDIR
 70
     0
  9
$PDMODE
 70
     0
  9
$PDSIZE
 40
0.0
  9
$PLINEWID
 40
0.0
  9
$COORDS
 70
     1
  9
$SPLFRAME
 70
     0
  9
$SPLINETYPE
 70
     6
  9
$SPLINESEGS
 70
     8
  9
$ATTDIA
 70
     0
  9
$ATTREQ
 70
     1
  9
$SURFTAB1
 70
     6
  9
$SURFTAB2
 70
     6
  9
$SURFTYPE
 70
     6
  9
$SURFU
 70
     6
  9
$SURFV
 70
     6
  9
$UCSNAME
  2

  9
$UCSORG
 10
0.0
 20
0.0
 30
0.0
  9
$UCSXDIR
 10
1.0
 20
0.0
 30
0.0
  9
$UCSYDIR
 10
0.0
 20
1.0
 30
0.0
  9
$USERI1
 70
     0
  9
$USERI2
 70
     0
  9
$USERI3
 70
     0
  9
$USERI4
 70
     0
  9
$USERI5
 70
     0
  9
$USERR1
 40
0.0
  9
$USERR2
 40
0.0
  9
$USERR3
 40
0.0
  9
$USERR4
 40
0.0
  9
$USERR5
 40
0.0
  9
$WORLDVIEW
 70
     1
  0
ENDSEC
  0
SECTION
  2
TABLES
  0
TABLE
  2
LTYPE
 70
     1
  0
LTYPE
  2
CONTINUOUS
 70
     0
  3
Solid line
 72
    65
 73
     0
 40
0.0
  0
ENDTAB
  0
TABLE
  2
LAYER
 70
     2
  0
LAYER
  2
0
 70
     0
 62
     7
  6
CONTINUOUS
  0
LAYER
  2
1
 70
     0
 62
     7
  6
CONTINUOUS
  0
ENDTAB
  0
TABLE
  2
STYLE
 70
     2
  0
STYLE
  2
STANDARD
 70
     0
 40
0.0
 41
1.0
 50
0.0
 71
     0
 42
0.2
  3
txt
  4

  0
STYLE
  2
ＭＳ_ゴシック
 70
     0
 40
0.0
 41
1.0
 50
0.0
 71
     0
 42
0.2
  3
ＭＳ ゴシック.shx
  4

  0
ENDTAB
  0
TABLE
  2
VIEW
 70
     0
  0
ENDTAB
  0
ENDSEC
  0
SECTION
  2
BLOCKS
  0
BLOCK
  8
0
  2
D_FRAME_VIEW_3508
 70
     0
 10
0.0
 20
0.0
  0
ENDBLK
  8
0
  0
BLOCK
  8
0
  2
D_FRAME_VIEW_1444
 70
     0
 10
0.0
 20
0.0
  0
ENDBLK
  8
0
  0
BLOCK
  8
0
  2
D_FRAME_DRAWING_17
 70
     0
 10
0.0
 20
0.0
  0
LINE
  8
0
  6
CONTINUOUS
 62
     7
 10
0.0
 20
0.0
 11
420.0
 21
0.0
  0
LINE
  8
0
  6
CONTINUOUS
 62
     7
 10
420.0
 20
0.0
 11
420.0
 21
297.0
  0
LINE
  8
0
  6
CONTINUOUS
 62
     7
 10
420.0
 20
297.0
 11
0.0
 21
297.0
  0
LINE
  8
0
  6
CONTINUOUS
 62
     7
 10
0.0
 20
297.0
 11
0.0
 21
0.0
  0
ENDBLK
  8
0
  0
ENDSEC
  0
SECTION
  2
ENTITIES
  0
LINE
  8
1
  6
CONTINUOUS
 62
     7
 10
134.75
 20
57.39749371855331
 11
134.6749999999999
 21
57.40000000000001
  0
LINE
  8
1
  6
CONTINUOUS
 62
     7
 10
132.25
 20
57.40000000000001
 11
134.6749999999999
 21
57.40000000000001
  0
ARC
  8
1
  6
CONTINUOUS
 62
     7
 10
171.75
 20
71.4
 40
11.5
 50
90.00000000000009
 51
269.9999999999999
  0
ARC
  8
1
  6
CONTINUOUS
 62
     7
 10
193.75
 20
71.39999999999999
 40
11.5
 50
269.9999999999999
 51
90.00000000000016
  0
LINE
  8
1
  6
CONTINUOUS
 62
     7
 10
276.8250000000001
 20
57.40000000000001
 11
276.75
 21
57.39749371855331
  0
LINE
  8
1
  6
CONTINUOUS
 62
     7
 10
193.7499999999999
 20
82.9
 11
192.3806801421291
 21
82.9
  0
LINE
  8
1
  6
CONTINUOUS
 62
     7
 10
173.1193198578708
 20
59.90000000000001
 11
172.9750319693617
 21
59.49999999999999
  0
ARC
  8
1
  6
CONTINUOUS
 62
     7
 10
182.75
 20
71.39999999999999
 40
15.0
 50
230.055494810185
 51
250.3149451753412
  0
ARC
  8
1
  6
CONTINUOUS
 62
     7
 10
132.25
 20
56.89999999999999
 40
2.500000000000002
 50
180.0
 51
270.0
  0
LINE
  8
1
  6
CONTINUOUS
 62
     7
 10
135.2499999999999
 20
85.40250628144668
 11
134.75
 21
85.40250628144668
  0
LINE
  8
1
  6
CONTINUOUS
 62
     7
 10
266.7500000000001
 20
57.39999999999999
 11
276.2500000000001
 21
57.39999999999999
  0
LINE
  8
1
  6
CONTINUOUS
 62
     7
 10
134.75
 20
57.39749371855331
 11
135.2499999999999
 21
57.39749371855331
  0
LINE
  8
1
  6
CONTINUOUS
 62
     7
 10
135.2499999999999
 20
57.39999999999999
 11
144.75
 21
57.39999999999999
  0
LINE
  8
1
  6
CONTINUOUS
 62
     7
 10
276.2500000000001
 20
57.39749371855331
 11
276.75
 21
57.39749371855331
  0
LINE
  8
1
  6
CONTINUOUS
 62
     7
 10
276.8250000000001
 20
57.40000000000001
 11
279.25
 21
57.40000000000001
  0
ARC
  8
1
  6
CONTINUOUS
 62
     7
 10
228.75
 20
71.39999999999999
 40
14.99999999999999
 50
230.0554948101852
 51
250.3149451753411
  0
CIRCLE
  8
1
  6
CONTINUOUS
 62
     7
 10
190.75
 20
167.5
 40
1.399999999999998
  0
CIRCLE
  8
1
  6
CONTINUOUS
 62
     7
 10
144.75
 20
167.5
 40
1.399999999999998
  0
ARC
  8
1
  6
CONTINUOUS
 62
     7
 10
251.75
 20
192.5
 40
8.300000000000002
 50
7.267735092953728
 51
42.47001826692701
  0
ARC
  8
1
  6
CONTINUOUS
 62
     7
 10
188.25
 20
224.0
 40
2.500000000000002
 50
90.0
 51
180.0
  0
CIRCLE
  8
1
  6
CONTINUOUS
 62
     7
 10
190.75
 20
217.5
 40
2.000000000000002
  0
CIRCLE
  8
1
  6
CONTINUOUS
 62
     7
 10
174.75
 20
217.5
 40
1.399999999999998
  0
ARC
  8
1
  6
CONTINUOUS
 62
     7
 10
251.75
 20
192.5
 40
8.300000000000002
 50
187.2677350929537
 51
222.470018266927
  0
CIRCLE
  8
1
  6
CONTINUOUS
 62
     7
 10
144.75
 20
217.5
 40
2.000000000000002
  0
ARC
  8
1
  6
CONTINUOUS
 62
     7
 10
159.75
 20
192.5
 40
8.300000000000002
 50
7.267735092953728
 51
42.47001826692701
  0
CIRCLE
  8
1
  6
CONTINUOUS
 62
     7
 10
174.75
 20
167.5
 40
2.000000000000002
  0
ARC
  8
1
  6
CONTINUOUS
 62
     7
 10
159.75
 20
192.5
 40
8.300000000000002
 50
187.2677350929537
 51
222.470018266927
  0
LINE
  8
1
  6
CONTINUOUS
 62
     7
 10
272.741311210595
 20
90.39999999999999
 11
281.75
 21
90.39999999999999
  0
LINE
  8
1
  6
CONTINUOUS
 62
     7
 10
201.25
 20
86.4
 11
201.25
 21
85.4
  0
LINE
  8
1
  6
CONTINUOUS
 62
     7
 10
139.7761806033723
 20
87.39999999999999
 11
175.661276560621
 21
87.39999999999999
  0
ARC
  8
1
  6
CONTINUOUS
 62
     7
 10
182.75
 20
71.4
 40
17.5
 50
99.92198671406544
 51
113.8955081861616
  0
LINE
  8
1
  6
CONTINUOUS
 62
     7
 10
179.73462550486
 20
88.63825735548866
 11
179.7456746437654
 21
89.90436326774919
  0
LINE
  8
1
  6
CONTINUOUS
 62
     7
 10
180.2456556052975
 20
90.39999999999999
 11
185.2543443947025
 21
90.39999999999999
  0
ARC
  8
1
  6
CONTINUOUS
 62
     7
 10
185.2543443947025
 20
89.89999999999999
 40
0.5000000000000016
 50
0.5000000000000349
 51
90.0
  0
LINE
  8
1
  6
CONTINUOUS
 62
     7
 10
185.76537449514
 20
88.63825735548868
 11
185.7543253562346
 21
89.90436326774919
  0
LINE
  8
1
  6
CONTINUOUS
 62
     7
 10
137.25
 20
85.39999999999999
 11
155.25
 21
85.4
  0
LINE
  8
1
  6
CONTINUOUS
 62
     7
 10
129.75
 20
90.39999999999999
 11
138.758688789405
 21
90.39999999999999
  0
ARC
  8
1
  6
CONTINUOUS
 62
     7
 10
182.75
 20
71.4
 40
17.49999999999999
 50
66.10449181383854
 51
80.07801328593456
  0
LINE
  8
1
  6
CONTINUOUS
 62
     7
 10
205.7499999999999
 20
87.4000000000001
 11
189.8387234393789
 21
87.4
  0
ARC
  8
1
  6
CONTINUOUS
 62
     7
 10
180.2456556052975
 20
89.89999999999999
 40
0.5000000000000004
 50
90.0
 51
179.5
  0
ARC
  8
1
  6
CONTINUOUS
 62
     7
 10
228.75
 20
71.4
 40
17.5
 50
99.92198671406544
 51
113.8955081861614
  0
LINE
  8
1
  6
CONTINUOUS
 62
     7
 10
164.25
 20
85.4
 11
164.25
 21
86.39999999999999
  0
LINE
  8
1
  6
CONTINUOUS
 62
     7
 10
225.7456746437654
 20
89.90436326774919
 11
225.73462550486
 21
88.63825735548868
  0
LINE
  8
1
  6
CONTINUOUS
 62
     7
 10
188.1351648071345
 20
85.39999999999998
 11
201.25
 21
85.39999999999999
  0
LINE
  8
1
  6
CONTINUOUS
 62
     7
 10
221.6612765606211
 20
87.4
 11
205.7499999999999
 21
87.4000000000001
  0
LINE
  8
1
  6
CONTINUOUS
 62
     7
 10
235.838723439379
 20
87.39999999999999
 11
271.7238193966277
 21
87.39999999999999
  0
ARC
  8
1
  6
CONTINUOUS
 62
     7
 10
228.75
 20
71.39999999999999
 40
15.0
 50
68.96053021868272
 51
111.0394697813173
  0
LINE
  8
1
  6
CONTINUOUS
 62
     7
 10
274.25
 20
87.89999999999999
 11
274.25
 21
85.39999999999999
  0
LINE
  8
1
  6
CONTINUOUS
 62
     7
 10
247.25
 20
86.4
 11
247.25
 21
85.4
  0
LINE
  8
1
  6
CONTINUOUS
 62
     7
 10
234.1351648071345
 20
85.39999999999999
 11
247.25
 21
85.4
  0
LINE
  8
1
  6
CONTINUOUS
 62
     7
 10
210.25
 20
86.39999999999999
 11
201.25
 21
86.4
  0
LINE
  8
1
  6
CONTINUOUS
 62
     7
 10
256.25
 20
86.39999999999999
 11
247.25
 21
86.4
  0
LINE
  8
1
  6
CONTINUOUS
 62
     7
 10
256.25
 20
85.4
 11
256.25
 21
86.39999999999999
  0
LINE
  8
1
  6
CONTINUOUS
 62
     7
 10
210.25
 20
85.4
 11
223.3648351928655
 21
85.39999999999999
  0
LINE
  8
1
  6
CONTINUOUS
 62
     7
 10
271.7238193966277
 20
87.39999999999999
 11
271.7413492875309
 21
89.40872653549836
  0
ARC
  8
1
  6
CONTINUOUS
 62
     7
 10
272.741311210595
 20
89.39999999999999
 40
1.000000000000001
 50
90.0
 51
179.5000000000001
  0
LINE
  8
1
  6
CONTINUOUS
 62
     7
 10
256.25
 20
85.4
 11
274.25
 21
85.39999999999999
  0
ARC
  8
1
  6
CONTINUOUS
 62
     7
 10
182.75
 20
71.39999999999999
 40
15.0
 50
68.96053021868272
 51
111.0394697813173
  0
LINE
  8
1
  6
CONTINUOUS
 62
     7
 10
164.25
 20
85.4
 11
177.3648351928655
 21
85.39999999999999
  0
LINE
  8
1
  6
CONTINUOUS
 62
     7
 10
210.25
 20
85.4
 11
210.25
 21
86.39999999999999
  0
LINE
  8
1
  6
CONTINUOUS
 62
     7
 10
164.25
 20
86.39999999999999
 11
155.25
 21
86.4
  0
LINE
  8
1
  6
CONTINUOUS
 62
     7
 10
155.25
 20
86.4
 11
155.25
 21
85.4
  0
LINE
  8
1
  6
CONTINUOUS
 62
     7
 10
137.25
 20
85.39999999999999
 11
137.25
 21
87.89999999999999
  0
LINE
  8
1
  6
CONTINUOUS
 62
     7
 10
274.25
 20
87.89999999999999
 11
281.75
 21
87.89999999999999
  0
LINE
  8
1
  6
CONTINUOUS
 62
     7
 10
129.75
 20
87.89999999999999
 11
137.25
 21
87.89999999999999
  0
ARC
  8
1
  6
CONTINUOUS
 62
     7
 10
138.758688789405
 20
89.39999999999999
 40
1.000000000000003
 50
0.4999999999999818
 51
90.0
  0
ARC
  8
1
  6
CONTINUOUS
 62
     7
 10
228.75
 20
71.4
 40
17.5
 50
66.10449181383842
 51
80.07801328593456
  0
LINE
  8
1
  6
CONTINUOUS
 62
     7
 10
139.7586507124692
 20
89.40872653549836
 11
139.7761806033723
 21
87.39999999999999
  0
ARC
  8
1
  6
CONTINUOUS
 62
     7
 10
228.75
 20
71.39999999999999
 40
15.0
 50
50.05549481018505
 51
68.96053021868275
  0
LINE
  8
1
  6
CONTINUOUS
 62
     7
 10
281.75
 20
90.39999999999999
 11
286.75
 21
90.39999999999999
  0
ARC
  8
1
  6
CONTINUOUS
 62
     7
 10
231.2543443947025
 20
89.89999999999999
 40
0.5000000000000014
 50
0.4999999999999749
 51
90.0
  0
ARC
  8
1
  6
CONTINUOUS
 62
     7
 10
226.2456556052975
 20
89.89999999999999
 40
0.5000000000000004
 50
90.0
 51
179.5
  0
ARC
  8
1
  6
CONTINUOUS
 62
     7
 10
228.75
 20
71.39999999999999
 40
15.0
 50
111.0394697813173
 51
129.9445051898148
  0
LINE
  8
1
  6
CONTINUOUS
 62
     7
 10
231.7543253562346
 20
89.90436326774918
 11
231.76537449514
 21
88.63825735548866
  0
LINE
  8
1
  6
CONTINUOUS
 62
     7
 10
124.75
 20
90.39999999999999
 11
129.75
 21
90.39999999999999
  0
LINE
  8
1
  6
CONTINUOUS
 62
     7
 10
129.75
 20
87.89999999999999
 11
124.75
 21
87.89999999999999
  0
ARC
  8
1
  6
CONTINUOUS
 62
     7
 10
144.75
 20
71.39999999999999
 40
14.0
 50
269.9999999999999
 51
90.0
  0
LINE
  8
1
  6
CONTINUOUS
 62
     7
 10
226.2456556052975
 20
90.39999999999999
 11
231.2543443947025
 21
90.39999999999999
  0
LINE
  8
1
  6
CONTINUOUS
 62
     7
 10
206.5
 20
54.39999999999999
 11
205.0
 21
54.39999999999999
  0
ARC
  8
1
  6
CONTINUOUS
 62
     7
 10
228.75
 20
71.40000000000013
 40
15.00000000000013
 50
250.3149451753413
 51
289.6850548246586
  0
ARC
  8
1
  6
CONTINUOUS
 62
     7
 10
266.75
 20
71.39999999999999
 40
14.0
 50
90.0
 51
270.0000000000001
  0
ARC
  8
1
  6
CONTINUOUS
 62
     7
 10
182.75
 20
71.39999999999999
 40
15.0
 50
111.0394697813173
 51
129.9445051898149
  0
ARC
  8
1
  6
CONTINUOUS
 62
     7
 10
182.75
 20
71.40000000000006
 40
15.00000000000005
 50
250.3149451753413
 51
289.6850548246587
  0
LINE
  8
1
  6
CONTINUOUS
 62
     7
 10
286.75
 20
87.89999999999999
 11
281.75
 21
87.89999999999999
  0
ARC
  8
1
  6
CONTINUOUS
 62
     7
 10
228.75
 20
71.39999999999999
 40
15.0
 50
289.6850548246588
 51
309.9445051898151
  0
LINE
  8
1
  6
CONTINUOUS
 62
     7
 10
238.3806801421291
 20
59.90000000000001
 11
239.75
 21
59.89999999999999
  0
ARC
  8
1
  6
CONTINUOUS
 62
     7
 10
182.75
 20
71.39999999999999
 40
14.99999999999999
 50
50.05549481018519
 51
68.96053021868272
  0
ARC
  8
1
  6
CONTINUOUS
 62
     7
 10
177.25
 20
224.0
 40
2.500000000000002
 50
0.0
 51
90.0
  0
LINE
  8
1
  6
CONTINUOUS
 62
     7
 10
156.25
 20
193.6
 11
163.25
 21
193.6
  0
ARC
  8
1
  6
CONTINUOUS
 62
     7
 10
234.25
 20
224.0
 40
2.500000000000002
 50
90.0
 51
180.0
  0
CIRCLE
  8
1
  6
CONTINUOUS
 62
     7
 10
220.75
 20
167.5
 40
2.000000000000002
  0
CIRCLE
  8
1
  6
CONTINUOUS
 62
     7
 10
266.7500000000001
 20
217.5
 40
1.399999999999998
  0
CIRCLE
  8
1
  6
CONTINUOUS
 62
     7
 10
220.75
 20
217.5
 40
1.399999999999998
  0
CIRCLE
  8
1
  6
CONTINUOUS
 62
     7
 10
236.75
 20
167.5
 40
1.399999999999998
  0
ARC
  8
1
  6
CONTINUOUS
 62
     7
 10
159.75
 20
192.5
 40
7.800000000000002
 50
188.272735925316
 51
351.7272640746839
  0
ARC
  8
1
  6
CONTINUOUS
 62
     7
 10
159.75
 20
192.5
 40
8.3
 50
77.52998173307293
 51
172.7322649070464
  0
ARC
  8
1
  6
CONTINUOUS
 62
     7
 10
177.25
 20
161.0
 40
2.500000000000002
 50
270.0
 51
0.0
  0
LINE
  8
1
  6
CONTINUOUS
 62
     7
 10
163.75
 20
193.1
 11
163.75
 21
191.9
  0
ARC
  8
1
  6
CONTINUOUS
 62
     7
 10
159.75
 20
192.5
 40
7.800000000000002
 50
8.272735925315942
 51
171.7272640746839
  0
ARC
  8
1
  6
CONTINUOUS
 62
     7
 10
188.25
 20
161.0
 40
2.500000000000002
 50
180.0
 51
270.0
  0
LINE
  8
1
  6
CONTINUOUS
 62
     7
 10
151.5166835357798
 20
191.45
 11
152.0311639247055
 21
191.3776944967024
  0
ARC
  8
1
  6
CONTINUOUS
 62
     7
 10
159.75
 20
192.5
 40
8.3
 50
257.5299817330729
 51
352.7322649070463
  0
ARC
  8
1
  6
CONTINUOUS
 62
     7
 10
156.25
 20
191.9
 40
0.5000000000000001
 50
180.0
 51
270.0
  0
ARC
  8
1
  6
CONTINUOUS
 62
     7
 10
163.25
 20
193.1
 40
0.5000000000000004
 50
359.9999999999999
 51
89.9999999999992
  0
LINE
  8
1
  6
CONTINUOUS
 62
     7
 10
163.25
 20
191.4
 11
156.25
 21
191.4
  0
ARC
  8
1
  6
CONTINUOUS
 62
     7
 10
163.25
 20
191.9
 40
0.5000000000000004
 50
270.0000000000007
 51
0.0000000000000568
  0
LINE
  8
1
  6
CONTINUOUS
 62
     7
 10
167.4688360752945
 20
191.3776944967024
 11
167.9833164642202
 21
191.45
  0
LINE
  8
1
  6
CONTINUOUS
 62
     7
 10
167.9833164642202
 20
193.55
 11
167.4688360752945
 21
193.6223055032976
  0
LINE
  8
1
  6
CONTINUOUS
 62
     7
 10
155.75
 20
191.9
 11
155.75
 21
193.1
  0
LINE
  8
1
  6
CONTINUOUS
 62
     7
 10
152.0311639247055
 20
193.6223055032976
 11
151.5166835357798
 21
193.55
  0
CIRCLE
  8
1
  6
CONTINUOUS
 62
     7
 10
236.75
 20
217.5
 40
2.000000000000002
  0
CIRCLE
  8
1
  6
CONTINUOUS
 62
     7
 10
266.75
 20
167.5
 40
1.999999999999995
  0
ARC
  8
1
  6
CONTINUOUS
 62
     7
 10
156.25
 20
193.1
 40
0.5000000000000004
 50
90.0
 51
180.0
  0
ARC
  8
1
  6
CONTINUOUS
 62
     7
 10
269.25
 20
161.0
 40
2.500000000000002
 50
270.0
 51
0.0
  0
POLYLINE
  8
1
  6
CONTINUOUS
 62
     7
 66
     1
  0
VERTEX
  8
1
  6
CONTINUOUS
 62
     7
 10
133.1880056762879
 20
240.85
  0
VERTEX
  8
1
  6
CONTINUOUS
 62
     7
 10
133.0904568009176
 20
240.8403926402016
  0
VERTEX
  8
1
  6
CONTINUOUS
 62
     7
 10
132.9966566741217
 20
240.8119397662556
  0
VERTEX
  8
1
  6
CONTINUOUS
 62
     7
 10
132.9102099821693
 20
240.7657348061513
  0
VERTEX
  8
1
  6
CONTINUOUS
 62
     7
 10
132.8344388229523
 20
240.7035533905933
  0
VERTEX
  8
1
  6
CONTINUOUS
 62
     7
 10
132.7722550396263
 20
240.6277851165098
  0
VERTEX
  8
1
  6
CONTINUOUS
 62
     7
 10
132.7260483201117
 20
240.5413417161825
  0
VERTEX
  8
1
  6
CONTINUOUS
 62
     7
 10
132.6975943627262
 20
240.4475451610081
  0
VERTEX
  8
1
  6
CONTINUOUS
 62
     7
 10
132.687986637095
 20
240.35
  0
SEQEND
  8
1
  6
CONTINUOUS
 62
     7
  0
ARC
  8
1
  6
CONTINUOUS
 62
     7
 10
269.25
 20
224.0
 40
2.500000000000002
 50
0.0
 51
90.0
  0
POLYLINE
  8
1
  6
CONTINUOUS
 62
     7
 66
     1
  0
VERTEX
  8
1
  6
CONTINUOUS
 62
     7
 10
133.1910600800147
 20
240.85
  0
VERTEX
  8
1
  6
CONTINUOUS
 62
     7
 10
133.0935112046444
 20
240.8403926402016
  0
VERTEX
  8
1
  6
CONTINUOUS
 62
     7
 10
132.9997110778485
 20
240.8119397662556
  0
VERTEX
  8
1
  6
CONTINUOUS
 62
     7
 10
132.9132643858961
 20
240.7657348061513
  0
VERTEX
  8
1
  6
CONTINUOUS
 62
     7
 10
132.837493226679
 20
240.7035533905933
  0
VERTEX
  8
1
  6
CONTINUOUS
 62
     7
 10
132.7753094433531
 20
240.6277851165098
  0
VERTEX
  8
1
  6
CONTINUOUS
 62
     7
 10
132.7291027238385
 20
240.5413417161825
  0
VERTEX
  8
1
  6
CONTINUOUS
 62
     7
 10
132.700648766453
 20
240.4475451610081
  0
VERTEX
  8
1
  6
CONTINUOUS
 62
     7
 10
132.6910410408218
 20
240.35
  0
SEQEND
  8
1
  6
CONTINUOUS
 62
     7
  0
ARC
  8
1
  6
CONTINUOUS
 62
     7
 10
142.25
 20
224.0
 40
2.500000000000002
 50
90.0
 51
180.0
  0
LINE
  8
1
  6
CONTINUOUS
 62
     7
 10
243.5166835357797
 20
191.45
 11
244.0311639247055
 21
191.3776944967024
  0
LINE
  8
1
  6
CONTINUOUS
 62
     7
 10
247.75
 20
191.9
 11
247.75
 21
193.1
  0
ARC
  8
1
  6
CONTINUOUS
 62
     7
 10
248.25
 20
191.9
 40
0.5000000000000001
 50
180.0
 51
270.0
  0
ARC
  8
1
  6
CONTINUOUS
 62
     7
 10
255.25
 20
191.9
 40
0.5000000000000004
 50
270.0000000000007
 51
0.0000000000000568
  0
ARC
  8
1
  6
CONTINUOUS
 62
     7
 10
142.25
 20
161.0
 40
2.500000000000002
 50
180.0
 51
270.0
  0
ARC
  8
1
  6
CONTINUOUS
 62
     7
 10
223.25
 20
224.0
 40
2.500000000000002
 50
0.0
 51
90.0
  0
ARC
  8
1
  6
CONTINUOUS
 62
     7
 10
251.75
 20
192.5
 40
7.800000000000002
 50
188.272735925316
 51
351.7272640746839
  0
ARC
  8
1
  6
CONTINUOUS
 62
     7
 10
255.25
 20
193.1
 40
0.5000000000000004
 50
359.9999999999999
 51
89.9999999999992
  0
LINE
  8
1
  6
CONTINUOUS
 62
     7
 10
259.9833164642203
 20
193.55
 11
259.4688360752945
 21
193.6223055032976
  0
ARC
  8
1
  6
CONTINUOUS
 62
     7
 10
248.25
 20
193.1
 40
0.5000000000000004
 50
90.0
 51
180.0
  0
LINE
  8
1
  6
CONTINUOUS
 62
     7
 10
248.25
 20
193.6
 11
255.25
 21
193.6
  0
LINE
  8
1
  6
CONTINUOUS
 62
     7
 10
259.4688360752945
 20
191.3776944967024
 11
259.9833164642203
 21
191.45
  0
ARC
  8
1
  6
CONTINUOUS
 62
     7
 10
251.75
 20
192.5
 40
8.3
 50
257.5299817330729
 51
352.7322649070463
  0
LINE
  8
1
  6
CONTINUOUS
 62
     7
 10
244.0311639247055
 20
193.6223055032976
 11
243.5166835357797
 21
193.55
  0
ARC
  8
1
  6
CONTINUOUS
 62
     7
 10
251.75
 20
192.5
 40
7.800000000000002
 50
8.272735925315942
 51
171.7272640746839
  0
ARC
  8
1
  6
CONTINUOUS
 62
     7
 10
251.75
 20
192.5
 40
8.3
 50
77.52998173307293
 51
172.7322649070464
  0
LINE
  8
1
  6
CONTINUOUS
 62
     7
 10
255.75
 20
193.1
 11
255.75
 21
191.9
  0
LINE
  8
1
  6
CONTINUOUS
 62
     7
 10
255.25
 20
191.4
 11
248.25
 21
191.4
  0
ARC
  8
1
  6
CONTINUOUS
 62
     7
 10
223.25
 20
161.0
 40
2.500000000000002
 50
270.0
 51
0.0
  0
ARC
  8
1
  6
CONTINUOUS
 62
     7
 10
234.25
 20
161.0
 40
2.500000000000002
 50
180.0
 51
270.0
  0
LINE
  8
1
  6
CONTINUOUS
 62
     7
 10
274.2239145925921
 20
240.85
 11
257.2761806033723
 21
240.85
  0
LINE
  8
1
  6
CONTINUOUS
 62
     7
 10
154.2238193966277
 20
144.15
 11
137.2760854074079
 21
144.15
  0
LINE
  8
1
  6
CONTINUOUS
 62
     7
 10
154.2238193966277
 20
240.85
 11
137.276085407408
 21
240.85
  0
LINE
  8
1
  6
CONTINUOUS
 62
     7
 10
274.2239145925921
 20
144.15
 11
257.2761806033723
 21
144.15
  0
ARC
  8
1
  6
CONTINUOUS
 62
     7
 10
251.75
 20
192.5
 40
8.300000000000002
 50
42.47001826692699
 51
77.52998173307297
  0
ARC
  8
1
  6
CONTINUOUS
 62
     7
 10
159.75
 20
192.5
 40
8.300000000000002
 50
42.47001826692699
 51
77.52998173307297
  0
ARC
  8
1
  6
CONTINUOUS
 62
     7
 10
159.75
 20
192.5
 40
8.300000000000002
 50
222.470018266927
 51
257.529981733073
  0
ARC
  8
1
  6
CONTINUOUS
 62
     7
 10
251.75
 20
192.5
 40
8.300000000000002
 50
222.470018266927
 51
257.529981733073
  0
CIRCLE
  8
1
  6
CONTINUOUS
 62
     7
 10
205.75
 20
192.5
 40
6.0
  0
CIRCLE
  8
1
  6
CONTINUOUS
 62
     7
 10
205.75
 20
192.5
 40
8.2
  0
LINE
  8
1
  6
CONTINUOUS
 62
     7
 10
276.75
 20
85.40250628144669
 11
276.8250000000001
 21
85.39999999999999
  0
ARC
  8
1
  6
CONTINUOUS
 62
     7
 10
182.75
 20
71.39999999999999
 40
14.99999999999999
 50
289.6850548246588
 51
309.9445051898148
  0
ARC
  8
1
  6
CONTINUOUS
 62
     7
 10
217.75
 20
71.39999999999999
 40
11.50000000000001
 50
89.99999999999986
 51
270.0000000000001
  0
LINE
  8
1
  6
CONTINUOUS
 62
     7
 10
171.75
 20
59.89999999999999
 11
173.1193198578708
 21
59.90000000000001
  0
LINE
  8
1
  6
CONTINUOUS
 62
     7
 10
239.75
 20
82.89999999999999
 11
238.3806801421291
 21
82.89999999999999
  0
ARC
  8
1
  6
CONTINUOUS
 62
     7
 10
281.25
 20
85.89999999999999
 40
0.5000000000000004
 50
270.0
 51
0.0
  0
ARC
  8
1
  6
CONTINUOUS
 62
     7
 10
130.25
 20
56.90000000000001
 40
0.5000000000000004
 50
90.0
 51
180.0000000000016
  0
LINE
  8
1
  6
CONTINUOUS
 62
     7
 10
132.25
 20
85.39999999999999
 11
130.25
 21
85.39999999999999
  0
LINE
  8
1
  6
CONTINUOUS
 62
     7
 10
219.1193198578709
 20
82.9
 11
217.75
 21
82.9
  0
LINE
  8
1
  6
CONTINUOUS
 62
     7
 10
205.0
 20
54.39999999999999
 11
132.25
 21
54.39999999999999
  0
LINE
  8
1
  6
CONTINUOUS
 62
     7
 10
276.2500000000001
 20
85.39999999999999
 11
274.25
 21
85.39999999999999
  0
LINE
  8
1
  6
CONTINUOUS
 62
     7
 10
192.5249680306383
 20
59.49999999999999
 11
192.3806801421291
 21
59.89999999999998
  0
ARC
  8
1
  6
CONTINUOUS
 62
     7
 10
279.25
 20
56.89999999999999
 40
2.500000000000002
 50
270.0
 51
359.9999999999998
  0
LINE
  8
1
  6
CONTINUOUS
 62
     7
 10
130.25
 20
57.40000000000001
 11
132.25
 21
57.40000000000001
  0
LINE
  8
1
  6
CONTINUOUS
 62
     7
 10
279.25
 20
57.40000000000001
 11
281.25
 21
57.40000000000001
  0
LINE
  8
1
  6
CONTINUOUS
 62
     7
 10
281.25
 20
85.39999999999999
 11
279.25
 21
85.39999999999999
  0
LINE
  8
1
  6
CONTINUOUS
 62
     7
 10
173.1193198578709
 20
82.89999999999999
 11
171.7499999999999
 21
82.89999999999999
  0
ARC
  8
1
  6
CONTINUOUS
 62
     7
 10
130.25
 20
85.89999999999999
 40
0.5000000000000004
 50
180.0
 51
270.0
  0
LINE
  8
1
  6
CONTINUOUS
 62
     7
 10
279.25
 20
54.39999999999999
 11
206.5
 21
54.39999999999999
  0
LINE
  8
1
  6
CONTINUOUS
 62
     7
 10
137.25
 20
85.39999999999999
 11
135.2499999999999
 21
85.39999999999999
  0
LINE
  8
1
  6
CONTINUOUS
 62
     7
 10
276.75
 20
85.40250628144669
 11
276.2500000000001
 21
85.40250628144669
  0
ARC
  8
1
  6
CONTINUOUS
 62
     7
 10
239.75
 20
71.4
 40
11.5
 50
270.0000000000001
 51
89.9999999999999
  0
LINE
  8
1
  6
CONTINUOUS
 62
     7
 10
192.3806801421291
 20
59.89999999999998
 11
193.75
 21
59.90000000000001
  0
LINE
  8
1
  6
CONTINUOUS
 62
     7
 10
281.75
 20
87.89999999999999
 11
281.75
 21
85.89999999999999
  0
LINE
  8
1
  6
CONTINUOUS
 62
     7
 10
217.75
 20
59.90000000000001
 11
219.1193198578709
 21
59.89999999999998
  0
ARC
  8
1
  6
CONTINUOUS
 62
     7
 10
281.25
 20
56.90000000000001
 40
0.5000000000000004
 50
359.9999999999985
 51
90.0
  0
LINE
  8
1
  6
CONTINUOUS
 62
     7
 10
134.6749999999999
 20
85.39999999999999
 11
134.75
 21
85.40250628144668
  0
LINE
  8
1
  6
CONTINUOUS
 62
     7
 10
279.25
 20
85.39999999999999
 11
276.825
 21
85.39999999999999
  0
LINE
  8
1
  6
CONTINUOUS
 62
     7
 10
129.75
 20
85.89999999999999
 11
129.75
 21
87.89999999999999
  0
LINE
  8
1
  6
CONTINUOUS
 62
     7
 10
134.6749999999999
 20
85.39999999999999
 11
132.25
 21
85.39999999999999
  0
LINE
  8
1
  6
CONTINUOUS
 62
     7
 10
133.25
 20
57.40000000000001
 11
133.25
 21
58.90000000000001
  0
LINE
  8
1
  6
CONTINUOUS
 62
     7
 10
278.25
 20
82.29999999999997
 11
278.2500000000001
 21
80.79999999999998
  0
LINE
  8
1
  6
CONTINUOUS
 62
     7
 10
133.25
 20
80.8
 11
133.25
 21
82.29999999999997
  0
LINE
  8
1
  6
CONTINUOUS
 62
     7
 10
278.25
 20
61.99999999999999
 11
278.25
 21
60.50000000000001
  0
LINE
  8
1
  6
CONTINUOUS
 62
     7
 10
133.25
 20
60.50000000000001
 11
133.2499999999999
 21
62.00000000000001
  0
LINE
  8
1
  6
CONTINUOUS
 62
     7
 10
133.2499999999999
 20
83.89999999999999
 11
133.25
 21
85.39999999999999
  0
LINE
  8
1
  6
CONTINUOUS
 62
     7
 10
278.25
 20
85.39999999999999
 11
278.25
 21
83.89999999999995
  0
LINE
  8
1
  6
CONTINUOUS
 62
     7
 10
278.2500000000001
 20
58.90000000000001
 11
278.25
 21
57.40000000000001
  0
ARC
  8
1
  6
CONTINUOUS
 62
     7
 10
281.75
 20
240.5
 40
5.000000000000004
 50
0.0
 51
90.0
  0
LINE
  8
1
  6
CONTINUOUS
 62
     7
 10
203.4587121525221
 20
155.75
 11
208.0412878474779
 21
155.75
  0
LINE
  8
1
  6
CONTINUOUS
 62
     7
 10
254.7500951923396
 20
237.75
 11
248.7499048076604
 21
237.75
  0
LINE
  8
1
  6
CONTINUOUS
 62
     7
 10
154.2238193966277
 20
235.2762757957119
 11
154.2238193966277
 21
240.85
  0
LINE
  8
1
  6
CONTINUOUS
 62
     7
 10
278.5912540930163
 20
240.85
 11
274.2413683281736
 21
240.85
  0
LINE
  8
1
  6
CONTINUOUS
 62
     7
 10
286.75
 20
144.5
 11
286.75
 21
192.5
  0
LINE
  8
1
  6
CONTINUOUS
 62
     7
 10
137.2586316718264
 20
240.85
 11
132.9087459069837
 21
240.85
  0
POLYLINE
  8
1
  6
CONTINUOUS
 62
     7
 66
     1
  0
VERTEX
  8
1
  6
CONTINUOUS
 62
     7
 10
154.25
 20
149.7499048076604
  0
VERTEX
  8
1
  6
CONTINUOUS
 62
     7
 10
154.2980339854023
 20
149.2621874314052
  0
VERTEX
  8
1
  6
CONTINUOUS
 62
     7
 10
154.4402902008893
 20
148.7932182648007
  0
VERTEX
  8
1
  6
CONTINUOUS
 62
     7
 10
154.6713023482261
 20
148.3610177881386
  0
VERTEX
  8
1
  6
CONTINUOUS
 62
     7
 10
154.9821936181371
 20
147.9821936181371
  0
VERTEX
  8
1
  6
CONTINUOUS
 62
     7
 10
155.3610177881386
 20
147.6713023482261
  0
VERTEX
  8
1
  6
CONTINUOUS
 62
     7
 10
155.7932182648007
 20
147.4402902008893
  0
VERTEX
  8
1
  6
CONTINUOUS
 62
     7
 10
156.2621874314051
 20
147.2980339854024
  0
VERTEX
  8
1
  6
CONTINUOUS
 62
     7
 10
156.7499048076604
 20
147.25
  0
SEQEND
  8
1
  6
CONTINUOUS
 62
     7
  0
POLYLINE
  8
1
  6
CONTINUOUS
 62
     7
 66
     1
  0
VERTEX
  8
1
  6
CONTINUOUS
 62
     7
 10
246.25
 20
149.7499048076604
  0
VERTEX
  8
1
  6
CONTINUOUS
 62
     7
 10
246.2980339854023
 20
149.2621874314052
  0
VERTEX
  8
1
  6
CONTINUOUS
 62
     7
 10
246.4402902008893
 20
148.7932182648007
  0
VERTEX
  8
1
  6
CONTINUOUS
 62
     7
 10
246.6713023482261
 20
148.3610177881386
  0
VERTEX
  8
1
  6
CONTINUOUS
 62
     7
 10
246.9821936181371
 20
147.9821936181371
  0
VERTEX
  8
1
  6
CONTINUOUS
 62
     7
 10
247.3610177881386
 20
147.6713023482261
  0
VERTEX
  8
1
  6
CONTINUOUS
 62
     7
 10
247.7932182648007
 20
147.4402902008893
  0
VERTEX
  8
1
  6
CONTINUOUS
 62
     7
 10
248.2621874314051
 20
147.2980339854024
  0
VERTEX
  8
1
  6
CONTINUOUS
 62
     7
 10
248.7499048076604
 20
147.25
  0
SEQEND
  8
1
  6
CONTINUOUS
 62
     7
  0
LINE
  8
1
  6
CONTINUOUS
 62
     7
 10
257.25
 20
150.75
 11
257.25
 21
149.7499048076604
  0
ARC
  8
1
  6
CONTINUOUS
 62
     7
 10
159.75
 20
150.75
 40
5.499999999999998
 50
0.0
 51
65.38002267134323
  0
POLYLINE
  8
1
  6
CONTINUOUS
 62
     7
 66
     1
  0
VERTEX
  8
1
  6
CONTINUOUS
 62
     7
 10
162.7500951923396
 20
147.25
  0
VERTEX
  8
1
  6
CONTINUOUS
 62
     7
 10
163.2378125685948
 20
147.2980339854024
  0
VERTEX
  8
1
  6
CONTINUOUS
 62
     7
 10
163.7067817351993
 20
147.4402902008893
  0
VERTEX
  8
1
  6
CONTINUOUS
 62
     7
 10
164.1389822118614
 20
147.6713023482261
  0
VERTEX
  8
1
  6
CONTINUOUS
 62
     7
 10
164.5178063818629
 20
147.9821936181371
  0
VERTEX
  8
1
  6
CONTINUOUS
 62
     7
 10
164.8286976517739
 20
148.3610177881386
  0
VERTEX
  8
1
  6
CONTINUOUS
 62
     7
 10
165.0597097991107
 20
148.7932182648007
  0
VERTEX
  8
1
  6
CONTINUOUS
 62
     7
 10
165.2019660145976
 20
149.2621874314052
  0
VERTEX
  8
1
  6
CONTINUOUS
 62
     7
 10
165.25
 20
149.7499048076604
  0
SEQEND
  8
1
  6
CONTINUOUS
 62
     7
  0
ARC
  8
1
  6
CONTINUOUS
 62
     7
 10
205.75
 20
150.75
 40
5.499999999999998
 50
114.6199773286568
 51
180.0
  0
ARC
  8
1
  6
CONTINUOUS
 62
     7
 10
251.75
 20
234.25
 40
5.499999999999998
 50
180.0
 51
245.3800226713432
  0
ARC
  8
1
  6
CONTINUOUS
 62
     7
 10
251.75
 20
150.75
 40
5.499999999999998
 50
0.0
 51
65.38002267134323
  0
LINE
  8
1
  6
CONTINUOUS
 62
     7
 10
249.4587121525221
 20
155.75
 11
254.0412878474779
 21
155.75
  0
LINE
  8
1
  6
CONTINUOUS
 62
     7
 10
165.25
 20
150.75
 11
165.25
 21
149.7499048076604
  0
POLYLINE
  8
1
  6
CONTINUOUS
 62
     7
 66
     1
  0
VERTEX
  8
1
  6
CONTINUOUS
 62
     7
 10
200.25
 20
149.7499048076604
  0
VERTEX
  8
1
  6
CONTINUOUS
 62
     7
 10
200.2980339854024
 20
149.2621874314051
  0
VERTEX
  8
1
  6
CONTINUOUS
 62
     7
 10
200.4402902008893
 20
148.7932182648007
  0
VERTEX
  8
1
  6
CONTINUOUS
 62
     7
 10
200.6713023482261
 20
148.3610177881386
  0
VERTEX
  8
1
  6
CONTINUOUS
 62
     7
 10
200.9821936181371
 20
147.9821936181371
  0
VERTEX
  8
1
  6
CONTINUOUS
 62
     7
 10
201.3610177881387
 20
147.6713023482261
  0
VERTEX
  8
1
  6
CONTINUOUS
 62
     7
 10
201.7932182648007
 20
147.4402902008893
  0
VERTEX
  8
1
  6
CONTINUOUS
 62
     7
 10
202.2621874314052
 20
147.2980339854023
  0
VERTEX
  8
1
  6
CONTINUOUS
 62
     7
 10
202.7499048076604
 20
147.25
  0
SEQEND
  8
1
  6
CONTINUOUS
 62
     7
  0
LINE
  8
1
  6
CONTINUOUS
 62
     7
 10
249.4587121525221
 20
229.25
 11
254.0412878474779
 21
229.25
  0
LINE
  8
1
  6
CONTINUOUS
 62
     7
 10
274.2413683281736
 20
144.15
 11
278.5912540930163
 21
144.15
  0
ARC
  8
1
  6
CONTINUOUS
 62
     7
 10
251.75
 20
150.75
 40
5.499999999999998
 50
114.6199773286568
 51
180.0
  0
POLYLINE
  8
1
  6
CONTINUOUS
 62
     7
 66
     1
  0
VERTEX
  8
1
  6
CONTINUOUS
 62
     7
 10
257.25
 20
235.2500951923396
  0
VERTEX
  8
1
  6
CONTINUOUS
 62
     7
 10
257.2019660145976
 20
235.7378125685949
  0
VERTEX
  8
1
  6
CONTINUOUS
 62
     7
 10
257.0597097991107
 20
236.2067817351993
  0
VERTEX
  8
1
  6
CONTINUOUS
 62
     7
 10
256.8286976517739
 20
236.6389822118614
  0
VERTEX
  8
1
  6
CONTINUOUS
 62
     7
 10
256.5178063818629
 20
237.0178063818629
  0
VERTEX
  8
1
  6
CONTINUOUS
 62
     7
 10
256.1389822118613
 20
237.3286976517739
  0
VERTEX
  8
1
  6
CONTINUOUS
 62
     7
 10
255.7067817351993
 20
237.5597097991107
  0
VERTEX
  8
1
  6
CONTINUOUS
 62
     7
 10
255.2378125685948
 20
237.7019660145977
  0
VERTEX
  8
1
  6
CONTINUOUS
 62
     7
 10
254.7500951923396
 20
237.75
  0
SEQEND
  8
1
  6
CONTINUOUS
 62
     7
  0
LINE
  8
1
  6
CONTINUOUS
 62
     7
 10
246.25
 20
149.7499048076604
 11
246.25
 21
150.75
  0
LINE
  8
1
  6
CONTINUOUS
 62
     7
 10
200.25
 20
149.7499048076604
 11
200.25
 21
150.75
  0
POLYLINE
  8
1
  6
CONTINUOUS
 62
     7
 66
     1
  0
VERTEX
  8
1
  6
CONTINUOUS
 62
     7
 10
208.7500951923396
 20
147.25
  0
VERTEX
  8
1
  6
CONTINUOUS
 62
     7
 10
209.2378125685948
 20
147.2980339854023
  0
VERTEX
  8
1
  6
CONTINUOUS
 62
     7
 10
209.7067817351993
 20
147.4402902008893
  0
VERTEX
  8
1
  6
CONTINUOUS
 62
     7
 10
210.1389822118614
 20
147.6713023482261
  0
VERTEX
  8
1
  6
CONTINUOUS
 62
     7
 10
210.5178063818629
 20
147.9821936181371
  0
VERTEX
  8
1
  6
CONTINUOUS
 62
     7
 10
210.8286976517739
 20
148.3610177881386
  0
VERTEX
  8
1
  6
CONTINUOUS
 62
     7
 10
211.0597097991107
 20
148.7932182648007
  0
VERTEX
  8
1
  6
CONTINUOUS
 62
     7
 10
211.2019660145976
 20
149.2621874314051
  0
VERTEX
  8
1
  6
CONTINUOUS
 62
     7
 10
211.25
 20
149.7499048076604
  0
SEQEND
  8
1
  6
CONTINUOUS
 62
     7
  0
POLYLINE
  8
1
  6
CONTINUOUS
 62
     7
 66
     1
  0
VERTEX
  8
1
  6
CONTINUOUS
 62
     7
 10
248.7499048076604
 20
237.75
  0
VERTEX
  8
1
  6
CONTINUOUS
 62
     7
 10
248.2621874314051
 20
237.7019660145977
  0
VERTEX
  8
1
  6
CONTINUOUS
 62
     7
 10
247.7932182648007
 20
237.5597097991107
  0
VERTEX
  8
1
  6
CONTINUOUS
 62
     7
 10
247.3610177881386
 20
237.3286976517739
  0
VERTEX
  8
1
  6
CONTINUOUS
 62
     7
 10
246.9821936181371
 20
237.0178063818629
  0
VERTEX
  8
1
  6
CONTINUOUS
 62
     7
 10
246.6713023482261
 20
236.6389822118614
  0
VERTEX
  8
1
  6
CONTINUOUS
 62
     7
 10
246.4402902008893
 20
236.2067817351993
  0
VERTEX
  8
1
  6
CONTINUOUS
 62
     7
 10
246.2980339854023
 20
235.7378125685949
  0
VERTEX
  8
1
  6
CONTINUOUS
 62
     7
 10
246.25
 20
235.2500951923396
  0
SEQEND
  8
1
  6
CONTINUOUS
 62
     7
  0
LINE
  8
1
  6
CONTINUOUS
 62
     7
 10
132.9087459069837
 20
144.15
 11
137.2586316718264
 21
144.15
  0
ARC
  8
1
  6
CONTINUOUS
 62
     7
 10
281.7500000000001
 20
144.5
 40
4.999999999999997
 50
270.0
 51
0.0
  0
LINE
  8
1
  6
CONTINUOUS
 62
     7
 10
286.75
 20
192.5
 11
286.75
 21
240.5
  0
LINE
  8
1
  6
CONTINUOUS
 62
     7
 10
157.4587121525221
 20
155.75
 11
162.0412878474779
 21
155.75
  0
LINE
  8
1
  6
CONTINUOUS
 62
     7
 10
156.7499048076604
 20
147.25
 11
162.7500951923396
 21
147.25
  0
LINE
  8
1
  6
CONTINUOUS
 62
     7
 10
254.7500951923396
 20
147.25
 11
248.7499048076604
 21
147.25
  0
ARC
  8
1
  6
CONTINUOUS
 62
     7
 10
159.75
 20
150.75
 40
5.499999999999998
 50
114.6199773286568
 51
180.0
  0
LINE
  8
1
  6
CONTINUOUS
 62
     7
 10
208.7500951923396
 20
147.25
 11
202.7499048076604
 21
147.25
  0
POLYLINE
  8
1
  6
CONTINUOUS
 62
     7
 66
     1
  0
VERTEX
  8
1
  6
CONTINUOUS
 62
     7
 10
254.7500951923396
 20
147.25
  0
VERTEX
  8
1
  6
CONTINUOUS
 62
     7
 10
255.2378125685948
 20
147.2980339854023
  0
VERTEX
  8
1
  6
CONTINUOUS
 62
     7
 10
255.7067817351993
 20
147.4402902008893
  0
VERTEX
  8
1
  6
CONTINUOUS
 62
     7
 10
256.1389822118613
 20
147.6713023482261
  0
VERTEX
  8
1
  6
CONTINUOUS
 62
     7
 10
256.5178063818629
 20
147.9821936181371
  0
VERTEX
  8
1
  6
CONTINUOUS
 62
     7
 10
256.8286976517739
 20
148.3610177881386
  0
VERTEX
  8
1
  6
CONTINUOUS
 62
     7
 10
257.0597097991107
 20
148.7932182648007
  0
VERTEX
  8
1
  6
CONTINUOUS
 62
     7
 10
257.2019660145976
 20
149.2621874314052
  0
VERTEX
  8
1
  6
CONTINUOUS
 62
     7
 10
257.25
 20
149.7499048076604
  0
SEQEND
  8
1
  6
CONTINUOUS
 62
     7
  0
LINE
  8
1
  6
CONTINUOUS
 62
     7
 10
154.25
 20
149.7499048076604
 11
154.25
 21
150.75
  0
ARC
  8
1
  6
CONTINUOUS
 62
     7
 10
251.75
 20
234.25
 40
5.499999999999998
 50
294.6199773286568
 51
0.0
  0
ARC
  8
1
  6
CONTINUOUS
 62
     7
 10
205.75
 20
150.75
 40
5.499999999999998
 50
0.0
 51
65.38002267134323
  0
LINE
  8
1
  6
CONTINUOUS
 62
     7
 10
246.2238193966277
 20
149.7237242042881
 11
246.2238193966277
 21
144.15
  0
ARC
  8
1
  6
CONTINUOUS
 62
     7
 10
205.75
 20
234.25
 40
5.499999999999998
 50
180.0
 51
245.3800226713432
  0
LINE
  8
1
  6
CONTINUOUS
 62
     7
 10
208.7500951923396
 20
237.75
 11
202.7499048076604
 21
237.75
  0
LINE
  8
1
  6
CONTINUOUS
 62
     7
 10
200.25
 20
235.2500951923396
 11
200.25
 21
234.25
  0
CIRCLE
  8
1
  6
CONTINUOUS
 62
     7
 10
127.75
 20
237.5
 40
1.399999999999998
  0
LINE
  8
1
  6
CONTINUOUS
 62
     7
 10
211.25
 20
234.25
 11
211.25
 21
235.2500951923396
  0
CIRCLE
  8
1
  6
CONTINUOUS
 62
     7
 10
283.7500000000001
 20
237.5
 40
1.399999999999998
  0
CIRCLE
  8
1
  6
CONTINUOUS
 62
     7
 10
283.7500000000001
 20
147.5
 40
1.399999999999998
  0
ARC
  8
1
  6
CONTINUOUS
 62
     7
 10
205.75
 20
234.25
 40
5.499999999999998
 50
294.6199773286568
 51
0.0
  0
LINE
  8
1
  6
CONTINUOUS
 62
     7
 10
200.2238193966277
 20
240.85
 11
200.2238193966277
 21
235.2762757957119
  0
CIRCLE
  8
1
  6
CONTINUOUS
 62
     7
 10
127.75
 20
147.5
 40
1.399999999999998
  0
LINE
  8
1
  6
CONTINUOUS
 62
     7
 10
257.2761806033723
 20
144.15
 11
257.2761806033723
 21
149.7237242042881
  0
LINE
  8
1
  6
CONTINUOUS
 62
     7
 10
211.2761806033723
 20
235.2762757957119
 11
211.2761806033723
 21
240.85
  0
LINE
  8
1
  6
CONTINUOUS
 62
     7
 10
203.4587121525221
 20
229.25
 11
208.0412878474779
 21
229.25
  0
LINE
  8
1
  6
CONTINUOUS
 62
     7
 10
154.2238193966277
 20
149.7237242042881
 11
154.2238193966277
 21
144.15
  0
POLYLINE
  8
1
  6
CONTINUOUS
 62
     7
 66
     1
  0
VERTEX
  8
1
  6
CONTINUOUS
 62
     7
 10
202.7499048076604
 20
237.75
  0
VERTEX
  8
1
  6
CONTINUOUS
 62
     7
 10
202.2621874314052
 20
237.7019660145976
  0
VERTEX
  8
1
  6
CONTINUOUS
 62
     7
 10
201.7932182648007
 20
237.5597097991107
  0
VERTEX
  8
1
  6
CONTINUOUS
 62
     7
 10
201.3610177881386
 20
237.3286976517739
  0
VERTEX
  8
1
  6
CONTINUOUS
 62
     7
 10
200.9821936181371
 20
237.0178063818629
  0
VERTEX
  8
1
  6
CONTINUOUS
 62
     7
 10
200.6713023482261
 20
236.6389822118613
  0
VERTEX
  8
1
  6
CONTINUOUS
 62
     7
 10
200.4402902008893
 20
236.2067817351993
  0
VERTEX
  8
1
  6
CONTINUOUS
 62
     7
 10
200.2980339854023
 20
235.7378125685948
  0
VERTEX
  8
1
  6
CONTINUOUS
 62
     7
 10
200.25
 20
235.2500951923396
  0
SEQEND
  8
1
  6
CONTINUOUS
 62
     7
  0
CIRCLE
  8
1
  6
CONTINUOUS
 62
     7
 10
251.75
 20
150.75
 40
2.099999999999998
  0
CIRCLE
  8
1
  6
CONTINUOUS
 62
     7
 10
251.75
 20
234.25
 40
2.099999999999998
  0
CIRCLE
  8
1
  6
CONTINUOUS
 62
     7
 10
205.75
 20
234.25
 40
2.099999999999998
  0
CIRCLE
  8
1
  6
CONTINUOUS
 62
     7
 10
159.75
 20
150.75
 40
2.099999999999998
  0
LINE
  8
1
  6
CONTINUOUS
 62
     7
 10
200.2238193966277
 20
144.15
 11
200.2238193966277
 21
149.7237242042881
  0
POLYLINE
  8
1
  6
CONTINUOUS
 62
     7
 66
     1
  0
VERTEX
  8
1
  6
CONTINUOUS
 62
     7
 10
211.25
 20
235.2500951923396
  0
VERTEX
  8
1
  6
CONTINUOUS
 62
     7
 10
211.2019660145976
 20
235.7378125685948
  0
VERTEX
  8
1
  6
CONTINUOUS
 62
     7
 10
211.0597097991107
 20
236.2067817351993
  0
VERTEX
  8
1
  6
CONTINUOUS
 62
     7
 10
210.8286976517739
 20
236.6389822118614
  0
VERTEX
  8
1
  6
CONTINUOUS
 62
     7
 10
210.5178063818629
 20
237.0178063818629
  0
VERTEX
  8
1
  6
CONTINUOUS
 62
     7
 10
210.1389822118614
 20
237.3286976517739
  0
VERTEX
  8
1
  6
CONTINUOUS
 62
     7
 10
209.7067817351993
 20
237.5597097991107
  0
VERTEX
  8
1
  6
CONTINUOUS
 62
     7
 10
209.2378125685948
 20
237.7019660145976
  0
VERTEX
  8
1
  6
CONTINUOUS
 62
     7
 10
208.7500951923396
 20
237.75
  0
SEQEND
  8
1
  6
CONTINUOUS
 62
     7
  0
CIRCLE
  8
1
  6
CONTINUOUS
 62
     7
 10
205.75
 20
150.75
 40
2.099999999999998
  0
LINE
  8
1
  6
CONTINUOUS
 62
     7
 10
185.76537449514
 20
245.5
 11
185.76537449514
 21
240.85
  0
CIRCLE
  8
1
  6
CONTINUOUS
 62
     7
 10
159.75
 20
234.25
 40
2.099999999999998
  0
LINE
  8
1
  6
CONTINUOUS
 62
     7
 10
225.73462550486
 20
139.5
 11
225.73462550486
 21
144.15
  0
LINE
  8
1
  6
CONTINUOUS
 62
     7
 10
225.73462550486
 20
245.5
 11
225.73462550486
 21
240.85
  0
LINE
  8
1
  6
CONTINUOUS
 62
     7
 10
165.2761806033723
 20
144.15
 11
165.2761806033723
 21
149.7237242042881
  0
LINE
  8
1
  6
CONTINUOUS
 62
     7
 10
231.76537449514
 20
245.5
 11
231.76537449514
 21
240.85
  0
POLYLINE
  8
1
  6
CONTINUOUS
 62
     7
 66
     1
  0
VERTEX
  8
1
  6
CONTINUOUS
 62
     7
 10
132.9436533781467
 20
240.85
  0
VERTEX
  8
1
  6
CONTINUOUS
 62
     7
 10
132.8461045027763
 20
240.8403926402016
  0
VERTEX
  8
1
  6
CONTINUOUS
 62
     7
 10
132.7523043759805
 20
240.8119397662556
  0
VERTEX
  8
1
  6
CONTINUOUS
 62
     7
 10
132.6658576840281
 20
240.7657348061513
  0
VERTEX
  8
1
  6
CONTINUOUS
 62
     7
 10
132.590086524811
 20
240.7035533905933
  0
VERTEX
  8
1
  6
CONTINUOUS
 62
     7
 10
132.5279027414851
 20
240.6277851165098
  0
VERTEX
  8
1
  6
CONTINUOUS
 62
     7
 10
132.4816960219704
 20
240.5413417161825
  0
VERTEX
  8
1
  6
CONTINUOUS
 62
     7
 10
132.4532420645849
 20
240.4475451610081
  0
VERTEX
  8
1
  6
CONTINUOUS
 62
     7
 10
132.4436343389538
 20
240.35
  0
SEQEND
  8
1
  6
CONTINUOUS
 62
     7
  0
LINE
  8
1
  6
CONTINUOUS
 62
     7
 10
271.7238193966277
 20
139.5
 11
271.7238193966277
 21
141.65
  0
LINE
  8
1
  6
CONTINUOUS
 62
     7
 10
185.76537449514
 20
139.5
 11
185.76537449514
 21
144.15
  0
LINE
  8
1
  6
CONTINUOUS
 62
     7
 10
179.73462550486
 20
139.5
 11
179.73462550486
 21
144.15
  0
POLYLINE
  8
1
  6
CONTINUOUS
 62
     7
 66
     1
  0
VERTEX
  8
1
  6
CONTINUOUS
 62
     7
 10
278.5563466218534
 20
144.15
  0
VERTEX
  8
1
  6
CONTINUOUS
 62
     7
 10
278.6538954972237
 20
144.1596073597984
  0
VERTEX
  8
1
  6
CONTINUOUS
 62
     7
 10
278.7476956240196
 20
144.1880602337444
  0
VERTEX
  8
1
  6
CONTINUOUS
 62
     7
 10
278.834142315972
 20
144.2342651938487
  0
VERTEX
  8
1
  6
CONTINUOUS
 62
     7
 10
278.9099134751891
 20
144.2964466094067
  0
VERTEX
  8
1
  6
CONTINUOUS
 62
     7
 10
278.972097258515
 20
144.3722148834902
  0
VERTEX
  8
1
  6
CONTINUOUS
 62
     7
 10
279.0183039780296
 20
144.4586582838175
  0
VERTEX
  8
1
  6
CONTINUOUS
 62
     7
 10
279.0467579354151
 20
144.5524548389919
  0
VERTEX
  8
1
  6
CONTINUOUS
 62
     7
 10
279.0563656610462
 20
144.65
  0
SEQEND
  8
1
  6
CONTINUOUS
 62
     7
  0
LINE
  8
1
  6
CONTINUOUS
 62
     7
 10
274.2413683281736
 20
240.85
 11
274.2239145925921
 21
240.85
  0
POLYLINE
  8
1
  6
CONTINUOUS
 62
     7
 66
     1
  0
VERTEX
  8
1
  6
CONTINUOUS
 62
     7
 10
137.276085407408
 20
240.85
  0
VERTEX
  8
1
  6
CONTINUOUS
 62
     7
 10
137.7638297842596
 20
240.8980367989919
  0
VERTEX
  8
1
  6
CONTINUOUS
 62
     7
 10
138.2328304182391
 20
241.0403011687218
  0
VERTEX
  8
1
  6
CONTINUOUS
 62
     7
 10
138.6650638780011
 20
241.2713259692436
  0
VERTEX
  8
1
  6
CONTINUOUS
 62
     7
 10
139.0439196740863
 20
241.5822330470336
  0
VERTEX
  8
1
  6
CONTINUOUS
 62
     7
 10
139.3548385907159
 20
241.961074417451
  0
VERTEX
  8
1
  6
CONTINUOUS
 62
     7
 10
139.5858721882892
 20
242.3932914190873
  0
VERTEX
  8
1
  6
CONTINUOUS
 62
     7
 10
139.7281419752166
 20
242.8622741949597
  0
VERTEX
  8
1
  6
CONTINUOUS
 62
     7
 10
139.7761806033723
 20
243.35
  0
SEQEND
  8
1
  6
CONTINUOUS
 62
     7
  0
LINE
  8
1
  6
CONTINUOUS
 62
     7
 10
137.276085407408
 20
240.85
 11
137.2586316718264
 21
240.85
  0
POLYLINE
  8
1
  6
CONTINUOUS
 62
     7
 66
     1
  0
VERTEX
  8
1
  6
CONTINUOUS
 62
     7
 10
271.7238193966278
 20
243.35
  0
VERTEX
  8
1
  6
CONTINUOUS
 62
     7
 10
271.7718580247835
 20
242.8622741949597
  0
VERTEX
  8
1
  6
CONTINUOUS
 62
     7
 10
271.9141278117108
 20
242.3932914190873
  0
VERTEX
  8
1
  6
CONTINUOUS
 62
     7
 10
272.1451614092842
 20
241.961074417451
  0
VERTEX
  8
1
  6
CONTINUOUS
 62
     7
 10
272.4560803259138
 20
241.5822330470336
  0
VERTEX
  8
1
  6
CONTINUOUS
 62
     7
 10
272.834936121999
 20
241.2713259692436
  0
VERTEX
  8
1
  6
CONTINUOUS
 62
     7
 10
273.267169581761
 20
241.0403011687218
  0
VERTEX
  8
1
  6
CONTINUOUS
 62
     7
 10
273.7361702157405
 20
240.8980367989919
  0
VERTEX
  8
1
  6
CONTINUOUS
 62
     7
 10
274.2239145925921
 20
240.85
  0
SEQEND
  8
1
  6
CONTINUOUS
 62
     7
  0
LINE
  8
1
  6
CONTINUOUS
 62
     7
 10
179.73462550486
 20
245.5
 11
179.73462550486
 21
240.85
  0
LINE
  8
1
  6
CONTINUOUS
 62
     7
 10
139.7761806033722
 20
245.5
 11
139.7761806033723
 21
243.35
  0
LINE
  8
1
  6
CONTINUOUS
 62
     7
 10
132.4348313158415
 20
232.4650734918189
 11
132.4348313158415
 21
152.534926508181
  0
LINE
  8
1
  6
CONTINUOUS
 62
     7
 10
271.7238193966277
 20
245.5
 11
271.7238193966277
 21
243.35
  0
LINE
  8
1
  6
CONTINUOUS
 62
     7
 10
231.76537449514
 20
139.5
 11
231.76537449514
 21
144.15
  0
POLYLINE
  8
1
  6
CONTINUOUS
 62
     7
 66
     1
  0
VERTEX
  8
1
  6
CONTINUOUS
 62
     7
 10
132.4436343389538
 20
144.65
  0
VERTEX
  8
1
  6
CONTINUOUS
 62
     7
 10
132.4532420645849
 20
144.5524548389919
  0
VERTEX
  8
1
  6
CONTINUOUS
 62
     7
 10
132.4816960219704
 20
144.4586582838175
  0
VERTEX
  8
1
  6
CONTINUOUS
 62
     7
 10
132.5279027414851
 20
144.3722148834902
  0
VERTEX
  8
1
  6
CONTINUOUS
 62
     7
 10
132.590086524811
 20
144.2964466094067
  0
VERTEX
  8
1
  6
CONTINUOUS
 62
     7
 10
132.6658576840281
 20
144.2342651938487
  0
VERTEX
  8
1
  6
CONTINUOUS
 62
     7
 10
132.7523043759805
 20
144.1880602337444
  0
VERTEX
  8
1
  6
CONTINUOUS
 62
     7
 10
132.8461045027763
 20
144.1596073597984
  0
VERTEX
  8
1
  6
CONTINUOUS
 62
     7
 10
132.9436533781467
 20
144.15
  0
SEQEND
  8
1
  6
CONTINUOUS
 62
     7
  0
LINE
  8
1
  6
CONTINUOUS
 62
     7
 10
139.7761806033723
 20
139.5
 11
139.7761806033723
 21
141.65
  0
POLYLINE
  8
1
  6
CONTINUOUS
 62
     7
 66
     1
  0
VERTEX
  8
1
  6
CONTINUOUS
 62
     7
 10
279.0563656610462
 20
240.35
  0
VERTEX
  8
1
  6
CONTINUOUS
 62
     7
 10
279.0467579354151
 20
240.4475451610081
  0
VERTEX
  8
1
  6
CONTINUOUS
 62
     7
 10
279.0183039780296
 20
240.5413417161825
  0
VERTEX
  8
1
  6
CONTINUOUS
 62
     7
 10
278.972097258515
 20
240.6277851165098
  0
VERTEX
  8
1
  6
CONTINUOUS
 62
     7
 10
278.9099134751891
 20
240.7035533905933
  0
VERTEX
  8
1
  6
CONTINUOUS
 62
     7
 10
278.834142315972
 20
240.7657348061513
  0
VERTEX
  8
1
  6
CONTINUOUS
 62
     7
 10
278.7476956240196
 20
240.8119397662556
  0
VERTEX
  8
1
  6
CONTINUOUS
 62
     7
 10
278.6538954972237
 20
240.8403926402016
  0
VERTEX
  8
1
  6
CONTINUOUS
 62
     7
 10
278.5563466218534
 20
240.85
  0
SEQEND
  8
1
  6
CONTINUOUS
 62
     7
  0
POLYLINE
  8
1
  6
CONTINUOUS
 62
     7
 66
     1
  0
VERTEX
  8
1
  6
CONTINUOUS
 62
     7
 10
274.2239145925921
 20
144.15
  0
VERTEX
  8
1
  6
CONTINUOUS
 62
     7
 10
273.7361702157405
 20
144.1019632010081
  0
VERTEX
  8
1
  6
CONTINUOUS
 62
     7
 10
273.267169581761
 20
143.9596988312782
  0
VERTEX
  8
1
  6
CONTINUOUS
 62
     7
 10
272.834936121999
 20
143.7286740307564
  0
VERTEX
  8
1
  6
CONTINUOUS
 62
     7
 10
272.4560803259138
 20
143.4177669529664
  0
VERTEX
  8
1
  6
CONTINUOUS
 62
     7
 10
272.1451614092842
 20
143.038925582549
  0
VERTEX
  8
1
  6
CONTINUOUS
 62
     7
 10
271.9141278117108
 20
142.6067085809127
  0
VERTEX
  8
1
  6
CONTINUOUS
 62
     7
 10
271.7718580247835
 20
142.1377258050403
  0
VERTEX
  8
1
  6
CONTINUOUS
 62
     7
 10
271.7238193966278
 20
141.65
  0
SEQEND
  8
1
  6
CONTINUOUS
 62
     7
  0
LINE
  8
1
  6
CONTINUOUS
 62
     7
 10
274.2239145925921
 20
144.15
 11
274.2413683281736
 21
144.15
  0
POLYLINE
  8
1
  6
CONTINUOUS
 62
     7
 66
     1
  0
VERTEX
  8
1
  6
CONTINUOUS
 62
     7
 10
139.7761806033723
 20
141.65
  0
VERTEX
  8
1
  6
CONTINUOUS
 62
     7
 10
139.7281419752166
 20
142.1377258050403
  0
VERTEX
  8
1
  6
CONTINUOUS
 62
     7
 10
139.5858721882892
 20
142.6067085809127
  0
VERTEX
  8
1
  6
CONTINUOUS
 62
     7
 10
139.3548385907158
 20
143.038925582549
  0
VERTEX
  8
1
  6
CONTINUOUS
 62
     7
 10
139.0439196740862
 20
143.4177669529664
  0
VERTEX
  8
1
  6
CONTINUOUS
 62
     7
 10
138.665063878001
 20
143.7286740307564
  0
VERTEX
  8
1
  6
CONTINUOUS
 62
     7
 10
138.232830418239
 20
143.9596988312782
  0
VERTEX
  8
1
  6
CONTINUOUS
 62
     7
 10
137.7638297842596
 20
144.1019632010081
  0
VERTEX
  8
1
  6
CONTINUOUS
 62
     7
 10
137.2760854074079
 20
144.15
  0
SEQEND
  8
1
  6
CONTINUOUS
 62
     7
  0
LINE
  8
1
  6
CONTINUOUS
 62
     7
 10
137.2586316718264
 20
144.15
 11
137.2760854074079
 21
144.15
  0
LINE
  8
1
  6
CONTINUOUS
 62
     7
 10
279.0563656610462
 20
152.9223139953941
 11
279.0563656610462
 21
144.65
  0
ARC
  8
1
  6
CONTINUOUS
 62
     7
 10
159.75
 20
234.25
 40
5.499999999999998
 50
294.6199773286568
 51
0.0
  0
LINE
  8
1
  6
CONTINUOUS
 62
     7
 10
154.25
 20
235.2500951923396
 11
154.25
 21
234.25
  0
POLYLINE
  8
1
  6
CONTINUOUS
 62
     7
 66
     1
  0
VERTEX
  8
1
  6
CONTINUOUS
 62
     7
 10
156.7499048076604
 20
237.75
  0
VERTEX
  8
1
  6
CONTINUOUS
 62
     7
 10
156.2621874314051
 20
237.7019660145977
  0
VERTEX
  8
1
  6
CONTINUOUS
 62
     7
 10
155.7932182648007
 20
237.5597097991107
  0
VERTEX
  8
1
  6
CONTINUOUS
 62
     7
 10
155.3610177881386
 20
237.3286976517739
  0
VERTEX
  8
1
  6
CONTINUOUS
 62
     7
 10
154.9821936181371
 20
237.0178063818629
  0
VERTEX
  8
1
  6
CONTINUOUS
 62
     7
 10
154.6713023482261
 20
236.6389822118614
  0
VERTEX
  8
1
  6
CONTINUOUS
 62
     7
 10
154.4402902008893
 20
236.2067817351993
  0
VERTEX
  8
1
  6
CONTINUOUS
 62
     7
 10
154.2980339854023
 20
235.7378125685949
  0
VERTEX
  8
1
  6
CONTINUOUS
 62
     7
 10
154.25
 20
235.2500951923396
  0
SEQEND
  8
1
  6
CONTINUOUS
 62
     7
  0
LINE
  8
1
  6
CONTINUOUS
 62
     7
 10
156.7499048076604
 20
237.75
 11
162.7500951923396
 21
237.75
  0
POLYLINE
  8
1
  6
CONTINUOUS
 62
     7
 66
     1
  0
VERTEX
  8
1
  6
CONTINUOUS
 62
     7
 10
165.25
 20
235.2500951923396
  0
VERTEX
  8
1
  6
CONTINUOUS
 62
     7
 10
165.2019660145977
 20
235.7378125685949
  0
VERTEX
  8
1
  6
CONTINUOUS
 62
     7
 10
165.0597097991107
 20
236.2067817351993
  0
VERTEX
  8
1
  6
CONTINUOUS
 62
     7
 10
164.8286976517739
 20
236.6389822118614
  0
VERTEX
  8
1
  6
CONTINUOUS
 62
     7
 10
164.5178063818629
 20
237.0178063818629
  0
VERTEX
  8
1
  6
CONTINUOUS
 62
     7
 10
164.1389822118614
 20
237.3286976517739
  0
VERTEX
  8
1
  6
CONTINUOUS
 62
     7
 10
163.7067817351993
 20
237.5597097991107
  0
VERTEX
  8
1
  6
CONTINUOUS
 62
     7
 10
163.2378125685949
 20
237.7019660145977
  0
VERTEX
  8
1
  6
CONTINUOUS
 62
     7
 10
162.7500951923396
 20
237.75
  0
SEQEND
  8
1
  6
CONTINUOUS
 62
     7
  0
LINE
  8
1
  6
CONTINUOUS
 62
     7
 10
165.25
 20
234.25
 11
165.25
 21
235.2500951923396
  0
ARC
  8
1
  6
CONTINUOUS
 62
     7
 10
129.75
 20
144.5
 40
5.000000000000004
 50
180.0
 51
270.0
  0
ARC
  8
1
  6
CONTINUOUS
 62
     7
 10
129.75
 20
240.5
 40
4.999999999999997
 50
90.0
 51
180.0
  0
LINE
  8
1
  6
CONTINUOUS
 62
     7
 10
165.2761806033723
 20
240.85
 11
165.2761806033723
 21
235.2762757957119
  0
LINE
  8
1
  6
CONTINUOUS
 62
     7
 10
124.75
 20
240.5
 11
124.75
 21
192.5
  0
LINE
  8
1
  6
CONTINUOUS
 62
     7
 10
211.25
 20
150.75
 11
211.25
 21
149.7499048076604
  0
LINE
  8
1
  6
CONTINUOUS
 62
     7
 10
211.2761806033723
 20
149.7237242042881
 11
211.2761806033723
 21
144.15
  0
LINE
  8
1
  6
CONTINUOUS
 62
     7
 10
124.75
 20
192.5
 11
124.75
 21
144.5
  0
LINE
  8
1
  6
CONTINUOUS
 62
     7
 10
157.4587121525221
 20
229.25
 11
162.0412878474779
 21
229.25
  0
ARC
  8
1
  6
CONTINUOUS
 62
     7
 10
159.75
 20
234.25
 40
5.499999999999998
 50
180.0000000000001
 51
245.3800226713433
  0
LINE
  8
1
  6
CONTINUOUS
 62
     7
 10
246.2238193966277
 20
235.2762757957119
 11
246.2238193966277
 21
240.85
  0
LINE
  8
1
  6
CONTINUOUS
 62
     7
 10
257.2761806033723
 20
240.85
 11
257.2761806033723
 21
235.2762757957119
  0
LINE
  8
1
  6
CONTINUOUS
 62
     7
 10
246.25
 20
235.2500951923396
 11
246.25
 21
234.25
  0
LINE
  8
1
  6
CONTINUOUS
 62
     7
 10
257.25
 20
234.25
 11
257.25
 21
235.2500951923396
  0
INSERT
  8
1
  6
CONTINUOUS
 62
     7
  2
D_FRAME_VIEW_3508
 10
0.0
 20
0.0
 30
0.0
  0
INSERT
  8
1
  6
CONTINUOUS
 62
     7
  2
D_FRAME_VIEW_1444
 10
0.0
 20
0.0
 30
0.0
  0
CIRCLE
  8
1
  6
CONTINUOUS
 62
     7
 10
144.75
 20
192.5
 40
2.000000000000002
  0
CIRCLE
  8
1
  6
CONTINUOUS
 62
     7
 10
236.75
 20
192.5
 40
2.000000000000002
  0
CIRCLE
  8
1
  6
CONTINUOUS
 62
     7
 10
266.75
 20
192.5
 40
1.999999999999995
  0
CIRCLE
  8
1
  6
CONTINUOUS
 62
     7
 10
190.75
 20
192.5
 40
2.000000000000002
  0
CIRCLE
  8
1
  6
CONTINUOUS
 62
     7
 10
220.75
 20
192.5
 40
2.000000000000002
  0
CIRCLE
  8
1
  6
CONTINUOUS
 62
     7
 10
174.75
 20
192.5
 40
2.000000000000002
  0
TEXT
  8
1
  6
CONTINUOUS
 62
     7
 10
170.0295423283731
 20
264.9545454545454
 40
5.0
  1
ＳＢＧ－３Ｗ－ＤＢＦ
  0
LINE
  8
1
  6
CONTINUOUS
 62
     7
 10
188.25
 20
226.5
 11
223.25
 21
226.5
  0
LINE
  8
1
  6
CONTINUOUS
 62
     7
 10
179.75
 20
224.0
 11
179.75
 21
161.0
  0
LINE
  8
1
  6
CONTINUOUS
 62
     7
 10
139.75
 20
161.0
 11
139.75
 21
224.0
  0
LINE
  8
1
  6
CONTINUOUS
 62
     7
 10
286.7499999999999
 20
90.39999999999999
 11
286.7499999999999
 21
39.39999999999999
  0
LINE
  8
1
  6
CONTINUOUS
 62
     7
 10
185.75
 20
161.0
 11
185.75
 21
224.0
  0
LINE
  8
1
  6
CONTINUOUS
 62
     7
 10
124.7499999999999
 20
90.39999999999999
 11
124.7500000000003
 21
39.39999999999999
  0
LINE
  8
1
  6
CONTINUOUS
 62
     7
 10
286.7499999999999
 20
39.39999999999999
 11
124.75
 21
39.39999999999999
  0
LINE
  8
1
  6
CONTINUOUS
 62
     7
 10
200.2238193966277
 20
144.15
 11
165.2761806033723
 21
144.15
  0
LINE
  8
1
  6
CONTINUOUS
 62
     7
 10
234.25
 20
226.5
 11
269.25
 21
226.5
  0
LINE
  8
1
  6
CONTINUOUS
 62
     7
 10
231.75
 20
161.0
 11
231.75
 21
224.0
  0
LINE
  8
1
  6
CONTINUOUS
 62
     7
 10
281.75
 20
245.5
 11
129.75
 21
245.5
  0
LINE
  8
1
  6
CONTINUOUS
 62
     7
 10
225.75
 20
224.0
 11
225.75
 21
161.0
  0
LINE
  8
1
  6
CONTINUOUS
 62
     7
 10
132.4436343389538
 20
144.6500000158849
 11
132.4436343389538
 21
240.350000047027
  0
LINE
  8
1
  6
CONTINUOUS
 62
     7
 10
129.75
 20
139.5
 11
281.75
 21
139.5
  0
LINE
  8
1
  6
CONTINUOUS
 62
     7
 10
279.0563656610462
 20
144.6499997999022
 11
279.0563656610462
 21
240.3500001393671
  0
LINE
  8
1
  6
CONTINUOUS
 62
     7
 10
211.2761806033723
 20
144.15
 11
246.2238193966277
 21
144.15
  0
LINE
  8
1
  6
CONTINUOUS
 62
     7
 10
177.25
 20
158.5
 11
142.25
 21
158.5
  0
LINE
  8
1
  6
CONTINUOUS
 62
     7
 10
200.2238193966277
 20
240.85
 11
165.2761806033723
 21
240.85
  0
LINE
  8
1
  6
CONTINUOUS
 62
     7
 10
142.25
 20
226.5
 11
177.25
 21
226.5
  0
LINE
  8
1
  6
CONTINUOUS
 62
     7
 10
271.75
 20
224.0
 11
271.75
 21
161.0
  0
LINE
  8
1
  6
CONTINUOUS
 62
     7
 10
211.2761806033723
 20
240.85
 11
246.2238193966277
 21
240.85
  0
LINE
  8
1
  6
CONTINUOUS
 62
     7
 10
269.25
 20
158.5
 11
234.25
 21
158.5
  0
LINE
  8
1
  6
CONTINUOUS
 62
     7
 10
223.25
 20
158.5
 11
188.25
 21
158.5
  0
LINE
  8
1
  6
CONTINUOUS
 62
     7
 10
200.25
 20
90.39999999999999
 11
202.7499048076604
 21
90.39999999999999
  0
LINE
  8
1
  6
CONTINUOUS
 62
     7
 10
208.7500951923396
 20
90.39999999999999
 11
211.25
 21
90.39999999999999
  0
LINE
  8
1
  6
CONTINUOUS
 62
     7
 10
165.25
 20
90.39999999999999
 11
165.2761806033723
 21
87.39999999999999
  0
LINE
  8
1
  6
CONTINUOUS
 62
     7
 10
257.25
 20
90.39999999999999
 11
257.2761806033723
 21
87.39999999999999
  0
LINE
  8
1
  6
CONTINUOUS
 62
     7
 10
156.7499048076604
 20
90.39999999999999
 11
162.7500951923396
 21
90.39999999999999
  0
LINE
  8
1
  6
CONTINUOUS
 62
     7
 10
246.25
 20
90.39999999999999
 11
248.7499048076604
 21
90.39999999999999
  0
LINE
  8
1
  6
CONTINUOUS
 62
     7
 10
211.25
 20
90.39999999999999
 11
211.2761806033722
 21
87.39999999999999
  0
LINE
  8
1
  6
CONTINUOUS
 62
     7
 10
154.2238193966277
 20
87.39999999999999
 11
154.25
 21
90.39999999999999
  0
LINE
  8
1
  6
CONTINUOUS
 62
     7
 10
254.7500951923395
 20
90.39999999999999
 11
248.7499048076604
 21
90.39999999999999
  0
LINE
  8
1
  6
CONTINUOUS
 62
     7
 10
162.7500951923396
 20
90.39999999999999
 11
165.25
 21
90.39999999999999
  0
LINE
  8
1
  6
CONTINUOUS
 62
     7
 10
200.2238193966277
 20
87.39999999999999
 11
200.25
 21
90.39999999999999
  0
LINE
  8
1
  6
CONTINUOUS
 62
     7
 10
154.25
 20
90.39999999999999
 11
156.7499048076604
 21
90.39999999999999
  0
LINE
  8
1
  6
CONTINUOUS
 62
     7
 10
254.7500951923395
 20
90.39999999999999
 11
257.25
 21
90.39999999999999
  0
LINE
  8
1
  6
CONTINUOUS
 62
     7
 10
208.7500951923396
 20
90.39999999999999
 11
202.7499048076604
 21
90.39999999999999
  0
LINE
  8
1
  6
CONTINUOUS
 62
     7
 10
246.2238193966277
 20
87.39999999999999
 11
246.25
 21
90.39999999999999
  0
LINE
  8
1
  6
CONTINUOUS
 62
     7
 10
133.25
 20
78.8
 11
133.25
 21
80.8
  0
LINE
  8
1
  6
CONTINUOUS
 62
     7
 10
278.25
 20
63.99999999999999
 11
278.25
 21
61.99999999999999
  0
LINE
  8
1
  6
CONTINUOUS
 62
     7
 10
278.2500000000001
 20
80.79999999999998
 11
278.25
 21
78.8
  0
LINE
  8
1
  6
CONTINUOUS
 62
     7
 10
133.25
 20
78.8
 11
133.25
 21
63.99999999999999
  0
LINE
  8
1
  6
CONTINUOUS
 62
     7
 10
278.25
 20
78.8
 11
278.25
 21
63.99999999999999
  0
LINE
  8
1
  6
CONTINUOUS
 62
     7
 10
133.2499999999999
 20
62.00000000000001
 11
133.25
 21
63.99999999999999
  0
LINE
  8
1
  6
CONTINUOUS
 62
     7
 10
278.2500000000001
 20
58.90000000000001
 11
278.25
 21
60.50000000000001
  0
LINE
  8
1
  6
CONTINUOUS
 62
     7
 10
278.25
 20
82.29999999999997
 11
278.25
 21
83.89999999999995
  0
LINE
  8
1
  6
CONTINUOUS
 62
     7
 10
133.25
 20
58.90000000000001
 11
133.25
 21
60.50000000000001
  0
LINE
  8
1
  6
CONTINUOUS
 62
     7
 10
133.25
 20
82.29999999999997
 11
133.2499999999999
 21
83.89999999999999
  0
INSERT
  8
0
 62
     7
  2
D_FRAME_DRAWING_17
 10
0.0
 20
0.0
 30
0.0
  0
LINE
  8
1
  6
CONTINUOUS
 62
     7
 10
127.0202041028867
 20
72.39999999999999
 11
126.6923303169378
 21
71.89999999999999
  0
LINE
  8
1
  6
CONTINUOUS
 62
     7
 10
129.9
 20
77.89999999999998
 11
129.9
 21
77.39999999999998
  0
LINE
  8
1
  6
CONTINUOUS
 62
     7
 10
282.1923303169378
 20
77.89999999999998
 11
282.5202041028867
 21
77.39999999999998
  0
LINE
  8
1
  6
CONTINUOUS
 62
     7
 10
281.6
 20
80.39999999999998
 11
281.6
 21
80.89999999999998
  0
LINE
  8
1
  6
CONTINUOUS
 62
     7
 10
281.6
 20
74.89999999999998
 11
281.6
 21
75.39999999999998
  0
LINE
  8
1
  6
CONTINUOUS
 62
     7
 10
281.6
 20
71.89999999999999
 11
281.6
 21
72.39999999999999
  0
LINE
  8
1
  6
CONTINUOUS
 62
     7
 10
129.3076696830622
 20
77.89999999999998
 11
129.4
 21
78.39999999999998
  0
LINE
  8
1
  6
CONTINUOUS
 62
     7
 10
129.9
 20
75.89999999999998
 11
129.9
 21
75.39999999999998
  0
LINE
  8
1
  6
CONTINUOUS
 62
     7
 10
128.9797958971133
 20
77.39999999999998
 11
129.3076696830622
 21
77.89999999999998
  0
LINE
  8
1
  6
CONTINUOUS
 62
     7
 10
129.9
 20
75.39999999999998
 11
129.9
 21
74.89999999999998
  0
LINE
  8
1
  6
CONTINUOUS
 62
     7
 10
129.9
 20
81.39999999999999
 11
129.9
 21
80.89999999999998
  0
LINE
  8
1
  6
CONTINUOUS
 62
     7
 10
126.6
 20
78.39999999999998
 11
126.6923303169378
 21
77.89999999999998
  0
LINE
  8
1
  6
CONTINUOUS
 62
     7
 10
129.9
 20
80.89999999999998
 11
129.9
 21
80.39999999999998
  0
LINE
  8
1
  6
CONTINUOUS
 62
     7
 10
129.3076696830622
 20
71.89999999999999
 11
128.9797958971133
 21
72.39999999999999
  0
LINE
  8
1
  6
CONTINUOUS
 62
     7
 10
129.9
 20
72.39999999999999
 11
129.9
 21
71.89999999999999
  0
LINE
  8
1
  6
CONTINUOUS
 62
     7
 10
126.6923303169378
 20
77.89999999999998
 11
127.0202041028867
 21
77.39999999999998
  0
LINE
  8
1
  6
CONTINUOUS
 62
     7
 10
281.6
 20
77.39999999999998
 11
281.6
 21
77.89999999999998
  0
LINE
  8
1
  6
CONTINUOUS
 62
     7
 10
282.5202041028867
 20
72.39999999999999
 11
282.1923303169378
 21
71.89999999999999
  0
LINE
  8
1
  6
CONTINUOUS
 62
     7
 10
128.9797958971133
 20
72.39999999999999
 11
128.888982653594
 21
72.48152652786418
  0
ARC
  8
1
  6
CONTINUOUS
 62
     7
 10
127.9999976985938
 20
71.39999012899166
 40
1.400005440097566
 50
50.58099557257334
 51
134.4149585979402
  0
LINE
  8
1
  6
CONTINUOUS
 62
     7
 10
129.9
 20
78.39999999999998
 11
129.9
 21
77.89999999999998
  0
LINE
  8
1
  6
CONTINUOUS
 62
     7
 10
281.6
 20
75.39999999999998
 11
281.6
 21
75.89999999999998
  0
LINE
  8
1
  6
CONTINUOUS
 62
     7
 10
281.6
 20
80.89999999999998
 11
281.6
 21
81.39999999999999
  0
LINE
  8
1
  6
CONTINUOUS
 62
     7
 10
129.9
 20
72.89999999999999
 11
129.9
 21
72.39999999999999
  0
ARC
  8
1
  6
CONTINUOUS
 62
     7
 10
128.0
 20
78.39999999999998
 40
1.399999999999985
 50
0.000000000000071
 51
180.0000000000004
  0
LINE
  8
1
  6
CONTINUOUS
 62
     7
 10
281.6
 20
80.39999999999998
 11
281.6
 21
78.39999999999998
  0
CIRCLE
  8
1
  6
CONTINUOUS
 62
     7
 10
128.0
 20
64.39999999999998
 40
1.399999999999985
  0
LINE
  8
1
  6
CONTINUOUS
 62
     7
 10
284.4797958971133
 20
72.39999999999999
 11
284.388982653594
 21
72.48152652786418
  0
ARC
  8
1
  6
CONTINUOUS
 62
     7
 10
283.4999976985938
 20
71.39999012899166
 40
1.400005440097566
 50
50.58099557257334
 51
134.4149585979402
  0
LINE
  8
1
  6
CONTINUOUS
 62
     7
 10
282.1
 20
78.39999999999998
 11
282.1923303169378
 21
77.89999999999998
  0
LINE
  8
1
  6
CONTINUOUS
 62
     7
 10
284.4797958971133
 20
77.39999999999998
 11
284.8076696830622
 21
77.89999999999998
  0
LINE
  8
1
  6
CONTINUOUS
 62
     7
 10
281.6
 20
83.89999999999999
 11
281.6
 21
81.39999999999999
  0
LINE
  8
1
  6
CONTINUOUS
 62
     7
 10
281.6
 20
74.89999999999998
 11
281.6
 21
72.89999999999999
  0
LINE
  8
1
  6
CONTINUOUS
 62
     7
 10
284.8076696830622
 20
71.89999999999999
 11
284.4797958971133
 21
72.39999999999999
  0
ARC
  8
1
  6
CONTINUOUS
 62
     7
 10
283.4999999999999
 20
78.39999999999998
 40
1.400000000000012
 50
0.000000000000071
 51
180.0000000000004
  0
LINE
  8
1
  6
CONTINUOUS
 62
     7
 10
129.9
 20
81.39999999999999
 11
129.9
 21
83.89999999999999
  0
LINE
  8
1
  6
CONTINUOUS
 62
     7
 10
281.6
 20
72.39999999999999
 11
281.6
 21
72.89999999999999
  0
LINE
  8
1
  6
CONTINUOUS
 62
     7
 10
129.9
 20
75.89999999999998
 11
129.9
 21
77.39999999999998
  0
ARC
  8
1
  6
CONTINUOUS
 62
     7
 10
283.4999999999999
 20
71.39999999999998
 40
1.399999999999979
 50
159.0751675723615
 51
20.92483242763848
  0
ARC
  8
1
  6
CONTINUOUS
 62
     7
 10
128.0
 20
71.39999999999998
 40
1.400000000000031
 50
159.0751675723615
 51
20.92483242763848
  0
LINE
  8
1
  6
CONTINUOUS
 62
     7
 10
281.6
 20
77.39999999999998
 11
281.6
 21
75.89999999999998
  0
POLYLINE
  8
1
  6
CONTINUOUS
 62
     7
 66
     1
  0
VERTEX
  8
1
  6
CONTINUOUS
 62
     7
 10
132.0213203435596
 20
85.39999999999999
  0
VERTEX
  8
1
  6
CONTINUOUS
 62
     7
 10
131.6074712746352
 20
85.37117792060484
  0
VERTEX
  8
1
  6
CONTINUOUS
 62
     7
 10
131.2095261933403
 20
85.28581929876692
  0
VERTEX
  8
1
  6
CONTINUOUS
 62
     7
 10
130.8427779059789
 20
85.14720441845381
  0
VERTEX
  8
1
  6
CONTINUOUS
 62
     7
 10
130.5213203435596
 20
84.96066017177981
  0
VERTEX
  8
1
  6
CONTINUOUS
 62
     7
 10
130.2575069399306
 20
84.73335534952939
  0
VERTEX
  8
1
  6
CONTINUOUS
 62
     7
 10
130.061475896245
 20
84.47402514854763
  0
VERTEX
  8
1
  6
CONTINUOUS
 62
     7
 10
129.9407605755764
 20
84.19263548302418
  0
VERTEX
  8
1
  6
CONTINUOUS
 62
     7
 10
129.8999999999999
 20
83.89999999999999
  0
SEQEND
  8
1
  6
CONTINUOUS
 62
     7
  0
POLYLINE
  8
1
  6
CONTINUOUS
 62
     7
 66
     1
  0
VERTEX
  8
1
  6
CONTINUOUS
 62
     7
 10
281.6
 20
83.89999999999999
  0
VERTEX
  8
1
  6
CONTINUOUS
 62
     7
 10
281.5592394244236
 20
84.19263548302419
  0
VERTEX
  8
1
  6
CONTINUOUS
 62
     7
 10
281.438524103755
 20
84.47402514854763
  0
VERTEX
  8
1
  6
CONTINUOUS
 62
     7
 10
281.2424930600694
 20
84.73335534952939
  0
VERTEX
  8
1
  6
CONTINUOUS
 62
     7
 10
280.9786796564404
 20
84.96066017177981
  0
VERTEX
  8
1
  6
CONTINUOUS
 62
     7
 10
280.6572220940211
 20
85.14720441845381
  0
VERTEX
  8
1
  6
CONTINUOUS
 62
     7
 10
280.2904738066597
 20
85.28581929876692
  0
VERTEX
  8
1
  6
CONTINUOUS
 62
     7
 10
279.8925287253648
 20
85.37117792060484
  0
VERTEX
  8
1
  6
CONTINUOUS
 62
     7
 10
279.4786796564404
 20
85.39999999999999
  0
SEQEND
  8
1
  6
CONTINUOUS
 62
     7
  0
CIRCLE
  8
1
  6
CONTINUOUS
 62
     7
 10
283.4999999999999
 20
64.39999999999998
 40
1.400000000000012
  0
POLYLINE
  8
1
  6
CONTINUOUS
 62
     7
 66
     1
  0
VERTEX
  8
1
  6
CONTINUOUS
 62
     7
 10
279.4786796564404
 20
57.40000000000001
  0
VERTEX
  8
1
  6
CONTINUOUS
 62
     7
 10
279.8925287253648
 20
57.42882207939516
  0
VERTEX
  8
1
  6
CONTINUOUS
 62
     7
 10
280.2904738066596
 20
57.51418070123307
  0
VERTEX
  8
1
  6
CONTINUOUS
 62
     7
 10
280.657222094021
 20
57.65279558154619
  0
VERTEX
  8
1
  6
CONTINUOUS
 62
     7
 10
280.9786796564404
 20
57.83933982822018
  0
VERTEX
  8
1
  6
CONTINUOUS
 62
     7
 10
281.2424930600694
 20
58.0666446504706
  0
VERTEX
  8
1
  6
CONTINUOUS
 62
     7
 10
281.4385241037549
 20
58.32597485145237
  0
VERTEX
  8
1
  6
CONTINUOUS
 62
     7
 10
281.5592394244235
 20
58.60736451697581
  0
VERTEX
  8
1
  6
CONTINUOUS
 62
     7
 10
281.6
 20
58.90000000000001
  0
SEQEND
  8
1
  6
CONTINUOUS
 62
     7
  0
LINE
  8
1
  6
CONTINUOUS
 62
     7
 10
129.9
 20
78.39999999999998
 11
129.9
 21
80.39999999999998
  0
ARC
  8
1
  6
CONTINUOUS
 62
     7
 10
125.75
 20
55.39999999999999
 40
0.999999999999987
 50
179.9999999999988
 51
270.0
  0
LINE
  8
1
  6
CONTINUOUS
 62
     7
 10
129.9
 20
72.89999999999998
 11
129.9
 21
74.89999999999998
  0
LINE
  8
1
  6
CONTINUOUS
 62
     7
 10
279.25
 20
54.39999999999999
 11
285.75
 21
54.39999999999999
  0
LINE
  8
1
  6
CONTINUOUS
 62
     7
 10
129.9
 20
58.90000000000001
 11
129.9
 21
71.89999999999999
  0
POLYLINE
  8
1
  6
CONTINUOUS
 62
     7
 66
     1
  0
VERTEX
  8
1
  6
CONTINUOUS
 62
     7
 10
129.8999999999999
 20
58.90000000000001
  0
VERTEX
  8
1
  6
CONTINUOUS
 62
     7
 10
129.9407605755764
 20
58.60736451697581
  0
VERTEX
  8
1
  6
CONTINUOUS
 62
     7
 10
130.061475896245
 20
58.32597485145237
  0
VERTEX
  8
1
  6
CONTINUOUS
 62
     7
 10
130.2575069399306
 20
58.0666446504706
  0
VERTEX
  8
1
  6
CONTINUOUS
 62
     7
 10
130.5213203435596
 20
57.83933982822018
  0
VERTEX
  8
1
  6
CONTINUOUS
 62
     7
 10
130.8427779059789
 20
57.65279558154619
  0
VERTEX
  8
1
  6
CONTINUOUS
 62
     7
 10
131.2095261933403
 20
57.51418070123307
  0
VERTEX
  8
1
  6
CONTINUOUS
 62
     7
 10
131.6074712746352
 20
57.42882207939516
  0
VERTEX
  8
1
  6
CONTINUOUS
 62
     7
 10
132.0213203435596
 20
57.40000000000001
  0
SEQEND
  8
1
  6
CONTINUOUS
 62
     7
  0
ARC
  8
1
  6
CONTINUOUS
 62
     7
 10
128.0
 20
78.39999999999998
 40
1.400000000000005
 50
225.5846914028074
 51
314.4153085971928
  0
LINE
  8
1
  6
CONTINUOUS
 62
     7
 10
132.25
 20
54.39999999999999
 11
125.75
 21
54.39999999999999
  0
ARC
  8
1
  6
CONTINUOUS
 62
     7
 10
285.75
 20
55.39999999999999
 40
1.000000000000001
 50
270.0
 51
0.0000000000011937
  0
ARC
  8
1
  6
CONTINUOUS
 62
     7
 10
283.4999999999999
 20
78.39999999999998
 40
1.400000000000005
 50
225.5846914028074
 51
314.4153085971928
  0
LINE
  8
1
  6
CONTINUOUS
 62
     7
 10
281.6
 20
71.89999999999999
 11
281.6
 21
58.90000000000001
  0
LINE
  8
1
  6
CONTINUOUS
 62
     7
 10
284.8076696830622
 20
77.89999999999998
 11
284.9
 21
78.39999999999998
  0
LINE
  8
1
  6
CONTINUOUS
 62
     7
 10
281.6
 20
77.89999999999998
 11
281.6
 21
78.39999999999998
  0
ENDSEC
  0
EOF
