  0
SECTION
  2
HEADER
  9
$ACADVER
  1
AC1014
  9
$ACADMAINTVER
 70
     9
  9
$DWGCODEPAGE
  3
ANSI_932
  9
$INSBASE
 10
0.0
 20
0.0
 30
0.0
  9
$EXTMIN
 10
-48.1
 20
65.03636363636365
 30
0.0
  9
$EXTMAX
 10
236.75
 20
295.85
 30
0.0
  9
$LIMMIN
 10
0.0
 20
0.0
  9
$LIMMAX
 10
12.0
 20
9.0
  9
$ORTHOMODE
 70
     0
  9
$REGENMODE
 70
     1
  9
$FILLMODE
 70
     1
  9
$QTEXTMODE
 70
     0
  9
$MIRRTEXT
 70
     1
  9
$DRAGMODE
 70
     2
  9
$LTSCALE
 40
1.0
  9
$OSMODE
 70
    37
  9
$ATTMODE
 70
     1
  9
$TEXTSIZE
 40
0.2
  9
$TRACEWID
 40
0.05
  9
$TEXTSTYLE
  7
STANDARD
  9
$CLAYER
  8
0
  9
$CELTYPE
  6
BYLAYER
  9
$CECOLOR
 62
   256
  9
$CELTSCALE
 40
1.0
  9
$DELOBJ
 70
     1
  9
$DISPSILH
 70
     0
  9
$DIMSCALE
 40
1.0
  9
$DIMASZ
 40
3.0
  9
$DIMEXO
 40
0.0625
  9
$DIMDLI
 40
0.38
  9
$DIMRND
 40
0.0
  9
$DIMDLE
 40
0.0
  9
$DIMEXE
 40
1.5
  9
$DIMTP
 40
0.0
  9
$DIMTM
 40
0.0
  9
$DIMTXT
 40
3.0
  9
$DIMCEN
 40
0.09
  9
$DIMTSZ
 40
0.0
  9
$DIMTOL
 70
     0
  9
$DIMLIM
 70
     0
  9
$DIMTIH
 70
     1
  9
$DIMTOH
 70
     1
  9
$DIMSE1
 70
     0
  9
$DIMSE2
 70
     0
  9
$DIMTAD
 70
     1
  9
$DIMZIN
 70
     0
  9
$DIMBLK
  1

  9
$DIMASO
 70
     1
  9
$DIMSHO
 70
     1
  9
$DIMPOST
  1

  9
$DIMAPOST
  1

  9
$DIMALT
 70
     0
  9
$DIMALTD
 70
     2
  9
$DIMALTF
 40
25.4
  9
$DIMLFAC
 40
1.0
  9
$DIMTOFL
 70
     0
  9
$DIMTVP
 40
0.0
  9
$DIMTIX
 70
     0
  9
$DIMSOXD
 70
     0
  9
$DIMSAH
 70
     0
  9
$DIMBLK1
  1

  9
$DIMBLK2
  1

  9
$DIMSTYLE
  2
STANDARD
  9
$DIMCLRD
 70
     0
  9
$DIMCLRE
 70
     0
  9
$DIMCLRT
 70
     0
  9
$DIMTFAC
 40
1.0
  9
$DIMGAP
 40
1.5
  9
$DIMJUST
 70
     0
  9
$DIMSD1
 70
     0
  9
$DIMSD2
 70
     0
  9
$DIMTOLJ
 70
     1
  9
$DIMTZIN
 70
     0
  9
$DIMALTZ
 70
     0
  9
$DIMALTTZ
 70
     0
  9
$DIMFIT
 70
     3
  9
$DIMUPT
 70
     0
  9
$DIMUNIT
 70
     2
  9
$DIMDEC
 70
     2
  9
$DIMTDEC
 70
     4
  9
$DIMALTU
 70
     2
  9
$DIMALTTD
 70
     2
  9
$DIMTXSTY
  7
ＭＳ_ゴシック
  9
$DIMAUNIT
 70
     0
  9
$LUNITS
 70
     2
  9
$LUPREC
 70
     4
  9
$SKETCHINC
 40
0.1
  9
$FILLETRAD
 40
0.5
  9
$AUNITS
 70
     0
  9
$AUPREC
 70
     0
  9
$MENU
  1
.
  9
$ELEVATION
 40
0.0
  9
$PELEVATION
 40
0.0
  9
$THICKNESS
 40
0.0
  9
$LIMCHECK
 70
     0
  9
$CHAMFERA
 40
0.0
  9
$CHAMFERB
 40
0.0
  9
$CHAMFERC
 40
0.0
  9
$CHAMFERD
 40
0.0
  9
$SKPOLY
 70
     0
  9
$TDCREATE
 40
2460017.552193252
  9
$TDUPDATE
 40
2460017.55219353
  9
$TDINDWG
 40
0.0000000116
  9
$TDUSRTIMER
 40
0.0000000116
  9
$USRTIMER
 70
     1
  9
$ANGBASE
 50
0.0
  9
$ANGDIR
 70
     0
  9
$PDMODE
 70
     0
  9
$PDSIZE
 40
0.0
  9
$PLINEWID
 40
0.0
  9
$COORDS
 70
     1
  9
$SPLFRAME
 70
     0
  9
$SPLINETYPE
 70
     6
  9
$SPLINESEGS
 70
     8
  9
$ATTDIA
 70
     0
  9
$ATTREQ
 70
     1
  9
$HANDLING
 70
     1
  9
$HANDSEED
  5
2FF
  9
$SURFTAB1
 70
     6
  9
$SURFTAB2
 70
     6
  9
$SURFTYPE
 70
     6
  9
$SURFU
 70
     6
  9
$SURFV
 70
     6
  9
$UCSNAME
  2

  9
$UCSORG
 10
0.0
 20
0.0
 30
0.0
  9
$UCSXDIR
 10
1.0
 20
0.0
 30
0.0
  9
$UCSYDIR
 10
0.0
 20
1.0
 30
0.0
  9
$PUCSNAME
  2

  9
$PUCSORG
 10
0.0
 20
0.0
 30
0.0
  9
$PUCSXDIR
 10
1.0
 20
0.0
 30
0.0
  9
$PUCSYDIR
 10
0.0
 20
1.0
 30
0.0
  9
$USERI1
 70
     0
  9
$USERI2
 70
     0
  9
$USERI3
 70
     0
  9
$USERI4
 70
     0
  9
$USERI5
 70
     0
  9
$USERR1
 40
0.0
  9
$USERR2
 40
0.0
  9
$USERR3
 40
0.0
  9
$USERR4
 40
0.0
  9
$USERR5
 40
0.0
  9
$WORLDVIEW
 70
     1
  9
$SHADEDGE
 70
     3
  9
$SHADEDIF
 70
    70
  9
$TILEMODE
 70
     1
  9
$MAXACTVP
 70
    64
  9
$PINSBASE
 10
0.0
 20
0.0
 30
0.0
  9
$PLIMCHECK
 70
     0
  9
$PEXTMIN
 10
1.000000000000000E+20
 20
1.000000000000000E+20
 30
1.000000000000000E+20
  9
$PEXTMAX
 10
-1.000000000000000E+20
 20
-1.000000000000000E+20
 30
-1.000000000000000E+20
  9
$PLIMMIN
 10
0.0
 20
0.0
  9
$PLIMMAX
 10
12.0
 20
9.0
  9
$UNITMODE
 70
     0
  9
$VISRETAIN
 70
     1
  9
$PLINEGEN
 70
     0
  9
$PSLTSCALE
 70
     1
  9
$TREEDEPTH
 70
  3020
  9
$PICKSTYLE
 70
     1
  9
$CMLSTYLE
  2
STANDARD
  9
$CMLJUST
 70
     0
  9
$CMLSCALE
 40
1.0
  9
$PROXYGRAPHICS
 70
     1
  9
$MEASUREMENT
 70
     1
  0
ENDSEC
  0
SECTION
  2
CLASSES
  0
CLASS
  1
ACDBDICTIONARYWDFLT
  2
AcDbDictionaryWithDefault
  3
ObjectDBX Classes
 90
        0
280
     0
281
     0
  0
CLASS
  1
VISUALSTYLE
  2
AcDbVisualStyle
  3
ObjectDBX Classes
 90
     4095
280
     0
281
     0
  0
CLASS
  1
MATERIAL
  2
AcDbMaterial
  3
ObjectDBX Classes
 90
     1153
280
     0
281
     0
  0
CLASS
  1
SCALE
  2
AcDbScale
  3
ObjectDBX Classes
 90
     1153
280
     0
281
     0
  0
CLASS
  1
TABLESTYLE
  2
AcDbTableStyle
  3
ObjectDBX Classes
 90
     4095
280
     0
281
     0
  0
CLASS
  1
MLEADERSTYLE
  2
AcDbMLeaderStyle
  3
ACDB_MLEADERSTYLE_CLASS
 90
     4095
280
     0
281
     0
  0
CLASS
  1
SUN
  2
AcDbSun
  3
SCENEOE
 90
     1153
280
     0
281
     0
  0
CLASS
  1
DICTIONARYVAR
  2
AcDbDictionaryVar
  3
ObjectDBX Classes
 90
        0
280
     0
281
     0
  0
CLASS
  1
XRECORD
  2
AcDbXrecord
  3
ObjectDBX Classes
 90
        0
280
     0
281
     0
  0
CLASS
  1
LWPOLYLINE
  2
AcDbPolyline
  3
ObjectDBX Classes
 90
        0
280
     0
281
     1
  0
CLASS
  1
HATCH
  2
AcDbHatch
  3
ObjectDBX Classes
 90
        0
280
     0
281
     1
  0
CLASS
  1
ACDBPLACEHOLDER
  2
AcDbPlaceHolder
  3
ObjectDBX Classes
 90
        0
280
     0
281
     0
  0
CLASS
  1
LAYOUT
  2
AcDbLayout
  3
ObjectDBX Classes
 90
        0
280
     0
281
     0
  0
ENDSEC
  0
SECTION
  2
TABLES
  0
TABLE
  2
VPORT
  5
8
102
{ACAD_XDICTIONARY
360
2F4
102
}
330
0
100
AcDbSymbolTable
 70
     1
  0
VPORT
  5
29
330
8
100
AcDbSymbolTableRecord
100
AcDbViewportTableRecord
  2
*ACTIVE
 70
     0
 10
0.0
 20
0.0
 11
1.0
 21
1.0
 12
94.32499999999999
 22
180.4431818181818
 13
0.0
 23
0.0
 14
0.5
 24
0.5
 15
0.5
 25
0.5
 16
0.0
 26
0.0
 36
1.0
 17
0.0
 27
0.0
 37
0.0
 40
230.8136363636364
 41
1.6
 42
50.0
 43
0.0
 44
0.0
 50
0.0
 51
0.0
 71
     0
 72
   100
 73
     1
 74
     3
 75
     0
 76
     0
 77
     0
 78
     0
  0
ENDTAB
  0
TABLE
  2
LTYPE
  5
5
330
0
100
AcDbSymbolTable
 70
     2
  0
LTYPE
  5
14
330
5
100
AcDbSymbolTableRecord
100
AcDbLinetypeTableRecord
  2
BYBLOCK
 70
     0
  3

 72
    65
 73
     0
 40
0.0
  0
LTYPE
  5
15
330
5
100
AcDbSymbolTableRecord
100
AcDbLinetypeTableRecord
  2
BYLAYER
 70
     0
  3

 72
    65
 73
     0
 40
0.0
  0
LTYPE
  5
16
330
5
100
AcDbSymbolTableRecord
100
AcDbLinetypeTableRecord
  2
CONTINUOUS
 70
     0
  3
Solid line
 72
    65
 73
     0
 40
0.0
  0
LTYPE
  5
98
330
5
100
AcDbSymbolTableRecord
100
AcDbLinetypeTableRecord
  2
CENTER
 70
     0
  3

 72
    65
 73
     0
 40
0.0
  0
ENDTAB
  0
TABLE
  2
LAYER
  5
2
330
0
100
AcDbSymbolTable
 70
     2
  0
LAYER
  5
10
330
2
100
AcDbSymbolTableRecord
100
AcDbLayerTableRecord
  2
0
 70
     0
 62
     7
  6
CONTINUOUS
  0
LAYER
  5
6E
330
2
100
AcDbSymbolTableRecord
100
AcDbLayerTableRecord
  2
1
 70
     0
 62
     7
  6
CONTINUOUS
  0
ENDTAB
  0
TABLE
  2
STYLE
  5
3
330
0
100
AcDbSymbolTable
 70
     2
  0
STYLE
  5
11
330
3
100
AcDbSymbolTableRecord
100
AcDbTextStyleTableRecord
  2
STANDARD
 70
     0
 40
0.0
 41
1.0
 50
0.0
 71
     0
 42
0.2
  3
txt
  4

  0
STYLE
  5
6F
330
3
100
AcDbSymbolTableRecord
100
AcDbTextStyleTableRecord
  2
ＭＳ_ゴシック
 70
     0
 40
0.0
 41
1.0
 50
0.0
 71
     0
 42
0.2
  3
ＭＳ ゴシック.shx
  4

  0
ENDTAB
  0
TABLE
  2
VIEW
  5
6
330
0
100
AcDbSymbolTable
 70
     0
  0
ENDTAB
  0
TABLE
  2
UCS
  5
7
330
0
100
AcDbSymbolTable
 70
     0
  0
ENDTAB
  0
TABLE
  2
APPID
  5
9
330
0
100
AcDbSymbolTable
 70
     2
  0
APPID
  5
12
330
9
100
AcDbSymbolTableRecord
100
AcDbRegAppTableRecord
  2
ACAD
 70
     0
  0
APPID
  5
2FE
330
9
100
AcDbSymbolTableRecord
100
AcDbRegAppTableRecord
  2
ACAD_MLEADERVER
 70
     0
  0
ENDTAB
  0
TABLE
  2
DIMSTYLE
  5
A
330
0
100
AcDbSymbolTable
 70
     1
  0
DIMSTYLE
105
27
330
A
100
AcDbSymbolTableRecord
100
AcDbDimStyleTableRecord
  2
STANDARD
 70
     0
  3

  4

  5

  6

  7

 40
1.0
 41
0.18
 42
0.0625
 43
0.38
 44
0.18
 45
0.0
 46
0.0
 47
0.0
 48
0.0
140
0.18
141
0.09
142
0.0
143
25.4
144
1.0
145
0.0
146
1.0
147
0.09
 71
     0
 72
     0
 73
     1
 74
     1
 75
     0
 76
     0
 77
     0
 78
     0
170
     0
171
     2
172
     0
173
     0
174
     0
175
     0
176
     0
177
     0
178
     0
270
     2
271
     4
272
     4
273
     2
274
     2
340
11
275
     0
280
     0
281
     0
282
     0
283
     1
284
     0
285
     0
286
     0
287
     3
288
     0
  0
ENDTAB
  0
TABLE
  2
BLOCK_RECORD
  5
1
330
0
100
AcDbSymbolTable
 70
     0
  0
BLOCK_RECORD
  5
1F
330
1
100
AcDbSymbolTableRecord
100
AcDbBlockTableRecord
  2
*MODEL_SPACE
  0
BLOCK_RECORD
  5
1B
330
1
100
AcDbSymbolTableRecord
100
AcDbBlockTableRecord
  2
*PAPER_SPACE
  0
ENDTAB
  0
ENDSEC
  0
SECTION
  2
BLOCKS
  0
BLOCK
  5
20
330
1F
100
AcDbEntity
  8
0
100
AcDbBlockBegin
  2
*MODEL_SPACE
 70
     0
 10
0.0
 20
0.0
 30
0.0
  3
*MODEL_SPACE
  1

  0
ENDBLK
  5
21
330
1F
100
AcDbEntity
  8
0
100
AcDbBlockEnd
  0
BLOCK
  5
1C
330
1B
100
AcDbEntity
 67
     1
  8
0
100
AcDbBlockBegin
  2
*PAPER_SPACE
 70
     0
 10
0.0
 20
0.0
 30
0.0
  3
*PAPER_SPACE
  1

  0
ENDBLK
  5
1D
330
1B
100
AcDbEntity
 67
     1
  8
0
100
AcDbBlockEnd
  0
ENDSEC
  0
SECTION
  2
ENTITIES
  0
POINT
  5
70
330
1F
100
AcDbEntity
  8
0
 62
     1
100
AcDbPoint
 10
10.0
 20
235.0
 30
0.0
  0
LINE
  5
71
330
1F
100
AcDbEntity
  8
1
  6
CONTINUOUS
 62
     7
100
AcDbLine
 10
94.25000000000003
 20
283.35
 30
0.0
 11
94.25000000000003
 21
276.75
 31
0.0
  0
ARC
  5
72
330
1F
100
AcDbEntity
  8
1
  6
CONTINUOUS
 62
     7
100
AcDbCircle
 10
191.75
 20
235.0
 30
0.0
 40
8.299999999999974
100
AcDbArc
 50
7.267735092953673
 51
172.7322649070464
  0
LINE
  5
73
330
1F
100
AcDbEntity
  8
1
  6
CONTINUOUS
 62
     7
100
AcDbLine
 10
174.25
 20
268.9999999999999
 30
0.0
 11
209.25
 21
268.9999999999999
 31
0.0
  0
LINE
  5
74
330
1F
100
AcDbEntity
  8
1
  6
CONTINUOUS
 62
     7
100
AcDbLine
 10
140.25
 20
283.35
 30
0.0
 11
105.25
 21
283.35
 31
0.0
  0
LINE
  5
75
330
1F
100
AcDbEntity
  8
1
  6
CONTINUOUS
 62
     7
100
AcDbLine
 10
197.25
 20
193.25
 30
0.0
 11
197.25
 21
186.65
 31
0.0
  0
LINE
  5
76
330
1F
100
AcDbEntity
  8
1
  6
CONTINUOUS
 62
     7
100
AcDbLine
 10
139.5277568135664
 20
227.6227586640478
 30
0.0
 11
140.7777568135664
 21
229.787822173509
 31
0.0
  0
LINE
  5
77
330
1F
100
AcDbEntity
  8
1
  6
CONTINUOUS
 62
     7
100
AcDbLine
 10
72.02132002943881
 20
99.9
 30
0.0
 11
84.75000000000001
 21
99.9
 31
0.0
  0
LINE
  5
78
330
1F
100
AcDbEntity
  8
1
  6
CONTINUOUS
 62
     7
100
AcDbLine
 10
148.3349364905388
 20
244.4772413359522
 30
0.0
 11
151.9722431864336
 21
242.3772413359522
 31
0.0
  0
LINE
  5
79
330
1F
100
AcDbEntity
  8
1
  6
CONTINUOUS
 62
     7
100
AcDbLine
 10
186.25
 20
283.35
 30
0.0
 11
186.25
 21
276.75
 31
0.0
  0
LINE
  5
7A
330
1F
100
AcDbEntity
  8
1
  6
CONTINUOUS
 62
     7
100
AcDbLine
 10
82.25000000000001
 20
268.9999999999999
 30
0.0
 11
117.25
 21
268.9999999999999
 31
0.0
  0
LINE
  5
7B
330
1F
100
AcDbEntity
  8
1
  6
CONTINUOUS
 62
     7
100
AcDbLine
 10
196.25
 20
127.9
 30
0.0
 11
221.25
 21
127.9
 31
0.0
  0
LINE
  5
7C
330
1F
100
AcDbEntity
  8
1
  6
CONTINUOUS
 62
     7
100
AcDbLine
 10
64.75
 20
98.4
 30
0.0
 11
64.75
 21
132.9
 31
0.0
  0
LINE
  5
7D
330
1F
100
AcDbEntity
  8
1
  6
CONTINUOUS
 62
     7
100
AcDbLine
 10
219.0563656610462
 20
187.1499999079324
 30
0.0
 11
219.0563656610462
 21
282.8500001075922
 31
0.0
  0
LINE
  5
7E
330
1F
100
AcDbEntity
  8
1
  6
CONTINUOUS
 62
     7
100
AcDbLine
 10
150.7222431864336
 20
240.2121778264909
 30
0.0
 11
151.9722431864336
 21
242.3772413359522
 31
0.0
  0
LINE
  5
7F
330
1F
100
AcDbEntity
  8
1
  6
CONTINUOUS
 62
     7
100
AcDbLine
 10
64.75
 20
132.9
 30
0.0
 11
78.75868878940503
 21
132.9
 31
0.0
  0
LINE
  5
80
330
1F
100
AcDbEntity
  8
1
  6
CONTINUOUS
 62
     7
100
AcDbLine
 10
117.25
 20
201.0
 30
0.0
 11
82.25000000000001
 21
201.0
 31
0.0
  0
LINE
  5
81
330
1F
100
AcDbEntity
  8
1
  6
CONTINUOUS
 62
     7
100
AcDbLine
 10
151.25
 20
186.65
 30
0.0
 11
186.25
 21
186.65
 31
0.0
  0
LINE
  5
82
330
1F
100
AcDbEntity
  8
1
  6
CONTINUOUS
 62
     7
100
AcDbLine
 10
140.25
 20
283.35
 30
0.0
 11
140.25
 21
276.75
 31
0.0
  0
LINE
  5
83
330
1F
100
AcDbEntity
  8
1
  6
CONTINUOUS
 62
     7
100
AcDbLine
 10
224.0738193966276
 20
272.4738193966278
 30
0.0
 11
224.0738193966276
 21
197.5261806033724
 31
0.0
  0
LINE
  5
84
330
1F
100
AcDbEntity
  8
1
  6
CONTINUOUS
 62
     7
100
AcDbLine
 10
105.25
 20
276.75
 30
0.0
 11
105.25
 21
283.35
 31
0.0
  0
LINE
  5
85
330
1F
100
AcDbEntity
  8
1
  6
CONTINUOUS
 62
     7
100
AcDbLine
 10
206.75
 20
99.9
 30
0.0
 11
221.25
 21
99.9
 31
0.0
  0
LINE
  5
86
330
1F
100
AcDbEntity
  8
1
  6
CONTINUOUS
 62
     7
100
AcDbLine
 10
140.25
 20
186.65
 30
0.0
 11
140.25
 21
193.25
 31
0.0
  0
LINE
  5
87
330
1F
100
AcDbEntity
  8
1
  6
CONTINUOUS
 62
     7
100
AcDbLine
 10
163.25
 20
201.0
 30
0.0
 11
128.25
 21
201.0
 31
0.0
  0
LINE
  5
88
330
1F
100
AcDbEntity
  8
1
  6
CONTINUOUS
 62
     7
100
AcDbLine
 10
209.25
 20
201.0
 30
0.0
 11
174.25
 21
201.0
 31
0.0
  0
LINE
  5
89
330
1F
100
AcDbEntity
  8
1
  6
CONTINUOUS
 62
     7
100
AcDbLine
 10
105.25
 20
193.25
 30
0.0
 11
105.25
 21
186.65
 31
0.0
  0
LINE
  5
8A
330
1F
100
AcDbEntity
  8
1
  6
CONTINUOUS
 62
     7
100
AcDbLine
 10
79.75000000000001
 20
203.4999999999999
 30
0.0
 11
79.75000000000001
 21
266.5
 31
0.0
  0
LINE
  5
8B
330
1F
100
AcDbEntity
  8
1
  6
CONTINUOUS
 62
     7
100
AcDbLine
 10
221.75
 20
288.0
 30
0.0
 11
69.75
 21
288.0
 31
0.0
  0
LINE
  5
8C
330
1F
100
AcDbEntity
  8
1
  6
CONTINUOUS
 62
     7
100
AcDbLine
 10
151.25
 20
276.75
 30
0.0
 11
151.25
 21
283.35
 31
0.0
  0
LINE
  5
8D
330
1F
100
AcDbEntity
  8
1
  6
CONTINUOUS
 62
     7
100
AcDbLine
 10
67.39999999999999
 20
272.4738193966276
 30
0.0
 11
67.39999999999999
 21
197.5261806033724
 31
0.0
  0
LINE
  5
8E
330
1F
100
AcDbEntity
  8
1
  6
CONTINUOUS
 62
     7
100
AcDbLine
 10
186.25
 20
186.65
 30
0.0
 11
186.25
 21
193.25
 31
0.0
  0
LINE
  5
8F
330
1F
100
AcDbEntity
  8
1
  6
CONTINUOUS
 62
     7
100
AcDbLine
 10
72.44363433895381
 20
187.1499997282822
 30
0.0
 11
72.44363433895381
 21
282.8500001447068
 31
0.0
  0
ARC
  5
90
330
1F
100
AcDbEntity
  8
1
  6
CONTINUOUS
 62
     7
100
AcDbCircle
 10
99.74999999999997
 20
235.0
 30
0.0
 40
8.299999999999974
100
AcDbArc
 50
187.2677350929537
 51
352.7322649070463
  0
ARC
  5
91
330
1F
100
AcDbEntity
  8
1
  6
CONTINUOUS
 62
     7
100
AcDbCircle
 10
191.75
 20
235.0
 30
0.0
 40
8.299999999999974
100
AcDbArc
 50
187.2677350929537
 51
352.7322649070463
  0
LINE
  5
92
330
1F
100
AcDbEntity
  8
1
  6
CONTINUOUS
 62
     7
100
AcDbLine
 10
94.25000000000003
 20
186.65
 30
0.0
 11
94.25000000000003
 21
193.25
 31
0.0
  0
LINE
  5
93
330
1F
100
AcDbEntity
  8
1
  6
CONTINUOUS
 62
     7
100
AcDbLine
 10
186.25
 20
283.35
 30
0.0
 11
161.6612765606212
 21
283.35
 31
0.0
  0
ARC
  5
94
330
1F
100
AcDbEntity
  8
1
  6
CONTINUOUS
 62
     7
100
AcDbCircle
 10
99.74999999999997
 20
235.0
 30
0.0
 40
8.299999999999974
100
AcDbArc
 50
7.267735092953673
 51
172.7322649070464
  0
LINE
  5
95
330
1F
100
AcDbEntity
  8
1
  6
CONTINUOUS
 62
     7
100
AcDbLine
 10
218.25
 20
127.9
 30
0.0
 11
218.25
 21
99.90000000000002
 31
0.0
  0
LINE
  5
96
330
1F
100
AcDbEntity
  8
1
  6
CONTINUOUS
 62
     7
100
AcDbLine
 10
197.25
 20
276.75
 30
0.0
 11
197.25
 21
283.35
 31
0.0
  0
LINE
  5
97
330
1F
100
AcDbEntity
  8
0
  6
CENTER
 62
     1
100
AcDbLine
 10
145.75
 20
86.9
 30
0.0
 11
145.75
 21
142.9000000000001
 31
0.0
  0
LINE
  5
99
330
1F
100
AcDbEntity
  8
0
  6
CENTER
 62
     1
100
AcDbLine
 10
-48.1
 20
235.01737757881
 30
0.0
 11
7.900000000000018
 21
235.01737757881
 31
0.0
  0
MTEXT
  5
9A
330
1F
100
AcDbEntity
  8
0
 62
     7
100
AcDbMText
 10
205.2727272727273
 20
68.58181818181819
 30
0.0
 40
4.0
 41
0.0
 71
     1
 72
     1
  1
{\fＭＳ ゴシック;SB-KMA3G}
  0
POINT
  5
9B
330
1F
100
AcDbEntity
  8
0
 62
     1
100
AcDbPoint
 10
-8.099999999999996
 20
235.01737757881
 30
0.0
  0
POINT
  5
9C
330
1F
100
AcDbEntity
  8
0
 62
     1
100
AcDbPoint
 10
145.75
 20
130.4
 30
0.0
  0
LINE
  5
9D
330
1F
100
AcDbEntity
  8
0
  6
CENTER
 62
     1
100
AcDbLine
 10
54.74999999999999
 20
235.0
 30
0.0
 11
236.75
 21
235.0
 31
0.0
  0
LINE
  5
9E
330
1F
100
AcDbEntity
  8
0
  6
CENTER
 62
     1
100
AcDbLine
 10
145.75
 20
172.0
 30
0.0
 11
145.75
 21
295.85
 31
0.0
  0
ARC
  5
9F
330
1F
100
AcDbEntity
  8
1
  6
CONTINUOUS
 62
     7
100
AcDbCircle
 10
168.75
 20
113.9
 30
0.0
 40
17.50000000000001
100
AcDbArc
 50
66.10449181383842
 51
80.07801328593456
  0
LINE
  5
A0
330
1F
100
AcDbEntity
  8
1
  6
CONTINUOUS
 62
     7
100
AcDbLine
 10
175.8387234393788
 20
129.9
 30
0.0
 11
211.7238193966278
 21
129.9
 31
0.0
  0
LINE
  5
A1
330
1F
100
AcDbEntity
  8
1
  6
CONTINUOUS
 62
     7
100
AcDbLine
 10
211.7238193966278
 20
129.9
 30
0.0
 11
211.7413492875308
 21
131.9087265354984
 31
0.0
  0
ARC
  5
A2
330
1F
100
AcDbEntity
  8
1
  6
CONTINUOUS
 62
     7
100
AcDbCircle
 10
212.741311210595
 20
131.9
 30
0.0
 40
1.000000000000001
100
AcDbArc
 50
90.0
 51
179.5000000000001
  0
LINE
  5
A3
330
1F
100
AcDbEntity
  8
1
  6
CONTINUOUS
 62
     7
100
AcDbLine
 10
212.741311210595
 20
132.9
 30
0.0
 11
221.75
 21
132.9
 31
0.0
  0
LINE
  5
A4
330
1F
100
AcDbEntity
  8
1
  6
CONTINUOUS
 62
     7
100
AcDbLine
 10
214.25
 20
130.4
 30
0.0
 11
221.75
 21
130.4
 31
0.0
  0
LINE
  5
A5
330
1F
100
AcDbEntity
  8
1
  6
CONTINUOUS
 62
     7
100
AcDbLine
 10
214.25
 20
130.4
 30
0.0
 11
214.25
 21
127.9
 31
0.0
  0
LINE
  5
A6
330
1F
100
AcDbEntity
  8
1
  6
CONTINUOUS
 62
     7
100
AcDbLine
 10
196.25
 20
127.9
 30
0.0
 11
196.25
 21
128.9
 31
0.0
  0
LINE
  5
A7
330
1F
100
AcDbEntity
  8
1
  6
CONTINUOUS
 62
     7
100
AcDbLine
 10
196.25
 20
128.9
 30
0.0
 11
187.25
 21
128.9
 31
0.0
  0
LINE
  5
A8
330
1F
100
AcDbEntity
  8
1
  6
CONTINUOUS
 62
     7
100
AcDbLine
 10
187.25
 20
128.9
 30
0.0
 11
187.25
 21
127.9
 31
0.0
  0
LINE
  5
A9
330
1F
100
AcDbEntity
  8
1
  6
CONTINUOUS
 62
     7
100
AcDbLine
 10
174.1351648071344
 20
127.9
 30
0.0
 11
187.25
 21
127.9
 31
0.0
  0
ARC
  5
AA
330
1F
100
AcDbEntity
  8
1
  6
CONTINUOUS
 62
     7
100
AcDbCircle
 10
168.75
 20
113.9
 30
0.0
 40
14.99999999999996
100
AcDbArc
 50
68.96053021868272
 51
111.0394697813173
  0
LINE
  5
AB
330
1F
100
AcDbEntity
  8
1
  6
CONTINUOUS
 62
     7
100
AcDbLine
 10
150.25
 20
127.9
 30
0.0
 11
163.3648351928654
 21
127.9
 31
0.0
  0
LINE
  5
AC
330
1F
100
AcDbEntity
  8
1
  6
CONTINUOUS
 62
     7
100
AcDbLine
 10
150.25
 20
127.9
 30
0.0
 11
150.25
 21
128.9
 31
0.0
  0
LINE
  5
AD
330
1F
100
AcDbEntity
  8
1
  6
CONTINUOUS
 62
     7
100
AcDbLine
 10
150.25
 20
128.9
 30
0.0
 11
141.25
 21
128.9
 31
0.0
  0
LINE
  5
AE
330
1F
100
AcDbEntity
  8
1
  6
CONTINUOUS
 62
     7
100
AcDbLine
 10
141.25
 20
128.9
 30
0.0
 11
141.25
 21
127.9
 31
0.0
  0
LINE
  5
AF
330
1F
100
AcDbEntity
  8
1
  6
CONTINUOUS
 62
     7
100
AcDbLine
 10
128.1351648071344
 20
127.9
 30
0.0
 11
141.25
 21
127.9
 31
0.0
  0
ARC
  5
B0
330
1F
100
AcDbEntity
  8
1
  6
CONTINUOUS
 62
     7
100
AcDbCircle
 10
122.75
 20
113.9
 30
0.0
 40
15.00000000000001
100
AcDbArc
 50
68.96053021868272
 51
111.0394697813173
  0
LINE
  5
B1
330
1F
100
AcDbEntity
  8
1
  6
CONTINUOUS
 62
     7
100
AcDbLine
 10
104.25
 20
127.9
 30
0.0
 11
117.3648351928654
 21
127.9
 31
0.0
  0
LINE
  5
B2
330
1F
100
AcDbEntity
  8
1
  6
CONTINUOUS
 62
     7
100
AcDbLine
 10
104.25
 20
127.9
 30
0.0
 11
104.25
 21
128.9
 31
0.0
  0
LINE
  5
B3
330
1F
100
AcDbEntity
  8
1
  6
CONTINUOUS
 62
     7
100
AcDbLine
 10
104.25
 20
128.9
 30
0.0
 11
95.24999999999997
 21
128.9
 31
0.0
  0
LINE
  5
B4
330
1F
100
AcDbEntity
  8
1
  6
CONTINUOUS
 62
     7
100
AcDbLine
 10
95.24999999999997
 20
128.9
 30
0.0
 11
95.24999999999997
 21
127.9
 31
0.0
  0
LINE
  5
B5
330
1F
100
AcDbEntity
  8
1
  6
CONTINUOUS
 62
     7
100
AcDbLine
 10
77.25000000000001
 20
127.9
 30
0.0
 11
95.24999999999997
 21
127.9
 31
0.0
  0
LINE
  5
B6
330
1F
100
AcDbEntity
  8
1
  6
CONTINUOUS
 62
     7
100
AcDbLine
 10
77.25000000000001
 20
127.9
 30
0.0
 11
77.25000000000001
 21
130.4
 31
0.0
  0
LINE
  5
B7
330
1F
100
AcDbEntity
  8
1
  6
CONTINUOUS
 62
     7
100
AcDbLine
 10
69.75
 20
130.4
 30
0.0
 11
77.25000000000001
 21
130.4
 31
0.0
  0
ARC
  5
B8
330
1F
100
AcDbEntity
  8
1
  6
CONTINUOUS
 62
     7
100
AcDbCircle
 10
78.75868878940503
 20
131.9
 30
0.0
 40
1.000000000000001
100
AcDbArc
 50
0.4999999999999817
 51
90.0
  0
LINE
  5
B9
330
1F
100
AcDbEntity
  8
1
  6
CONTINUOUS
 62
     7
100
AcDbLine
 10
79.7586507124692
 20
131.9087265354984
 30
0.0
 11
79.77618060337218
 21
129.9
 31
0.0
  0
LINE
  5
BA
330
1F
100
AcDbEntity
  8
1
  6
CONTINUOUS
 62
     7
100
AcDbLine
 10
79.77618060337218
 20
129.9
 30
0.0
 11
115.661276560621
 21
129.9
 31
0.0
  0
ARC
  5
BB
330
1F
100
AcDbEntity
  8
1
  6
CONTINUOUS
 62
     7
100
AcDbCircle
 10
122.75
 20
113.9
 30
0.0
 40
17.50000000000001
100
AcDbArc
 50
99.92198671406544
 51
113.8955081861616
  0
LINE
  5
BC
330
1F
100
AcDbEntity
  8
1
  6
CONTINUOUS
 62
     7
100
AcDbLine
 10
119.73462550486
 20
131.1382573554886
 30
0.0
 11
119.7456746437654
 21
132.4043632677492
 31
0.0
  0
ARC
  5
BD
330
1F
100
AcDbEntity
  8
1
  6
CONTINUOUS
 62
     7
100
AcDbCircle
 10
120.2456556052973
 20
132.4
 30
0.0
 40
0.5000000000000004
100
AcDbArc
 50
90.0
 51
179.5
  0
LINE
  5
BE
330
1F
100
AcDbEntity
  8
1
  6
CONTINUOUS
 62
     7
100
AcDbLine
 10
120.2456556052973
 20
132.9
 30
0.0
 11
125.2543443947024
 21
132.9
 31
0.0
  0
ARC
  5
BF
330
1F
100
AcDbEntity
  8
1
  6
CONTINUOUS
 62
     7
100
AcDbCircle
 10
125.2543443947024
 20
132.4
 30
0.0
 40
0.5000000000000004
100
AcDbArc
 50
0.5000000000000349
 51
90.0
  0
LINE
  5
C0
330
1F
100
AcDbEntity
  8
1
  6
CONTINUOUS
 62
     7
100
AcDbLine
 10
125.76537449514
 20
131.1382573554886
 30
0.0
 11
125.7543253562346
 21
132.4043632677492
 31
0.0
  0
ARC
  5
C1
330
1F
100
AcDbEntity
  8
1
  6
CONTINUOUS
 62
     7
100
AcDbCircle
 10
122.75
 20
113.9
 30
0.0
 40
17.50000000000001
100
AcDbArc
 50
66.10449181383854
 51
80.07801328593456
  0
LINE
  5
C2
330
1F
100
AcDbEntity
  8
1
  6
CONTINUOUS
 62
     7
100
AcDbLine
 10
145.75
 20
129.9000000000002
 30
0.0
 11
129.8387234393788
 21
129.9
 31
0.0
  0
LINE
  5
C3
330
1F
100
AcDbEntity
  8
1
  6
CONTINUOUS
 62
     7
100
AcDbLine
 10
161.661276560621
 20
129.9
 30
0.0
 11
145.75
 21
129.9000000000002
 31
0.0
  0
ARC
  5
C4
330
1F
100
AcDbEntity
  8
1
  6
CONTINUOUS
 62
     7
100
AcDbCircle
 10
168.75
 20
113.9
 30
0.0
 40
17.50000000000001
100
AcDbArc
 50
99.92198671406544
 51
113.8955081861614
  0
LINE
  5
C5
330
1F
100
AcDbEntity
  8
1
  6
CONTINUOUS
 62
     7
100
AcDbLine
 10
165.7456746437654
 20
132.4043632677492
 30
0.0
 11
165.73462550486
 21
131.1382573554886
 31
0.0
  0
ARC
  5
C6
330
1F
100
AcDbEntity
  8
1
  6
CONTINUOUS
 62
     7
100
AcDbCircle
 10
166.2456556052974
 20
132.4
 30
0.0
 40
0.5000000000000004
100
AcDbArc
 50
90.0
 51
179.5
  0
LINE
  5
C7
330
1F
100
AcDbEntity
  8
1
  6
CONTINUOUS
 62
     7
100
AcDbLine
 10
166.2456556052974
 20
132.9
 30
0.0
 11
171.2543443947026
 21
132.9
 31
0.0
  0
ARC
  5
C8
330
1F
100
AcDbEntity
  8
1
  6
CONTINUOUS
 62
     7
100
AcDbCircle
 10
171.2543443947026
 20
132.4
 30
0.0
 40
0.4999999999999449
100
AcDbArc
 50
0.4999999999999749
 51
90.0
  0
LINE
  5
C9
330
1F
100
AcDbEntity
  8
1
  6
CONTINUOUS
 62
     7
100
AcDbLine
 10
171.7543253562345
 20
132.4043632677492
 30
0.0
 11
171.76537449514
 21
131.1382573554886
 31
0.0
  0
LINE
  5
CA
330
1F
100
AcDbEntity
  8
1
  6
CONTINUOUS
 62
     7
100
AcDbLine
 10
69.75
 20
130.4
 30
0.0
 11
64.75
 21
130.4
 31
0.0
  0
LINE
  5
CB
330
1F
100
AcDbEntity
  8
1
  6
CONTINUOUS
 62
     7
100
AcDbLine
 10
226.75
 20
132.9
 30
0.0
 11
226.75
 21
130.4
 31
0.0
  0
LINE
  5
CC
330
1F
100
AcDbEntity
  8
1
  6
CONTINUOUS
 62
     7
100
AcDbLine
 10
226.75
 20
130.4
 30
0.0
 11
221.75
 21
130.4
 31
0.0
  0
LINE
  5
CD
330
1F
100
AcDbEntity
  8
1
  6
CONTINUOUS
 62
     7
100
AcDbLine
 10
221.75
 20
132.9
 30
0.0
 11
226.75
 21
132.9
 31
0.0
  0
LINE
  5
CE
330
1F
100
AcDbEntity
  8
1
  6
CONTINUOUS
 62
     7
100
AcDbLine
 10
145.75
 20
129.9000000000002
 30
0.0
 11
145.75
 21
130.4
 31
0.0
  0
LINE
  5
CF
330
1F
100
AcDbEntity
  8
1
  6
CONTINUOUS
 62
     7
100
AcDbLine
 10
147.193375672974
 20
129.9
 30
0.0
 11
147.193375672974
 21
130.4
 31
0.0
  0
LINE
  5
D0
330
1F
100
AcDbEntity
  8
1
  6
CONTINUOUS
 62
     7
100
AcDbLine
 10
145.75
 20
130.4
 30
0.0
 11
147.193375672974
 21
130.4
 31
0.0
  0
LINE
  5
D1
330
1F
100
AcDbEntity
  8
1
  6
CONTINUOUS
 62
     7
100
AcDbLine
 10
144.306624327026
 20
129.9000000000002
 30
0.0
 11
144.306624327026
 21
130.4
 31
0.0
  0
LINE
  5
D2
330
1F
100
AcDbEntity
  8
1
  6
CONTINUOUS
 62
     7
100
AcDbLine
 10
144.306624327026
 20
130.4
 30
0.0
 11
145.75
 21
130.4
 31
0.0
  0
ARC
  5
D3
330
1F
100
AcDbEntity
  8
1
  6
CONTINUOUS
 62
     7
100
AcDbCircle
 10
168.75
 20
113.9002511298641
 30
0.0
 40
15.00023645368198
100
AcDbArc
 50
250.3152682917527
 51
289.6847317082475
  0
ARC
  5
D4
330
1F
100
AcDbEntity
  8
1
  6
CONTINUOUS
 62
     7
100
AcDbCircle
 10
122.75
 20
113.9002511298641
 30
0.0
 40
15.00023645368198
100
AcDbArc
 50
250.3152682917525
 51
289.6847317082472
  0
ARC
  5
D5
330
1F
100
AcDbEntity
  8
1
  6
CONTINUOUS
 62
     7
100
AcDbCircle
 10
206.75
 20
113.9
 30
0.0
 40
14.00000000000001
100
AcDbArc
 50
90.0
 51
270.0000000000001
  0
ARC
  5
D6
330
1F
100
AcDbEntity
  8
1
  6
CONTINUOUS
 62
     7
100
AcDbCircle
 10
84.75000000000001
 20
113.9
 30
0.0
 40
14.00000000000001
100
AcDbArc
 50
269.9999999999999
 51
90.0
  0
ARC
  5
D7
330
1F
100
AcDbEntity
  8
1
  6
CONTINUOUS
 62
     7
100
AcDbCircle
 10
168.75
 20
113.9
 30
0.0
 40
14.99999999999996
100
AcDbArc
 50
111.0394697813173
 51
129.9445051898148
  0
ARC
  5
D8
330
1F
100
AcDbEntity
  8
1
  6
CONTINUOUS
 62
     7
100
AcDbCircle
 10
122.75
 20
113.9
 30
0.0
 40
15.00000000000001
100
AcDbArc
 50
111.0394697813173
 51
129.9445051898149
  0
ARC
  5
D9
330
1F
100
AcDbEntity
  8
1
  6
CONTINUOUS
 62
     7
100
AcDbCircle
 10
122.75
 20
113.9
 30
0.0
 40
15.00000000000001
100
AcDbArc
 50
50.05549481018519
 51
68.96053021868272
  0
ARC
  5
DA
330
1F
100
AcDbEntity
  8
1
  6
CONTINUOUS
 62
     7
100
AcDbCircle
 10
168.75
 20
113.9
 30
0.0
 40
15.00000000000001
100
AcDbArc
 50
50.05549481018505
 51
68.96053021868275
  0
ARC
  5
DB
330
1F
100
AcDbEntity
  8
1
  6
CONTINUOUS
 62
     7
100
AcDbCircle
 10
168.75
 20
113.9
 30
0.0
 40
15.00000000000001
100
AcDbArc
 50
289.6850548246588
 51
309.9445051898152
  0
LINE
  5
DC
330
1F
100
AcDbEntity
  8
1
  6
CONTINUOUS
 62
     7
100
AcDbLine
 10
178.3806801421292
 20
102.4
 30
0.0
 11
179.75
 21
102.4
 31
0.0
  0
LINE
  5
DD
330
1F
100
AcDbEntity
  8
1
  6
CONTINUOUS
 62
     7
100
AcDbLine
 10
195.75
 20
128.6406309982276
 30
0.0
 11
187.75
 21
128.6406309982276
 31
0.0
  0
LINE
  5
DE
330
1F
100
AcDbEntity
  8
1
  6
CONTINUOUS
 62
     7
100
AcDbLine
 10
149.75
 20
126.1593690017724
 30
0.0
 11
141.75
 21
126.1593690017724
 31
0.0
  0
LINE
  5
DF
330
1F
100
AcDbEntity
  8
1
  6
CONTINUOUS
 62
     7
100
AcDbLine
 10
141.75
 20
128.6406309982276
 30
0.0
 11
141.75
 21
126.1593690017724
 31
0.0
  0
LINE
  5
E0
330
1F
100
AcDbEntity
  8
1
  6
CONTINUOUS
 62
     7
100
AcDbLine
 10
195.75
 20
126.1593690017724
 30
0.0
 11
187.75
 21
126.1593690017724
 31
0.0
  0
LINE
  5
E1
330
1F
100
AcDbEntity
  8
1
  6
CONTINUOUS
 62
     7
100
AcDbLine
 10
187.75
 20
128.6406309982276
 30
0.0
 11
187.75
 21
126.1593690017724
 31
0.0
  0
LINE
  5
E2
330
1F
100
AcDbEntity
  8
1
  6
CONTINUOUS
 62
     7
100
AcDbLine
 10
149.75
 20
128.6406309982276
 30
0.0
 11
149.75
 21
126.1593690017724
 31
0.0
  0
ARC
  5
E3
330
1F
100
AcDbEntity
  8
1
  6
CONTINUOUS
 62
     7
100
AcDbCircle
 10
168.75
 20
113.9
 30
0.0
 40
15.00000000000001
100
AcDbArc
 50
230.0554948101852
 51
250.3149451753411
  0
LINE
  5
E4
330
1F
100
AcDbEntity
  8
1
  6
CONTINUOUS
 62
     7
100
AcDbLine
 10
149.75
 20
128.6406309982276
 30
0.0
 11
141.75
 21
128.6406309982276
 31
0.0
  0
ARC
  5
E5
330
1F
100
AcDbEntity
  8
1
  6
CONTINUOUS
 62
     7
100
AcDbCircle
 10
111.75
 20
113.9
 30
0.0
 40
11.50000000000001
100
AcDbArc
 50
90.00000000000009
 51
269.9999999999999
  0
LINE
  5
E6
330
1F
100
AcDbEntity
  8
1
  6
CONTINUOUS
 62
     7
100
AcDbLine
 10
195.75
 20
128.6406309982276
 30
0.0
 11
195.75
 21
126.1593690017724
 31
0.0
  0
LINE
  5
E7
330
1F
100
AcDbEntity
  8
1
  6
CONTINUOUS
 62
     7
100
AcDbLine
 10
103.75
 20
126.1593690017724
 30
0.0
 11
95.74999999999997
 21
126.1593690017724
 31
0.0
  0
ARC
  5
E8
330
1F
100
AcDbEntity
  8
1
  6
CONTINUOUS
 62
     7
100
AcDbCircle
 10
133.75
 20
113.9
 30
0.0
 40
11.50000000000001
100
AcDbArc
 50
269.9999999999999
 51
90.00000000000016
  0
LINE
  5
E9
330
1F
100
AcDbEntity
  8
1
  6
CONTINUOUS
 62
     7
100
AcDbLine
 10
133.75
 20
125.4
 30
0.0
 11
132.3806801421292
 21
125.4
 31
0.0
  0
ARC
  5
EA
330
1F
100
AcDbEntity
  8
1
  6
CONTINUOUS
 62
     7
100
AcDbCircle
 10
122.75
 20
113.9
 30
0.0
 40
15.00000000000001
100
AcDbArc
 50
230.055494810185
 51
250.3149451753412
  0
ARC
  5
EB
330
1F
100
AcDbEntity
  8
1
  6
CONTINUOUS
 62
     7
100
AcDbCircle
 10
72.25000000000001
 20
99.4
 30
0.0
 40
2.500000000000002
100
AcDbArc
 50
180.0
 51
270.0
  0
LINE
  5
EC
330
1F
100
AcDbEntity
  8
1
  6
CONTINUOUS
 62
     7
100
AcDbLine
 10
75.24999999999979
 20
127.9025062814466
 30
0.0
 11
74.75000000000001
 21
127.9025062814466
 31
0.0
  0
LINE
  5
ED
330
1F
100
AcDbEntity
  8
1
  6
CONTINUOUS
 62
     7
100
AcDbLine
 10
74.6749999999998
 20
127.9
 30
0.0
 11
74.75000000000001
 21
127.9025062814466
 31
0.0
  0
LINE
  5
EE
330
1F
100
AcDbEntity
  8
1
  6
CONTINUOUS
 62
     7
100
AcDbLine
 10
74.6749999999998
 20
127.9
 30
0.0
 11
72.25000000000001
 21
127.9
 31
0.0
  0
LINE
  5
EF
330
1F
100
AcDbEntity
  8
1
  6
CONTINUOUS
 62
     7
100
AcDbLine
 10
77.25000000000001
 20
127.9
 30
0.0
 11
75.24999999999979
 21
127.9
 31
0.0
  0
LINE
  5
F0
330
1F
100
AcDbEntity
  8
1
  6
CONTINUOUS
 62
     7
100
AcDbLine
 10
113.1193198578708
 20
125.4
 30
0.0
 11
111.75
 21
125.4
 31
0.0
  0
LINE
  5
F1
330
1F
100
AcDbEntity
  8
1
  6
CONTINUOUS
 62
     7
100
AcDbLine
 10
157.75
 20
102.4
 30
0.0
 11
159.1193198578708
 21
102.4
 31
0.0
  0
ARC
  5
F2
330
1F
100
AcDbEntity
  8
1
  6
CONTINUOUS
 62
     7
100
AcDbCircle
 10
221.25
 20
99.4
 30
0.0
 40
0.5000000000000004
100
AcDbArc
 50
359.9999999999985
 51
90.0
  0
LINE
  5
F3
330
1F
100
AcDbEntity
  8
1
  6
CONTINUOUS
 62
     7
100
AcDbLine
 10
179.75
 20
125.4
 30
0.0
 11
178.380680142129
 21
125.4
 31
0.0
  0
LINE
  5
F4
330
1F
100
AcDbEntity
  8
1
  6
CONTINUOUS
 62
     7
100
AcDbLine
 10
103.75
 20
128.6406309982276
 30
0.0
 11
103.75
 21
126.1593690017724
 31
0.0
  0
ARC
  5
F5
330
1F
100
AcDbEntity
  8
1
  6
CONTINUOUS
 62
     7
100
AcDbCircle
 10
157.75
 20
113.9
 30
0.0
 40
11.50000000000001
100
AcDbArc
 50
89.99999999999986
 51
270.0000000000001
  0
LINE
  5
F6
330
1F
100
AcDbEntity
  8
1
  6
CONTINUOUS
 62
     7
100
AcDbLine
 10
221.75
 20
130.4
 30
0.0
 11
221.75
 21
128.4
 31
0.0
  0
LINE
  5
F7
330
1F
100
AcDbEntity
  8
1
  6
CONTINUOUS
 62
     7
100
AcDbLine
 10
103.75
 20
128.6406309982276
 30
0.0
 11
95.74999999999997
 21
128.6406309982276
 31
0.0
  0
ARC
  5
F8
330
1F
100
AcDbEntity
  8
1
  6
CONTINUOUS
 62
     7
100
AcDbCircle
 10
179.75
 20
113.9
 30
0.0
 40
11.50000000000001
100
AcDbArc
 50
270.0000000000001
 51
89.9999999999999
  0
LINE
  5
F9
330
1F
100
AcDbEntity
  8
1
  6
CONTINUOUS
 62
     7
100
AcDbLine
 10
69.75
 20
128.4
 30
0.0
 11
69.75
 21
130.4
 31
0.0
  0
ARC
  5
FA
330
1F
100
AcDbEntity
  8
1
  6
CONTINUOUS
 62
     7
100
AcDbCircle
 10
122.75
 20
113.9
 30
0.0
 40
15.00000000000001
100
AcDbArc
 50
289.6850548246588
 51
309.9445051898148
  0
ARC
  5
FB
330
1F
100
AcDbEntity
  8
1
  6
CONTINUOUS
 62
     7
100
AcDbCircle
 10
219.25
 20
99.4
 30
0.0
 40
2.500000000000002
100
AcDbArc
 50
270.0
 51
359.9999999999998
  0
LINE
  5
FC
330
1F
100
AcDbEntity
  8
1
  6
CONTINUOUS
 62
     7
100
AcDbLine
 10
95.74999999999997
 20
128.6406309982276
 30
0.0
 11
95.74999999999997
 21
126.1593690017724
 31
0.0
  0
ARC
  5
FD
330
1F
100
AcDbEntity
  8
1
  6
CONTINUOUS
 62
     7
100
AcDbCircle
 10
221.25
 20
128.4
 30
0.0
 40
0.5000000000000004
100
AcDbArc
 50
270.0
 51
0.0
  0
LINE
  5
FE
330
1F
100
AcDbEntity
  8
1
  6
CONTINUOUS
 62
     7
100
AcDbLine
 10
111.75
 20
102.4
 30
0.0
 11
113.1193198578708
 21
102.4
 31
0.0
  0
LINE
  5
FF
330
1F
100
AcDbEntity
  8
1
  6
CONTINUOUS
 62
     7
100
AcDbLine
 10
70.25
 20
99.9
 30
0.0
 11
72.25000000000001
 21
99.9
 31
0.0
  0
ARC
  5
100
330
1F
100
AcDbEntity
  8
1
  6
CONTINUOUS
 62
     7
100
AcDbCircle
 10
70.25
 20
99.4
 30
0.0
 40
0.5000000000000004
100
AcDbArc
 50
90.0
 51
180.0000000000016
  0
LINE
  5
101
330
1F
100
AcDbEntity
  8
1
  6
CONTINUOUS
 62
     7
100
AcDbLine
 10
72.25000000000001
 20
127.9
 30
0.0
 11
70.25
 21
127.9
 31
0.0
  0
ARC
  5
102
330
1F
100
AcDbEntity
  8
1
  6
CONTINUOUS
 62
     7
100
AcDbCircle
 10
70.25
 20
128.4
 30
0.0
 40
0.5000000000000004
100
AcDbArc
 50
180.0
 51
270.0
  0
LINE
  5
103
330
1F
100
AcDbEntity
  8
1
  6
CONTINUOUS
 62
     7
100
AcDbLine
 10
159.1193198578708
 20
125.4
 30
0.0
 11
157.75
 21
125.4
 31
0.0
  0
LINE
  5
104
330
1F
100
AcDbEntity
  8
1
  6
CONTINUOUS
 62
     7
100
AcDbLine
 10
145.75
 20
96.89999999999999
 30
0.0
 11
72.25000000000001
 21
96.89999999999999
 31
0.0
  0
LINE
  5
105
330
1F
100
AcDbEntity
  8
1
  6
CONTINUOUS
 62
     7
100
AcDbLine
 10
132.3806801421292
 20
102.4
 30
0.0
 11
133.75
 21
102.4
 31
0.0
  0
LINE
  5
106
330
1F
100
AcDbEntity
  8
1
  6
CONTINUOUS
 62
     7
100
AcDbLine
 10
219.25
 20
96.89999999999999
 30
0.0
 11
145.75
 21
96.89999999999999
 31
0.0
  0
LINE
  5
107
330
1F
100
AcDbEntity
  8
1
  6
CONTINUOUS
 62
     7
100
AcDbLine
 10
119.25
 20
131.0464281994822
 30
0.0
 11
119.25
 21
132.9
 31
0.0
  0
LINE
  5
108
330
1F
100
AcDbEntity
  8
1
  6
CONTINUOUS
 62
     7
100
AcDbLine
 10
120.2456556052973
 20
132.9
 30
0.0
 11
119.25
 21
132.9
 31
0.0
  0
LINE
  5
109
330
1F
100
AcDbEntity
  8
1
  6
CONTINUOUS
 62
     7
100
AcDbLine
 10
126.25
 20
131.0464281994824
 30
0.0
 11
126.25
 21
132.9
 31
0.0
  0
LINE
  5
10A
330
1F
100
AcDbEntity
  8
1
  6
CONTINUOUS
 62
     7
100
AcDbLine
 10
125.2543443947024
 20
132.9
 30
0.0
 11
126.25
 21
132.9
 31
0.0
  0
LINE
  5
10B
330
1F
100
AcDbEntity
  8
1
  6
CONTINUOUS
 62
     7
100
AcDbLine
 10
172.25
 20
131.0464281994824
 30
0.0
 11
172.25
 21
132.9
 31
0.0
  0
LINE
  5
10C
330
1F
100
AcDbEntity
  8
1
  6
CONTINUOUS
 62
     7
100
AcDbLine
 10
171.2543443947026
 20
132.9
 30
0.0
 11
172.25
 21
132.9
 31
0.0
  0
LINE
  5
10D
330
1F
100
AcDbEntity
  8
1
  6
CONTINUOUS
 62
     7
100
AcDbLine
 10
165.25
 20
131.0464281994822
 30
0.0
 11
165.25
 21
132.9
 31
0.0
  0
LINE
  5
10E
330
1F
100
AcDbEntity
  8
1
  6
CONTINUOUS
 62
     7
100
AcDbLine
 10
166.2456556052974
 20
132.9
 30
0.0
 11
165.25
 21
132.9
 31
0.0
  0
LINE
  5
10F
330
1F
100
AcDbEntity
  8
1
  6
CONTINUOUS
 62
     7
100
AcDbLine
 10
148.7500951923396
 20
132.9
 30
0.0
 11
142.7499048076604
 21
132.9
 31
0.0
  0
LINE
  5
110
330
1F
100
AcDbEntity
  8
1
  6
CONTINUOUS
 62
     7
100
AcDbLine
 10
186.25
 20
132.9
 30
0.0
 11
188.7499048076604
 21
132.9
 31
0.0
  0
LINE
  5
111
330
1F
100
AcDbEntity
  8
1
  6
CONTINUOUS
 62
     7
100
AcDbLine
 10
186.2238193966276
 20
129.9
 30
0.0
 11
186.25
 21
132.9
 31
0.0
  0
LINE
  5
112
330
1F
100
AcDbEntity
  8
1
  6
CONTINUOUS
 62
     7
100
AcDbLine
 10
194.7500951923396
 20
132.9
 30
0.0
 11
188.7499048076604
 21
132.9
 31
0.0
  0
LINE
  5
113
330
1F
100
AcDbEntity
  8
1
  6
CONTINUOUS
 62
     7
100
AcDbLine
 10
102.7500951923396
 20
132.9
 30
0.0
 11
105.25
 21
132.9
 31
0.0
  0
LINE
  5
114
330
1F
100
AcDbEntity
  8
1
  6
CONTINUOUS
 62
     7
100
AcDbLine
 10
105.25
 20
132.9
 30
0.0
 11
105.2761806033722
 21
129.9
 31
0.0
  0
LINE
  5
115
330
1F
100
AcDbEntity
  8
1
  6
CONTINUOUS
 62
     7
100
AcDbLine
 10
140.25
 20
132.9
 30
0.0
 11
142.7499048076604
 21
132.9
 31
0.0
  0
LINE
  5
116
330
1F
100
AcDbEntity
  8
1
  6
CONTINUOUS
 62
     7
100
AcDbLine
 10
140.2238193966276
 20
129.9
 30
0.0
 11
140.25
 21
132.9
 31
0.0
  0
LINE
  5
117
330
1F
100
AcDbEntity
  8
1
  6
CONTINUOUS
 62
     7
100
AcDbLine
 10
148.7500951923396
 20
132.9
 30
0.0
 11
151.25
 21
132.9
 31
0.0
  0
LINE
  5
118
330
1F
100
AcDbEntity
  8
1
  6
CONTINUOUS
 62
     7
100
AcDbLine
 10
151.25
 20
132.9
 30
0.0
 11
151.2761806033722
 21
129.9
 31
0.0
  0
LINE
  5
119
330
1F
100
AcDbEntity
  8
1
  6
CONTINUOUS
 62
     7
100
AcDbLine
 10
94.25000000000003
 20
132.9
 30
0.0
 11
96.7499048076604
 21
132.9
 31
0.0
  0
LINE
  5
11A
330
1F
100
AcDbEntity
  8
1
  6
CONTINUOUS
 62
     7
100
AcDbLine
 10
94.22381939662763
 20
129.9
 30
0.0
 11
94.25000000000003
 21
132.9
 31
0.0
  0
LINE
  5
11B
330
1F
100
AcDbEntity
  8
1
  6
CONTINUOUS
 62
     7
100
AcDbLine
 10
96.7499048076604
 20
132.9
 30
0.0
 11
102.7500951923396
 21
132.9
 31
0.0
  0
LINE
  5
11C
330
1F
100
AcDbEntity
  8
1
  6
CONTINUOUS
 62
     7
100
AcDbLine
 10
194.7500951923396
 20
132.9
 30
0.0
 11
197.25
 21
132.9
 31
0.0
  0
LINE
  5
11D
330
1F
100
AcDbEntity
  8
1
  6
CONTINUOUS
 62
     7
100
AcDbLine
 10
197.25
 20
132.9
 30
0.0
 11
197.2761806033722
 21
129.9
 31
0.0
  0
LINE
  5
11E
330
1F
100
AcDbEntity
  8
1
  6
CONTINUOUS
 62
     7
100
AcDbLine
 10
69.89999999999999
 20
123.4
 30
0.0
 11
69.89999999999999
 21
122.9
 31
0.0
  0
LINE
  5
11F
330
1F
100
AcDbEntity
  8
1
  6
CONTINUOUS
 62
     7
100
AcDbLine
 10
66.60000000000002
 20
120.9
 30
0.0
 11
66.6923303169378
 21
120.4
 31
0.0
  0
LINE
  5
120
330
1F
100
AcDbEntity
  8
1
  6
CONTINUOUS
 62
     7
100
AcDbLine
 10
68.97979589711319
 20
119.9
 30
0.0
 11
69.3076696830622
 21
120.4
 31
0.0
  0
LINE
  5
121
330
1F
100
AcDbEntity
  8
1
  6
CONTINUOUS
 62
     7
100
AcDbLine
 10
69.89999999999999
 20
120.4
 30
0.0
 11
69.89999999999999
 21
119.9
 31
0.0
  0
LINE
  5
122
330
1F
100
AcDbEntity
  8
1
  6
CONTINUOUS
 62
     7
100
AcDbLine
 10
69.89999999999999
 20
117.9
 30
0.0
 11
69.89999999999999
 21
117.4
 31
0.0
  0
LINE
  5
123
330
1F
100
AcDbEntity
  8
1
  6
CONTINUOUS
 62
     7
100
AcDbLine
 10
69.3076696830622
 20
120.4
 30
0.0
 11
69.39999999999999
 21
120.9
 31
0.0
  0
LINE
  5
124
330
1F
100
AcDbEntity
  8
1
  6
CONTINUOUS
 62
     7
100
AcDbLine
 10
69.89999999999999
 20
120.9
 30
0.0
 11
69.89999999999999
 21
120.4
 31
0.0
  0
LINE
  5
125
330
1F
100
AcDbEntity
  8
1
  6
CONTINUOUS
 62
     7
100
AcDbLine
 10
69.89999999999999
 20
118.4
 30
0.0
 11
69.89999999999999
 21
117.9
 31
0.0
  0
LINE
  5
126
330
1F
100
AcDbEntity
  8
1
  6
CONTINUOUS
 62
     7
100
AcDbLine
 10
69.89999999999999
 20
115.4
 30
0.0
 11
69.89999999999999
 21
114.9
 31
0.0
  0
LWPOLYLINE
  5
127
330
1F
100
AcDbEntity
  8
1
  6
CONTINUOUS
 62
     7
100
AcDbPolyline
 90
       44
 70
     0
 43
0.0
 10
68.97979589711319
 20
114.9
 10
68.9502883940152
 20
114.9280767263063
 10
68.9199880814608
 20
114.9552742628345
 10
68.88898265359397
 20
114.9815265278642
 10
68.85735980455962
 20
115.0067674396752
 10
68.81306083448222
 20
115.0397043950766
 10
68.76771355363017
 20
115.0707305017438
 10
68.72145767208423
 20
115.099791159907
 10
68.67040332497079
 20
115.1290479018794
 10
68.6183513610946
 20
115.156041538482
 10
68.56538504023882
 20
115.1807571950938
 10
68.51158762218681
 20
115.2031799970938
 10
68.45539637157536
 20
115.223864901211
 10
68.39823103737938
 20
115.2421697091828
 10
68.34014237673816
 20
115.2580528182294
 10
68.28118114679224
 20
115.2714726255702
 10
68.23101467003681
 20
115.280806452157
 10
68.18021413272338
 20
115.2883505019484
 10
68.1289103513458
 20
115.2940524098168
 10
68.08907756379759
 20
115.2971588122608
 10
68.04901257504545
 20
115.299133888459
 10
68.0088432263474
 20
115.2999676248614
 10
67.96869735896135
 20
115.2996500079176
 10
67.92962290258761
 20
115.298226773141
 10
67.89065745602815
 20
115.2957178391792
 10
67.85189938202721
 20
115.2921412483398
 10
67.81344704332784
 20
115.28751504293
 10
67.76135647461476
 20
115.2795095301662
 10
67.7098835932942
 20
115.2696093318386
 10
67.6591158598034
 20
115.2578652374086
 10
67.60163824454743
 20
115.242130110463
 10
67.5450201072976
 20
115.2240100801454
 10
67.48930587224403
 20
115.2035324150522
 10
67.4345399635762
 20
115.1807243837796
 10
67.37914154105381
 20
115.1548022245106
 10
67.32467792460858
 20
115.1263479633854
 10
67.27127480511716
 20
115.0953884878286
 10
67.21905787345625
 20
115.0619506852658
 10
67.1844986962796
 20
115.0379607812842
 10
67.15052672471141
 20
115.0128307483786
 10
67.11721558361897
 20
114.9865963713334
 10
67.08407007556136
 20
114.9588040529078
 10
67.05169600457076
 20
114.9299093067938
 10
67.02020410288664
 20
114.9
  0
LINE
  5
128
330
1F
100
AcDbEntity
  8
1
  6
CONTINUOUS
 62
     7
100
AcDbLine
 10
67.02020410288664
 20
114.9
 30
0.0
 11
66.6923303169378
 21
114.4
 31
0.0
  0
LINE
  5
129
330
1F
100
AcDbEntity
  8
1
  6
CONTINUOUS
 62
     7
100
AcDbLine
 10
69.89999999999999
 20
114.9
 30
0.0
 11
69.89999999999999
 21
114.4
 31
0.0
  0
LINE
  5
12A
330
1F
100
AcDbEntity
  8
1
  6
CONTINUOUS
 62
     7
100
AcDbLine
 10
69.3076696830622
 20
114.4
 30
0.0
 11
68.97979589711319
 21
114.9
 31
0.0
  0
LINE
  5
12B
330
1F
100
AcDbEntity
  8
1
  6
CONTINUOUS
 62
     7
100
AcDbLine
 10
69.89999999999999
 20
123.9
 30
0.0
 11
69.89999999999999
 21
123.4
 31
0.0
  0
LINE
  5
12C
330
1F
100
AcDbEntity
  8
1
  6
CONTINUOUS
 62
     7
100
AcDbLine
 10
66.6923303169378
 20
120.4
 30
0.0
 11
67.02020410288664
 21
119.9
 31
0.0
  0
LINE
  5
12D
330
1F
100
AcDbEntity
  8
1
  6
CONTINUOUS
 62
     7
100
AcDbLine
 10
221.6000000000001
 20
119.9
 30
0.0
 11
221.6000000000001
 21
120.4
 31
0.0
  0
LINE
  5
12E
330
1F
100
AcDbEntity
  8
1
  6
CONTINUOUS
 62
     7
100
AcDbLine
 10
222.1923303169378
 20
120.4
 30
0.0
 11
222.5202041028868
 21
119.9
 31
0.0
  0
LINE
  5
12F
330
1F
100
AcDbEntity
  8
1
  6
CONTINUOUS
 62
     7
100
AcDbLine
 10
222.5202041028868
 20
114.9
 30
0.0
 11
222.1923303169378
 21
114.4
 31
0.0
  0
LINE
  5
130
330
1F
100
AcDbEntity
  8
1
  6
CONTINUOUS
 62
     7
100
AcDbLine
 10
221.6000000000001
 20
114.4
 30
0.0
 11
221.6000000000001
 21
114.9
 31
0.0
  0
LINE
  5
131
330
1F
100
AcDbEntity
  8
1
  6
CONTINUOUS
 62
     7
100
AcDbLine
 10
221.6000000000001
 20
117.9
 30
0.0
 11
221.6000000000001
 21
118.4
 31
0.0
  0
LINE
  5
132
330
1F
100
AcDbEntity
  8
1
  6
CONTINUOUS
 62
     7
100
AcDbLine
 10
226.75
 20
118.4
 30
0.0
 11
226.75
 21
117.9
 31
0.0
  0
LINE
  5
133
330
1F
100
AcDbEntity
  8
1
  6
CONTINUOUS
 62
     7
100
AcDbLine
 10
221.6000000000001
 20
122.9
 30
0.0
 11
221.6000000000001
 21
123.4
 31
0.0
  0
LINE
  5
134
330
1F
100
AcDbEntity
  8
1
  6
CONTINUOUS
 62
     7
100
AcDbLine
 10
226.75
 20
123.4
 30
0.0
 11
226.75
 21
122.9
 31
0.0
  0
LINE
  5
135
330
1F
100
AcDbEntity
  8
1
  6
CONTINUOUS
 62
     7
100
AcDbLine
 10
221.6000000000001
 20
123.4
 30
0.0
 11
221.6000000000001
 21
123.9
 31
0.0
  0
LINE
  5
136
330
1F
100
AcDbEntity
  8
1
  6
CONTINUOUS
 62
     7
100
AcDbLine
 10
226.75
 20
123.9
 30
0.0
 11
226.75
 21
123.4
 31
0.0
  0
LINE
  5
137
330
1F
100
AcDbEntity
  8
1
  6
CONTINUOUS
 62
     7
100
AcDbLine
 10
221.6000000000001
 20
117.4
 30
0.0
 11
221.6000000000001
 21
117.9
 31
0.0
  0
LINE
  5
138
330
1F
100
AcDbEntity
  8
1
  6
CONTINUOUS
 62
     7
100
AcDbLine
 10
226.75
 20
117.9
 30
0.0
 11
226.75
 21
117.4
 31
0.0
  0
LINE
  5
139
330
1F
100
AcDbEntity
  8
1
  6
CONTINUOUS
 62
     7
100
AcDbLine
 10
224.4797958971132
 20
119.9
 30
0.0
 11
224.8076696830622
 21
120.4
 31
0.0
  0
LINE
  5
13A
330
1F
100
AcDbEntity
  8
1
  6
CONTINUOUS
 62
     7
100
AcDbLine
 10
226.75
 20
120.4
 30
0.0
 11
226.75
 21
119.9
 31
0.0
  0
LWPOLYLINE
  5
13B
330
1F
100
AcDbEntity
  8
1
  6
CONTINUOUS
 62
     7
100
AcDbPolyline
 90
       44
 70
     0
 43
0.0
 10
224.4797958971132
 20
114.9
 10
224.4502883940152
 20
114.9280767263063
 10
224.4199880814606
 20
114.9552742628345
 10
224.388982653594
 20
114.9815265278642
 10
224.3573598045596
 20
115.0067674396752
 10
224.3130608344824
 20
115.0397043950766
 10
224.26771355363
 20
115.0707305017438
 10
224.2214576720842
 20
115.099791159907
 10
224.1704033249707
 20
115.1290479018794
 10
224.1183513610946
 20
115.156041538482
 10
224.0653850402389
 20
115.1807571950938
 10
224.0115876221868
 20
115.2031799970938
 10
223.9553963715754
 20
115.223864901211
 10
223.8982310373794
 20
115.2421697091828
 10
223.8401423767382
 20
115.2580528182294
 10
223.7811811467922
 20
115.2714726255702
 10
223.7310146700368
 20
115.280806452157
 10
223.6802141327234
 20
115.2883505019484
 10
223.6289103513458
 20
115.2940524098168
 10
223.5890775637976
 20
115.2971588122608
 10
223.5490125750456
 20
115.299133888459
 10
223.5088432263476
 20
115.2999676248614
 10
223.4686973589614
 20
115.2996500079176
 10
223.4296229025876
 20
115.298226773141
 10
223.3906574560284
 20
115.2957178391792
 10
223.3518993820272
 20
115.2921412483398
 10
223.313447043328
 20
115.28751504293
 10
223.261356474615
 20
115.2795095301662
 10
223.2098835932942
 20
115.2696093318386
 10
223.1591158598034
 20
115.2578652374086
 10
223.1016382445474
 20
115.2421301104632
 10
223.0450201072976
 20
115.2240100801454
 10
222.989305872244
 20
115.2035324150522
 10
222.9345399635762
 20
115.1807243837796
 10
222.8791415410538
 20
115.1548022245108
 10
222.8246779246086
 20
115.1263479633854
 10
222.7712748051172
 20
115.0953884878286
 10
222.7190578734562
 20
115.0619506852658
 10
222.6844986962798
 20
115.0379607812842
 10
222.6505267247115
 20
115.0128307483786
 10
222.617215583619
 20
114.9865963713334
 10
222.5840700755614
 20
114.9588040529078
 10
222.5516960045708
 20
114.9299093067938
 10
222.5202041028868
 20
114.9
  0
LINE
  5
13C
330
1F
100
AcDbEntity
  8
1
  6
CONTINUOUS
 62
     7
100
AcDbLine
 10
221.6000000000001
 20
114.9
 30
0.0
 11
221.6000000000001
 21
115.4
 31
0.0
  0
LINE
  5
13D
330
1F
100
AcDbEntity
  8
1
  6
CONTINUOUS
 62
     7
100
AcDbLine
 10
226.75
 20
115.4
 30
0.0
 11
226.75
 21
114.9
 31
0.0
  0
LINE
  5
13E
330
1F
100
AcDbEntity
  8
1
  6
CONTINUOUS
 62
     7
100
AcDbLine
 10
224.8076696830622
 20
120.4
 30
0.0
 11
224.8999999999999
 21
120.9
 31
0.0
  0
LINE
  5
13F
330
1F
100
AcDbEntity
  8
1
  6
CONTINUOUS
 62
     7
100
AcDbLine
 10
226.75
 20
120.9
 30
0.0
 11
226.75
 21
120.4
 31
0.0
  0
LINE
  5
140
330
1F
100
AcDbEntity
  8
1
  6
CONTINUOUS
 62
     7
100
AcDbLine
 10
222.1000000000001
 20
120.9
 30
0.0
 11
222.1923303169378
 21
120.4
 31
0.0
  0
LINE
  5
141
330
1F
100
AcDbEntity
  8
1
  6
CONTINUOUS
 62
     7
100
AcDbLine
 10
221.6000000000001
 20
120.4
 30
0.0
 11
221.6000000000001
 21
120.9
 31
0.0
  0
LINE
  5
142
330
1F
100
AcDbEntity
  8
1
  6
CONTINUOUS
 62
     7
100
AcDbLine
 10
224.8076696830622
 20
114.4
 30
0.0
 11
224.4797958971132
 21
114.9
 31
0.0
  0
LINE
  5
143
330
1F
100
AcDbEntity
  8
1
  6
CONTINUOUS
 62
     7
100
AcDbLine
 10
226.75
 20
114.9
 30
0.0
 11
226.75
 21
114.4
 31
0.0
  0
LINE
  5
144
330
1F
100
AcDbEntity
  8
1
  6
CONTINUOUS
 62
     7
100
AcDbLine
 10
221.6000000000001
 20
117.4
 30
0.0
 11
221.6000000000001
 21
115.4
 31
0.0
  0
LINE
  5
145
330
1F
100
AcDbEntity
  8
1
  6
CONTINUOUS
 62
     7
100
AcDbLine
 10
226.75
 20
117.4
 30
0.0
 11
226.75
 21
115.4
 31
0.0
  0
LINE
  5
146
330
1F
100
AcDbEntity
  8
1
  6
CONTINUOUS
 62
     7
100
AcDbLine
 10
221.6000000000001
 20
126.4
 30
0.0
 11
221.6000000000001
 21
123.9
 31
0.0
  0
LWPOLYLINE
  5
147
330
1F
100
AcDbEntity
  8
1
  6
CONTINUOUS
 62
     7
100
AcDbPolyline
 90
        9
 70
     0
 43
0.0
 10
221.6000000000001
 20
126.4
 10
221.5592394244236
 20
126.6926354830242
 10
221.438524103755
 20
126.9740251485476
 10
221.2424930600694
 20
127.2333553495294
 10
220.9786796564404
 20
127.4606601717798
 10
220.657222094021
 20
127.6472044184538
 10
220.2904738066596
 20
127.785819298767
 10
219.8925287253648
 20
127.8711779206048
 10
219.4786796564404
 20
127.9
  0
LINE
  5
148
330
1F
100
AcDbEntity
  8
1
  6
CONTINUOUS
 62
     7
100
AcDbLine
 10
226.75
 20
130.4
 30
0.0
 11
226.75
 21
123.9
 31
0.0
  0
LINE
  5
149
330
1F
100
AcDbEntity
  8
1
  6
CONTINUOUS
 62
     7
100
AcDbLine
 10
69.89999999999999
 20
118.4
 30
0.0
 11
69.89999999999999
 21
119.9
 31
0.0
  0
ARC
  5
14A
330
1F
100
AcDbEntity
  8
1
  6
CONTINUOUS
 62
     7
100
AcDbCircle
 10
67.99999999999997
 20
120.9
 30
0.0
 40
1.400000000000012
100
AcDbArc
 50
225.5846914028074
 51
314.4153085971928
  0
LWPOLYLINE
  5
14B
330
1F
100
AcDbEntity
  8
1
  6
CONTINUOUS
 62
     7
100
AcDbPolyline
 90
        9
 70
     0
 43
0.0
 10
219.4786796564404
 20
99.9
 10
219.8925287253648
 20
99.92882207939518
 10
220.2904738066596
 20
100.0141807012331
 10
220.657222094021
 20
100.1527955815462
 10
220.9786796564404
 20
100.3393398282202
 10
221.2424930600694
 20
100.5666446504706
 10
221.438524103755
 20
100.8259748514524
 10
221.5592394244236
 20
101.1073645169758
 10
221.6000000000001
 20
101.4
  0
LINE
  5
14C
330
1F
100
AcDbEntity
  8
1
  6
CONTINUOUS
 62
     7
100
AcDbLine
 10
221.6000000000001
 20
114.4
 30
0.0
 11
221.6000000000001
 21
101.4
 31
0.0
  0
ARC
  5
14D
330
1F
100
AcDbEntity
  8
1
  6
CONTINUOUS
 62
     7
100
AcDbCircle
 10
225.75
 20
97.9
 30
0.0
 40
1.000000000000001
100
AcDbArc
 50
270.0
 51
0.0000000000011937
  0
CIRCLE
  5
14E
330
1F
100
AcDbEntity
  8
1
  6
CONTINUOUS
 62
     7
100
AcDbCircle
 10
223.5
 20
106.9
 30
0.0
 40
1.400000000000012
  0
ARC
  5
14F
330
1F
100
AcDbEntity
  8
1
  6
CONTINUOUS
 62
     7
100
AcDbCircle
 10
223.5
 20
113.9
 30
0.0
 40
1.399999999999957
100
AcDbArc
 50
159.0751675723615
 51
20.92483242763848
  0
LINE
  5
150
330
1F
100
AcDbEntity
  8
1
  6
CONTINUOUS
 62
     7
100
AcDbLine
 10
226.75
 20
114.4
 30
0.0
 11
226.75
 21
97.90000000000005
 31
0.0
  0
LINE
  5
151
330
1F
100
AcDbEntity
  8
1
  6
CONTINUOUS
 62
     7
100
AcDbLine
 10
219.25
 20
96.89999999999999
 30
0.0
 11
225.75
 21
96.89999999999999
 31
0.0
  0
LINE
  5
152
330
1F
100
AcDbEntity
  8
1
  6
CONTINUOUS
 62
     7
100
AcDbLine
 10
69.89999999999999
 20
115.4
 30
0.0
 11
69.89999999999999
 21
117.4
 31
0.0
  0
LINE
  5
153
330
1F
100
AcDbEntity
  8
1
  6
CONTINUOUS
 62
     7
100
AcDbLine
 10
221.6000000000001
 20
122.9
 30
0.0
 11
221.6000000000001
 21
120.9
 31
0.0
  0
ARC
  5
154
330
1F
100
AcDbEntity
  8
1
  6
CONTINUOUS
 62
     7
100
AcDbCircle
 10
223.5
 20
120.9
 30
0.0
 40
1.400000000000012
100
AcDbArc
 50
0.000000000000071
 51
180.0000000000004
  0
LINE
  5
155
330
1F
100
AcDbEntity
  8
1
  6
CONTINUOUS
 62
     7
100
AcDbLine
 10
226.75
 20
122.9
 30
0.0
 11
226.75
 21
120.9
 31
0.0
  0
LINE
  5
156
330
1F
100
AcDbEntity
  8
1
  6
CONTINUOUS
 62
     7
100
AcDbLine
 10
69.89999999999999
 20
101.4
 30
0.0
 11
69.89999999999999
 21
114.4
 31
0.0
  0
LINE
  5
157
330
1F
100
AcDbEntity
  8
1
  6
CONTINUOUS
 62
     7
100
AcDbLine
 10
69.89999999999999
 20
120.9
 30
0.0
 11
69.89999999999999
 21
122.9
 31
0.0
  0
LINE
  5
158
330
1F
100
AcDbEntity
  8
1
  6
CONTINUOUS
 62
     7
100
AcDbLine
 10
69.89999999999999
 20
123.9
 30
0.0
 11
69.89999999999999
 21
126.4
 31
0.0
  0
LINE
  5
159
330
1F
100
AcDbEntity
  8
1
  6
CONTINUOUS
 62
     7
100
AcDbLine
 10
221.6000000000001
 20
119.9
 30
0.0
 11
221.6000000000001
 21
118.4
 31
0.0
  0
LWPOLYLINE
  5
15A
330
1F
100
AcDbEntity
  8
1
  6
CONTINUOUS
 62
     7
100
AcDbPolyline
 90
        9
 70
     0
 43
0.0
 10
72.0213203435596
 20
127.9
 10
71.6074712746352
 20
127.8711779206048
 10
71.20952619334017
 20
127.785819298767
 10
70.84277790597879
 20
127.6472044184538
 10
70.5213203435596
 20
127.4606601717798
 10
70.25750693993058
 20
127.2333553495294
 10
70.06147589624497
 20
126.9740251485476
 10
69.94076057557638
 20
126.6926354830242
 10
69.89999999999999
 20
126.4
  0
LWPOLYLINE
  5
15B
330
1F
100
AcDbEntity
  8
1
  6
CONTINUOUS
 62
     7
100
AcDbPolyline
 90
        9
 70
     0
 43
0.0
 10
69.89999999999999
 20
101.4
 10
69.94076057557638
 20
101.1073645169758
 10
70.06147589624497
 20
100.8259748514524
 10
70.25750693993058
 20
100.5666446504706
 10
70.5213203435596
 20
100.3393398282202
 10
70.84277790597879
 20
100.1527955815462
 10
71.20952619334017
 20
100.0141807012331
 10
71.6074712746352
 20
99.92882207939518
 10
72.0213203435596
 20
99.9
  0
ARC
  5
15C
330
1F
100
AcDbEntity
  8
1
  6
CONTINUOUS
 62
     7
100
AcDbCircle
 10
65.75
 20
97.9
 30
0.0
 40
1.000000000000001
100
AcDbArc
 50
179.9999999999988
 51
270.0
  0
CIRCLE
  5
15D
330
1F
100
AcDbEntity
  8
1
  6
CONTINUOUS
 62
     7
100
AcDbCircle
 10
67.99999999999997
 20
106.9
 30
0.0
 40
1.400000000000012
  0
ARC
  5
15E
330
1F
100
AcDbEntity
  8
1
  6
CONTINUOUS
 62
     7
100
AcDbCircle
 10
67.99999999999997
 20
113.9
 30
0.0
 40
1.400000000000012
100
AcDbArc
 50
159.0751675723615
 51
20.92483242763848
  0
LINE
  5
15F
330
1F
100
AcDbEntity
  8
1
  6
CONTINUOUS
 62
     7
100
AcDbLine
 10
64.75
 20
114.4
 30
0.0
 11
64.75
 21
97.90000000000005
 31
0.0
  0
LINE
  5
160
330
1F
100
AcDbEntity
  8
1
  6
CONTINUOUS
 62
     7
100
AcDbLine
 10
72.25000000000001
 20
96.89999999999999
 30
0.0
 11
65.75
 21
96.89999999999999
 31
0.0
  0
ARC
  5
161
330
1F
100
AcDbEntity
  8
1
  6
CONTINUOUS
 62
     7
100
AcDbCircle
 10
223.5
 20
120.9
 30
0.0
 40
1.399999999999957
100
AcDbArc
 50
225.5846914028074
 51
314.4153085971928
  0
LINE
  5
162
330
1F
100
AcDbEntity
  8
1
  6
CONTINUOUS
 62
     7
100
AcDbLine
 10
226.75
 20
119.9
 30
0.0
 11
226.75
 21
118.4
 31
0.0
  0
ARC
  5
163
330
1F
100
AcDbEntity
  8
1
  6
CONTINUOUS
 62
     7
100
AcDbCircle
 10
67.99999999999997
 20
120.9
 30
0.0
 40
1.400000000000012
100
AcDbArc
 50
0.000000000000071
 51
180.0000000000004
  0
LINE
  5
164
330
1F
100
AcDbEntity
  8
1
  6
CONTINUOUS
 62
     7
100
AcDbLine
 10
64.75
 20
98.4
 30
0.0
 11
63.25
 21
96.89999999999999
 31
0.0
  0
LINE
  5
165
330
1F
100
AcDbEntity
  8
1
  6
CONTINUOUS
 62
     7
100
AcDbLine
 10
65.75
 20
96.89999999999999
 30
0.0
 11
63.25
 21
96.89999999999999
 31
0.0
  0
LINE
  5
166
330
1F
100
AcDbEntity
  8
1
  6
CONTINUOUS
 62
     7
100
AcDbLine
 10
226.75
 20
132.9
 30
0.0
 11
226.75
 21
133.4
 31
0.0
  0
LINE
  5
167
330
1F
100
AcDbEntity
  8
1
  6
CONTINUOUS
 62
     7
100
AcDbLine
 10
224.25
 20
132.9
 30
0.0
 11
224.25
 21
133.4
 31
0.0
  0
LINE
  5
168
330
1F
100
AcDbEntity
  8
1
  6
CONTINUOUS
 62
     7
100
AcDbLine
 10
226.75
 20
133.4
 30
0.0
 11
224.25
 21
133.4
 31
0.0
  0
CIRCLE
  5
169
330
1F
100
AcDbEntity
  8
1
  6
CONTINUOUS
 62
     7
100
AcDbCircle
 10
168.75
 20
184.25
 30
0.0
 40
1.250000000000029
  0
CIRCLE
  5
16A
330
1F
100
AcDbEntity
  8
1
  6
CONTINUOUS
 62
     7
100
AcDbCircle
 10
168.75
 20
285.75
 30
0.0
 40
1.250000000000029
  0
ARC
  5
16B
330
1F
100
AcDbEntity
  8
1
  6
CONTINUOUS
 62
     7
100
AcDbCircle
 10
69.75
 20
187.0
 30
0.0
 40
5.000000000000004
100
AcDbArc
 50
180.0
 51
270.0
  0
LINE
  5
16C
330
1F
100
AcDbEntity
  8
1
  6
CONTINUOUS
 62
     7
100
AcDbLine
 10
64.75
 20
235.0
 30
0.0
 11
64.75
 21
187.0
 31
0.0
  0
LINE
  5
16D
330
1F
100
AcDbEntity
  8
1
  6
CONTINUOUS
 62
     7
100
AcDbLine
 10
64.75
 20
282.9999999999999
 30
0.0
 11
64.75
 21
235.0
 31
0.0
  0
ARC
  5
16E
330
1F
100
AcDbEntity
  8
1
  6
CONTINUOUS
 62
     7
100
AcDbCircle
 10
69.75
 20
282.9999999999999
 30
0.0
 40
5.000000000000004
100
AcDbArc
 50
90.0
 51
180.0
  0
ARC
  5
16F
330
1F
100
AcDbEntity
  8
1
  6
CONTINUOUS
 62
     7
100
AcDbCircle
 10
99.74999999999997
 20
276.75
 30
0.0
 40
5.500000000000004
100
AcDbArc
 50
294.6199773286568
 51
0.0
  0
LINE
  5
170
330
1F
100
AcDbEntity
  8
1
  6
CONTINUOUS
 62
     7
100
AcDbLine
 10
97.45871215252203
 20
271.75
 30
0.0
 11
102.0412878474778
 21
271.75
 31
0.0
  0
ARC
  5
171
330
1F
100
AcDbEntity
  8
1
  6
CONTINUOUS
 62
     7
100
AcDbCircle
 10
99.74999999999997
 20
276.75
 30
0.0
 40
5.500000000000004
100
AcDbArc
 50
180.0000000000001
 51
245.3800226713433
  0
LWPOLYLINE
  5
172
330
1F
100
AcDbEntity
  8
1
  6
CONTINUOUS
 62
     7
100
AcDbPolyline
 90
        9
 70
     0
 43
0.0
 10
96.7499048076604
 20
280.25
 10
96.262187431405
 20
280.2019660145978
 10
95.79321826480083
 20
280.0597097991107
 10
95.36101778813862
 20
279.828697651774
 10
94.98219361813723
 20
279.5178063818627
 10
94.67130234822599
 20
279.1389822118614
 10
94.44029020088921
 20
278.7067817351991
 10
94.29803398540218
 20
278.237812568595
 10
94.25000000000003
 20
277.7500951923395
  0
LINE
  5
173
330
1F
100
AcDbEntity
  8
1
  6
CONTINUOUS
 62
     7
100
AcDbLine
 10
96.7499048076604
 20
280.25
 30
0.0
 11
102.7500951923396
 21
280.25
 31
0.0
  0
LWPOLYLINE
  5
174
330
1F
100
AcDbEntity
  8
1
  6
CONTINUOUS
 62
     7
100
AcDbPolyline
 90
        9
 70
     0
 43
0.0
 10
105.25
 20
277.7500951923395
 10
105.2019660145976
 20
278.237812568595
 10
105.0597097991106
 20
278.7067817351991
 10
104.8286976517738
 20
279.1389822118614
 10
104.5178063818628
 20
279.5178063818627
 10
104.1389822118614
 20
279.828697651774
 10
103.7067817351992
 20
280.0597097991107
 10
103.2378125685948
 20
280.2019660145978
 10
102.7500951923396
 20
280.25
  0
CIRCLE
  5
175
330
1F
100
AcDbEntity
  8
1
  6
CONTINUOUS
 62
     7
100
AcDbCircle
 10
99.74999999999997
 20
276.75
 30
0.0
 40
3.099999999999992
  0
ARC
  5
176
330
1F
100
AcDbEntity
  8
1
  6
CONTINUOUS
 62
     7
100
AcDbCircle
 10
191.75
 20
276.75
 30
0.0
 40
5.500000000000004
100
AcDbArc
 50
294.6199773286568
 51
0.0
  0
LINE
  5
177
330
1F
100
AcDbEntity
  8
1
  6
CONTINUOUS
 62
     7
100
AcDbLine
 10
189.4587121525221
 20
271.75
 30
0.0
 11
194.0412878474779
 21
271.75
 31
0.0
  0
ARC
  5
178
330
1F
100
AcDbEntity
  8
1
  6
CONTINUOUS
 62
     7
100
AcDbCircle
 10
191.75
 20
276.75
 30
0.0
 40
5.500000000000004
100
AcDbArc
 50
180.0
 51
245.3800226713432
  0
LWPOLYLINE
  5
179
330
1F
100
AcDbEntity
  8
1
  6
CONTINUOUS
 62
     7
100
AcDbPolyline
 90
        9
 70
     0
 43
0.0
 10
188.7499048076604
 20
280.25
 10
188.262187431405
 20
280.2019660145978
 10
187.7932182648008
 20
280.0597097991107
 10
187.3610177881386
 20
279.828697651774
 10
186.9821936181372
 20
279.5178063818627
 10
186.671302348226
 20
279.1389822118614
 10
186.4402902008892
 20
278.7067817351991
 10
186.2980339854022
 20
278.237812568595
 10
186.25
 20
277.7500951923395
  0
LINE
  5
17A
330
1F
100
AcDbEntity
  8
1
  6
CONTINUOUS
 62
     7
100
AcDbLine
 10
194.7500951923396
 20
280.25
 30
0.0
 11
188.7499048076604
 21
280.25
 31
0.0
  0
LWPOLYLINE
  5
17B
330
1F
100
AcDbEntity
  8
1
  6
CONTINUOUS
 62
     7
100
AcDbPolyline
 90
        9
 70
     0
 43
0.0
 10
197.25
 20
277.7500951923395
 10
197.2019660145976
 20
278.237812568595
 10
197.0597097991105
 20
278.7067817351991
 10
196.8286976517738
 20
279.1389822118614
 10
196.5178063818628
 20
279.5178063818627
 10
196.1389822118614
 20
279.828697651774
 10
195.7067817351991
 20
280.0597097991107
 10
195.2378125685948
 20
280.2019660145978
 10
194.7500951923396
 20
280.25
  0
CIRCLE
  5
17C
330
1F
100
AcDbEntity
  8
1
  6
CONTINUOUS
 62
     7
100
AcDbCircle
 10
191.75
 20
276.75
 30
0.0
 40
3.099999999999992
  0
LWPOLYLINE
  5
17D
330
1F
100
AcDbEntity
  8
1
  6
CONTINUOUS
 62
     7
100
AcDbPolyline
 90
        9
 70
     0
 43
0.0
 10
94.25000000000003
 20
192.2499048076604
 10
94.29803398540218
 20
191.7621874314049
 10
94.44029020088921
 20
191.2932182648008
 10
94.67130234822599
 20
190.8610177881386
 10
94.98219361813723
 20
190.4821936181372
 10
95.36101778813862
 20
190.171302348226
 10
95.79321826480083
 20
189.9402902008892
 10
96.262187431405
 20
189.7980339854022
 10
96.7499048076604
 20
189.75
  0
ARC
  5
17E
330
1F
100
AcDbEntity
  8
1
  6
CONTINUOUS
 62
     7
100
AcDbCircle
 10
99.74999999999997
 20
193.25
 30
0.0
 40
5.500000000000004
100
AcDbArc
 50
114.6199773286568
 51
180.0
  0
LINE
  5
17F
330
1F
100
AcDbEntity
  8
1
  6
CONTINUOUS
 62
     7
100
AcDbLine
 10
97.45871215252203
 20
198.25
 30
0.0
 11
102.0412878474778
 21
198.25
 31
0.0
  0
ARC
  5
180
330
1F
100
AcDbEntity
  8
1
  6
CONTINUOUS
 62
     7
100
AcDbCircle
 10
99.74999999999997
 20
193.25
 30
0.0
 40
5.500000000000004
100
AcDbArc
 50
0.0
 51
65.38002267134323
  0
LWPOLYLINE
  5
181
330
1F
100
AcDbEntity
  8
1
  6
CONTINUOUS
 62
     7
100
AcDbPolyline
 90
        9
 70
     0
 43
0.0
 10
102.7500951923396
 20
189.75
 10
103.2378125685948
 20
189.7980339854022
 10
103.7067817351992
 20
189.9402902008892
 10
104.1389822118614
 20
190.171302348226
 10
104.5178063818628
 20
190.4821936181372
 10
104.8286976517738
 20
190.8610177881386
 10
105.0597097991106
 20
191.2932182648008
 10
105.2019660145976
 20
191.7621874314049
 10
105.25
 20
192.2499048076604
  0
LINE
  5
182
330
1F
100
AcDbEntity
  8
1
  6
CONTINUOUS
 62
     7
100
AcDbLine
 10
96.7499048076604
 20
189.75
 30
0.0
 11
102.7500951923396
 21
189.75
 31
0.0
  0
CIRCLE
  5
183
330
1F
100
AcDbEntity
  8
1
  6
CONTINUOUS
 62
     7
100
AcDbCircle
 10
99.74999999999997
 20
193.25
 30
0.0
 40
3.099999999999992
  0
LWPOLYLINE
  5
184
330
1F
100
AcDbEntity
  8
1
  6
CONTINUOUS
 62
     7
100
AcDbPolyline
 90
        9
 70
     0
 43
0.0
 10
186.25
 20
192.2499048076604
 10
186.2980339854022
 20
191.7621874314049
 10
186.4402902008892
 20
191.2932182648008
 10
186.671302348226
 20
190.8610177881386
 10
186.9821936181372
 20
190.4821936181372
 10
187.3610177881386
 20
190.171302348226
 10
187.7932182648008
 20
189.9402902008892
 10
188.262187431405
 20
189.7980339854022
 10
188.7499048076604
 20
189.75
  0
ARC
  5
185
330
1F
100
AcDbEntity
  8
1
  6
CONTINUOUS
 62
     7
100
AcDbCircle
 10
191.75
 20
193.25
 30
0.0
 40
5.500000000000004
100
AcDbArc
 50
114.6199773286568
 51
180.0
  0
LINE
  5
186
330
1F
100
AcDbEntity
  8
1
  6
CONTINUOUS
 62
     7
100
AcDbLine
 10
189.4587121525221
 20
198.25
 30
0.0
 11
194.0412878474779
 21
198.25
 31
0.0
  0
ARC
  5
187
330
1F
100
AcDbEntity
  8
1
  6
CONTINUOUS
 62
     7
100
AcDbCircle
 10
191.75
 20
193.25
 30
0.0
 40
5.500000000000004
100
AcDbArc
 50
0.0
 51
65.38002267134323
  0
LWPOLYLINE
  5
188
330
1F
100
AcDbEntity
  8
1
  6
CONTINUOUS
 62
     7
100
AcDbPolyline
 90
        9
 70
     0
 43
0.0
 10
194.7500951923396
 20
189.75
 10
195.2378125685948
 20
189.7980339854022
 10
195.7067817351991
 20
189.9402902008892
 10
196.1389822118614
 20
190.171302348226
 10
196.5178063818628
 20
190.4821936181372
 10
196.8286976517738
 20
190.8610177881386
 10
197.0597097991105
 20
191.2932182648008
 10
197.2019660145976
 20
191.7621874314049
 10
197.25
 20
192.2499048076604
  0
LINE
  5
189
330
1F
100
AcDbEntity
  8
1
  6
CONTINUOUS
 62
     7
100
AcDbLine
 10
194.7500951923396
 20
189.75
 30
0.0
 11
188.7499048076604
 21
189.75
 31
0.0
  0
CIRCLE
  5
18A
330
1F
100
AcDbEntity
  8
1
  6
CONTINUOUS
 62
     7
100
AcDbCircle
 10
191.75
 20
193.25
 30
0.0
 40
3.099999999999992
  0
LWPOLYLINE
  5
18B
330
1F
100
AcDbEntity
  8
1
  6
CONTINUOUS
 62
     7
100
AcDbPolyline
 90
        9
 70
     0
 43
0.0
 10
140.25
 20
192.2499048076604
 10
140.2980339854022
 20
191.7621874314049
 10
140.4402902008892
 20
191.2932182648008
 10
140.671302348226
 20
190.8610177881386
 10
140.982193618137
 20
190.4821936181372
 10
141.3610177881386
 20
190.171302348226
 10
141.7932182648006
 20
189.9402902008892
 10
142.262187431405
 20
189.7980339854022
 10
142.7499048076604
 20
189.75
  0
ARC
  5
18C
330
1F
100
AcDbEntity
  8
1
  6
CONTINUOUS
 62
     7
100
AcDbCircle
 10
145.75
 20
193.25
 30
0.0
 40
5.500000000000004
100
AcDbArc
 50
114.6199773286568
 51
180.0
  0
LINE
  5
18D
330
1F
100
AcDbEntity
  8
1
  6
CONTINUOUS
 62
     7
100
AcDbLine
 10
143.458712152522
 20
198.25
 30
0.0
 11
148.0412878474778
 21
198.25
 31
0.0
  0
ARC
  5
18E
330
1F
100
AcDbEntity
  8
1
  6
CONTINUOUS
 62
     7
100
AcDbCircle
 10
145.75
 20
193.25
 30
0.0
 40
5.500000000000004
100
AcDbArc
 50
0.0
 51
65.38002267134323
  0
LWPOLYLINE
  5
18F
330
1F
100
AcDbEntity
  8
1
  6
CONTINUOUS
 62
     7
100
AcDbPolyline
 90
        9
 70
     0
 43
0.0
 10
148.7500951923396
 20
189.75
 10
149.2378125685948
 20
189.7980339854022
 10
149.7067817351992
 20
189.9402902008892
 10
150.1389822118614
 20
190.171302348226
 10
150.5178063818628
 20
190.4821936181372
 10
150.8286976517738
 20
190.8610177881386
 10
151.0597097991106
 20
191.2932182648008
 10
151.2019660145976
 20
191.7621874314049
 10
151.25
 20
192.2499048076604
  0
LINE
  5
190
330
1F
100
AcDbEntity
  8
1
  6
CONTINUOUS
 62
     7
100
AcDbLine
 10
148.7500951923396
 20
189.75
 30
0.0
 11
142.7499048076604
 21
189.75
 31
0.0
  0
CIRCLE
  5
191
330
1F
100
AcDbEntity
  8
1
  6
CONTINUOUS
 62
     7
100
AcDbCircle
 10
145.75
 20
193.25
 30
0.0
 40
3.099999999999992
  0
LINE
  5
192
330
1F
100
AcDbEntity
  8
1
  6
CONTINUOUS
 62
     7
100
AcDbLine
 10
72.90874590698363
 20
186.65
 30
0.0
 11
77.25863167182636
 21
186.65
 31
0.0
  0
LINE
  5
193
330
1F
100
AcDbEntity
  8
1
  6
CONTINUOUS
 62
     7
100
AcDbLine
 10
214.2413683281736
 20
186.65
 30
0.0
 11
218.5912540930164
 21
186.65
 31
0.0
  0
LINE
  5
194
330
1F
100
AcDbEntity
  8
1
  6
CONTINUOUS
 62
     7
100
AcDbLine
 10
226.75
 20
187.0
 30
0.0
 11
226.75
 21
235.0
 31
0.0
  0
ARC
  5
195
330
1F
100
AcDbEntity
  8
1
  6
CONTINUOUS
 62
     7
100
AcDbCircle
 10
221.75
 20
187.0
 30
0.0
 40
5.000000000000004
100
AcDbArc
 50
270.0
 51
0.0
  0
LINE
  5
196
330
1F
100
AcDbEntity
  8
1
  6
CONTINUOUS
 62
     7
100
AcDbLine
 10
224.1000000000001
 20
215.0
 30
0.0
 11
224.1000000000001
 21
230.0
 31
0.0
  0
ARC
  5
197
330
1F
100
AcDbEntity
  8
1
  6
CONTINUOUS
 62
     7
100
AcDbCircle
 10
221.75
 20
282.9999999999999
 30
0.0
 40
5.000000000000004
100
AcDbArc
 50
0.0
 51
90.0
  0
LINE
  5
198
330
1F
100
AcDbEntity
  8
1
  6
CONTINUOUS
 62
     7
100
AcDbLine
 10
226.75
 20
235.0
 30
0.0
 11
226.75
 21
282.9999999999999
 31
0.0
  0
LINE
  5
199
330
1F
100
AcDbEntity
  8
1
  6
CONTINUOUS
 62
     7
100
AcDbLine
 10
218.5912540930164
 20
283.35
 30
0.0
 11
214.2413683281736
 21
283.35
 31
0.0
  0
LINE
  5
19A
330
1F
100
AcDbEntity
  8
1
  6
CONTINUOUS
 62
     7
100
AcDbLine
 10
77.25863167182636
 20
283.35
 30
0.0
 11
72.90874590698363
 21
283.35
 31
0.0
  0
LINE
  5
19B
330
1F
100
AcDbEntity
  8
1
  6
CONTINUOUS
 62
     7
100
AcDbLine
 10
148.7500951923396
 20
280.25
 30
0.0
 11
142.7499048076604
 21
280.25
 31
0.0
  0
ARC
  5
19C
330
1F
100
AcDbEntity
  8
1
  6
CONTINUOUS
 62
     7
100
AcDbCircle
 10
145.75
 20
276.75
 30
0.0
 40
5.500000000000004
100
AcDbArc
 50
294.6199773286568
 51
0.0
  0
LINE
  5
19D
330
1F
100
AcDbEntity
  8
1
  6
CONTINUOUS
 62
     7
100
AcDbLine
 10
143.458712152522
 20
271.75
 30
0.0
 11
148.0412878474778
 21
271.75
 31
0.0
  0
ARC
  5
19E
330
1F
100
AcDbEntity
  8
1
  6
CONTINUOUS
 62
     7
100
AcDbCircle
 10
145.75
 20
276.75
 30
0.0
 40
5.500000000000004
100
AcDbArc
 50
180.0
 51
245.3800226713432
  0
CIRCLE
  5
19F
330
1F
100
AcDbEntity
  8
1
  6
CONTINUOUS
 62
     7
100
AcDbCircle
 10
67.75
 20
190.0
 30
0.0
 40
1.400000000000012
  0
CIRCLE
  5
1A0
330
1F
100
AcDbEntity
  8
1
  6
CONTINUOUS
 62
     7
100
AcDbCircle
 10
67.75
 20
279.9999999999999
 30
0.0
 40
1.400000000000012
  0
CIRCLE
  5
1A1
330
1F
100
AcDbEntity
  8
1
  6
CONTINUOUS
 62
     7
100
AcDbCircle
 10
223.75
 20
190.0
 30
0.0
 40
1.400000000000012
  0
CIRCLE
  5
1A2
330
1F
100
AcDbEntity
  8
1
  6
CONTINUOUS
 62
     7
100
AcDbCircle
 10
223.75
 20
279.9999999999999
 30
0.0
 40
1.400000000000012
  0
LINE
  5
1A3
330
1F
100
AcDbEntity
  8
1
  6
CONTINUOUS
 62
     7
100
AcDbLine
 10
224.0738193966276
 20
215.0
 30
0.0
 11
224.0738193966276
 21
230.0
 31
0.0
  0
LWPOLYLINE
  5
1A4
330
1F
100
AcDbEntity
  8
1
  6
CONTINUOUS
 62
     7
100
AcDbPolyline
 90
        9
 70
     0
 43
0.0
 10
142.7499048076604
 20
280.25
 10
142.262187431405
 20
280.2019660145978
 10
141.7932182648008
 20
280.0597097991107
 10
141.3610177881386
 20
279.828697651774
 10
140.9821936181372
 20
279.5178063818627
 10
140.671302348226
 20
279.1389822118614
 10
140.4402902008892
 20
278.7067817351991
 10
140.2980339854022
 20
278.237812568595
 10
140.25
 20
277.7500951923395
  0
LWPOLYLINE
  5
1A5
330
1F
100
AcDbEntity
  8
1
  6
CONTINUOUS
 62
     7
100
AcDbPolyline
 90
        9
 70
     0
 43
0.0
 10
151.25
 20
277.7500951923395
 10
151.2019660145976
 20
278.237812568595
 10
151.0597097991106
 20
278.7067817351991
 10
150.8286976517738
 20
279.1389822118614
 10
150.5178063818628
 20
279.5178063818627
 10
150.1389822118614
 20
279.828697651774
 10
149.7067817351992
 20
280.0597097991107
 10
149.2378125685948
 20
280.2019660145978
 10
148.7500951923396
 20
280.25
  0
CIRCLE
  5
1A6
330
1F
100
AcDbEntity
  8
1
  6
CONTINUOUS
 62
     7
100
AcDbCircle
 10
145.75
 20
276.75
 30
0.0
 40
3.099999999999992
  0
CIRCLE
  5
1A7
330
1F
100
AcDbEntity
  8
1
  6
CONTINUOUS
 62
     7
100
AcDbCircle
 10
122.75
 20
285.75
 30
0.0
 40
1.249999999999973
  0
CIRCLE
  5
1A8
330
1F
100
AcDbEntity
  8
1
  6
CONTINUOUS
 62
     7
100
AcDbCircle
 10
122.75
 20
184.25
 30
0.0
 40
1.249999999999973
  0
CIRCLE
  5
1A9
330
1F
100
AcDbEntity
  8
1
  6
CONTINUOUS
 62
     7
100
AcDbCircle
 10
145.75
 20
193.25
 30
0.0
 40
2.099999999999991
  0
CIRCLE
  5
1AA
330
1F
100
AcDbEntity
  8
1
  6
CONTINUOUS
 62
     7
100
AcDbCircle
 10
99.74999999999997
 20
193.25
 30
0.0
 40
2.099999999999991
  0
CIRCLE
  5
1AB
330
1F
100
AcDbEntity
  8
1
  6
CONTINUOUS
 62
     7
100
AcDbCircle
 10
191.75
 20
193.25
 30
0.0
 40
2.099999999999991
  0
CIRCLE
  5
1AC
330
1F
100
AcDbEntity
  8
1
  6
CONTINUOUS
 62
     7
100
AcDbCircle
 10
191.75
 20
276.75
 30
0.0
 40
2.099999999999991
  0
CIRCLE
  5
1AD
330
1F
100
AcDbEntity
  8
1
  6
CONTINUOUS
 62
     7
100
AcDbCircle
 10
145.75
 20
276.75
 30
0.0
 40
2.099999999999991
  0
CIRCLE
  5
1AE
330
1F
100
AcDbEntity
  8
1
  6
CONTINUOUS
 62
     7
100
AcDbCircle
 10
99.74999999999997
 20
276.75
 30
0.0
 40
2.099999999999991
  0
LINE
  5
1AF
330
1F
100
AcDbEntity
  8
1
  6
CONTINUOUS
 62
     7
100
AcDbLine
 10
171.76537449514
 20
288.0
 30
0.0
 11
171.76537449514
 21
283.35
 31
0.0
  0
LINE
  5
1B0
330
1F
100
AcDbEntity
  8
1
  6
CONTINUOUS
 62
     7
100
AcDbLine
 10
165.73462550486
 20
182.0
 30
0.0
 11
165.73462550486
 21
186.65
 31
0.0
  0
LINE
  5
1B1
330
1F
100
AcDbEntity
  8
1
  6
CONTINUOUS
 62
     7
100
AcDbLine
 10
165.73462550486
 20
288.0
 30
0.0
 11
165.73462550486
 21
283.35
 31
0.0
  0
LINE
  5
1B2
330
1F
100
AcDbEntity
  8
1
  6
CONTINUOUS
 62
     7
100
AcDbLine
 10
125.76537449514
 20
288.0
 30
0.0
 11
125.76537449514
 21
283.35
 31
0.0
  0
LINE
  5
1B3
330
1F
100
AcDbEntity
  8
1
  6
CONTINUOUS
 62
     7
100
AcDbLine
 10
125.76537449514
 20
182.0
 30
0.0
 11
125.76537449514
 21
186.65
 31
0.0
  0
LINE
  5
1B4
330
1F
100
AcDbEntity
  8
1
  6
CONTINUOUS
 62
     7
100
AcDbLine
 10
119.73462550486
 20
182.0
 30
0.0
 11
119.73462550486
 21
186.65
 31
0.0
  0
LINE
  5
1B5
330
1F
100
AcDbEntity
  8
1
  6
CONTINUOUS
 62
     7
100
AcDbLine
 10
119.73462550486
 20
288.0
 30
0.0
 11
119.73462550486
 21
283.35
 31
0.0
  0
LINE
  5
1B6
330
1F
100
AcDbEntity
  8
1
  6
CONTINUOUS
 62
     7
100
AcDbLine
 10
171.76537449514
 20
182.0
 30
0.0
 11
171.76537449514
 21
186.65
 31
0.0
  0
LWPOLYLINE
  5
1B7
330
1F
100
AcDbEntity
  8
1
  6
CONTINUOUS
 62
     7
100
AcDbPolyline
 90
        5
 70
     0
 43
0.0
 10
71.43486939277724
 20
272.9802985409543
 10
71.60247505112002
 20
273.1189243109954
 10
71.75612414737562
 20
273.269496325729
 10
71.92929153845421
 20
273.4753213070899
 10
72.09068996003457
 20
273.7170586666652
  0
ARC
  5
1B8
330
1F
100
AcDbEntity
  8
1
  6
CONTINUOUS
 62
     7
100
AcDbCircle
 10
69.94449260722216
 20
274.9803308436778
 30
0.0
 40
2.490385446157484
100
AcDbArc
 50
329.5185284223012
 51
359.6489750861278
  0
LWPOLYLINE
  5
1B9
330
1F
100
AcDbEntity
  8
1
  6
CONTINUOUS
 62
     7
100
AcDbPolyline
 90
        4
 70
     0
 43
0.0
 10
69.92627579571179
 20
272.4738193966278
 10
70.46193597531943
 20
272.5318786750641
 10
70.97270822476084
 20
272.703359909206
 10
71.43486939277724
 20
272.9802985409543
  0
LWPOLYLINE
  5
1BA
330
1F
100
AcDbEntity
  8
1
  6
CONTINUOUS
 62
     7
100
AcDbPolyline
 90
        4
 70
     0
 43
0.0
 10
71.43486939277724
 20
197.0197014590456
 10
70.97270822476084
 20
197.296640090794
 10
70.46193597531943
 20
197.4681213249358
 10
69.92627579571179
 20
197.5261806033722
  0
ARC
  5
1BB
330
1F
100
AcDbEntity
  8
1
  6
CONTINUOUS
 62
     7
100
AcDbCircle
 10
69.94506713908564
 20
195.0197283843586
 30
0.0
 40
2.489810562838868
100
AcDbArc
 50
0.3497429773494345
 51
28.30586453415675
  0
LINE
  5
1BC
330
1F
100
AcDbEntity
  8
1
  6
CONTINUOUS
 62
     7
100
AcDbLine
 10
72.13716812340101
 20
196.2003425945846
 30
0.0
 11
71.98672851910263
 21
196.4453479770118
 31
0.0
  0
ARC
  5
1BD
330
1F
100
AcDbEntity
  8
1
  6
CONTINUOUS
 62
     7
100
AcDbCircle
 10
69.89924973162617
 20
194.9919241932696
 30
0.0
 40
2.543621116304684
100
AcDbArc
 50
34.84787353167223
 51
52.86364152674709
  0
LWPOLYLINE
  5
1BE
330
1F
100
AcDbEntity
  8
1
  6
CONTINUOUS
 62
     7
100
AcDbPolyline
 90
        4
 70
     0
 43
0.0
 10
220.0651306072226
 20
272.9802985409543
 10
220.5272917752392
 20
272.703359909206
 10
221.0380640246806
 20
272.5318786750641
 10
221.573724204288
 20
272.4738193966278
  0
ARC
  5
1BF
330
1F
100
AcDbEntity
  8
1
  6
CONTINUOUS
 62
     7
100
AcDbCircle
 10
221.5549328609146
 20
274.9802716156414
 30
0.0
 40
2.489810562839256
100
AcDbArc
 50
180.3497429773514
 51
208.3058645341554
  0
LINE
  5
1C0
330
1F
100
AcDbEntity
  8
1
  6
CONTINUOUS
 62
     7
100
AcDbLine
 10
219.362831876599
 20
273.7996574054152
 30
0.0
 11
219.5132714808972
 21
273.5546520229882
 31
0.0
  0
ARC
  5
1C1
330
1F
100
AcDbEntity
  8
1
  6
CONTINUOUS
 62
     7
100
AcDbCircle
 10
221.6007502683734
 20
275.0080758067301
 30
0.0
 40
2.543621116304351
100
AcDbArc
 50
214.8478735316721
 51
232.8636415267495
  0
LWPOLYLINE
  5
1C2
330
1F
100
AcDbEntity
  8
1
  6
CONTINUOUS
 62
     7
100
AcDbPolyline
 90
        5
 70
     0
 43
0.0
 10
220.0651306072226
 20
197.0197014590456
 10
219.89752494888
 20
196.8810756890046
 10
219.7438758526243
 20
196.730503674271
 10
219.5707084615458
 20
196.52467869291
 10
219.4093100399654
 20
196.2829413333348
  0
ARC
  5
1C3
330
1F
100
AcDbEntity
  8
1
  6
CONTINUOUS
 62
     7
100
AcDbCircle
 10
221.555507392777
 20
195.0196691563224
 30
0.0
 40
2.490385446156818
100
AcDbArc
 50
149.5185284222966
 51
179.6489750861315
  0
LWPOLYLINE
  5
1C4
330
1F
100
AcDbEntity
  8
1
  6
CONTINUOUS
 62
     7
100
AcDbPolyline
 90
        4
 70
     0
 43
0.0
 10
221.573724204288
 20
197.5261806033722
 10
221.0380640246806
 20
197.4681213249358
 10
220.5272917752392
 20
197.296640090794
 10
220.0651306072226
 20
197.0197014590456
  0
LWPOLYLINE
  5
1C5
330
1F
100
AcDbEntity
  8
1
  6
CONTINUOUS
 62
     7
100
AcDbPolyline
 90
        9
 70
     0
 43
0.0
 10
211.7238193966276
 20
285.85
 10
211.7718580247834
 20
285.3622741949596
 10
211.9141278117108
 20
284.8932914190871
 10
212.145161409284
 20
284.461074417451
 10
212.4560803259137
 20
284.0822330470336
 10
212.834936121999
 20
283.7713259692436
 10
213.2671695817608
 20
283.5403011687217
 10
213.7361702157404
 20
283.398036798992
 10
214.223914592592
 20
283.35
  0
LINE
  5
1C6
330
1F
100
AcDbEntity
  8
1
  6
CONTINUOUS
 62
     7
100
AcDbLine
 10
214.2413683281736
 20
283.35
 30
0.0
 11
214.223914592592
 21
283.35
 31
0.0
  0
LINE
  5
1C7
330
1F
100
AcDbEntity
  8
1
  6
CONTINUOUS
 62
     7
100
AcDbLine
 10
211.7238193966278
 20
288.0
 30
0.0
 11
211.7238193966278
 21
285.85
 31
0.0
  0
LINE
  5
1C8
330
1F
100
AcDbEntity
  8
1
  6
CONTINUOUS
 62
     7
100
AcDbLine
 10
79.77618060337218
 20
288.0
 30
0.0
 11
79.77618060337218
 21
285.85
 31
0.0
  0
LWPOLYLINE
  5
1C9
330
1F
100
AcDbEntity
  8
1
  6
CONTINUOUS
 62
     7
100
AcDbPolyline
 90
        9
 70
     0
 43
0.0
 10
77.27608540740802
 20
283.35
 10
77.76382978425958
 20
283.398036798992
 10
78.232830418239
 20
283.5403011687217
 10
78.66506387800095
 20
283.7713259692436
 10
79.04391967408623
 20
284.0822330470336
 10
79.35483859071581
 20
284.461074417451
 10
79.58587218828919
 20
284.8932914190871
 10
79.72814197521657
 20
285.3622741949596
 10
79.77618060337218
 20
285.85
  0
LINE
  5
1CA
330
1F
100
AcDbEntity
  8
1
  6
CONTINUOUS
 62
     7
100
AcDbLine
 10
77.27608540740802
 20
283.35
 30
0.0
 11
77.25863167182636
 21
283.35
 31
0.0
  0
LINE
  5
1CB
330
1F
100
AcDbEntity
  8
1
  6
CONTINUOUS
 62
     7
100
AcDbLine
 10
69.92627579571179
 20
197.5261806033724
 30
0.0
 11
67.42618060337222
 21
197.5261806033724
 31
0.0
  0
LINE
  5
1CC
330
1F
100
AcDbEntity
  8
1
  6
CONTINUOUS
 62
     7
100
AcDbLine
 10
72.44363433895381
 20
282.85
 30
0.0
 11
72.44363433895381
 21
274.5776860046058
 31
0.0
  0
LINE
  5
1CD
330
1F
100
AcDbEntity
  8
1
  6
CONTINUOUS
 62
     7
100
AcDbLine
 10
72.43483131584141
 20
274.965073491819
 30
0.0
 11
72.43483131584141
 21
195.034926508181
 31
0.0
  0
LWPOLYLINE
  5
1CE
330
1F
100
AcDbEntity
  8
1
  6
CONTINUOUS
 62
     7
100
AcDbPolyline
 90
        9
 70
     0
 43
0.0
 10
218.5563466218532
 20
186.65
 10
218.6538954972235
 20
186.6596073597984
 10
218.7476956240196
 20
186.6880602337444
 10
218.8341423159718
 20
186.7342651938488
 10
218.909913475189
 20
186.7964466094068
 10
218.9720972585148
 20
186.8722148834902
 10
219.0183039780296
 20
186.9586582838174
 10
219.046757935415
 20
187.052454838992
 10
219.0563656610462
 20
187.15
  0
LWPOLYLINE
  5
1CF
330
1F
100
AcDbEntity
  8
1
  6
CONTINUOUS
 62
     7
100
AcDbPolyline
 90
        9
 70
     0
 43
0.0
 10
72.94365337814659
 20
283.35
 10
72.84610450277643
 20
283.3403926402016
 10
72.75230437598037
 20
283.3119397662556
 10
72.66585768402803
 20
283.2657348061512
 10
72.590086524811
 20
283.2035533905932
 10
72.527902741485
 20
283.1277851165098
 10
72.48169602197038
 20
283.0413417161826
 10
72.453242064585
 20
282.947545161008
 10
72.44363433895381
 20
282.85
  0
LINE
  5
1D0
330
1F
100
AcDbEntity
  8
1
  6
CONTINUOUS
 62
     7
100
AcDbLine
 10
211.7238193966278
 20
182.0
 30
0.0
 11
211.7238193966278
 21
184.15
 31
0.0
  0
LINE
  5
1D1
330
1F
100
AcDbEntity
  8
1
  6
CONTINUOUS
 62
     7
100
AcDbLine
 10
221.573724204288
 20
272.4738193966278
 30
0.0
 11
224.0738193966276
 21
272.4738193966278
 31
0.0
  0
LINE
  5
1D2
330
1F
100
AcDbEntity
  8
1
  6
CONTINUOUS
 62
     7
100
AcDbLine
 10
221.573724204288
 20
197.5261806033724
 30
0.0
 11
224.0738193966276
 21
197.5261806033724
 31
0.0
  0
LWPOLYLINE
  5
1D3
330
1F
100
AcDbEntity
  8
1
  6
CONTINUOUS
 62
     7
100
AcDbPolyline
 90
        9
 70
     0
 43
0.0
 10
79.77618060337218
 20
184.15
 10
79.72814197521657
 20
184.6377258050404
 10
79.58587218828919
 20
185.1067085809128
 10
79.35483859071581
 20
185.538925582549
 10
79.04391967408623
 20
185.9177669529664
 10
78.66506387800095
 20
186.2286740307564
 10
78.232830418239
 20
186.4596988312782
 10
77.76382978425958
 20
186.601963201008
 10
77.27608540740779
 20
186.65
  0
LINE
  5
1D4
330
1F
100
AcDbEntity
  8
1
  6
CONTINUOUS
 62
     7
100
AcDbLine
 10
77.25863167182636
 20
186.65
 30
0.0
 11
77.27608540740779
 21
186.65
 31
0.0
  0
LWPOLYLINE
  5
1D5
330
1F
100
AcDbEntity
  8
1
  6
CONTINUOUS
 62
     7
100
AcDbPolyline
 90
        9
 70
     0
 43
0.0
 10
219.0563656610462
 20
282.85
 10
219.046757935415
 20
282.947545161008
 10
219.0183039780296
 20
283.0413417161826
 10
218.9720972585148
 20
283.1277851165098
 10
218.909913475189
 20
283.2035533905932
 10
218.8341423159718
 20
283.2657348061512
 10
218.7476956240194
 20
283.3119397662556
 10
218.6538954972235
 20
283.3403926402016
 10
218.5563466218532
 20
283.35
  0
LWPOLYLINE
  5
1D6
330
1F
100
AcDbEntity
  8
1
  6
CONTINUOUS
 62
     7
100
AcDbPolyline
 90
        9
 70
     0
 43
0.0
 10
72.44363433895381
 20
187.15
 10
72.453242064585
 20
187.052454838992
 10
72.48169602197038
 20
186.9586582838174
 10
72.527902741485
 20
186.8722148834902
 10
72.590086524811
 20
186.7964466094068
 10
72.66585768402803
 20
186.7342651938488
 10
72.75230437598037
 20
186.6880602337444
 10
72.84610450277643
 20
186.6596073597984
 10
72.94365337814659
 20
186.65
  0
LWPOLYLINE
  5
1D7
330
1F
100
AcDbEntity
  8
1
  6
CONTINUOUS
 62
     7
100
AcDbPolyline
 90
        9
 70
     0
 43
0.0
 10
214.223914592592
 20
186.65
 10
213.7361702157404
 20
186.601963201008
 10
213.267169581761
 20
186.4596988312782
 10
212.834936121999
 20
186.2286740307564
 10
212.4560803259137
 20
185.9177669529664
 10
212.1451614092842
 20
185.538925582549
 10
211.9141278117108
 20
185.1067085809128
 10
211.7718580247834
 20
184.6377258050404
 10
211.7238193966278
 20
184.15
  0
LINE
  5
1D8
330
1F
100
AcDbEntity
  8
1
  6
CONTINUOUS
 62
     7
100
AcDbLine
 10
214.223914592592
 20
186.65
 30
0.0
 11
214.2413683281736
 21
186.65
 31
0.0
  0
LINE
  5
1D9
330
1F
100
AcDbEntity
  8
1
  6
CONTINUOUS
 62
     7
100
AcDbLine
 10
79.77618060337218
 20
182.0
 30
0.0
 11
79.77618060337218
 21
184.15
 31
0.0
  0
LINE
  5
1DA
330
1F
100
AcDbEntity
  8
1
  6
CONTINUOUS
 62
     7
100
AcDbLine
 10
67.42618060337222
 20
272.4738193966276
 30
0.0
 11
69.92627579571179
 21
272.4738193966276
 31
0.0
  0
LINE
  5
1DB
330
1F
100
AcDbEntity
  8
1
  6
CONTINUOUS
 62
     7
100
AcDbLine
 10
129.8387234393788
 20
288.0
 30
0.0
 11
129.8387234393788
 21
283.35
 31
0.0
  0
LINE
  5
1DC
330
1F
100
AcDbEntity
  8
1
  6
CONTINUOUS
 62
     7
100
AcDbLine
 10
129.8387234393788
 20
182.0
 30
0.0
 11
129.8387234393788
 21
186.65
 31
0.0
  0
LINE
  5
1DD
330
1F
100
AcDbEntity
  8
1
  6
CONTINUOUS
 62
     7
100
AcDbLine
 10
161.6612765606212
 20
288.0
 30
0.0
 11
161.6612765606212
 21
283.35
 31
0.0
  0
LINE
  5
1DE
330
1F
100
AcDbEntity
  8
1
  6
CONTINUOUS
 62
     7
100
AcDbLine
 10
161.6612765606212
 20
182.0
 30
0.0
 11
161.6612765606212
 21
186.65
 31
0.0
  0
LINE
  5
1DF
330
1F
100
AcDbEntity
  8
1
  6
CONTINUOUS
 62
     7
100
AcDbLine
 10
175.8387234393788
 20
288.0
 30
0.0
 11
175.8387234393788
 21
283.35
 31
0.0
  0
LINE
  5
1E0
330
1F
100
AcDbEntity
  8
1
  6
CONTINUOUS
 62
     7
100
AcDbLine
 10
175.8387234393788
 20
182.0
 30
0.0
 11
175.8387234393788
 21
186.65
 31
0.0
  0
LINE
  5
1E1
330
1F
100
AcDbEntity
  8
1
  6
CONTINUOUS
 62
     7
100
AcDbLine
 10
115.661276560621
 20
182.0
 30
0.0
 11
115.661276560621
 21
186.65
 31
0.0
  0
LINE
  5
1E2
330
1F
100
AcDbEntity
  8
1
  6
CONTINUOUS
 62
     7
100
AcDbLine
 10
115.661276560621
 20
288.0
 30
0.0
 11
115.661276560621
 21
283.35
 31
0.0
  0
LINE
  5
1E3
330
1F
100
AcDbEntity
  8
1
  6
CONTINUOUS
 62
     7
100
AcDbLine
 10
119.25
 20
283.35
 30
0.0
 11
115.661276560621
 21
283.35
 31
0.0
  0
LINE
  5
1E4
330
1F
100
AcDbEntity
  8
1
  6
CONTINUOUS
 62
     7
100
AcDbLine
 10
151.2761806033722
 20
283.35
 30
0.0
 11
161.6612765606212
 21
283.35
 31
0.0
  0
LINE
  5
1E5
330
1F
100
AcDbEntity
  8
1
  6
CONTINUOUS
 62
     7
100
AcDbLine
 10
94.22381939662763
 20
186.65
 30
0.0
 11
77.27608540740779
 21
186.65
 31
0.0
  0
LINE
  5
1E6
330
1F
100
AcDbEntity
  8
1
  6
CONTINUOUS
 62
     7
100
AcDbLine
 10
214.223914592592
 20
186.65
 30
0.0
 11
197.2761806033722
 21
186.65
 31
0.0
  0
LINE
  5
1E7
330
1F
100
AcDbEntity
  8
1
  6
CONTINUOUS
 62
     7
100
AcDbLine
 10
94.22381939662763
 20
283.35
 30
0.0
 11
77.27608540740802
 21
283.35
 31
0.0
  0
LINE
  5
1E8
330
1F
100
AcDbEntity
  8
1
  6
CONTINUOUS
 62
     7
100
AcDbLine
 10
214.223914592592
 20
283.35
 30
0.0
 11
197.2761806033722
 21
283.35
 31
0.0
  0
LINE
  5
1E9
330
1F
100
AcDbEntity
  8
1
  6
CONTINUOUS
 62
     7
100
AcDbLine
 10
125.75
 20
257.0
 30
0.0
 11
125.75
 21
248.0
 31
0.0
  0
LINE
  5
1EA
330
1F
100
AcDbEntity
  8
1
  6
CONTINUOUS
 62
     7
100
AcDbLine
 10
165.75
 20
213.0
 30
0.0
 11
165.75
 21
222.0
 31
0.0
  0
LINE
  5
1EB
330
1F
100
AcDbEntity
  8
1
  6
CONTINUOUS
 62
     7
100
AcDbLine
 10
119.75
 20
213.0
 30
0.0
 11
119.75
 21
222.0
 31
0.0
  0
LINE
  5
1EC
330
1F
100
AcDbEntity
  8
1
  6
CONTINUOUS
 62
     7
100
AcDbLine
 10
165.75
 20
248.0
 30
0.0
 11
165.75
 21
257.0
 31
0.0
  0
LINE
  5
1ED
330
1F
100
AcDbEntity
  8
1
  6
CONTINUOUS
 62
     7
100
AcDbLine
 10
125.75
 20
222.0
 30
0.0
 11
125.75
 21
213.0
 31
0.0
  0
LINE
  5
1EE
330
1F
100
AcDbEntity
  8
1
  6
CONTINUOUS
 62
     7
100
AcDbLine
 10
171.75
 20
257.0
 30
0.0
 11
171.75
 21
248.0
 31
0.0
  0
LINE
  5
1EF
330
1F
100
AcDbEntity
  8
1
  6
CONTINUOUS
 62
     7
100
AcDbLine
 10
119.75
 20
248.0
 30
0.0
 11
119.75
 21
257.0
 31
0.0
  0
LINE
  5
1F0
330
1F
100
AcDbEntity
  8
1
  6
CONTINUOUS
 62
     7
100
AcDbLine
 10
171.75
 20
222.0
 30
0.0
 11
171.75
 21
213.0
 31
0.0
  0
LINE
  5
1F1
330
1F
100
AcDbEntity
  8
1
  6
CONTINUOUS
 62
     7
100
AcDbLine
 10
125.75
 20
222.0
 30
0.0
 11
125.75
 21
248.0
 31
0.0
  0
LINE
  5
1F2
330
1F
100
AcDbEntity
  8
1
  6
CONTINUOUS
 62
     7
100
AcDbLine
 10
119.75
 20
248.0
 30
0.0
 11
119.75
 21
222.0
 31
0.0
  0
LINE
  5
1F3
330
1F
100
AcDbEntity
  8
1
  6
CONTINUOUS
 62
     7
100
AcDbLine
 10
165.75
 20
222.0
 30
0.0
 11
165.75
 21
248.0
 31
0.0
  0
LINE
  5
1F4
330
1F
100
AcDbEntity
  8
1
  6
CONTINUOUS
 62
     7
100
AcDbLine
 10
171.75
 20
248.0
 30
0.0
 11
171.75
 21
222.0
 31
0.0
  0
LINE
  5
1F5
330
1F
100
AcDbEntity
  8
1
  6
CONTINUOUS
 62
     7
100
AcDbLine
 10
211.75
 20
253.5
 30
0.0
 11
211.75
 21
254.5
 31
0.0
  0
LINE
  5
1F6
330
1F
100
AcDbEntity
  8
1
  6
CONTINUOUS
 62
     7
100
AcDbLine
 10
211.75
 20
253.5
 30
0.0
 11
211.75
 21
216.5
 31
0.0
  0
LINE
  5
1F7
330
1F
100
AcDbEntity
  8
1
  6
CONTINUOUS
 62
     7
100
AcDbLine
 10
211.75
 20
215.5
 30
0.0
 11
211.75
 21
216.5
 31
0.0
  0
CIRCLE
  5
1F8
330
1F
100
AcDbEntity
  8
1
  6
CONTINUOUS
 62
     7
100
AcDbCircle
 10
160.75
 20
235.0
 30
0.0
 40
2.000000000000002
  0
CIRCLE
  5
1F9
330
1F
100
AcDbEntity
  8
1
  6
CONTINUOUS
 62
     7
100
AcDbCircle
 10
176.75
 20
235.0
 30
0.0
 40
2.000000000000002
  0
CIRCLE
  5
1FA
330
1F
100
AcDbEntity
  8
1
  6
CONTINUOUS
 62
     7
100
AcDbCircle
 10
84.75000000000001
 20
235.0
 30
0.0
 40
2.000000000000002
  0
CIRCLE
  5
1FB
330
1F
100
AcDbEntity
  8
1
  6
CONTINUOUS
 62
     7
100
AcDbCircle
 10
206.75
 20
235.0
 30
0.0
 40
2.000000000000002
  0
CIRCLE
  5
1FC
330
1F
100
AcDbEntity
  8
1
  6
CONTINUOUS
 62
     7
100
AcDbCircle
 10
130.75
 20
235.0
 30
0.0
 40
2.000000000000002
  0
CIRCLE
  5
1FD
330
1F
100
AcDbEntity
  8
1
  6
CONTINUOUS
 62
     7
100
AcDbCircle
 10
114.75
 20
235.0
 30
0.0
 40
2.000000000000002
  0
LINE
  5
1FE
330
1F
100
AcDbEntity
  8
1
  6
CONTINUOUS
 62
     7
100
AcDbLine
 10
144.415063509461
 20
227.687822173509
 30
0.0
 11
143.1650635094612
 21
225.5227586640478
 31
0.0
  0
LINE
  5
1FF
330
1F
100
AcDbEntity
  8
1
  6
CONTINUOUS
 62
     7
100
AcDbLine
 10
140.7777568135664
 20
229.787822173509
 30
0.0
 11
144.415063509461
 21
227.687822173509
 31
0.0
  0
LINE
  5
200
330
1F
100
AcDbEntity
  8
1
  6
CONTINUOUS
 62
     7
100
AcDbLine
 10
147.0849364905388
 20
242.312177826491
 30
0.0
 11
150.7222431864336
 21
240.2121778264909
 31
0.0
  0
ARC
  5
201
330
1F
100
AcDbEntity
  8
1
  6
CONTINUOUS
 62
     7
100
AcDbCircle
 10
209.25
 20
266.5
 30
0.0
 40
2.500000000000002
100
AcDbArc
 50
0.0
 51
90.0
  0
ARC
  5
202
330
1F
100
AcDbEntity
  8
1
  6
CONTINUOUS
 62
     7
100
AcDbCircle
 10
209.25
 20
203.4999999999999
 30
0.0
 40
2.500000000000002
100
AcDbArc
 50
270.0
 51
0.0
  0
ARC
  5
203
330
1F
100
AcDbEntity
  8
1
  6
CONTINUOUS
 62
     7
100
AcDbCircle
 10
82.25000000000001
 20
203.4999999999999
 30
0.0
 40
2.500000000000002
100
AcDbArc
 50
180.0
 51
270.0
  0
ARC
  5
204
330
1F
100
AcDbEntity
  8
1
  6
CONTINUOUS
 62
     7
100
AcDbCircle
 10
82.25000000000001
 20
266.5
 30
0.0
 40
2.500000000000002
100
AcDbArc
 50
90.0
 51
180.0
  0
LINE
  5
205
330
1F
100
AcDbEntity
  8
1
  6
CONTINUOUS
 62
     7
100
AcDbLine
 10
199.4688360752945
 20
233.8776944967024
 30
0.0
 11
199.9833164642202
 21
233.95
 31
0.0
  0
ARC
  5
206
330
1F
100
AcDbEntity
  8
1
  6
CONTINUOUS
 62
     7
100
AcDbCircle
 10
191.75
 20
235.0
 30
0.0
 40
7.799999999999973
100
AcDbArc
 50
188.272735925316
 51
351.7272640746839
  0
LINE
  5
207
330
1F
100
AcDbEntity
  8
1
  6
CONTINUOUS
 62
     7
100
AcDbLine
 10
183.5166835357798
 20
233.95
 30
0.0
 11
184.0311639247055
 21
233.8776944967024
 31
0.0
  0
LINE
  5
208
330
1F
100
AcDbEntity
  8
1
  6
CONTINUOUS
 62
     7
100
AcDbLine
 10
184.0311639247055
 20
236.1223055032976
 30
0.0
 11
183.5166835357798
 21
236.05
 31
0.0
  0
ARC
  5
209
330
1F
100
AcDbEntity
  8
1
  6
CONTINUOUS
 62
     7
100
AcDbCircle
 10
191.75
 20
235.0
 30
0.0
 40
7.799999999999973
100
AcDbArc
 50
8.272735925315942
 51
171.7272640746839
  0
LINE
  5
20A
330
1F
100
AcDbEntity
  8
1
  6
CONTINUOUS
 62
     7
100
AcDbLine
 10
199.9833164642202
 20
236.05
 30
0.0
 11
199.4688360752945
 21
236.1223055032976
 31
0.0
  0
LINE
  5
20B
330
1F
100
AcDbEntity
  8
1
  6
CONTINUOUS
 62
     7
100
AcDbLine
 10
195.75
 20
235.6
 30
0.0
 11
195.75
 21
234.3999999999999
 31
0.0
  0
ARC
  5
20C
330
1F
100
AcDbEntity
  8
1
  6
CONTINUOUS
 62
     7
100
AcDbCircle
 10
195.25
 20
235.6
 30
0.0
 40
0.5000000000000004
100
AcDbArc
 50
359.9999999999998
 51
89.9999999999992
  0
LINE
  5
20D
330
1F
100
AcDbEntity
  8
1
  6
CONTINUOUS
 62
     7
100
AcDbLine
 10
188.25
 20
236.1
 30
0.0
 11
195.25
 21
236.1
 31
0.0
  0
ARC
  5
20E
330
1F
100
AcDbEntity
  8
1
  6
CONTINUOUS
 62
     7
100
AcDbCircle
 10
188.25
 20
235.6
 30
0.0
 40
0.5000000000000004
100
AcDbArc
 50
90.0
 51
180.0
  0
LINE
  5
20F
330
1F
100
AcDbEntity
  8
1
  6
CONTINUOUS
 62
     7
100
AcDbLine
 10
187.75
 20
234.3999999999999
 30
0.0
 11
187.75
 21
235.6
 31
0.0
  0
ARC
  5
210
330
1F
100
AcDbEntity
  8
1
  6
CONTINUOUS
 62
     7
100
AcDbCircle
 10
188.25
 20
234.3999999999999
 30
0.0
 40
0.5000000000000004
100
AcDbArc
 50
180.0
 51
270.0
  0
LINE
  5
211
330
1F
100
AcDbEntity
  8
1
  6
CONTINUOUS
 62
     7
100
AcDbLine
 10
195.25
 20
233.8999999999999
 30
0.0
 11
188.25
 21
233.8999999999999
 31
0.0
  0
ARC
  5
212
330
1F
100
AcDbEntity
  8
1
  6
CONTINUOUS
 62
     7
100
AcDbCircle
 10
195.25
 20
234.3999999999999
 30
0.0
 40
0.5000000000000004
100
AcDbArc
 50
270.0000000000007
 51
0.0000000000000568
  0
ARC
  5
213
330
1F
100
AcDbEntity
  8
1
  6
CONTINUOUS
 62
     7
100
AcDbCircle
 10
163.25
 20
266.5
 30
0.0
 40
2.500000000000002
100
AcDbArc
 50
0.0
 51
90.0
  0
ARC
  5
214
330
1F
100
AcDbEntity
  8
1
  6
CONTINUOUS
 62
     7
100
AcDbCircle
 10
163.25
 20
203.4999999999999
 30
0.0
 40
2.500000000000002
100
AcDbArc
 50
270.0
 51
0.0
  0
ARC
  5
215
330
1F
100
AcDbEntity
  8
1
  6
CONTINUOUS
 62
     7
100
AcDbCircle
 10
174.25
 20
203.4999999999999
 30
0.0
 40
2.500000000000002
100
AcDbArc
 50
180.0
 51
270.0
  0
ARC
  5
216
330
1F
100
AcDbEntity
  8
1
  6
CONTINUOUS
 62
     7
100
AcDbCircle
 10
174.25
 20
266.5
 30
0.0
 40
2.500000000000002
100
AcDbArc
 50
90.0
 51
180.0
  0
CIRCLE
  5
217
330
1F
100
AcDbEntity
  8
1
  6
CONTINUOUS
 62
     7
100
AcDbCircle
 10
160.75
 20
210.0
 30
0.0
 40
2.000000000000002
  0
CIRCLE
  5
218
330
1F
100
AcDbEntity
  8
1
  6
CONTINUOUS
 62
     7
100
AcDbCircle
 10
176.75
 20
260.0
 30
0.0
 40
2.000000000000002
  0
CIRCLE
  5
219
330
1F
100
AcDbEntity
  8
1
  6
CONTINUOUS
 62
     7
100
AcDbCircle
 10
206.75
 20
210.0
 30
0.0
 40
2.000000000000002
  0
CIRCLE
  5
21A
330
1F
100
AcDbEntity
  8
1
  6
CONTINUOUS
 62
     7
100
AcDbCircle
 10
160.75
 20
260.0
 30
0.0
 40
1.400000000000012
  0
CIRCLE
  5
21B
330
1F
100
AcDbEntity
  8
1
  6
CONTINUOUS
 62
     7
100
AcDbCircle
 10
176.75
 20
210.0
 30
0.0
 40
1.400000000000012
  0
CIRCLE
  5
21C
330
1F
100
AcDbEntity
  8
1
  6
CONTINUOUS
 62
     7
100
AcDbCircle
 10
206.75
 20
260.0
 30
0.0
 40
1.400000000000012
  0
LINE
  5
21D
330
1F
100
AcDbEntity
  8
1
  6
CONTINUOUS
 62
     7
100
AcDbLine
 10
107.4688360752944
 20
233.8776944967024
 30
0.0
 11
107.9833164642202
 21
233.95
 31
0.0
  0
ARC
  5
21E
330
1F
100
AcDbEntity
  8
1
  6
CONTINUOUS
 62
     7
100
AcDbCircle
 10
99.74999999999997
 20
235.0
 30
0.0
 40
7.800000000000029
100
AcDbArc
 50
188.272735925316
 51
351.7272640746839
  0
LINE
  5
21F
330
1F
100
AcDbEntity
  8
1
  6
CONTINUOUS
 62
     7
100
AcDbLine
 10
91.5166835357796
 20
233.95
 30
0.0
 11
92.03116392470542
 21
233.8776944967024
 31
0.0
  0
LINE
  5
220
330
1F
100
AcDbEntity
  8
1
  6
CONTINUOUS
 62
     7
100
AcDbLine
 10
92.03116392470542
 20
236.1223055032976
 30
0.0
 11
91.51668353577982
 21
236.05
 31
0.0
  0
ARC
  5
221
330
1F
100
AcDbEntity
  8
1
  6
CONTINUOUS
 62
     7
100
AcDbCircle
 10
99.74999999999997
 20
235.0
 30
0.0
 40
7.800000000000029
100
AcDbArc
 50
8.272735925315942
 51
171.7272640746839
  0
LINE
  5
222
330
1F
100
AcDbEntity
  8
1
  6
CONTINUOUS
 62
     7
100
AcDbLine
 10
107.9833164642202
 20
236.05
 30
0.0
 11
107.4688360752946
 21
236.1223055032976
 31
0.0
  0
LINE
  5
223
330
1F
100
AcDbEntity
  8
1
  6
CONTINUOUS
 62
     7
100
AcDbLine
 10
103.75
 20
235.6
 30
0.0
 11
103.75
 21
234.3999999999999
 31
0.0
  0
ARC
  5
224
330
1F
100
AcDbEntity
  8
1
  6
CONTINUOUS
 62
     7
100
AcDbCircle
 10
103.25
 20
235.6
 30
0.0
 40
0.5000000000000004
100
AcDbArc
 50
359.9999999999998
 51
89.9999999999992
  0
LINE
  5
225
330
1F
100
AcDbEntity
  8
1
  6
CONTINUOUS
 62
     7
100
AcDbLine
 10
96.24999999999997
 20
236.1
 30
0.0
 11
103.25
 21
236.1
 31
0.0
  0
ARC
  5
226
330
1F
100
AcDbEntity
  8
1
  6
CONTINUOUS
 62
     7
100
AcDbCircle
 10
96.24999999999997
 20
235.6
 30
0.0
 40
0.5000000000000004
100
AcDbArc
 50
90.0
 51
180.0
  0
LINE
  5
227
330
1F
100
AcDbEntity
  8
1
  6
CONTINUOUS
 62
     7
100
AcDbLine
 10
95.74999999999997
 20
234.3999999999999
 30
0.0
 11
95.74999999999997
 21
235.6
 31
0.0
  0
ARC
  5
228
330
1F
100
AcDbEntity
  8
1
  6
CONTINUOUS
 62
     7
100
AcDbCircle
 10
96.24999999999997
 20
234.3999999999999
 30
0.0
 40
0.5000000000000004
100
AcDbArc
 50
180.0
 51
270.0
  0
LINE
  5
229
330
1F
100
AcDbEntity
  8
1
  6
CONTINUOUS
 62
     7
100
AcDbLine
 10
103.25
 20
233.8999999999999
 30
0.0
 11
96.24999999999997
 21
233.8999999999999
 31
0.0
  0
ARC
  5
22A
330
1F
100
AcDbEntity
  8
1
  6
CONTINUOUS
 62
     7
100
AcDbCircle
 10
103.25
 20
234.3999999999999
 30
0.0
 40
0.5000000000000004
100
AcDbArc
 50
270.0000000000007
 51
0.0000000000000568
  0
ARC
  5
22B
330
1F
100
AcDbEntity
  8
1
  6
CONTINUOUS
 62
     7
100
AcDbCircle
 10
117.25
 20
266.5
 30
0.0
 40
2.500000000000002
100
AcDbArc
 50
0.0
 51
90.0
  0
ARC
  5
22C
330
1F
100
AcDbEntity
  8
1
  6
CONTINUOUS
 62
     7
100
AcDbCircle
 10
117.25
 20
203.4999999999999
 30
0.0
 40
2.500000000000002
100
AcDbArc
 50
270.0
 51
0.0
  0
ARC
  5
22D
330
1F
100
AcDbEntity
  8
1
  6
CONTINUOUS
 62
     7
100
AcDbCircle
 10
128.25
 20
203.4999999999999
 30
0.0
 40
2.500000000000002
100
AcDbArc
 50
180.0
 51
270.0
  0
ARC
  5
22E
330
1F
100
AcDbEntity
  8
1
  6
CONTINUOUS
 62
     7
100
AcDbCircle
 10
128.25
 20
266.5
 30
0.0
 40
2.500000000000002
100
AcDbArc
 50
90.0
 51
180.0
  0
CIRCLE
  5
22F
330
1F
100
AcDbEntity
  8
1
  6
CONTINUOUS
 62
     7
100
AcDbCircle
 10
84.75000000000001
 20
260.0
 30
0.0
 40
2.000000000000002
  0
CIRCLE
  5
230
330
1F
100
AcDbEntity
  8
1
  6
CONTINUOUS
 62
     7
100
AcDbCircle
 10
114.75
 20
210.0
 30
0.0
 40
2.000000000000002
  0
CIRCLE
  5
231
330
1F
100
AcDbEntity
  8
1
  6
CONTINUOUS
 62
     7
100
AcDbCircle
 10
130.75
 20
260.0
 30
0.0
 40
2.000000000000002
  0
CIRCLE
  5
232
330
1F
100
AcDbEntity
  8
1
  6
CONTINUOUS
 62
     7
100
AcDbCircle
 10
84.75000000000001
 20
210.0
 30
0.0
 40
1.400000000000012
  0
CIRCLE
  5
233
330
1F
100
AcDbEntity
  8
1
  6
CONTINUOUS
 62
     7
100
AcDbCircle
 10
114.75
 20
260.0
 30
0.0
 40
1.400000000000012
  0
CIRCLE
  5
234
330
1F
100
AcDbEntity
  8
1
  6
CONTINUOUS
 62
     7
100
AcDbCircle
 10
130.75
 20
210.0
 30
0.0
 40
1.400000000000012
  0
LINE
  5
235
330
1F
100
AcDbEntity
  8
1
  6
CONTINUOUS
 62
     7
100
AcDbLine
 10
211.75
 20
266.5
 30
0.0
 11
211.75
 21
254.5
 31
0.0
  0
LINE
  5
236
330
1F
100
AcDbEntity
  8
1
  6
CONTINUOUS
 62
     7
100
AcDbLine
 10
211.75
 20
215.5
 30
0.0
 11
211.75
 21
203.4999999999999
 31
0.0
  0
LINE
  5
237
330
1F
100
AcDbEntity
  8
1
  6
CONTINUOUS
 62
     7
100
AcDbLine
 10
165.75
 20
266.5
 30
0.0
 11
165.75
 21
257.0
 31
0.0
  0
LINE
  5
238
330
1F
100
AcDbEntity
  8
1
  6
CONTINUOUS
 62
     7
100
AcDbLine
 10
165.75
 20
213.0
 30
0.0
 11
165.75
 21
203.4999999999999
 31
0.0
  0
LINE
  5
239
330
1F
100
AcDbEntity
  8
1
  6
CONTINUOUS
 62
     7
100
AcDbLine
 10
125.75
 20
203.4999999999999
 30
0.0
 11
125.75
 21
213.0
 31
0.0
  0
LINE
  5
23A
330
1F
100
AcDbEntity
  8
1
  6
CONTINUOUS
 62
     7
100
AcDbLine
 10
125.75
 20
257.0
 30
0.0
 11
125.75
 21
266.5
 31
0.0
  0
LINE
  5
23B
330
1F
100
AcDbEntity
  8
1
  6
CONTINUOUS
 62
     7
100
AcDbLine
 10
171.75
 20
203.4999999999999
 30
0.0
 11
171.75
 21
213.0
 31
0.0
  0
LINE
  5
23C
330
1F
100
AcDbEntity
  8
1
  6
CONTINUOUS
 62
     7
100
AcDbLine
 10
171.75
 20
257.0
 30
0.0
 11
171.75
 21
266.5
 31
0.0
  0
LINE
  5
23D
330
1F
100
AcDbEntity
  8
1
  6
CONTINUOUS
 62
     7
100
AcDbLine
 10
119.75
 20
266.5
 30
0.0
 11
119.75
 21
257.0
 31
0.0
  0
LINE
  5
23E
330
1F
100
AcDbEntity
  8
1
  6
CONTINUOUS
 62
     7
100
AcDbLine
 10
119.75
 20
213.0
 30
0.0
 11
119.75
 21
203.4999999999999
 31
0.0
  0
LINE
  5
23F
330
1F
100
AcDbEntity
  8
1
  6
CONTINUOUS
 62
     7
100
AcDbLine
 10
-38.09999999999999
 20
207.7381939662772
 30
0.0
 11
-38.09999999999999
 21
205.7705329015136
 31
0.0
  0
LINE
  5
240
330
1F
100
AcDbEntity
  8
1
  6
CONTINUOUS
 62
     7
100
AcDbLine
 10
-38.09999999999999
 20
207.7381939662772
 30
0.0
 11
-36.59999999999999
 21
207.7512842679634
 31
0.0
  0
LINE
  5
241
330
1F
100
AcDbEntity
  8
1
  6
CONTINUOUS
 62
     7
100
AcDbLine
 10
-36.59999999999999
 20
205.7574425998274
 30
0.0
 11
-38.09999999999999
 21
205.7705329015136
 31
0.0
  0
LINE
  5
242
330
1F
100
AcDbEntity
  8
1
  6
CONTINUOUS
 62
     7
100
AcDbLine
 10
-36.59999999999999
 20
262.2487157320365
 30
0.0
 11
-38.09999999999999
 21
262.2618060337228
 31
0.0
  0
LINE
  5
243
330
1F
100
AcDbEntity
  8
1
  6
CONTINUOUS
 62
     7
100
AcDbLine
 10
-38.09999999999999
 20
262.2618060337228
 30
0.0
 11
-38.09999999999999
 21
264.2294670984864
 31
0.0
  0
LINE
  5
244
330
1F
100
AcDbEntity
  8
1
  6
CONTINUOUS
 62
     7
100
AcDbLine
 10
-38.09999999999999
 20
264.2294670984864
 30
0.0
 11
-36.59999999999999
 21
264.2425574001725
 31
0.0
  0
LINE
  5
245
330
1F
100
AcDbEntity
  8
1
  6
CONTINUOUS
 62
     7
100
AcDbLine
 10
-4.599999999999993
 20
288.0
 30
0.0
 11
-2.099999999999991
 21
288.0
 31
0.0
  0
LINE
  5
246
330
1F
100
AcDbEntity
  8
1
  6
CONTINUOUS
 62
     7
100
AcDbLine
 10
-2.099999999999991
 20
288.0
 30
0.0
 11
-2.099999999999991
 21
282.9999999999999
 31
0.0
  0
LINE
  5
247
330
1F
100
AcDbEntity
  8
1
  6
CONTINUOUS
 62
     7
100
AcDbLine
 10
-4.599999999999993
 20
282.9999999999999
 30
0.0
 11
-4.599999999999993
 21
288.0
 31
0.0
  0
LINE
  5
248
330
1F
100
AcDbEntity
  8
1
  6
CONTINUOUS
 62
     7
100
AcDbLine
 10
-20.60000000000001
 20
274.9999999999999
 30
0.0
 11
-20.60000000000001
 21
275.2
 31
0.0
  0
ARC
  5
249
330
1F
100
AcDbEntity
  8
1
  6
CONTINUOUS
 62
     7
100
AcDbCircle
 10
-20.1
 20
275.2
 30
0.0
 40
0.5000000000000004
100
AcDbArc
 50
90.0
 51
179.9999999999984
  0
ARC
  5
24A
330
1F
100
AcDbEntity
  8
1
  6
CONTINUOUS
 62
     7
100
AcDbCircle
 10
-20.1
 20
275.2
 30
0.0
 40
0.5000000000000004
100
AcDbArc
 50
0.0000000000015903
 51
90.0
  0
LINE
  5
24B
330
1F
100
AcDbEntity
  8
1
  6
CONTINUOUS
 62
     7
100
AcDbLine
 10
-19.6
 20
274.9999999999999
 30
0.0
 11
-19.6
 21
275.2
 31
0.0
  0
LINE
  5
24C
330
1F
100
AcDbEntity
  8
1
  6
CONTINUOUS
 62
     7
100
AcDbLine
 10
-17.6
 20
274.9999999999999
 30
0.0
 11
-19.6
 21
274.9999999999999
 31
0.0
  0
LINE
  5
24D
330
1F
100
AcDbEntity
  8
1
  6
CONTINUOUS
 62
     7
100
AcDbLine
 10
-17.6
 20
274.9999999999999
 30
0.0
 11
-17.6
 21
275.2
 31
0.0
  0
ARC
  5
24E
330
1F
100
AcDbEntity
  8
1
  6
CONTINUOUS
 62
     7
100
AcDbCircle
 10
-17.1
 20
275.2
 30
0.0
 40
0.5000000000000004
100
AcDbArc
 50
90.0
 51
179.9999999999984
  0
ARC
  5
24F
330
1F
100
AcDbEntity
  8
1
  6
CONTINUOUS
 62
     7
100
AcDbCircle
 10
-17.1
 20
275.2
 30
0.0
 40
0.5000000000000004
100
AcDbArc
 50
0.0000000000015903
 51
90.0
  0
LINE
  5
250
330
1F
100
AcDbEntity
  8
1
  6
CONTINUOUS
 62
     7
100
AcDbLine
 10
-16.6
 20
274.9999999999999
 30
0.0
 11
-16.6
 21
275.2
 31
0.0
  0
LINE
  5
251
330
1F
100
AcDbEntity
  8
1
  6
CONTINUOUS
 62
     7
100
AcDbLine
 10
-15.1
 20
274.9999999999999
 30
0.0
 11
-16.6
 21
274.9999999999999
 31
0.0
  0
LINE
  5
252
330
1F
100
AcDbEntity
  8
1
  6
CONTINUOUS
 62
     7
100
AcDbLine
 10
-15.1
 20
274.9999999999999
 30
0.0
 11
-15.1
 21
275.2
 31
0.0
  0
ARC
  5
253
330
1F
100
AcDbEntity
  8
1
  6
CONTINUOUS
 62
     7
100
AcDbCircle
 10
-14.6
 20
275.2
 30
0.0
 40
0.5000000000000004
100
AcDbArc
 50
90.0
 51
179.9999999999984
  0
ARC
  5
254
330
1F
100
AcDbEntity
  8
1
  6
CONTINUOUS
 62
     7
100
AcDbCircle
 10
-14.6
 20
275.2
 30
0.0
 40
0.5000000000000004
100
AcDbArc
 50
0.0000000000015903
 51
90.0
  0
LINE
  5
255
330
1F
100
AcDbEntity
  8
1
  6
CONTINUOUS
 62
     7
100
AcDbLine
 10
-14.1
 20
274.9999999999999
 30
0.0
 11
-14.1
 21
275.2
 31
0.0
  0
LINE
  5
256
330
1F
100
AcDbEntity
  8
1
  6
CONTINUOUS
 62
     7
100
AcDbLine
 10
-12.1
 20
274.9999999999999
 30
0.0
 11
-14.1
 21
274.9999999999999
 31
0.0
  0
LINE
  5
257
330
1F
100
AcDbEntity
  8
1
  6
CONTINUOUS
 62
     7
100
AcDbLine
 10
-12.1
 20
274.9999999999999
 30
0.0
 11
-12.1
 21
275.2
 31
0.0
  0
ARC
  5
258
330
1F
100
AcDbEntity
  8
1
  6
CONTINUOUS
 62
     7
100
AcDbCircle
 10
-11.6
 20
275.2
 30
0.0
 40
0.5000000000000004
100
AcDbArc
 50
90.0
 51
179.9999999999984
  0
ARC
  5
259
330
1F
100
AcDbEntity
  8
1
  6
CONTINUOUS
 62
     7
100
AcDbCircle
 10
-11.6
 20
275.2
 30
0.0
 40
0.5000000000000004
100
AcDbArc
 50
0.0000000000015903
 51
90.0
  0
LINE
  5
25A
330
1F
100
AcDbEntity
  8
1
  6
CONTINUOUS
 62
     7
100
AcDbLine
 10
-11.1
 20
274.9999999999999
 30
0.0
 11
-11.1
 21
275.2
 31
0.0
  0
LINE
  5
25B
330
1F
100
AcDbEntity
  8
1
  6
CONTINUOUS
 62
     7
100
AcDbLine
 10
-4.599999999999993
 20
274.9999999999999
 30
0.0
 11
-11.1
 21
274.9999999999999
 31
0.0
  0
LINE
  5
25C
330
1F
100
AcDbEntity
  8
1
  6
CONTINUOUS
 62
     7
100
AcDbLine
 10
-4.599999999999993
 20
282.9999999999999
 30
0.0
 11
-4.599999999999993
 21
274.9999999999999
 31
0.0
  0
LINE
  5
25D
330
1F
100
AcDbEntity
  8
1
  6
CONTINUOUS
 62
     7
100
AcDbLine
 10
-2.099999999999991
 20
282.9999999999999
 30
0.0
 11
-2.099999999999991
 21
235.0
 31
0.0
  0
LINE
  5
25E
330
1F
100
AcDbEntity
  8
1
  6
CONTINUOUS
 62
     7
100
AcDbLine
 10
-2.099999999999991
 20
235.0
 30
0.0
 11
-2.099999999999991
 21
187.0
 31
0.0
  0
LINE
  5
25F
330
1F
100
AcDbEntity
  8
1
  6
CONTINUOUS
 62
     7
100
AcDbLine
 10
-4.599999999999993
 20
195.0
 30
0.0
 11
-11.1
 21
195.0
 31
0.0
  0
LINE
  5
260
330
1F
100
AcDbEntity
  8
1
  6
CONTINUOUS
 62
     7
100
AcDbLine
 10
-11.1
 20
195.0
 30
0.0
 11
-11.1
 21
194.8
 31
0.0
  0
ARC
  5
261
330
1F
100
AcDbEntity
  8
1
  6
CONTINUOUS
 62
     7
100
AcDbCircle
 10
-11.6
 20
194.8
 30
0.0
 40
0.5000000000000004
100
AcDbArc
 50
270.0
 51
0.0
  0
ARC
  5
262
330
1F
100
AcDbEntity
  8
1
  6
CONTINUOUS
 62
     7
100
AcDbCircle
 10
-11.6
 20
194.8
 30
0.0
 40
0.5000000000000004
100
AcDbArc
 50
180.0
 51
270.0
  0
LINE
  5
263
330
1F
100
AcDbEntity
  8
1
  6
CONTINUOUS
 62
     7
100
AcDbLine
 10
-12.1
 20
195.0
 30
0.0
 11
-12.1
 21
194.8
 31
0.0
  0
LINE
  5
264
330
1F
100
AcDbEntity
  8
1
  6
CONTINUOUS
 62
     7
100
AcDbLine
 10
-12.1
 20
195.0
 30
0.0
 11
-14.1
 21
195.0
 31
0.0
  0
LINE
  5
265
330
1F
100
AcDbEntity
  8
1
  6
CONTINUOUS
 62
     7
100
AcDbLine
 10
-14.1
 20
195.0
 30
0.0
 11
-14.1
 21
194.8
 31
0.0
  0
ARC
  5
266
330
1F
100
AcDbEntity
  8
1
  6
CONTINUOUS
 62
     7
100
AcDbCircle
 10
-14.6
 20
194.8
 30
0.0
 40
0.5000000000000004
100
AcDbArc
 50
270.0
 51
0.0
  0
ARC
  5
267
330
1F
100
AcDbEntity
  8
1
  6
CONTINUOUS
 62
     7
100
AcDbCircle
 10
-14.6
 20
194.8
 30
0.0
 40
0.5000000000000004
100
AcDbArc
 50
180.0
 51
270.0
  0
LINE
  5
268
330
1F
100
AcDbEntity
  8
1
  6
CONTINUOUS
 62
     7
100
AcDbLine
 10
-15.1
 20
195.0
 30
0.0
 11
-15.1
 21
194.8
 31
0.0
  0
LINE
  5
269
330
1F
100
AcDbEntity
  8
1
  6
CONTINUOUS
 62
     7
100
AcDbLine
 10
-15.1
 20
195.0
 30
0.0
 11
-16.6
 21
195.0
 31
0.0
  0
LINE
  5
26A
330
1F
100
AcDbEntity
  8
1
  6
CONTINUOUS
 62
     7
100
AcDbLine
 10
-16.6
 20
195.0
 30
0.0
 11
-16.6
 21
194.8
 31
0.0
  0
ARC
  5
26B
330
1F
100
AcDbEntity
  8
1
  6
CONTINUOUS
 62
     7
100
AcDbCircle
 10
-17.1
 20
194.8
 30
0.0
 40
0.5000000000000004
100
AcDbArc
 50
270.0
 51
0.0
  0
ARC
  5
26C
330
1F
100
AcDbEntity
  8
1
  6
CONTINUOUS
 62
     7
100
AcDbCircle
 10
-17.1
 20
194.8
 30
0.0
 40
0.5000000000000004
100
AcDbArc
 50
180.0
 51
270.0
  0
LINE
  5
26D
330
1F
100
AcDbEntity
  8
1
  6
CONTINUOUS
 62
     7
100
AcDbLine
 10
-17.6
 20
195.0
 30
0.0
 11
-17.6
 21
194.8
 31
0.0
  0
LINE
  5
26E
330
1F
100
AcDbEntity
  8
1
  6
CONTINUOUS
 62
     7
100
AcDbLine
 10
-17.6
 20
195.0
 30
0.0
 11
-19.6
 21
195.0
 31
0.0
  0
LINE
  5
26F
330
1F
100
AcDbEntity
  8
1
  6
CONTINUOUS
 62
     7
100
AcDbLine
 10
-19.6
 20
195.0
 30
0.0
 11
-19.6
 21
194.8
 31
0.0
  0
ARC
  5
270
330
1F
100
AcDbEntity
  8
1
  6
CONTINUOUS
 62
     7
100
AcDbCircle
 10
-20.1
 20
194.8
 30
0.0
 40
0.5000000000000004
100
AcDbArc
 50
270.0
 51
0.0
  0
ARC
  5
271
330
1F
100
AcDbEntity
  8
1
  6
CONTINUOUS
 62
     7
100
AcDbCircle
 10
-20.1
 20
194.8
 30
0.0
 40
0.5000000000000004
100
AcDbArc
 50
180.0
 51
270.0
  0
LINE
  5
272
330
1F
100
AcDbEntity
  8
1
  6
CONTINUOUS
 62
     7
100
AcDbLine
 10
-20.60000000000001
 20
195.0
 30
0.0
 11
-20.60000000000001
 21
194.8
 31
0.0
  0
LINE
  5
273
330
1F
100
AcDbEntity
  8
1
  6
CONTINUOUS
 62
     7
100
AcDbLine
 10
-20.60000000000001
 20
195.0
 30
0.0
 11
-37.09999999999994
 21
195.0
 31
0.0
  0
LINE
  5
274
330
1F
100
AcDbEntity
  8
1
  6
CONTINUOUS
 62
     7
100
AcDbLine
 10
-7.099999999999995
 20
197.5
 30
0.0
 11
-37.09999999999999
 21
197.2381939662772
 31
0.0
  0
LINE
  5
275
330
1F
100
AcDbEntity
  8
1
  6
CONTINUOUS
 62
     7
100
AcDbLine
 10
-7.099999999999995
 20
205.4999999999999
 30
0.0
 11
-7.099999999999995
 21
197.5
 31
0.0
  0
ARC
  5
276
330
1F
100
AcDbEntity
  8
1
  6
CONTINUOUS
 62
     7
100
AcDbCircle
 10
-10.1
 20
209.98262242119
 30
0.0
 40
2.000000000000002
100
AcDbArc
 50
270.5000000000001
 51
0.0
  0
LINE
  5
277
330
1F
100
AcDbEntity
  8
1
  6
CONTINUOUS
 62
     7
100
AcDbLine
 10
-8.099999999999996
 20
210.01737757881
 30
0.0
 11
-8.099999999999996
 21
209.98262242119
 31
0.0
  0
ARC
  5
278
330
1F
100
AcDbEntity
  8
1
  6
CONTINUOUS
 62
     7
100
AcDbCircle
 10
-10.1
 20
210.01737757881
 30
0.0
 40
1.999999999999946
100
AcDbArc
 50
0.0
 51
89.5
  0
LINE
  5
279
330
1F
100
AcDbEntity
  8
1
  6
CONTINUOUS
 62
     7
100
AcDbLine
 10
-37.09999999999999
 20
212.253079165932
 30
0.0
 11
-10.08254692900321
 21
212.0173014249384
 31
0.0
  0
LINE
  5
27A
330
1F
100
AcDbEntity
  8
1
  6
CONTINUOUS
 62
     7
100
AcDbLine
 10
-7.099999999999995
 20
214.5
 30
0.0
 11
-37.09999999999999
 21
214.2381939662772
 31
0.0
  0
LINE
  5
27B
330
1F
100
AcDbEntity
  8
1
  6
CONTINUOUS
 62
     7
100
AcDbLine
 10
-7.099999999999995
 20
255.5
 30
0.0
 11
-7.099999999999995
 21
214.5
 31
0.0
  0
LINE
  5
27C
330
1F
100
AcDbEntity
  8
1
  6
CONTINUOUS
 62
     7
100
AcDbLine
 10
-7.099999999999995
 20
255.5
 30
0.0
 11
-37.09999999999999
 21
255.7618060337228
 31
0.0
  0
LINE
  5
27D
330
1F
100
AcDbEntity
  8
1
  6
CONTINUOUS
 62
     7
100
AcDbLine
 10
-37.09999999999999
 20
257.746920834068
 30
0.0
 11
-10.08254692900321
 21
257.9826985750615
 31
0.0
  0
ARC
  5
27E
330
1F
100
AcDbEntity
  8
1
  6
CONTINUOUS
 62
     7
100
AcDbCircle
 10
-10.1
 20
259.9826224211899
 30
0.0
 40
2.000000000000002
100
AcDbArc
 50
270.5000000000001
 51
0.0
  0
LINE
  5
27F
330
1F
100
AcDbEntity
  8
1
  6
CONTINUOUS
 62
     7
100
AcDbLine
 10
-8.099999999999996
 20
260.01737757881
 30
0.0
 11
-8.099999999999996
 21
259.9826224211899
 31
0.0
  0
ARC
  5
280
330
1F
100
AcDbEntity
  8
1
  6
CONTINUOUS
 62
     7
100
AcDbCircle
 10
-10.1
 20
260.01737757881
 30
0.0
 40
2.000000000000002
100
AcDbArc
 50
0.0
 51
89.5
  0
LINE
  5
281
330
1F
100
AcDbEntity
  8
1
  6
CONTINUOUS
 62
     7
100
AcDbLine
 10
-7.099999999999995
 20
272.4999999999999
 30
0.0
 11
-7.099999999999995
 21
264.5
 31
0.0
  0
LINE
  5
282
330
1F
100
AcDbEntity
  8
1
  6
CONTINUOUS
 62
     7
100
AcDbLine
 10
-7.099999999999995
 20
272.4999999999999
 30
0.0
 11
-37.09999999999999
 21
272.7618060337228
 31
0.0
  0
LINE
  5
283
330
1F
100
AcDbEntity
  8
1
  6
CONTINUOUS
 62
     7
100
AcDbLine
 10
-20.60000000000001
 20
274.9999999999999
 30
0.0
 11
-37.09999999999994
 21
274.9999999999999
 31
0.0
  0
LINE
  5
284
330
1F
100
AcDbEntity
  8
1
  6
CONTINUOUS
 62
     7
100
AcDbLine
 10
-4.599999999999993
 20
187.0
 30
0.0
 11
-4.599999999999993
 21
195.0
 31
0.0
  0
LINE
  5
285
330
1F
100
AcDbEntity
  8
1
  6
CONTINUOUS
 62
     7
100
AcDbLine
 10
-36.59999999999999
 20
262.2487157320365
 30
0.0
 11
-10.08254692900321
 21
262.0173014249384
 31
0.0
  0
LINE
  5
286
330
1F
100
AcDbEntity
  8
1
  6
CONTINUOUS
 62
     7
100
AcDbLine
 10
-7.099999999999995
 20
205.4999999999999
 30
0.0
 11
-36.6
 21
205.7574425998274
 31
0.0
  0
LINE
  5
287
330
1F
100
AcDbEntity
  8
1
  6
CONTINUOUS
 62
     7
100
AcDbLine
 10
-36.59999999999999
 20
207.7512842679634
 30
0.0
 11
-10.08254692900321
 21
207.9826985750616
 31
0.0
  0
LINE
  5
288
330
1F
100
AcDbEntity
  8
1
  6
CONTINUOUS
 62
     7
100
AcDbLine
 10
-7.099999999999995
 20
264.5
 30
0.0
 11
-36.6
 21
264.2425574001725
 31
0.0
  0
LINE
  5
289
330
1F
100
AcDbEntity
  8
1
  6
CONTINUOUS
 62
     7
100
AcDbLine
 10
-2.099999999999991
 20
187.0
 30
0.0
 11
-2.099999999999991
 21
182.0
 31
0.0
  0
LINE
  5
28A
330
1F
100
AcDbEntity
  8
1
  6
CONTINUOUS
 62
     7
100
AcDbLine
 10
-2.099999999999991
 20
182.0
 30
0.0
 11
-4.599999999999993
 21
182.0
 31
0.0
  0
LINE
  5
28B
330
1F
100
AcDbEntity
  8
1
  6
CONTINUOUS
 62
     7
100
AcDbLine
 10
-4.599999999999993
 20
182.0
 30
0.0
 11
-4.599999999999993
 21
187.0
 31
0.0
  0
LINE
  5
28C
330
1F
100
AcDbEntity
  8
1
  6
CONTINUOUS
 62
     7
100
AcDbLine
 10
-38.09999999999999
 20
197.2294670984866
 30
0.0
 11
-37.09999999999999
 21
197.2381939662772
 31
0.0
  0
LINE
  5
28D
330
1F
100
AcDbEntity
  8
1
  6
CONTINUOUS
 62
     7
100
AcDbLine
 10
-37.09999999999997
 20
195.0
 30
0.0
 11
-38.09999999999999
 21
195.0
 31
0.0
  0
LINE
  5
28E
330
1F
100
AcDbEntity
  8
1
  6
CONTINUOUS
 62
     7
100
AcDbLine
 10
-38.09999999999999
 20
195.0
 30
0.0
 11
-38.09999999999999
 21
197.2294670984866
 31
0.0
  0
LINE
  5
28F
330
1F
100
AcDbEntity
  8
1
  6
CONTINUOUS
 62
     7
100
AcDbLine
 10
-37.09999999999999
 20
272.7618060337228
 30
0.0
 11
-38.09999999999999
 21
272.7705329015134
 31
0.0
  0
LINE
  5
290
330
1F
100
AcDbEntity
  8
1
  6
CONTINUOUS
 62
     7
100
AcDbLine
 10
-38.09999999999999
 20
274.9999999999999
 30
0.0
 11
-37.09999999999997
 21
274.9999999999999
 31
0.0
  0
LINE
  5
291
330
1F
100
AcDbEntity
  8
1
  6
CONTINUOUS
 62
     7
100
AcDbLine
 10
-38.09999999999999
 20
272.7705329015134
 30
0.0
 11
-38.09999999999999
 21
274.9999999999999
 31
0.0
  0
LINE
  5
292
330
1F
100
AcDbEntity
  8
1
  6
CONTINUOUS
 62
     7
100
AcDbLine
 10
-38.09999999999999
 20
257.7381939662772
 30
0.0
 11
-37.09999999999999
 21
257.746920834068
 31
0.0
  0
LINE
  5
293
330
1F
100
AcDbEntity
  8
1
  6
CONTINUOUS
 62
     7
100
AcDbLine
 10
-37.09999999999999
 20
255.7618060337228
 30
0.0
 11
-38.09999999999999
 21
255.7705329015136
 31
0.0
  0
LINE
  5
294
330
1F
100
AcDbEntity
  8
1
  6
CONTINUOUS
 62
     7
100
AcDbLine
 10
-38.09999999999999
 20
255.7705329015136
 30
0.0
 11
-38.09999999999999
 21
257.7381939662772
 31
0.0
  0
LINE
  5
295
330
1F
100
AcDbEntity
  8
1
  6
CONTINUOUS
 62
     7
100
AcDbLine
 10
-38.09999999999999
 20
214.2294670984864
 30
0.0
 11
-37.09999999999999
 21
214.2381939662772
 31
0.0
  0
LINE
  5
296
330
1F
100
AcDbEntity
  8
1
  6
CONTINUOUS
 62
     7
100
AcDbLine
 10
-37.09999999999999
 20
212.253079165932
 30
0.0
 11
-38.09999999999999
 21
212.2618060337228
 31
0.0
  0
LINE
  5
297
330
1F
100
AcDbEntity
  8
1
  6
CONTINUOUS
 62
     7
100
AcDbLine
 10
-38.09999999999999
 20
212.2618060337228
 30
0.0
 11
-38.09999999999999
 21
214.2294670984864
 31
0.0
  0
LINE
  5
298
330
1F
100
AcDbEntity
  8
1
  6
CONTINUOUS
 62
     7
100
AcDbLine
 10
-37.09999999999999
 20
237.253079165932
 30
0.0
 11
-37.09999999999999
 21
239.2381939662772
 31
0.0
  0
LINE
  5
299
330
1F
100
AcDbEntity
  8
1
  6
CONTINUOUS
 62
     7
100
AcDbLine
 10
-37.09999999999999
 20
239.2381939662772
 30
0.0
 11
-36.09999999999997
 21
239.246920834068
 31
0.0
  0
LINE
  5
29A
330
1F
100
AcDbEntity
  8
1
  6
CONTINUOUS
 62
     7
100
AcDbLine
 10
-36.10000000000002
 20
237.2443522981412
 30
0.0
 11
-37.09999999999999
 21
237.253079165932
 31
0.0
  0
LINE
  5
29B
330
1F
100
AcDbEntity
  8
1
  6
CONTINUOUS
 62
     7
100
AcDbLine
 10
-37.09999999999999
 20
230.7618060337228
 30
0.0
 11
-37.09999999999999
 21
232.746920834068
 31
0.0
  0
LINE
  5
29C
330
1F
100
AcDbEntity
  8
1
  6
CONTINUOUS
 62
     7
100
AcDbLine
 10
-37.09999999999999
 20
232.746920834068
 30
0.0
 11
-36.09999999999997
 21
232.7556477018587
 31
0.0
  0
LINE
  5
29D
330
1F
100
AcDbEntity
  8
1
  6
CONTINUOUS
 62
     7
100
AcDbLine
 10
-36.09999999999999
 20
230.753079165932
 30
0.0
 11
-37.09999999999999
 21
230.7618060337228
 31
0.0
  0
ARC
  5
29E
330
1F
100
AcDbEntity
  8
1
  6
CONTINUOUS
 62
     7
100
AcDbCircle
 10
-10.1
 20
234.98262242119
 30
0.0
 40
2.000000000000002
100
AcDbArc
 50
270.5000000000002
 51
0.0
  0
LINE
  5
29F
330
1F
100
AcDbEntity
  8
1
  6
CONTINUOUS
 62
     7
100
AcDbLine
 10
-8.099999999999996
 20
235.01737757881
 30
0.0
 11
-8.099999999999996
 21
234.98262242119
 31
0.0
  0
ARC
  5
2A0
330
1F
100
AcDbEntity
  8
1
  6
CONTINUOUS
 62
     7
100
AcDbCircle
 10
-10.1
 20
235.01737757881
 30
0.0
 40
2.000000000000002
100
AcDbArc
 50
0.0
 51
89.50000000000136
  0
LINE
  5
2A1
330
1F
100
AcDbEntity
  8
1
  6
CONTINUOUS
 62
     7
100
AcDbLine
 10
-7.099999999999995
 20
239.5
 30
0.0
 11
-36.09999999999997
 21
239.246920834068
 31
0.0
  0
LINE
  5
2A2
330
1F
100
AcDbEntity
  8
1
  6
CONTINUOUS
 62
     7
100
AcDbLine
 10
-7.099999999999995
 20
230.5
 30
0.0
 11
-36.09999999999999
 21
230.753079165932
 31
0.0
  0
LINE
  5
2A3
330
1F
100
AcDbEntity
  8
1
  6
CONTINUOUS
 62
     7
100
AcDbLine
 10
-10.08254692900321
 20
232.9826985750616
 30
0.0
 11
-36.09999999999997
 21
232.7556477018587
 31
0.0
  0
LINE
  5
2A4
330
1F
100
AcDbEntity
  8
1
  6
CONTINUOUS
 62
     7
100
AcDbLine
 10
-36.10000000000002
 20
237.2443522981412
 30
0.0
 11
-10.08254692900321
 21
237.0173014249384
 31
0.0
  0
LINE
  5
2A5
330
1F
100
AcDbEntity
  8
1
  6
CONTINUOUS
 62
     7
100
AcDbLine
 10
-6.599999999999994
 20
285.9999999999999
 30
0.0
 11
-4.599999999999993
 21
285.9999999999999
 31
0.0
  0
LINE
  5
2A6
330
1F
100
AcDbEntity
  8
1
  6
CONTINUOUS
 62
     7
100
AcDbLine
 10
-38.09999999999999
 20
274.9999999999999
 30
0.0
 11
-38.09999999999999
 21
283.4999999999999
 31
0.0
  0
LINE
  5
2A7
330
1F
100
AcDbEntity
  8
1
  6
CONTINUOUS
 62
     7
100
AcDbLine
 10
-7.099999999999995
 20
283.4999999999999
 30
0.0
 11
-7.099999999999995
 21
285.4999999999999
 31
0.0
  0
ARC
  5
2A8
330
1F
100
AcDbEntity
  8
1
  6
CONTINUOUS
 62
     7
100
AcDbCircle
 10
-6.599999999999994
 20
285.4999999999999
 30
0.0
 40
0.5000000000000004
100
AcDbArc
 50
90.0
 51
180.0
  0
LINE
  5
2A9
330
1F
100
AcDbEntity
  8
1
  6
CONTINUOUS
 62
     7
100
AcDbLine
 10
-7.099999999999995
 20
274.9999999999999
 30
0.0
 11
-7.099999999999995
 21
283.4999999999999
 31
0.0
  0
LINE
  5
2AA
330
1F
100
AcDbEntity
  8
1
  6
CONTINUOUS
 62
     7
100
AcDbLine
 10
-38.09999999999999
 20
186.5
 30
0.0
 11
-38.09999999999999
 21
195.0
 31
0.0
  0
LINE
  5
2AB
330
1F
100
AcDbEntity
  8
1
  6
CONTINUOUS
 62
     7
100
AcDbLine
 10
-7.099999999999995
 20
184.5
 30
0.0
 11
-7.099999999999995
 21
186.5
 31
0.0
  0
ARC
  5
2AC
330
1F
100
AcDbEntity
  8
1
  6
CONTINUOUS
 62
     7
100
AcDbCircle
 10
-35.59999999999999
 20
186.5
 30
0.0
 40
2.500000000000002
100
AcDbArc
 50
180.0
 51
269.9999999999998
  0
ARC
  5
2AD
330
1F
100
AcDbEntity
  8
1
  6
CONTINUOUS
 62
     7
100
AcDbCircle
 10
-35.59999999999999
 20
283.4999999999999
 30
0.0
 40
2.500000000000002
100
AcDbArc
 50
90.0
 51
180.0
  0
LINE
  5
2AE
330
1F
100
AcDbEntity
  8
1
  6
CONTINUOUS
 62
     7
100
AcDbLine
 10
-38.09999999999999
 20
216.75
 30
0.0
 11
-37.09999999999999
 21
217.75
 31
0.0
  0
LINE
  5
2AF
330
1F
100
AcDbEntity
  8
1
  6
CONTINUOUS
 62
     7
100
AcDbLine
 10
-37.09999999999999
 20
217.75
 30
0.0
 11
-37.09999999999999
 21
230.7618060337228
 31
0.0
  0
LINE
  5
2B0
330
1F
100
AcDbEntity
  8
1
  6
CONTINUOUS
 62
     7
100
AcDbLine
 10
-38.09999999999999
 20
216.75
 30
0.0
 11
-38.09999999999999
 21
214.2294670984864
 31
0.0
  0
LINE
  5
2B1
330
1F
100
AcDbEntity
  8
1
  6
CONTINUOUS
 62
     7
100
AcDbLine
 10
-7.099999999999995
 20
186.5
 30
0.0
 11
-7.099999999999995
 21
195.0
 31
0.0
  0
LINE
  5
2B2
330
1F
100
AcDbEntity
  8
1
  6
CONTINUOUS
 62
     7
100
AcDbLine
 10
-37.09999999999999
 20
252.25
 30
0.0
 11
-38.09999999999999
 21
253.25
 31
0.0
  0
LINE
  5
2B3
330
1F
100
AcDbEntity
  8
1
  6
CONTINUOUS
 62
     7
100
AcDbLine
 10
-37.09999999999999
 20
239.2381939662772
 30
0.0
 11
-37.09999999999999
 21
252.25
 31
0.0
  0
LINE
  5
2B4
330
1F
100
AcDbEntity
  8
1
  6
CONTINUOUS
 62
     7
100
AcDbLine
 10
-38.09999999999999
 20
255.7705329015136
 30
0.0
 11
-38.09999999999999
 21
253.25
 31
0.0
  0
LINE
  5
2B5
330
1F
100
AcDbEntity
  8
1
  6
CONTINUOUS
 62
     7
100
AcDbLine
 10
-38.09999999999999
 20
264.2294670984864
 30
0.0
 11
-38.09999999999999
 21
272.7705329015134
 31
0.0
  0
LINE
  5
2B6
330
1F
100
AcDbEntity
  8
1
  6
CONTINUOUS
 62
     7
100
AcDbLine
 10
-38.09999999999999
 20
197.2294670984866
 30
0.0
 11
-38.09999999999999
 21
205.7705329015136
 31
0.0
  0
LINE
  5
2B7
330
1F
100
AcDbEntity
  8
1
  6
CONTINUOUS
 62
     7
100
AcDbLine
 10
-37.09999999999999
 20
237.253079165932
 30
0.0
 11
-37.09999999999999
 21
232.746920834068
 31
0.0
  0
LINE
  5
2B8
330
1F
100
AcDbEntity
  8
1
  6
CONTINUOUS
 62
     7
100
AcDbLine
 10
-38.09999999999999
 20
212.2618060337228
 30
0.0
 11
-38.09999999999999
 21
210.75
 31
0.0
  0
LINE
  5
2B9
330
1F
100
AcDbEntity
  8
1
  6
CONTINUOUS
 62
     7
100
AcDbLine
 10
-38.09999999999999
 20
259.25
 30
0.0
 11
-38.09999999999999
 21
257.7381939662772
 31
0.0
  0
LINE
  5
2BA
330
1F
100
AcDbEntity
  8
1
  6
CONTINUOUS
 62
     7
100
AcDbLine
 10
-38.09999999999999
 20
209.25
 30
0.0
 11
-38.09999999999999
 21
207.7381939662772
 31
0.0
  0
LINE
  5
2BB
330
1F
100
AcDbEntity
  8
1
  6
CONTINUOUS
 62
     7
100
AcDbLine
 10
-38.09999999999999
 20
262.2618060337228
 30
0.0
 11
-38.09999999999999
 21
260.75
 31
0.0
  0
LINE
  5
2BC
330
1F
100
AcDbEntity
  8
1
  6
CONTINUOUS
 62
     7
100
AcDbLine
 10
-38.09999999999999
 20
259.25
 30
0.0
 11
-38.09999999999999
 21
260.75
 31
0.0
  0
LINE
  5
2BD
330
1F
100
AcDbEntity
  8
1
  6
CONTINUOUS
 62
     7
100
AcDbLine
 10
-38.09999999999999
 20
209.25
 30
0.0
 11
-38.09999999999999
 21
210.75
 31
0.0
  0
LINE
  5
2BE
330
1F
100
AcDbEntity
  8
1
  6
CONTINUOUS
 62
     7
100
AcDbLine
 10
-7.099999999999995
 20
182.0
 30
0.0
 11
-7.099999999999995
 21
184.4499999999999
 31
0.0
  0
LINE
  5
2BF
330
1F
100
AcDbEntity
  8
1
  6
CONTINUOUS
 62
     7
100
AcDbLine
 10
-7.099999999999995
 20
182.0
 30
0.0
 11
-4.599999999999993
 21
182.0
 31
0.0
  0
LINE
  5
2C0
330
1F
100
AcDbEntity
  8
1
  6
CONTINUOUS
 62
     7
100
AcDbLine
 10
-7.099999999999995
 20
288.0
 30
0.0
 11
-7.099999999999995
 21
285.55
 31
0.0
  0
LINE
  5
2C1
330
1F
100
AcDbEntity
  8
1
  6
CONTINUOUS
 62
     7
100
AcDbLine
 10
-7.099999999999995
 20
288.0
 30
0.0
 11
-4.599999999999993
 21
288.0
 31
0.0
  0
LINE
  5
2C2
330
1F
100
AcDbEntity
  8
1
  6
CONTINUOUS
 62
     7
100
AcDbLine
 10
-35.59999999999999
 20
184.0
 30
0.0
 11
-7.099999999999995
 21
184.0
 31
0.0
  0
LINE
  5
2C3
330
1F
100
AcDbEntity
  8
1
  6
CONTINUOUS
 62
     7
100
AcDbLine
 10
-7.099999999999995
 20
285.9999999999999
 30
0.0
 11
-35.59999999999999
 21
285.9999999999999
 31
0.0
  0
LINE
  5
2C4
330
1F
100
AcDbEntity
  8
1
  6
CONTINUOUS
 62
     7
100
AcDbLine
 10
-13.1
 20
259.9826224211899
 30
0.0
 11
-13.1
 21
260.01737757881
 31
0.0
  0
LINE
  5
2C5
330
1F
100
AcDbEntity
  8
1
  6
CONTINUOUS
 62
     7
100
AcDbLine
 10
69.75
 20
182.0
 30
0.0
 11
221.75
 21
182.0
 31
0.0
  0
LINE
  5
2C6
330
1F
100
AcDbEntity
  8
1
  6
CONTINUOUS
 62
     7
100
AcDbLine
 10
128.25
 20
268.9999999999999
 30
0.0
 11
163.25
 21
268.9999999999999
 31
0.0
  0
LINE
  5
2C7
330
1F
100
AcDbEntity
  8
1
  6
CONTINUOUS
 62
     7
100
AcDbLine
 10
73.25000000000078
 20
99.9
 30
0.0
 11
73.24999999999979
 21
127.9
 31
0.0
  0
LINE
  5
2C8
330
1F
100
AcDbEntity
  8
1
  6
CONTINUOUS
 62
     7
100
AcDbLine
 10
140.25
 20
186.65
 30
0.0
 11
105.25
 21
186.65
 31
0.0
  0
LINE
  5
2C9
330
1F
100
AcDbEntity
  8
1
  6
CONTINUOUS
 62
     7
100
AcDbLine
 10
143.1650635094612
 20
225.5227586640478
 30
0.0
 11
139.5277568135664
 21
227.6227586640478
 31
0.0
  0
LINE
  5
2CA
330
1F
100
AcDbEntity
  8
1
  6
CONTINUOUS
 62
     7
100
AcDbLine
 10
151.25
 20
193.25
 30
0.0
 11
151.25
 21
186.65
 31
0.0
  0
LINE
  5
2CB
330
1F
100
AcDbEntity
  8
1
  6
CONTINUOUS
 62
     7
100
AcDbLine
 10
148.3349364905388
 20
244.4772413359522
 30
0.0
 11
147.0849364905388
 21
242.312177826491
 31
0.0
  0
ENDSEC
  0
SECTION
  2
OBJECTS
  0
DICTIONARY
  5
C
330
0
100
AcDbDictionary
  3
ACAD_GROUP
350
D
  3
ACAD_LAYOUT
350
1A
  3
ACAD_MATERIAL
350
43
  3
ACAD_MLEADERSTYLE
350
6B
  3
ACAD_MLINESTYLE
350
17
  3
ACAD_PLOTSETTINGS
350
19
  3
ACAD_SCALELIST
350
47
  3
ACAD_VISUALSTYLE
350
2A
  3
ACDBHEADERROUNDTRIPXREC
350
2CC
  3
ACDBVARIABLEDICTIONARY
350
2ED
  0
DICTIONARY
  5
2F4
330
8
100
AcDbDictionary
280
     1
  3
ACAD_XREC_ROUNDTRIP
360
2F5
  0
DICTIONARY
  5
D
102
{ACAD_REACTORS
330
C
102
}
330
C
100
AcDbDictionary
  0
DICTIONARY
  5
1A
102
{ACAD_REACTORS
330
C
102
}
330
C
100
AcDbDictionary
  0
DICTIONARY
  5
43
102
{ACAD_REACTORS
330
C
102
}
330
C
100
AcDbDictionary
  3
BYBLOCK
350
45
  3
BYLAYER
350
44
  3
GLOBAL
350
46
  0
DICTIONARY
  5
6B
102
{ACAD_REACTORS
330
C
102
}
330
C
100
AcDbDictionary
  3
STANDARD
350
6C
  0
DICTIONARY
  5
17
102
{ACAD_REACTORS
330
C
102
}
330
C
100
AcDbDictionary
  3
STANDARD
350
18
  0
DICTIONARY
  5
19
102
{ACAD_REACTORS
330
C
102
}
330
C
100
AcDbDictionary
  0
DICTIONARY
  5
47
102
{ACAD_REACTORS
330
C
102
}
330
C
100
AcDbDictionary
  3
A0
350
48
  3
A1
350
49
  3
A2
350
4A
  3
A3
350
4B
  3
A4
350
4C
  3
A5
350
4D
  3
A6
350
4E
  3
A7
350
4F
  3
A8
350
50
  3
A9
350
51
  3
B0
350
52
  3
B1
350
53
  3
B2
350
54
  3
B3
350
55
  3
B4
350
56
  3
B5
350
57
  3
B6
350
58
  3
B7
350
59
  3
B8
350
5A
  3
B9
350
5B
  3
C0
350
5C
  3
C1
350
5D
  3
C2
350
5E
  3
C3
350
5F
  3
C4
350
60
  3
C5
350
61
  3
C6
350
62
  3
C7
350
63
  3
C8
350
64
  3
C9
350
65
  3
D0
350
66
  3
D1
350
67
  3
D2
350
68
  0
DICTIONARY
  5
2A
102
{ACAD_REACTORS
330
C
102
}
330
C
100
AcDbDictionary
  3
2DWIREFRAME
350
2F
  3
BASIC
350
32
  3
BRIGHTEN
350
36
  3
COLORCHANGE
350
3A
  3
CONCEPTUAL
350
34
  3
DIM
350
35
  3
EDGECOLOROFF
350
3D
  3
FACEPATTERN
350
39
  3
FLAT
350
2B
  3
FLATWITHEDGES
350
2C
  3
GOURAUD
350
2D
  3
GOURAUDWITHEDGES
350
2E
  3
HIDDEN
350
31
  3
JITTEROFF
350
3B
  3
LINEPATTERN
350
38
  3
OVERHANGOFF
350
3C
  3
REALISTIC
350
33
  3
SHADED
350
42
  3
SHADED_WITH_EDGES
350
41
  3
SHADES_OF_GRAY
350
3E
  3
SKETCHY
350
3F
  3
THICKEN
350
37
  3
WIREFRAME
350
30
  3
X-RAY
350
40
  0
DICTIONARY
  5
2CC
102
{ACAD_REACTORS
330
C
102
}
330
C
100
AcDbDictionary
  3
CEPSNID
350
2D6
  3
CEPSNTYPE
350
2D5
  3
DIMSTYLEDATA
350
2EC
  3
FINGERPRINTGUID
350
2D7
  3
HYPERLINKBASE
350
2CF
  3
INSUNITS
350
2D4
  3
LAYOUTDICT
350
2D1
  3
LWETCUNION
350
2D3
  3
PLOTSETDICT
350
2D2
  3
PSVPSCALE
350
2D9
  3
PUCSBASE
350
2DC
  3
PUCSORGBACK
350
2E2
  3
PUCSORGBOTTOM
350
2DE
  3
PUCSORGFRONT
350
2E1
  3
PUCSORGLEFT
350
2DF
  3
PUCSORGRIGHT
350
2E0
  3
PUCSORGTOP
350
2DD
  3
PUCSORTHOREF
350
2DA
  3
PUCSORTHOVIEW
350
2DB
  3
STYLESHEET
350
2D0
  3
TSTACKALIGN
350
2CD
  3
TSTACKSIZE
350
2CE
  3
UCSBASE
350
2E5
  3
UCSORGBACK
350
2EB
  3
UCSORGBOTTOM
350
2E7
  3
UCSORGFRONT
350
2EA
  3
UCSORGLEFT
350
2E8
  3
UCSORGRIGHT
350
2E9
  3
UCSORGTOP
350
2E6
  3
UCSORTHOREF
350
2E3
  3
UCSORTHOVIEW
350
2E4
  3
VERSIONGUID
350
2D8
  0
DICTIONARY
  5
2ED
102
{ACAD_REACTORS
330
C
102
}
330
C
100
AcDbDictionary
  3
CANNOSCALE
350
2F6
  3
CMLEADERSTYLE
350
2EF
  3
CTABLESTYLE
350
2EE
  3
DIMASSOC
350
2F2
  3
HIDETEXT
350
2F3
  3
MSLTSCALE
350
2F7
  0
XRECORD
  5
2F5
102
{ACAD_REACTORS
330
2F4
102
}
330
2F4
100
AcDbXrecord
102
VTR_0.000_0.000_1.000_1.000_VISUALSTYLE
340
2F
102
VTR_0.000_0.000_1.000_1.000_GRIDDISPLAY
 70
     3
102
VTR_0.000_0.000_1.000_1.000_GRIDMAJOR
 70
     5
102
VTR_0.000_0.000_1.000_1.000_DEFAULTLIGHTING
280
     1
102
VTR_0.000_0.000_1.000_1.000_DEFAULTLIGHTINGTYPE
 70
     1
102
VTR_0.000_0.000_1.000_1.000_BRIGHTNESS
141
0.0
102
VTR_0.000_0.000_1.000_1.000_CONTRAST
142
0.0
  0
MATERIAL
  5
45
102
{ACAD_REACTORS
330
43
102
}
102
{ACAD_XDICTIONARY
360
2FA
102
}
330
43
100
AcDbMaterial
  1
BYBLOCK
  0
MATERIAL
  5
44
102
{ACAD_REACTORS
330
43
102
}
102
{ACAD_XDICTIONARY
360
2F8
102
}
330
43
100
AcDbMaterial
  1
BYLAYER
  0
MATERIAL
  5
46
102
{ACAD_REACTORS
330
43
102
}
102
{ACAD_XDICTIONARY
360
2FC
102
}
330
43
100
AcDbMaterial
  1
GLOBAL
  0
ACAD_PROXY_OBJECT
  5
6C
102
{ACAD_REACTORS
330
6B
102
}
330
6B
100
AcDbProxyObject
 90
      499
 91
      505
 93
      610
310
40901902A4063FBFFFFFE056BD1B81E855B9FC0AD7A3703D0AD73F4214DD185B99185C9900AD7A3703D0AC73F90141901A02B5E8DC0F42B1CFC02B5E8DC0F42B1CFE5764000000000000300FC0
340
14
340
0
340
11
340
0
 94
        0
1001
ACAD_MLEADERVER
1070
     2
  0
MLINESTYLE
  5
18
102
{ACAD_REACTORS
330
17
102
}
330
17
100
AcDbMlineStyle
  2
Standard
 70
     0
  3

 62
   256
 51
90.0
 52
90.0
 71
     2
 49
0.5
 62
   256
  6
BYLAYER
 49
-0.5
 62
   256
  6
BYLAYER
  0
ACAD_PROXY_OBJECT
  5
48
102
{ACAD_REACTORS
330
47
102
}
330
47
100
AcDbProxyObject
 90
      499
 91
      503
 93
       41
310
903313A31580
  0
ACAD_PROXY_OBJECT
  5
49
102
{ACAD_REACTORS
330
47
102
}
330
47
100
AcDbProxyObject
 90
      499
 91
      503
 93
      105
310
903313A324000000000000004000
  0
ACAD_PROXY_OBJECT
  5
4A
102
{ACAD_REACTORS
330
47
102
}
330
47
100
AcDbProxyObject
 90
      499
 91
      503
 93
      105
310
903313A344000000000000104000
  0
ACAD_PROXY_OBJECT
  5
4B
102
{ACAD_REACTORS
330
47
102
}
330
47
100
AcDbProxyObject
 90
      499
 91
      503
 93
      105
310
903313A354000000000000144000
  0
ACAD_PROXY_OBJECT
  5
4C
102
{ACAD_REACTORS
330
47
102
}
330
47
100
AcDbProxyObject
 90
      499
 91
      503
 93
      105
310
903313A384000000000000204000
  0
ACAD_PROXY_OBJECT
  5
4D
102
{ACAD_REACTORS
330
47
102
}
330
47
100
AcDbProxyObject
 90
      499
 91
      503
 93
      113
310
904313A31304000000000000244000
  0
ACAD_PROXY_OBJECT
  5
4E
102
{ACAD_REACTORS
330
47
102
}
330
47
100
AcDbProxyObject
 90
      499
 91
      503
 93
      113
310
904313A31364000000000000304000
  0
ACAD_PROXY_OBJECT
  5
4F
102
{ACAD_REACTORS
330
47
102
}
330
47
100
AcDbProxyObject
 90
      499
 91
      503
 93
      113
310
904313A32304000000000000344000
  0
ACAD_PROXY_OBJECT
  5
50
102
{ACAD_REACTORS
330
47
102
}
330
47
100
AcDbProxyObject
 90
      499
 91
      503
 93
      113
310
904313A333040000000000003E4000
  0
ACAD_PROXY_OBJECT
  5
51
102
{ACAD_REACTORS
330
47
102
}
330
47
100
AcDbProxyObject
 90
      499
 91
      503
 93
      113
310
904313A34304000000000000444000
  0
ACAD_PROXY_OBJECT
  5
52
102
{ACAD_REACTORS
330
47
102
}
330
47
100
AcDbProxyObject
 90
      499
 91
      503
 93
      113
310
904313A35304000000000000494000
  0
ACAD_PROXY_OBJECT
  5
53
102
{ACAD_REACTORS
330
47
102
}
330
47
100
AcDbProxyObject
 90
      499
 91
      503
 93
      121
310
905313A3130304000000000000594000
  0
ACAD_PROXY_OBJECT
  5
54
102
{ACAD_REACTORS
330
47
102
}
330
47
100
AcDbProxyObject
 90
      499
 91
      503
 93
      105
310
903323A310000000000000010100
  0
ACAD_PROXY_OBJECT
  5
55
102
{ACAD_REACTORS
330
47
102
}
330
47
100
AcDbProxyObject
 90
      499
 91
      503
 93
      105
310
903343A310000000000000410100
  0
ACAD_PROXY_OBJECT
  5
56
102
{ACAD_REACTORS
330
47
102
}
330
47
100
AcDbProxyObject
 90
      499
 91
      503
 93
      105
310
903383A310000000000000810100
  0
ACAD_PROXY_OBJECT
  5
57
102
{ACAD_REACTORS
330
47
102
}
330
47
100
AcDbProxyObject
 90
      499
 91
      503
 93
      113
310
90431303A310000000000000910100
  0
ACAD_PROXY_OBJECT
  5
58
102
{ACAD_REACTORS
330
47
102
}
330
47
100
AcDbProxyObject
 90
      499
 91
      503
 93
      121
310
9053130303A310000000000001650100
  0
ACAD_PROXY_OBJECT
  5
59
102
{ACAD_REACTORS
330
47
102
}
330
47
100
AcDbProxyObject
 90
      499
 91
      503
 93
      257
310
90E312F31323822203D2031272D3022000000000000200FC000000000000284000
  0
ACAD_PROXY_OBJECT
  5
5A
102
{ACAD_REACTORS
330
47
102
}
330
47
100
AcDbProxyObject
 90
      499
 91
      503
 93
      249
310
90D312F363422203D2031272D3022000000000000240FC000000000000284000
  0
ACAD_PROXY_OBJECT
  5
5B
102
{ACAD_REACTORS
330
47
102
}
330
47
100
AcDbProxyObject
 90
      499
 91
      503
 93
      249
310
90D312F333222203D2031272D3022000000000000280FC000000000000284000
  0
ACAD_PROXY_OBJECT
  5
5C
102
{ACAD_REACTORS
330
47
102
}
330
47
100
AcDbProxyObject
 90
      499
 91
      503
 93
      249
310
90D312F313622203D2031272D30220000000000002C0FC000000000000284000
  0
ACAD_PROXY_OBJECT
  5
5D
102
{ACAD_REACTORS
330
47
102
}
330
47
100
AcDbProxyObject
 90
      499
 91
      503
 93
      249
310
90D332F333222203D2031272D30220000000000002E0FC000000000000284000
  0
ACAD_PROXY_OBJECT
  5
5E
102
{ACAD_REACTORS
330
47
102
}
330
47
100
AcDbProxyObject
 90
      499
 91
      503
 93
      241
310
90C312F3822203D2031272D3022000000000000300FC000000000000284000
  0
ACAD_PROXY_OBJECT
  5
5F
102
{ACAD_REACTORS
330
47
102
}
330
47
100
AcDbProxyObject
 90
      499
 91
      503
 93
      249
310
90D332F313622203D2031272D3022000000000000320FC000000000000284000
  0
ACAD_PROXY_OBJECT
  5
60
102
{ACAD_REACTORS
330
47
102
}
330
47
100
AcDbProxyObject
 90
      499
 91
      503
 93
      241
310
90C312F3422203D2031272D3022000000000000340FC000000000000284000
  0
ACAD_PROXY_OBJECT
  5
61
102
{ACAD_REACTORS
330
47
102
}
330
47
100
AcDbProxyObject
 90
      499
 91
      503
 93
      241
310
90C332F3822203D2031272D3022000000000000360FC000000000000284000
  0
ACAD_PROXY_OBJECT
  5
62
102
{ACAD_REACTORS
330
47
102
}
330
47
100
AcDbProxyObject
 90
      499
 91
      503
 93
      241
310
90C312F3222203D2031272D3022000000000000380FC000000000000284000
  0
ACAD_PROXY_OBJECT
  5
63
102
{ACAD_REACTORS
330
47
102
}
330
47
100
AcDbProxyObject
 90
      499
 91
      503
 93
      241
310
90C332F3422203D2031272D30220000000000003A0FC000000000000284000
  0
ACAD_PROXY_OBJECT
  5
64
102
{ACAD_REACTORS
330
47
102
}
330
47
100
AcDbProxyObject
 90
      499
 91
      503
 93
      161
310
90A3122203D2031272D30224000000000000284000
  0
ACAD_PROXY_OBJECT
  5
65
102
{ACAD_REACTORS
330
47
102
}
330
47
100
AcDbProxyObject
 90
      499
 91
      503
 93
      257
310
90E312D312F3222203D2031272D30220000000000003E0FC000000000000284000
  0
ACAD_PROXY_OBJECT
  5
66
102
{ACAD_REACTORS
330
47
102
}
330
47
100
AcDbProxyObject
 90
      499
 91
      503
 93
      225
310
90A3322203D2031272D302200000000000002100000000000000284000
  0
ACAD_PROXY_OBJECT
  5
67
102
{ACAD_REACTORS
330
47
102
}
330
47
100
AcDbProxyObject
 90
      499
 91
      503
 93
      225
310
90A3622203D2031272D302200000000000006100000000000000284000
  0
ACAD_PROXY_OBJECT
  5
68
102
{ACAD_REACTORS
330
47
102
}
330
47
100
AcDbProxyObject
 90
      499
 91
      503
 93
      249
310
90D31272D3022203D2031272D30220000000000000A100000000000000284000
  0
ACAD_PROXY_OBJECT
  5
2F
102
{ACAD_REACTORS
330
2A
102
}
330
2A
100
AcDbProxyObject
 90
      499
 91
      501
 93
      436
310
42CC9915DA5C99599C985B595049028333333333333E33F0000000000000F90107901411070040501600405405064090741402480A0340
1001
ACAD
1000
AcDbSavedByObjectVersion
1070
     0
  0
ACAD_PROXY_OBJECT
  5
32
102
{ACAD_REACTORS
330
2A
102
}
330
2A
100
AcDbProxyObject
 90
      499
 91
      501
 93
      388
310
4150985CDA58D07406404333333333333E33F0000000000000F90107A41107004050150841D405064090741402480A0350
1001
ACAD
1000
AcDbSavedByObjectVersion
1070
     0
  0
ACAD_PROXY_OBJECT
  5
36
102
{ACAD_REACTORS
330
2A
102
}
330
2A
100
AcDbProxyObject
 90
      499
 91
      501
 93
      428
310
42109C9A59DA1D195B90C409028333333333333E33F0000000000000F9010790141107004050150841D405064090741402480A029950
1001
ACAD
1000
AcDbSavedByObjectVersion
1070
     0
  0
ACAD_PROXY_OBJECT
  5
3A
102
{ACAD_REACTORS
330
2A
102
}
330
2A
100
AcDbProxyObject
 90
      499
 91
      501
 93
      452
310
42D0DBDB1BDC90DA185B99D95104090240C333333333333E33F0000000000000F90108901411070040501508421405064090741402480A0350
1001
ACAD
1000
AcDbSavedByObjectVersion
1070
     0
  0
ACAD_PROXY_OBJECT
  5
34
102
{ACAD_REACTORS
330
2A
102
}
330
2A
100
AcDbProxyObject
 90
      499
 91
      501
 93
      500
310
4290DBDB98D95C1D1D585B10940D028333333333333E33F0000000000000F90107902409070040501000000000018199010841D405064090740C02480A0340
1001
ACAD
1000
AcDbSavedByObjectVersion
1070
     0
  0
ACAD_PROXY_OBJECT
  5
35
102
{ACAD_REACTORS
330
2A
102
}
330
2A
100
AcDbProxyObject
 90
      499
 91
      501
 93
      412
310
40D11A5B50B409028333333333333E33F0000000000000F9010790141107004050150841D405064090741402480A02677FFFFFD0
1001
ACAD
1000
AcDbSavedByObjectVersion
1070
     0
  0
ACAD_PROXY_OBJECT
  5
3D
102
{ACAD_REACTORS
330
2A
102
}
330
2A
100
AcDbProxyObject
 90
      499
 91
      501
 93
      452
310
43115919D950DBDB1BDC93D999916409028333333333333E33F0000000000000F9010790141107004050150841D405064090741402480A0350
1001
ACAD
1000
AcDbSavedByObjectVersion
1070
     0
  0
ACAD_PROXY_OBJECT
  5
39
102
{ACAD_REACTORS
330
2A
102
}
330
2A
100
AcDbProxyObject
 90
      499
 91
      501
 93
      444
310
42D19858D95C185D1D195C9B90F409028333333333333E33F0000000000000F9010790141107004050150841D405064090741402480A0350
1001
ACAD
1000
AcDbSavedByObjectVersion
1070
     0
  0
ACAD_PROXY_OBJECT
  5
2B
102
{ACAD_REACTORS
330
2A
102
}
330
2A
100
AcDbProxyObject
 90
      499
 91
      501
 93
      380
310
41119B185D240901404333333333333E33F0000000000000F9010740A907004050150841D405064090741402480A1B50
1001
ACAD
1000
AcDbSavedByObjectVersion
1070
     0
  0
ACAD_PROXY_OBJECT
  5
2C
102
{ACAD_REACTORS
330
2A
102
}
330
2A
100
AcDbProxyObject
 90
      499
 91
      501
 93
      468
310
43519B185D15DA5D1A115919D95CD0140901404333333333333E33F0000000000000F90107409019070040501600405405064090741402480A1B50
1001
ACAD
1000
AcDbSavedByObjectVersion
1070
     0
  0
ACAD_PROXY_OBJECT
  5
2D
102
{ACAD_REACTORS
330
2A
102
}
330
2A
100
AcDbProxyObject
 90
      499
 91
      501
 93
      404
310
41D1DBDD5C985D5910240902404333333333333E33F0000000000000F9010740A9070040501641D405064090741402480A1B50
1001
ACAD
1000
AcDbSavedByObjectVersion
1070
     0
  0
ACAD_PROXY_OBJECT
  5
2E
102
{ACAD_REACTORS
330
2A
102
}
330
2A
100
AcDbProxyObject
 90
      499
 91
      501
 93
      492
310
4411DBDD5C985D5915DA5D1A115919D95CD0340902404333333333333E33F0000000000000F90107409019070040501600405405064090741402480A1B50
1001
ACAD
1000
AcDbSavedByObjectVersion
1070
     0
  0
ACAD_PROXY_OBJECT
  5
31
102
{ACAD_REACTORS
330
2A
102
}
330
2A
100
AcDbProxyObject
 90
      499
 91
      501
 93
      476
310
41921A5919195B90640502408333333333333E33F0000000000000F901079024090700405020000000000001110200405405064090740C02480A0340
1001
ACAD
1000
AcDbSavedByObjectVersion
1070
     0
  0
ACAD_PROXY_OBJECT
  5
3B
102
{ACAD_REACTORS
330
2A
102
}
330
2A
100
AcDbProxyObject
 90
      499
 91
      501
 93
      428
310
42529A5D1D195C93D999914409028333333333333E33F0000000000000F9010790141107004050150A41D405064090741402480A0350
1001
ACAD
1000
AcDbSavedByObjectVersion
1070
     0
  0
ACAD_PROXY_OBJECT
  5
38
102
{ACAD_REACTORS
330
2A
102
}
330
2A
100
AcDbProxyObject
 90
      499
 91
      501
 93
      444
310
42D31A5B995C185D1D195C9B90E409028333333333333E33F0000000000000F9010790141107004050750841D405064090741402483A0350
1001
ACAD
1000
AcDbSavedByObjectVersion
1070
     0
  0
ACAD_PROXY_OBJECT
  5
3C
102
{ACAD_REACTORS
330
2A
102
}
330
2A
100
AcDbProxyObject
 90
      499
 91
      501
 93
      444
310
42D3DD995C9A185B99D3D999915409028333333333333E33F0000000000000F9010790141107004050150941D405064090741402480A0350
1001
ACAD
1000
AcDbSavedByObjectVersion
1070
     0
  0
ACAD_PROXY_OBJECT
  5
33
102
{ACAD_REACTORS
330
2A
102
}
330
2A
100
AcDbProxyObject
 90
      499
 91
      501
 93
      428
310
425499585B1A5CDD1A58D08409038333333333333E33F0000000000000F9010740A907004050150800405405064090740C02480A1B40
1001
ACAD
1000
AcDbSavedByObjectVersion
1070
     0
  0
ACAD_PROXY_OBJECT
  5
42
102
{ACAD_REACTORS
330
2A
102
}
330
2A
100
AcDbProxyObject
 90
      499
 91
      501
 93
      420
310
4194DA1859195911B40902404333333333333E33F0000000000000F9010740A41107004050150800405405064090840C02480A0B40
1001
ACAD
1000
AcDbSavedByObjectVersion
1070
     0
  0
ACAD_PROXY_OBJECT
  5
41
102
{ACAD_REACTORS
330
2A
102
}
330
2A
100
AcDbProxyObject
 90
      499
 91
      501
 93
      516
310
4454DA18591959081DDA5D1A08195919D95CD1A40902404333333333333E33F0000000000000F901074090142907004050250800405405064090740C02480A0B40
1001
ACAD
1000
AcDbSavedByObjectVersion
1070
     0
  0
ACAD_PROXY_OBJECT
  5
3E
102
{ACAD_REACTORS
330
2A
102
}
330
2A
100
AcDbProxyObject
 90
      499
 91
      501
 93
      532
310
4394DA1859195CC81BD98811DC985E5174090240C333333333333E33F0000000000000F901079024090741D01000000000000111010841D405064090740C02480A0340
1001
ACAD
1000
AcDbSavedByObjectVersion
1070
     0
  0
ACAD_PROXY_OBJECT
  5
3F
102
{ACAD_REACTORS
330
2A
102
}
330
2A
100
AcDbProxyObject
 90
      499
 91
      501
 93
      476
310
41D4DAD95D18DA1E51840502408333333333333E33F0000000000000F901079024090741D01000000000000111010B41D405064090741802480A0340
1001
ACAD
1000
AcDbSavedByObjectVersion
1070
     0
  0
ACAD_PROXY_OBJECT
  5
37
102
{ACAD_REACTORS
330
2A
102
}
330
2A
100
AcDbProxyObject
 90
      499
 91
      501
 93
      412
310
41D51A1A58DAD95B90D409028333333333333E33F0000000000000F9010790141107004050150C41D405064090741402480A0350
1001
ACAD
1000
AcDbSavedByObjectVersion
1070
     0
  0
ACAD_PROXY_OBJECT
  5
30
102
{ACAD_REACTORS
330
2A
102
}
330
2A
100
AcDbProxyObject
 90
      499
 91
      501
 93
      420
310
4255DA5C99599C985B595059028333333333333E33F0000000000000F90107901411070040501600405405064090740C02480A0340
1001
ACAD
1000
AcDbSavedByObjectVersion
1070
     0
  0
ACAD_PROXY_OBJECT
  5
40
102
{ACAD_REACTORS
330
2A
102
}
330
2A
100
AcDbProxyObject
 90
      499
 91
      501
 93
      404
310
41560B54985E51940902404000000000000E03F0000000000000F9010740501907004050150841D405064090740C02480A1B40
1001
ACAD
1000
AcDbSavedByObjectVersion
1070
     0
  0
XRECORD
  5
2D6
102
{ACAD_REACTORS
330
2CC
102
}
330
2CC
100
AcDbXrecord
340
0
  0
XRECORD
  5
2D5
102
{ACAD_REACTORS
330
2CC
102
}
330
2CC
100
AcDbXrecord
 90
        0
  0
XRECORD
  5
2EC
102
{ACAD_REACTORS
330
2CC
102
}
330
2CC
100
AcDbXrecord
1000
DSTYLE
1002
{
1070
   179
 70
     2
1070
   171
 70
     2
1070
   143
 40
25.4
1070
   274
 70
     2
1070
    41
 40
3.0
1070
   141
 40
0.09
1070
    43
 40
0.38
1070
   278
 70
    46
1070
    44
 40
1.5
1070
    42
 40
0.0625
1070
   147
 40
1.5
1070
   272
 70
     4
1070
    73
 70
     1
1070
   172
 70
     0
1070
    74
 70
     1
1070
   283
 70
     1
1070
   340
340
6F
1070
   140
 40
3.0
1070
   284
 70
     0
1070
    78
 70
     0
1002
}
  0
XRECORD
  5
2D7
102
{ACAD_REACTORS
330
2CC
102
}
330
2CC
100
AcDbXrecord
  1
{D9BF4748-5B87-4F98-8DA1-60FEAB624863}
  0
XRECORD
  5
2CF
102
{ACAD_REACTORS
330
2CC
102
}
330
2CC
100
AcDbXrecord
  1

  0
XRECORD
  5
2D4
102
{ACAD_REACTORS
330
2CC
102
}
330
2CC
100
AcDbXrecord
 90
        4
  0
XRECORD
  5
2D1
102
{ACAD_REACTORS
330
2CC
102
}
330
2CC
100
AcDbXrecord
340
1A
  0
XRECORD
  5
2D3
102
{ACAD_REACTORS
330
2CC
102
}
330
2CC
100
AcDbXrecord
 90
    10269
  0
XRECORD
  5
2D2
102
{ACAD_REACTORS
330
2CC
102
}
330
2CC
100
AcDbXrecord
340
19
  0
XRECORD
  5
2D9
102
{ACAD_REACTORS
330
2CC
102
}
330
2CC
100
AcDbXrecord
 40
0.0
  0
XRECORD
  5
2DC
102
{ACAD_REACTORS
330
2CC
102
}
330
2CC
100
AcDbXrecord
340
0
  0
XRECORD
  5
2E2
102
{ACAD_REACTORS
330
2CC
102
}
330
2CC
100
AcDbXrecord
 10
0.0
 20
0.0
 30
0.0
  0
XRECORD
  5
2DE
102
{ACAD_REACTORS
330
2CC
102
}
330
2CC
100
AcDbXrecord
 10
0.0
 20
0.0
 30
0.0
  0
XRECORD
  5
2E1
102
{ACAD_REACTORS
330
2CC
102
}
330
2CC
100
AcDbXrecord
 10
0.0
 20
0.0
 30
0.0
  0
XRECORD
  5
2DF
102
{ACAD_REACTORS
330
2CC
102
}
330
2CC
100
AcDbXrecord
 10
0.0
 20
0.0
 30
0.0
  0
XRECORD
  5
2E0
102
{ACAD_REACTORS
330
2CC
102
}
330
2CC
100
AcDbXrecord
 10
0.0
 20
0.0
 30
0.0
  0
XRECORD
  5
2DD
102
{ACAD_REACTORS
330
2CC
102
}
330
2CC
100
AcDbXrecord
 10
0.0
 20
0.0
 30
0.0
  0
XRECORD
  5
2DA
102
{ACAD_REACTORS
330
2CC
102
}
330
2CC
100
AcDbXrecord
340
0
  0
XRECORD
  5
2DB
102
{ACAD_REACTORS
330
2CC
102
}
330
2CC
100
AcDbXrecord
 70
     0
  0
XRECORD
  5
2D0
102
{ACAD_REACTORS
330
2CC
102
}
330
2CC
100
AcDbXrecord
  1

  0
XRECORD
  5
2CD
102
{ACAD_REACTORS
330
2CC
102
}
330
2CC
100
AcDbXrecord
 90
        1
  0
XRECORD
  5
2CE
102
{ACAD_REACTORS
330
2CC
102
}
330
2CC
100
AcDbXrecord
 90
       70
  0
XRECORD
  5
2E5
102
{ACAD_REACTORS
330
2CC
102
}
330
2CC
100
AcDbXrecord
340
0
  0
XRECORD
  5
2EB
102
{ACAD_REACTORS
330
2CC
102
}
330
2CC
100
AcDbXrecord
 10
0.0
 20
0.0
 30
0.0
  0
XRECORD
  5
2E7
102
{ACAD_REACTORS
330
2CC
102
}
330
2CC
100
AcDbXrecord
 10
0.0
 20
0.0
 30
0.0
  0
XRECORD
  5
2EA
102
{ACAD_REACTORS
330
2CC
102
}
330
2CC
100
AcDbXrecord
 10
0.0
 20
0.0
 30
0.0
  0
XRECORD
  5
2E8
102
{ACAD_REACTORS
330
2CC
102
}
330
2CC
100
AcDbXrecord
 10
0.0
 20
0.0
 30
0.0
  0
XRECORD
  5
2E9
102
{ACAD_REACTORS
330
2CC
102
}
330
2CC
100
AcDbXrecord
 10
0.0
 20
0.0
 30
0.0
  0
XRECORD
  5
2E6
102
{ACAD_REACTORS
330
2CC
102
}
330
2CC
100
AcDbXrecord
 10
0.0
 20
0.0
 30
0.0
  0
XRECORD
  5
2E3
102
{ACAD_REACTORS
330
2CC
102
}
330
2CC
100
AcDbXrecord
340
0
  0
XRECORD
  5
2E4
102
{ACAD_REACTORS
330
2CC
102
}
330
2CC
100
AcDbXrecord
 70
     0
  0
XRECORD
  5
2D8
102
{ACAD_REACTORS
330
2CC
102
}
330
2CC
100
AcDbXrecord
  1
{FAEB1C32-E019-11D5-929B-00C0DF256EC4}
  0
DICTIONARYVAR
  5
2F6
102
{ACAD_REACTORS
330
2ED
102
}
330
2ED
100
DictionaryVariables
280
     0
  1
1:1
  0
DICTIONARYVAR
  5
2EF
102
{ACAD_REACTORS
330
2ED
102
}
330
2ED
100
DictionaryVariables
280
     0
  1
Standard
  0
DICTIONARYVAR
  5
2EE
102
{ACAD_REACTORS
330
2ED
102
}
330
2ED
100
DictionaryVariables
280
     0
  1
Standard
  0
DICTIONARYVAR
  5
2F2
102
{ACAD_REACTORS
330
2ED
102
}
330
2ED
100
DictionaryVariables
280
     0
  1
2
  0
DICTIONARYVAR
  5
2F3
102
{ACAD_REACTORS
330
2ED
102
}
330
2ED
100
DictionaryVariables
280
     0
  1
1
  0
DICTIONARYVAR
  5
2F7
102
{ACAD_REACTORS
330
2ED
102
}
330
2ED
100
DictionaryVariables
280
     0
  1
1
  0
DICTIONARY
  5
2FA
330
45
100
AcDbDictionary
280
     1
  3
ACAD_XREC_ROUNDTRIP
360
2FB
  0
DICTIONARY
  5
2F8
330
44
100
AcDbDictionary
280
     1
  3
ACAD_XREC_ROUNDTRIP
360
2F9
  0
DICTIONARY
  5
2FC
330
46
100
AcDbDictionary
280
     1
  3
ACAD_XREC_ROUNDTRIP
360
2FD
  0
XRECORD
  5
2FB
102
{ACAD_REACTORS
330
2FA
102
}
330
2FA
100
AcDbXrecord
102
MATERIAL
148
0.0
149
0.0
149
0.0
 93
        0
 94
      127
282
     0
 72
     1
 77
     1
171
     1
175
     1
179
     1
273
     0
  0
XRECORD
  5
2F9
102
{ACAD_REACTORS
330
2F8
102
}
330
2F8
100
AcDbXrecord
102
MATERIAL
148
0.0
149
0.0
149
0.0
 93
        0
 94
      127
282
     0
 72
     1
 77
     1
171
     1
175
     1
179
     1
273
     0
  0
XRECORD
  5
2FD
102
{ACAD_REACTORS
330
2FC
102
}
330
2FC
100
AcDbXrecord
102
MATERIAL
148
0.0
149
0.0
149
0.0
 93
        0
 94
      127
282
     0
 72
     1
 77
     1
171
     1
175
     1
179
     1
273
     0
  0
ENDSEC
  0
EOF
