  0
SECTION
  2
HEADER
  9
$ACADVER
  1
AC1006
  9
$DWGCODEPAGE
  3
ansi_932
  9
$INSBASE
 10
0.0
 20
0.0
 30
0.0
  9
$EXTMIN
 10
-679.2499999767414
 20
-782.534090909091
  9
$EXTMAX
 10
-352.5999999999999
 20
-520.1000000000001
  9
$LIMMIN
 10
0.0
 20
0.0
  9
$LIMMAX
 10
12.0
 20
9.0
  9
$ORTHOMODE
 70
     0
  9
$REGENMODE
 70
     1
  9
$FILLMODE
 70
     1
  9
$QTEXTMODE
 70
     0
  9
$MIRRTEXT
 70
     1
  9
$DRAGMODE
 70
     2
  9
$LTSCALE
 40
1.0
  9
$OSMODE
 70
    37
  9
$ATTMODE
 70
     1
  9
$TEXTSIZE
 40
0.2
  9
$TRACEWID
 40
0.05
  9
$TEXTSTYLE
  7
STANDARD
  9
$CLAYER
  8
0
  9
$CELTYPE
  6
BYLAYER
  9
$CECOLOR
 62
   256
  9
$DIMSCALE
 40
1.0
  9
$DIMASZ
 40
3.0
  9
$DIMEXO
 40
0.0625
  9
$DIMDLI
 40
0.38
  9
$DIMRND
 40
0.0
  9
$DIMDLE
 40
0.0
  9
$DIMEXE
 40
1.5
  9
$DIMTP
 40
0.0
  9
$DIMTM
 40
0.0
  9
$DIMTXT
 40
3.0
  9
$DIMCEN
 40
0.09
  9
$DIMTSZ
 40
0.0
  9
$DIMTOL
 70
     0
  9
$DIMLIM
 70
     0
  9
$DIMTIH
 70
     1
  9
$DIMTOH
 70
     1
  9
$DIMSE1
 70
     0
  9
$DIMSE2
 70
     0
  9
$DIMTAD
 70
     1
  9
$DIMZIN
 70
     0
  9
$DIMBLK
  1

  9
$DIMASO
 70
     1
  9
$DIMSHO
 70
     1
  9
$DIMPOST
  1

  9
$DIMAPOST
  1

  9
$DIMALT
 70
     0
  9
$DIMALTD
 70
     2
  9
$DIMALTF
 40
25.4
  9
$DIMLFAC
 40
1.0
  9
$DIMTOFL
 70
     0
  9
$DIMTVP
 40
0.0
  9
$DIMTIX
 70
     0
  9
$DIMSOXD
 70
     0
  9
$DIMSAH
 70
     0
  9
$DIMBLK1
  1

  9
$DIMBLK2
  1

  9
$LUNITS
 70
     2
  9
$LUPREC
 70
     4
  9
$SKETCHINC
 40
0.1
  9
$FILLETRAD
 40
0.5
  9
$AUNITS
 70
     0
  9
$AUPREC
 70
     0
  9
$MENU
  1
.
  9
$ELEVATION
 40
0.0
  9
$THICKNESS
 40
0.0
  9
$LIMCHECK
 70
     0
  9
$CHAMFERA
 40
0.0
  9
$CHAMFERB
 40
0.0
  9
$SKPOLY
 70
     0
  9
$TDCREATE
 40
2460427.567096586
  9
$TDUPDATE
 40
2460427.567096863
  9
$TDINDWG
 40
0.0000000116
  9
$TDUSRTIMER
 40
0.0000000116
  9
$USRTIMER
 70
     1
  9
$ANGBASE
 50
0.0
  9
$ANGDIR
 70
     0
  9
$PDMODE
 70
     0
  9
$PDSIZE
 40
0.0
  9
$PLINEWID
 40
0.0
  9
$COORDS
 70
     1
  9
$SPLFRAME
 70
     0
  9
$SPLINETYPE
 70
     6
  9
$SPLINESEGS
 70
     8
  9
$ATTDIA
 70
     0
  9
$ATTREQ
 70
     1
  9
$HANDLING
 70
     1
  9
$HANDSEED
  5
40F
  9
$SURFTAB1
 70
     6
  9
$SURFTAB2
 70
     6
  9
$SURFTYPE
 70
     6
  9
$SURFU
 70
     6
  9
$SURFV
 70
     6
  9
$UCSNAME
  2

  9
$UCSORG
 10
0.0
 20
0.0
 30
0.0
  9
$UCSXDIR
 10
1.0
 20
0.0
 30
0.0
  9
$UCSYDIR
 10
0.0
 20
1.0
 30
0.0
  9
$USERI1
 70
     0
  9
$USERI2
 70
     0
  9
$USERI3
 70
     0
  9
$USERI4
 70
     0
  9
$USERI5
 70
     0
  9
$USERR1
 40
0.0
  9
$USERR2
 40
0.0
  9
$USERR3
 40
0.0
  9
$USERR4
 40
0.0
  9
$USERR5
 40
0.0
  9
$WORLDVIEW
 70
     1
  0
ENDSEC
  0
SECTION
  2
TABLES
  0
TABLE
  2
VPORT
 70
     1
  0
VPORT
  2
*ACTIVE
 70
     0
 10
0.0
 20
0.0
 11
1.0
 21
1.0
 12
-515.9249999883707
 22
-651.3170454545456
 13
0.0
 23
0.0
 14
0.5
 24
0.5
 15
0.5
 25
0.5
 16
0.0
 26
0.0
 36
1.0
 17
0.0
 27
0.0
 37
0.0
 40
262.4340909090909
 41
1.6
 42
50.0
 43
0.0
 44
0.0
 50
0.0
 51
0.0
 71
     0
 72
   100
 73
     1
 74
     3
 75
     0
 76
     0
 77
     0
 78
     0
  0
ENDTAB
  0
TABLE
  2
LTYPE
 70
     2
  0
LTYPE
  2
CONTINUOUS
 70
     0
  3
Solid line
 72
    65
 73
     0
 40
0.0
  0
LTYPE
  2
CENTER
 70
     0
  3

 72
    65
 73
     0
 40
0.0
  0
ENDTAB
  0
TABLE
  2
LAYER
 70
     2
  0
LAYER
  2
0
 70
     0
 62
     7
  6
CONTINUOUS
  0
LAYER
  2
1
 70
     0
 62
     7
  6
CONTINUOUS
  0
ENDTAB
  0
TABLE
  2
STYLE
 70
     2
  0
STYLE
  2
STANDARD
 70
     0
 40
0.0
 41
1.0
 50
0.0
 71
     0
 42
0.2
  3
txt
  4

  0
STYLE
  2
ＭＳ_ゴシック
 70
     0
 40
0.0
 41
1.0
 50
0.0
 71
     0
 42
0.2
  3
ＭＳ ゴシック.shx
  4

  0
ENDTAB
  0
TABLE
  2
VIEW
 70
     0
  0
ENDTAB
  0
TABLE
  2
UCS
 70
     0
  0
ENDTAB
  0
ENDSEC
  0
SECTION
  2
BLOCKS
  0
ENDSEC
  0
SECTION
  2
ENTITIES
  0
TEXT
  5
70
  8
1
  6
CONTINUOUS
 62
     7
 10
-522.4636426159809
 20
-783.0568181818182
 30
0.0
 40
5.0
  1
ＳＢＧ－４ＷＣＳ
  0
ARC
  5
71
  8
1
  6
CONTINUOUS
 62
     7
 10
-376.1
 20
-743.9999999958956
 30
0.0
 40
1.000000000000001
 50
270.0
 51
0.0
  0
LINE
  5
72
  8
1
  6
CONTINUOUS
 62
     7
 10
-376.1
 20
-744.9999999958956
 30
0.0
 11
-394.1
 21
-744.9999999958956
 31
0.0
  0
ARC
  5
73
  8
1
  6
CONTINUOUS
 62
     7
 10
-394.1
 20
-743.9999999958956
 30
0.0
 40
1.000000000000001
 50
180.0
 51
270.0
  0
LINE
  5
74
  8
1
  6
CONTINUOUS
 62
     7
 10
-375.1
 20
-736.5118259747439
 30
0.0
 11
-375.1
 21
-743.9999999958956
 31
0.0
  0
LINE
  5
75
  8
1
  6
CONTINUOUS
 62
     7
 10
-375.0999999999999
 20
-615.9999999958956
 30
0.0
 11
-375.0999999999999
 21
-623.4881740268975
 31
0.0
  0
ARC
  5
76
  8
1
  6
CONTINUOUS
 62
     7
 10
-394.1
 20
-615.9999999958956
 30
0.0
 40
1.000000000000001
 50
90.00000000000011
 51
180.0
  0
LINE
  5
77
  8
1
  6
CONTINUOUS
 62
     7
 10
-394.1
 20
-614.9999999958956
 30
0.0
 11
-376.0999999999999
 21
-614.9999999958956
 31
0.0
  0
ARC
  5
78
  8
1
  6
CONTINUOUS
 62
     7
 10
-376.0999999999999
 20
-615.9999999958956
 30
0.0
 40
1.000000000000001
 50
0.0
 51
90.0
  0
ARC
  5
79
  8
1
  6
CONTINUOUS
 62
     7
 10
-376.1
 20
-763.9999999990728
 30
0.0
 40
1.000000000106377
 50
270.0
 51
0.0
  0
LINE
  5
7A
  8
1
  6
CONTINUOUS
 62
     7
 10
-376.1
 20
-764.9999999991791
 30
0.0
 11
-394.1
 21
-764.9999999991791
 31
0.0
  0
ARC
  5
7B
  8
1
  6
CONTINUOUS
 62
     7
 10
-394.1
 20
-763.9999999990728
 30
0.0
 40
1.000000000106377
 50
180.0
 51
270.0
  0
LINE
  5
7C
  8
1
  6
CONTINUOUS
 62
     7
 10
-379.6
 20
-752.4999999978494
 30
0.0
 11
-379.5754661628363
 21
-752.5006022697469
 31
0.0
  0
LINE
  5
7D
  8
1
  6
CONTINUOUS
 62
     7
 10
-379.5754661628363
 20
-752.5006022697469
 30
0.0
 11
-379.5509914298352
 21
-752.5024076345136
 31
0.0
  0
LINE
  5
7E
  8
1
  6
CONTINUOUS
 62
     7
 10
-379.5509914298352
 20
-752.5024076345136
 30
0.0
 11
-379.5266347627723
 21
-752.5054117428676
 31
0.0
  0
LINE
  5
7F
  8
1
  6
CONTINUOUS
 62
     7
 10
-379.5266347627723
 20
-752.5054117428676
 30
0.0
 11
-379.5024548389919
 21
-752.5096073576489
 31
0.0
  0
LINE
  5
80
  8
1
  6
CONTINUOUS
 62
     7
 10
-379.5024548389919
 20
-752.5096073576489
 30
0.0
 11
-379.4785099100483
 21
-752.5149843712537
 31
0.0
  0
LINE
  5
81
  8
1
  6
CONTINUOUS
 62
     7
 10
-379.4785099100483
 20
-752.5149843712537
 30
0.0
 11
-379.4548576613728
 21
-752.5215298299856
 31
0.0
  0
LINE
  5
82
  8
1
  6
CONTINUOUS
 62
     7
 10
-379.4548576613728
 20
-752.5215298299856
 30
0.0
 11
-379.4315550733039
 21
-752.529227965261
 31
0.0
  0
LINE
  5
83
  8
1
  6
CONTINUOUS
 62
     7
 10
-379.4315550733039
 20
-752.529227965261
 30
0.0
 11
-379.4086582838174
 21
-752.5380602315978
 31
0.0
  0
LINE
  5
84
  8
1
  6
CONTINUOUS
 62
     7
 10
-379.4086582838174
 20
-752.5380602315978
 30
0.0
 11
-379.3862224532849
 21
-752.5480053512929
 31
0.0
  0
LINE
  5
85
  8
1
  6
CONTINUOUS
 62
     7
 10
-379.3862224532849
 20
-752.5480053512929
 30
0.0
 11
-379.364301631587
 21
-752.5590393656815
 31
0.0
  0
LINE
  5
86
  8
1
  6
CONTINUOUS
 62
     7
 10
-379.364301631587
 20
-752.5590393656815
 30
0.0
 11
-379.3429486279034
 21
-752.5711356928568
 31
0.0
  0
LINE
  5
87
  8
1
  6
CONTINUOUS
 62
     7
 10
-379.3429486279034
 20
-752.5711356928568
 30
0.0
 11
-379.3222148834902
 21
-752.5842651917071
 31
0.0
  0
LINE
  5
88
  8
1
  6
CONTINUOUS
 62
     7
 10
-379.3222148834902
 20
-752.5842651917071
 30
0.0
 11
-379.3021503477538
 21
-752.5983962321195
 31
0.0
  0
LINE
  5
89
  8
1
  6
CONTINUOUS
 62
     7
 10
-379.3021503477538
 20
-752.5983962321195
 30
0.0
 11
-379.2828033579181
 21
-752.6134947711801
 31
0.0
  0
LINE
  5
8A
  8
1
  6
CONTINUOUS
 62
     7
 10
-379.2828033579181
 20
-752.6134947711801
 30
0.0
 11
-379.2642205225765
 21
-752.6295244351857
 31
0.0
  0
LINE
  5
8B
  8
1
  6
CONTINUOUS
 62
     7
 10
-379.2642205225765
 20
-752.6295244351857
 30
0.0
 11
-379.2464466094067
 21
-752.6464466072717
 31
0.0
  0
LINE
  5
8C
  8
1
  6
CONTINUOUS
 62
     7
 10
-379.2464466094067
 20
-752.6464466072717
 30
0.0
 11
-379.2295244373225
 21
-752.6642205204433
 31
0.0
  0
LINE
  5
8D
  8
1
  6
CONTINUOUS
 62
     7
 10
-379.2295244373225
 20
-752.6642205204433
 30
0.0
 11
-379.2134947733186
 21
-752.6828033557871
 31
0.0
  0
LINE
  5
8E
  8
1
  6
CONTINUOUS
 62
     7
 10
-379.2134947733186
 20
-752.6828033557871
 30
0.0
 11
-379.1983962342596
 21
-752.7021503456247
 31
0.0
  0
LINE
  5
8F
  8
1
  6
CONTINUOUS
 62
     7
 10
-379.1983962342596
 20
-752.7021503456247
 30
0.0
 11
-379.1842651938487
 21
-752.7222148813632
 31
0.0
  0
LINE
  5
90
  8
1
  6
CONTINUOUS
 62
     7
 10
-379.1842651938487
 20
-752.7222148813632
 30
0.0
 11
-379.1711356949998
 21
-752.7429486257786
 31
0.0
  0
LINE
  5
91
  8
1
  6
CONTINUOUS
 62
     7
 10
-379.1711356949998
 20
-752.7429486257786
 30
0.0
 11
-379.1590393678258
 21
-752.7643016294645
 31
0.0
  0
LINE
  5
92
  8
1
  6
CONTINUOUS
 62
     7
 10
-379.1590393678258
 20
-752.7643016294645
 30
0.0
 11
-379.1480053534382
 21
-752.7862224511648
 31
0.0
  0
LINE
  5
93
  8
1
  6
CONTINUOUS
 62
     7
 10
-379.1480053534382
 20
-752.7862224511648
 30
0.0
 11
-379.1380602337443
 21
-752.8086582816998
 31
0.0
  0
LINE
  5
94
  8
1
  6
CONTINUOUS
 62
     7
 10
-379.1380602337443
 20
-752.8086582816998
 30
0.0
 11
-379.1292279674084
 21
-752.8315550711886
 31
0.0
  0
LINE
  5
95
  8
1
  6
CONTINUOUS
 62
     7
 10
-379.1292279674084
 20
-752.8315550711886
 30
0.0
 11
-379.1215298321339
 21
-752.85485765926
 31
0.0
  0
LINE
  5
96
  8
1
  6
CONTINUOUS
 62
     7
 10
-379.1215298321339
 20
-752.85485765926
 30
0.0
 11
-379.1149843734027
 21
-752.878509907938
 31
0.0
  0
LINE
  5
97
  8
1
  6
CONTINUOUS
 62
     7
 10
-379.1149843734027
 20
-752.878509907938
 30
0.0
 11
-379.1096073597984
 21
-752.9024548368842
 31
0.0
  0
LINE
  5
98
  8
1
  6
CONTINUOUS
 62
     7
 10
-379.1096073597984
 20
-752.9024548368842
 30
0.0
 11
-379.1054117450176
 21
-752.9266347606671
 31
0.0
  0
LINE
  5
99
  8
1
  6
CONTINUOUS
 62
     7
 10
-379.1054117450176
 20
-752.9266347606671
 30
0.0
 11
-379.1024076366638
 21
-752.9509914277326
 31
0.0
  0
LINE
  5
9A
  8
1
  6
CONTINUOUS
 62
     7
 10
-379.1024076366638
 20
-752.9509914277326
 30
0.0
 11
-379.1006022718974
 21
-752.9754661607362
 31
0.0
  0
LINE
  5
9B
  8
1
  6
CONTINUOUS
 62
     7
 10
-379.1006022718974
 20
-752.9754661607362
 30
0.0
 11
-379.1
 21
-752.9999999979027
 31
0.0
  0
LINE
  5
9C
  8
1
  6
CONTINUOUS
 62
     7
 10
-390.6
 20
-752.4999999978494
 30
0.0
 11
-379.6
 21
-752.4999999978494
 31
0.0
  0
LINE
  5
9D
  8
1
  6
CONTINUOUS
 62
     7
 10
-391.1
 20
-752.9999999979027
 30
0.0
 11
-391.0993977281025
 21
-752.9754661607362
 31
0.0
  0
LINE
  5
9E
  8
1
  6
CONTINUOUS
 62
     7
 10
-391.0993977281025
 20
-752.9754661607362
 30
0.0
 11
-391.097592363336
 21
-752.9509914277326
 31
0.0
  0
LINE
  5
9F
  8
1
  6
CONTINUOUS
 62
     7
 10
-391.097592363336
 20
-752.9509914277326
 30
0.0
 11
-391.0945882549824
 21
-752.9266347606671
 31
0.0
  0
LINE
  5
A0
  8
1
  6
CONTINUOUS
 62
     7
 10
-391.0945882549824
 20
-752.9266347606671
 30
0.0
 11
-391.0903926402016
 21
-752.9024548368842
 31
0.0
  0
LINE
  5
A1
  8
1
  6
CONTINUOUS
 62
     7
 10
-391.0903926402016
 20
-752.9024548368842
 30
0.0
 11
-391.0850156265972
 21
-752.878509907938
 31
0.0
  0
LINE
  5
A2
  8
1
  6
CONTINUOUS
 62
     7
 10
-391.0850156265972
 20
-752.878509907938
 30
0.0
 11
-391.078470167866
 21
-752.85485765926
 31
0.0
  0
LINE
  5
A3
  8
1
  6
CONTINUOUS
 62
     7
 10
-391.078470167866
 20
-752.85485765926
 30
0.0
 11
-391.0707720325915
 21
-752.8315550711886
 31
0.0
  0
LINE
  5
A4
  8
1
  6
CONTINUOUS
 62
     7
 10
-391.0707720325915
 20
-752.8315550711886
 30
0.0
 11
-391.0619397662556
 21
-752.8086582816998
 31
0.0
  0
LINE
  5
A5
  8
1
  6
CONTINUOUS
 62
     7
 10
-391.0619397662556
 20
-752.8086582816998
 30
0.0
 11
-391.0519946465617
 21
-752.7862224511648
 31
0.0
  0
LINE
  5
A6
  8
1
  6
CONTINUOUS
 62
     7
 10
-391.0519946465617
 20
-752.7862224511648
 30
0.0
 11
-391.0409606321741
 21
-752.7643016294645
 31
0.0
  0
LINE
  5
A7
  8
1
  6
CONTINUOUS
 62
     7
 10
-391.0409606321741
 20
-752.7643016294645
 30
0.0
 11
-391.0288643050001
 21
-752.7429486257786
 31
0.0
  0
LINE
  5
A8
  8
1
  6
CONTINUOUS
 62
     7
 10
-391.0288643050001
 20
-752.7429486257786
 30
0.0
 11
-391.0157348061513
 21
-752.7222148813632
 31
0.0
  0
LINE
  5
A9
  8
1
  6
CONTINUOUS
 62
     7
 10
-391.0157348061513
 20
-752.7222148813632
 30
0.0
 11
-391.0016037657403
 21
-752.7021503456247
 31
0.0
  0
LINE
  5
AA
  8
1
  6
CONTINUOUS
 62
     7
 10
-391.0016037657403
 20
-752.7021503456247
 30
0.0
 11
-390.9865052266813
 21
-752.6828033557871
 31
0.0
  0
LINE
  5
AB
  8
1
  6
CONTINUOUS
 62
     7
 10
-390.9865052266813
 20
-752.6828033557871
 30
0.0
 11
-390.9704755626774
 21
-752.6642205204433
 31
0.0
  0
LINE
  5
AC
  8
1
  6
CONTINUOUS
 62
     7
 10
-390.9704755626774
 20
-752.6642205204433
 30
0.0
 11
-390.9535533905932
 21
-752.6464466072717
 31
0.0
  0
LINE
  5
AD
  8
1
  6
CONTINUOUS
 62
     7
 10
-390.9535533905932
 20
-752.6464466072717
 30
0.0
 11
-390.9357794774235
 21
-752.6295244351857
 31
0.0
  0
LINE
  5
AE
  8
1
  6
CONTINUOUS
 62
     7
 10
-390.9357794774235
 20
-752.6295244351857
 30
0.0
 11
-390.9171966420818
 21
-752.6134947711801
 31
0.0
  0
LINE
  5
AF
  8
1
  6
CONTINUOUS
 62
     7
 10
-390.9171966420818
 20
-752.6134947711801
 30
0.0
 11
-390.8978496522462
 21
-752.5983962321195
 31
0.0
  0
LINE
  5
B0
  8
1
  6
CONTINUOUS
 62
     7
 10
-390.8978496522462
 20
-752.5983962321195
 30
0.0
 11
-390.8777851165098
 21
-752.5842651917071
 31
0.0
  0
LINE
  5
B1
  8
1
  6
CONTINUOUS
 62
     7
 10
-390.8777851165098
 20
-752.5842651917071
 30
0.0
 11
-390.8570513720966
 21
-752.5711356928568
 31
0.0
  0
LINE
  5
B2
  8
1
  6
CONTINUOUS
 62
     7
 10
-390.8570513720966
 20
-752.5711356928568
 30
0.0
 11
-390.835698368413
 21
-752.5590393656815
 31
0.0
  0
LINE
  5
B3
  8
1
  6
CONTINUOUS
 62
     7
 10
-390.835698368413
 20
-752.5590393656815
 30
0.0
 11
-390.8137775467151
 21
-752.5480053512929
 31
0.0
  0
LINE
  5
B4
  8
1
  6
CONTINUOUS
 62
     7
 10
-390.8137775467151
 20
-752.5480053512929
 30
0.0
 11
-390.7913417161825
 21
-752.5380602315978
 31
0.0
  0
LINE
  5
B5
  8
1
  6
CONTINUOUS
 62
     7
 10
-390.7913417161825
 20
-752.5380602315978
 30
0.0
 11
-390.7684449266961
 21
-752.529227965261
 31
0.0
  0
LINE
  5
B6
  8
1
  6
CONTINUOUS
 62
     7
 10
-390.7684449266961
 20
-752.529227965261
 30
0.0
 11
-390.7451423386272
 21
-752.5215298299856
 31
0.0
  0
LINE
  5
B7
  8
1
  6
CONTINUOUS
 62
     7
 10
-390.7451423386272
 20
-752.5215298299856
 30
0.0
 11
-390.7214900899516
 21
-752.5149843712537
 31
0.0
  0
LINE
  5
B8
  8
1
  6
CONTINUOUS
 62
     7
 10
-390.7214900899516
 20
-752.5149843712537
 30
0.0
 11
-390.697545161008
 21
-752.5096073576489
 31
0.0
  0
LINE
  5
B9
  8
1
  6
CONTINUOUS
 62
     7
 10
-390.697545161008
 20
-752.5096073576489
 30
0.0
 11
-390.6733652372276
 21
-752.5054117428676
 31
0.0
  0
LINE
  5
BA
  8
1
  6
CONTINUOUS
 62
     7
 10
-390.6733652372276
 20
-752.5054117428676
 30
0.0
 11
-390.6490085701648
 21
-752.5024076345136
 31
0.0
  0
LINE
  5
BB
  8
1
  6
CONTINUOUS
 62
     7
 10
-390.6490085701648
 20
-752.5024076345136
 30
0.0
 11
-390.6245338371637
 21
-752.5006022697469
 31
0.0
  0
LINE
  5
BC
  8
1
  6
CONTINUOUS
 62
     7
 10
-390.6245338371637
 20
-752.5006022697469
 30
0.0
 11
-390.6
 21
-752.4999999978494
 31
0.0
  0
LINE
  5
BD
  8
1
  6
CONTINUOUS
 62
     7
 10
-391.1
 20
-757.8441568421925
 30
0.0
 11
-391.1
 21
-752.9999999979027
 31
0.0
  0
LINE
  5
BE
  8
1
  6
CONTINUOUS
 62
     7
 10
-391.1
 20
-757.8441568421925
 30
0.0
 11
-391.0903926402016
 21
-757.939909823862
 31
0.0
  0
LINE
  5
BF
  8
1
  6
CONTINUOUS
 62
     7
 10
-391.0903926402016
 20
-757.939909823862
 30
0.0
 11
-391.0619397662556
 21
-758.0319830721448
 31
0.0
  0
LINE
  5
C0
  8
1
  6
CONTINUOUS
 62
     7
 10
-391.0619397662556
 20
-758.0319830721448
 30
0.0
 11
-391.0157348061513
 21
-758.1168382637447
 31
0.0
  0
LINE
  5
C1
  8
1
  6
CONTINUOUS
 62
     7
 10
-391.0157348061513
 20
-758.1168382637447
 30
0.0
 11
-390.9535533905932
 21
-758.1912144612359
 31
0.0
  0
LINE
  5
C2
  8
1
  6
CONTINUOUS
 62
     7
 10
-390.9535533905932
 20
-758.1912144612359
 30
0.0
 11
-390.8777851165098
 21
-758.2522534290594
 31
0.0
  0
LINE
  5
C3
  8
1
  6
CONTINUOUS
 62
     7
 10
-390.8777851165098
 20
-758.2522534290594
 30
0.0
 11
-390.7913417161826
 21
-758.2976094739128
 31
0.0
  0
LINE
  5
C4
  8
1
  6
CONTINUOUS
 62
     7
 10
-390.7913417161826
 20
-758.2976094739128
 30
0.0
 11
-390.6975451610081
 21
-758.3255395884282
 31
0.0
  0
LINE
  5
C5
  8
1
  6
CONTINUOUS
 62
     7
 10
-390.6975451610081
 20
-758.3255395884282
 30
0.0
 11
-390.6
 21
-758.3349704339686
 31
0.0
  0
LINE
  5
C6
  8
1
  6
CONTINUOUS
 62
     7
 10
-379.6
 20
-758.3349704339686
 30
0.0
 11
-390.6
 21
-758.3349704339686
 31
0.0
  0
LINE
  5
C7
  8
1
  6
CONTINUOUS
 62
     7
 10
-379.6
 20
-758.3349704339686
 30
0.0
 11
-379.5024548389919
 21
-758.3255395884283
 31
0.0
  0
LINE
  5
C8
  8
1
  6
CONTINUOUS
 62
     7
 10
-379.5024548389919
 20
-758.3255395884283
 30
0.0
 11
-379.4086582838174
 21
-758.2976094739128
 31
0.0
  0
LINE
  5
C9
  8
1
  6
CONTINUOUS
 62
     7
 10
-379.4086582838174
 20
-758.2976094739128
 30
0.0
 11
-379.3222148834902
 21
-758.2522534290594
 31
0.0
  0
LINE
  5
CA
  8
1
  6
CONTINUOUS
 62
     7
 10
-379.3222148834902
 20
-758.2522534290594
 30
0.0
 11
-379.2464466094067
 21
-758.1912144612359
 31
0.0
  0
LINE
  5
CB
  8
1
  6
CONTINUOUS
 62
     7
 10
-379.2464466094067
 20
-758.1912144612359
 30
0.0
 11
-379.1842651938487
 21
-758.1168382637447
 31
0.0
  0
LINE
  5
CC
  8
1
  6
CONTINUOUS
 62
     7
 10
-379.1842651938487
 20
-758.1168382637447
 30
0.0
 11
-379.1380602337443
 21
-758.0319830721448
 31
0.0
  0
LINE
  5
CD
  8
1
  6
CONTINUOUS
 62
     7
 10
-379.1380602337443
 20
-758.0319830721448
 30
0.0
 11
-379.1096073597984
 21
-757.9399098238621
 31
0.0
  0
LINE
  5
CE
  8
1
  6
CONTINUOUS
 62
     7
 10
-379.1096073597984
 20
-757.9399098238621
 30
0.0
 11
-379.1
 21
-757.8441568421925
 31
0.0
  0
LINE
  5
CF
  8
1
  6
CONTINUOUS
 62
     7
 10
-379.1
 20
-752.9999999979027
 30
0.0
 11
-379.1
 21
-757.8441568421925
 31
0.0
  0
LINE
  5
D0
  8
1
  6
CONTINUOUS
 62
     7
 10
-395.1
 20
-763.9999999990728
 30
0.0
 11
-395.1
 21
-745.2500000008207
 31
0.0
  0
LINE
  5
D1
  8
1
  6
CONTINUOUS
 62
     7
 10
-375.1
 20
-743.9999999969452
 30
0.0
 11
-375.1
 21
-763.9999999990728
 31
0.0
  0
LINE
  5
D2
  8
1
  6
CONTINUOUS
 62
     7
 10
-375.0999999999999
 20
-595.9999999990727
 30
0.0
 11
-375.1012045437947
 21
-595.9509323247506
 31
0.0
  0
LINE
  5
D3
  8
1
  6
CONTINUOUS
 62
     7
 10
-375.1012045437947
 20
-595.9509323247506
 30
0.0
 11
-375.1048152733277
 21
-595.9019828587536
 31
0.0
  0
LINE
  5
D4
  8
1
  6
CONTINUOUS
 62
     7
 10
-375.1048152733277
 20
-595.9019828587536
 30
0.0
 11
-375.1108234900352
 21
-595.853269524633
 31
0.0
  0
LINE
  5
D5
  8
1
  6
CONTINUOUS
 62
     7
 10
-375.1108234900352
 20
-595.853269524633
 30
0.0
 11
-375.1192147195967
 21
-595.8049096770774
 31
0.0
  0
LINE
  5
D6
  8
1
  6
CONTINUOUS
 62
     7
 10
-375.1192147195967
 20
-595.8049096770774
 30
0.0
 11
-375.1299687468054
 21
-595.7570198191954
 31
0.0
  0
LINE
  5
D7
  8
1
  6
CONTINUOUS
 62
     7
 10
-375.1299687468054
 20
-595.7570198191954
 30
0.0
 11
-375.1430596642677
 21
-595.7097153218491
 31
0.0
  0
LINE
  5
D8
  8
1
  6
CONTINUOUS
 62
     7
 10
-375.1430596642677
 20
-595.7097153218491
 30
0.0
 11
-375.1584559348169
 21
-595.6631101457164
 31
0.0
  0
LINE
  5
D9
  8
1
  6
CONTINUOUS
 62
     7
 10
-375.1584559348169
 20
-595.6631101457164
 30
0.0
 11
-375.1761204674887
 21
-595.6173165667484
 31
0.0
  0
LINE
  5
DA
  8
1
  6
CONTINUOUS
 62
     7
 10
-375.1761204674887
 20
-595.6173165667484
 30
0.0
 11
-375.1960107068765
 21
-595.5724449056879
 31
0.0
  0
LINE
  5
DB
  8
1
  6
CONTINUOUS
 62
     7
 10
-375.1960107068765
 20
-595.5724449056879
 30
0.0
 11
-375.2180787356515
 21
-595.5286032622969
 31
0.0
  0
LINE
  5
DC
  8
1
  6
CONTINUOUS
 62
     7
 10
-375.2180787356515
 20
-595.5286032622969
 30
0.0
 11
-375.2422713899996
 21
-595.4858972549341
 31
0.0
  0
LINE
  5
DD
  8
1
  6
CONTINUOUS
 62
     7
 10
-375.2422713899996
 20
-595.4858972549341
 30
0.0
 11
-375.2685303876974
 21
-595.4444297661122
 31
0.0
  0
LINE
  5
DE
  8
1
  6
CONTINUOUS
 62
     7
 10
-375.2685303876974
 20
-595.4444297661122
 30
0.0
 11
-375.2967924685192
 21
-595.4043006946437
 31
0.0
  0
LINE
  5
DF
  8
1
  6
CONTINUOUS
 62
     7
 10
-375.2967924685192
 20
-595.4043006946437
 30
0.0
 11
-375.3269895466372
 21
-595.3656067149766
 31
0.0
  0
LINE
  5
E0
  8
1
  6
CONTINUOUS
 62
     7
 10
-375.3269895466372
 20
-595.3656067149766
 30
0.0
 11
-375.3590488746449
 21
-595.3284410442972
 31
0.0
  0
LINE
  5
E1
  8
1
  6
CONTINUOUS
 62
     7
 10
-375.3590488746449
 20
-595.3284410442972
 30
0.0
 11
-375.3928932188134
 21
-595.2928932179614
 31
0.0
  0
LINE
  5
E2
  8
1
  6
CONTINUOUS
 62
     7
 10
-375.3928932188134
 20
-595.2928932179614
 30
0.0
 11
-375.4284410451529
 21
-595.2590488737967
 31
0.0
  0
LINE
  5
E3
  8
1
  6
CONTINUOUS
 62
     7
 10
-375.4284410451529
 20
-595.2590488737967
 30
0.0
 11
-375.4656067158363
 21
-595.2269895457922
 31
0.0
  0
LINE
  5
E4
  8
1
  6
CONTINUOUS
 62
     7
 10
-375.4656067158363
 20
-595.2269895457922
 30
0.0
 11
-375.5043006955075
 21
-595.1967924676775
 31
0.0
  0
LINE
  5
E5
  8
1
  6
CONTINUOUS
 62
     7
 10
-375.5043006955075
 20
-595.1967924676775
 30
0.0
 11
-375.5444297669803
 21
-595.1685303868587
 31
0.0
  0
LINE
  5
E6
  8
1
  6
CONTINUOUS
 62
     7
 10
-375.5444297669803
 20
-595.1685303868587
 30
0.0
 11
-375.5858972558067
 21
-595.1422713891637
 31
0.0
  0
LINE
  5
E7
  8
1
  6
CONTINUOUS
 62
     7
 10
-375.5858972558067
 20
-595.1422713891637
 30
0.0
 11
-375.6286032631739
 21
-595.1180787348183
 31
0.0
  0
LINE
  5
E8
  8
1
  6
CONTINUOUS
 62
     7
 10
-375.6286032631739
 20
-595.1180787348183
 30
0.0
 11
-375.6724449065696
 21
-595.0960107060455
 31
0.0
  0
LINE
  5
E9
  8
1
  6
CONTINUOUS
 62
     7
 10
-375.6724449065696
 20
-595.0960107060455
 30
0.0
 11
-375.7173165676348
 21
-595.0761204666596
 31
0.0
  0
LINE
  5
EA
  8
1
  6
CONTINUOUS
 62
     7
 10
-375.7173165676348
 20
-595.0761204666596
 30
0.0
 11
-375.7631101466077
 21
-595.0584559339899
 31
0.0
  0
LINE
  5
EB
  8
1
  6
CONTINUOUS
 62
     7
 10
-375.7631101466077
 20
-595.0584559339899
 30
0.0
 11
-375.8097153227455
 21
-595.0430596634424
 31
0.0
  0
LINE
  5
EC
  8
1
  6
CONTINUOUS
 62
     7
 10
-375.8097153227455
 20
-595.0430596634424
 30
0.0
 11
-375.8570198200966
 21
-595.0299687459815
 31
0.0
  0
LINE
  5
ED
  8
1
  6
CONTINUOUS
 62
     7
 10
-375.8570198200966
 20
-595.0299687459815
 30
0.0
 11
-375.9049096779838
 21
-595.0192147187738
 31
0.0
  0
LINE
  5
EE
  8
1
  6
CONTINUOUS
 62
     7
 10
-375.9049096779838
 20
-595.0192147187738
 30
0.0
 11
-375.9532695255446
 21
-595.0108234892132
 31
0.0
  0
LINE
  5
EF
  8
1
  6
CONTINUOUS
 62
     7
 10
-375.9532695255446
 20
-595.0108234892132
 30
0.0
 11
-376.0019828596704
 21
-595.0048152725064
 31
0.0
  0
LINE
  5
F0
  8
1
  6
CONTINUOUS
 62
     7
 10
-376.0019828596704
 20
-595.0048152725064
 30
0.0
 11
-376.0509323256725
 21
-595.0012045429738
 31
0.0
  0
LINE
  5
F1
  8
1
  6
CONTINUOUS
 62
     7
 10
-376.0509323256725
 20
-595.0012045429738
 30
0.0
 11
-376.0999999999999
 21
-594.9999999991791
 31
0.0
  0
LINE
  5
F2
  8
1
  6
CONTINUOUS
 62
     7
 10
-394.1
 20
-594.9999999991792
 30
0.0
 11
-394.1490676743273
 21
-595.0012045429739
 31
0.0
  0
LINE
  5
F3
  8
1
  6
CONTINUOUS
 62
     7
 10
-394.1490676743273
 20
-595.0012045429739
 30
0.0
 11
-394.1980171403295
 21
-595.0048152725064
 31
0.0
  0
LINE
  5
F4
  8
1
  6
CONTINUOUS
 62
     7
 10
-394.1980171403295
 20
-595.0048152725064
 30
0.0
 11
-394.2467304744553
 21
-595.0108234892132
 31
0.0
  0
LINE
  5
F5
  8
1
  6
CONTINUOUS
 62
     7
 10
-394.2467304744553
 20
-595.0108234892132
 30
0.0
 11
-394.2950903220161
 21
-595.0192147187738
 31
0.0
  0
LINE
  5
F6
  8
1
  6
CONTINUOUS
 62
     7
 10
-394.2950903220161
 20
-595.0192147187738
 30
0.0
 11
-394.3429801799032
 21
-595.0299687459815
 31
0.0
  0
LINE
  5
F7
  8
1
  6
CONTINUOUS
 62
     7
 10
-394.3429801799032
 20
-595.0299687459815
 30
0.0
 11
-394.3902846772544
 21
-595.0430596634424
 31
0.0
  0
LINE
  5
F8
  8
1
  6
CONTINUOUS
 62
     7
 10
-394.3902846772544
 20
-595.0430596634424
 30
0.0
 11
-394.4368898533921
 21
-595.0584559339899
 31
0.0
  0
LINE
  5
F9
  8
1
  6
CONTINUOUS
 62
     7
 10
-394.4368898533921
 20
-595.0584559339899
 30
0.0
 11
-394.482683432365
 21
-595.0761204666597
 31
0.0
  0
LINE
  5
FA
  8
1
  6
CONTINUOUS
 62
     7
 10
-394.482683432365
 20
-595.0761204666597
 30
0.0
 11
-394.5275550934302
 21
-595.0960107060455
 31
0.0
  0
LINE
  5
FB
  8
1
  6
CONTINUOUS
 62
     7
 10
-394.5275550934302
 20
-595.0960107060455
 30
0.0
 11
-394.5713967368259
 21
-595.1180787348183
 31
0.0
  0
LINE
  5
FC
  8
1
  6
CONTINUOUS
 62
     7
 10
-394.5713967368259
 20
-595.1180787348183
 30
0.0
 11
-394.6141027441931
 21
-595.1422713891637
 31
0.0
  0
LINE
  5
FD
  8
1
  6
CONTINUOUS
 62
     7
 10
-394.6141027441931
 20
-595.1422713891637
 30
0.0
 11
-394.6555702330195
 21
-595.1685303868587
 31
0.0
  0
LINE
  5
FE
  8
1
  6
CONTINUOUS
 62
     7
 10
-394.6555702330195
 20
-595.1685303868587
 30
0.0
 11
-394.6956993044923
 21
-595.1967924676775
 31
0.0
  0
LINE
  5
FF
  8
1
  6
CONTINUOUS
 62
     7
 10
-394.6956993044923
 20
-595.1967924676775
 30
0.0
 11
-394.7343932841636
 21
-595.2269895457922
 31
0.0
  0
LINE
  5
100
  8
1
  6
CONTINUOUS
 62
     7
 10
-394.7343932841636
 20
-595.2269895457922
 30
0.0
 11
-394.7715589548469
 21
-595.2590488737967
 31
0.0
  0
LINE
  5
101
  8
1
  6
CONTINUOUS
 62
     7
 10
-394.7715589548469
 20
-595.2590488737967
 30
0.0
 11
-394.8071067811865
 21
-595.2928932179614
 31
0.0
  0
LINE
  5
102
  8
1
  6
CONTINUOUS
 62
     7
 10
-394.8071067811865
 20
-595.2928932179614
 30
0.0
 11
-394.8409511253549
 21
-595.3284410442972
 31
0.0
  0
LINE
  5
103
  8
1
  6
CONTINUOUS
 62
     7
 10
-394.8409511253549
 20
-595.3284410442972
 30
0.0
 11
-394.8730104533627
 21
-595.3656067149766
 31
0.0
  0
LINE
  5
104
  8
1
  6
CONTINUOUS
 62
     7
 10
-394.8730104533627
 20
-595.3656067149766
 30
0.0
 11
-394.9032075314806
 21
-595.4043006946437
 31
0.0
  0
LINE
  5
105
  8
1
  6
CONTINUOUS
 62
     7
 10
-394.9032075314806
 20
-595.4043006946437
 30
0.0
 11
-394.9314696123025
 21
-595.4444297661122
 31
0.0
  0
LINE
  5
106
  8
1
  6
CONTINUOUS
 62
     7
 10
-394.9314696123025
 20
-595.4444297661122
 30
0.0
 11
-394.9577286100002
 21
-595.4858972549342
 31
0.0
  0
LINE
  5
107
  8
1
  6
CONTINUOUS
 62
     7
 10
-394.9577286100002
 20
-595.4858972549342
 30
0.0
 11
-394.9819212643483
 21
-595.5286032622969
 31
0.0
  0
LINE
  5
108
  8
1
  6
CONTINUOUS
 62
     7
 10
-394.9819212643483
 20
-595.5286032622969
 30
0.0
 11
-395.0039892931234
 21
-595.5724449056879
 31
0.0
  0
LINE
  5
109
  8
1
  6
CONTINUOUS
 62
     7
 10
-395.0039892931234
 20
-595.5724449056879
 30
0.0
 11
-395.0238795325112
 21
-595.6173165667484
 31
0.0
  0
LINE
  5
10A
  8
1
  6
CONTINUOUS
 62
     7
 10
-395.0238795325112
 20
-595.6173165667484
 30
0.0
 11
-395.0415440651829
 21
-595.6631101457164
 31
0.0
  0
LINE
  5
10B
  8
1
  6
CONTINUOUS
 62
     7
 10
-395.0415440651829
 20
-595.6631101457164
 30
0.0
 11
-395.0569403357321
 21
-595.7097153218491
 31
0.0
  0
LINE
  5
10C
  8
1
  6
CONTINUOUS
 62
     7
 10
-395.0569403357321
 20
-595.7097153218491
 30
0.0
 11
-395.0700312531944
 21
-595.7570198191954
 31
0.0
  0
LINE
  5
10D
  8
1
  6
CONTINUOUS
 62
     7
 10
-395.0700312531944
 20
-595.7570198191954
 30
0.0
 11
-395.0807852804031
 21
-595.8049096770774
 31
0.0
  0
LINE
  5
10E
  8
1
  6
CONTINUOUS
 62
     7
 10
-395.0807852804031
 20
-595.8049096770774
 30
0.0
 11
-395.0891765099647
 21
-595.853269524633
 31
0.0
  0
LINE
  5
10F
  8
1
  6
CONTINUOUS
 62
     7
 10
-395.0891765099647
 20
-595.853269524633
 30
0.0
 11
-395.0951847266721
 21
-595.9019828587536
 31
0.0
  0
LINE
  5
110
  8
1
  6
CONTINUOUS
 62
     7
 10
-395.0951847266721
 20
-595.9019828587536
 30
0.0
 11
-395.0987954562051
 21
-595.9509323247506
 31
0.0
  0
LINE
  5
111
  8
1
  6
CONTINUOUS
 62
     7
 10
-395.0987954562051
 20
-595.9509323247506
 30
0.0
 11
-395.1
 21
-595.9999999990728
 31
0.0
  0
LINE
  5
112
  8
1
  6
CONTINUOUS
 62
     7
 10
-376.0999999999999
 20
-594.9999999991792
 30
0.0
 11
-394.1
 21
-594.9999999991792
 31
0.0
  0
LINE
  5
113
  8
1
  6
CONTINUOUS
 62
     7
 10
-379.0999999999999
 20
-602.1558431546433
 30
0.0
 11
-379.1096073597983
 21
-602.0600901729943
 31
0.0
  0
LINE
  5
114
  8
1
  6
CONTINUOUS
 62
     7
 10
-379.1096073597983
 20
-602.0600901729943
 30
0.0
 11
-379.1380602337443
 21
-601.9680169247309
 31
0.0
  0
LINE
  5
115
  8
1
  6
CONTINUOUS
 62
     7
 10
-379.1380602337443
 20
-601.9680169247309
 30
0.0
 11
-379.1842651938487
 21
-601.8831617331491
 31
0.0
  0
LINE
  5
116
  8
1
  6
CONTINUOUS
 62
     7
 10
-379.1842651938487
 20
-601.8831617331491
 30
0.0
 11
-379.2464466094066
 21
-601.8087855356738
 31
0.0
  0
LINE
  5
117
  8
1
  6
CONTINUOUS
 62
     7
 10
-379.2464466094066
 20
-601.8087855356738
 30
0.0
 11
-379.3222148834901
 21
-601.7477465678633
 31
0.0
  0
LINE
  5
118
  8
1
  6
CONTINUOUS
 62
     7
 10
-379.3222148834901
 20
-601.7477465678633
 30
0.0
 11
-379.4086582838174
 21
-601.7023905230195
 31
0.0
  0
LINE
  5
119
  8
1
  6
CONTINUOUS
 62
     7
 10
-379.4086582838174
 20
-601.7023905230195
 30
0.0
 11
-379.5024548389919
 21
-601.67446040851
 31
0.0
  0
LINE
  5
11A
  8
1
  6
CONTINUOUS
 62
     7
 10
-379.5024548389919
 20
-601.67446040851
 30
0.0
 11
-379.5999999999999
 21
-601.6650295629717
 31
0.0
  0
LINE
  5
11B
  8
1
  6
CONTINUOUS
 62
     7
 10
-390.6
 20
-601.6650295629718
 30
0.0
 11
-379.5999999999999
 21
-601.6650295629718
 31
0.0
  0
LINE
  5
11C
  8
1
  6
CONTINUOUS
 62
     7
 10
-390.6
 20
-601.6650295629717
 30
0.0
 11
-390.697545161008
 21
-601.67446040851
 31
0.0
  0
LINE
  5
11D
  8
1
  6
CONTINUOUS
 62
     7
 10
-390.697545161008
 20
-601.67446040851
 30
0.0
 11
-390.7913417161825
 21
-601.7023905230195
 31
0.0
  0
LINE
  5
11E
  8
1
  6
CONTINUOUS
 62
     7
 10
-390.7913417161825
 20
-601.7023905230195
 30
0.0
 11
-390.8777851165098
 21
-601.7477465678633
 31
0.0
  0
LINE
  5
11F
  8
1
  6
CONTINUOUS
 62
     7
 10
-390.8777851165098
 20
-601.7477465678633
 30
0.0
 11
-390.9535533905932
 21
-601.8087855356738
 31
0.0
  0
LINE
  5
120
  8
1
  6
CONTINUOUS
 62
     7
 10
-390.9535533905932
 20
-601.8087855356738
 30
0.0
 11
-391.0157348061512
 21
-601.8831617331491
 31
0.0
  0
LINE
  5
121
  8
1
  6
CONTINUOUS
 62
     7
 10
-391.0157348061512
 20
-601.8831617331491
 30
0.0
 11
-391.0619397662556
 21
-601.9680169247309
 31
0.0
  0
LINE
  5
122
  8
1
  6
CONTINUOUS
 62
     7
 10
-391.0619397662556
 20
-601.9680169247309
 30
0.0
 11
-391.0903926402016
 21
-602.0600901729943
 31
0.0
  0
LINE
  5
123
  8
1
  6
CONTINUOUS
 62
     7
 10
-391.0903926402016
 20
-602.0600901729943
 30
0.0
 11
-391.1
 21
-602.1558431546433
 31
0.0
  0
LINE
  5
124
  8
1
  6
CONTINUOUS
 62
     7
 10
-391.1
 20
-606.9999999979027
 30
0.0
 11
-391.1
 21
-602.1558431546433
 31
0.0
  0
LINE
  5
125
  8
1
  6
CONTINUOUS
 62
     7
 10
-390.6
 20
-607.4999999978494
 30
0.0
 11
-390.6245338371636
 21
-607.499397725952
 31
0.0
  0
LINE
  5
126
  8
1
  6
CONTINUOUS
 62
     7
 10
-390.6245338371636
 20
-607.499397725952
 30
0.0
 11
-390.6490085701647
 21
-607.4975923611859
 31
0.0
  0
LINE
  5
127
  8
1
  6
CONTINUOUS
 62
     7
 10
-390.6490085701647
 20
-607.4975923611859
 30
0.0
 11
-390.6733652372276
 21
-607.4945882528324
 31
0.0
  0
LINE
  5
128
  8
1
  6
CONTINUOUS
 62
     7
 10
-390.6733652372276
 20
-607.4945882528324
 30
0.0
 11
-390.697545161008
 21
-607.4903926380521
 31
0.0
  0
LINE
  5
129
  8
1
  6
CONTINUOUS
 62
     7
 10
-390.697545161008
 20
-607.4903926380521
 30
0.0
 11
-390.7214900899515
 21
-607.4850156244484
 31
0.0
  0
LINE
  5
12A
  8
1
  6
CONTINUOUS
 62
     7
 10
-390.7214900899515
 20
-607.4850156244484
 30
0.0
 11
-390.7451423386271
 21
-607.4784701657179
 31
0.0
  0
LINE
  5
12B
  8
1
  6
CONTINUOUS
 62
     7
 10
-390.7451423386271
 20
-607.4784701657179
 30
0.0
 11
-390.768444926696
 21
-607.4707720304441
 31
0.0
  0
LINE
  5
12C
  8
1
  6
CONTINUOUS
 62
     7
 10
-390.768444926696
 20
-607.4707720304441
 30
0.0
 11
-390.7913417161824
 21
-607.461939764109
 31
0.0
  0
LINE
  5
12D
  8
1
  6
CONTINUOUS
 62
     7
 10
-390.7913417161824
 20
-607.461939764109
 30
0.0
 11
-390.8137775467151
 21
-607.4519946444162
 31
0.0
  0
LINE
  5
12E
  8
1
  6
CONTINUOUS
 62
     7
 10
-390.8137775467151
 20
-607.4519946444162
 30
0.0
 11
-390.8356983684129
 21
-607.44096063003
 31
0.0
  0
LINE
  5
12F
  8
1
  6
CONTINUOUS
 62
     7
 10
-390.8356983684129
 20
-607.44096063003
 30
0.0
 11
-390.8570513720965
 21
-607.4288643028572
 31
0.0
  0
LINE
  5
130
  8
1
  6
CONTINUOUS
 62
     7
 10
-390.8570513720965
 20
-607.4288643028572
 30
0.0
 11
-390.8777851165097
 21
-607.4157348040096
 31
0.0
  0
LINE
  5
131
  8
1
  6
CONTINUOUS
 62
     7
 10
-390.8777851165097
 20
-607.4157348040096
 30
0.0
 11
-390.8978496522462
 21
-607.4016037636002
 31
0.0
  0
LINE
  5
132
  8
1
  6
CONTINUOUS
 62
     7
 10
-390.8978496522462
 20
-607.4016037636002
 30
0.0
 11
-390.9171966420818
 21
-607.3865052245428
 31
0.0
  0
LINE
  5
133
  8
1
  6
CONTINUOUS
 62
     7
 10
-390.9171966420818
 20
-607.3865052245428
 30
0.0
 11
-390.9357794774234
 21
-607.3704755605406
 31
0.0
  0
LINE
  5
134
  8
1
  6
CONTINUOUS
 62
     7
 10
-390.9357794774234
 20
-607.3704755605406
 30
0.0
 11
-390.9535533905932
 21
-607.3535533884583
 31
0.0
  0
LINE
  5
135
  8
1
  6
CONTINUOUS
 62
     7
 10
-390.9535533905932
 20
-607.3535533884583
 30
0.0
 11
-390.9704755626774
 21
-607.3357794752903
 31
0.0
  0
LINE
  5
136
  8
1
  6
CONTINUOUS
 62
     7
 10
-390.9704755626774
 20
-607.3357794752903
 30
0.0
 11
-390.9865052266813
 21
-607.3171966399508
 31
0.0
  0
LINE
  5
137
  8
1
  6
CONTINUOUS
 62
     7
 10
-390.9865052266813
 20
-607.3171966399508
 30
0.0
 11
-391.0016037657402
 21
-607.2978496501171
 31
0.0
  0
LINE
  5
138
  8
1
  6
CONTINUOUS
 62
     7
 10
-391.0016037657402
 20
-607.2978496501171
 30
0.0
 11
-391.0157348061512
 21
-607.2777851143829
 31
0.0
  0
LINE
  5
139
  8
1
  6
CONTINUOUS
 62
     7
 10
-391.0157348061512
 20
-607.2777851143829
 30
0.0
 11
-391.0288643050001
 21
-607.2570513699719
 31
0.0
  0
LINE
  5
13A
  8
1
  6
CONTINUOUS
 62
     7
 10
-391.0288643050001
 20
-607.2570513699719
 30
0.0
 11
-391.0409606321741
 21
-607.2356983662905
 31
0.0
  0
LINE
  5
13B
  8
1
  6
CONTINUOUS
 62
     7
 10
-391.0409606321741
 20
-607.2356983662905
 30
0.0
 11
-391.0519946465616
 21
-607.213777544595
 31
0.0
  0
LINE
  5
13C
  8
1
  6
CONTINUOUS
 62
     7
 10
-391.0519946465616
 20
-607.213777544595
 30
0.0
 11
-391.0619397662556
 21
-607.1913417140648
 31
0.0
  0
LINE
  5
13D
  8
1
  6
CONTINUOUS
 62
     7
 10
-391.0619397662556
 20
-607.1913417140648
 30
0.0
 11
-391.0707720325914
 21
-607.1684449245809
 31
0.0
  0
LINE
  5
13E
  8
1
  6
CONTINUOUS
 62
     7
 10
-391.0707720325914
 20
-607.1684449245809
 30
0.0
 11
-391.078470167866
 21
-607.1451423365144
 31
0.0
  0
LINE
  5
13F
  8
1
  6
CONTINUOUS
 62
     7
 10
-391.078470167866
 20
-607.1451423365144
 30
0.0
 11
-391.0850156265972
 21
-607.1214900878413
 31
0.0
  0
LINE
  5
140
  8
1
  6
CONTINUOUS
 62
     7
 10
-391.0850156265972
 20
-607.1214900878413
 30
0.0
 11
-391.0903926402016
 21
-607.0975451589003
 31
0.0
  0
LINE
  5
141
  8
1
  6
CONTINUOUS
 62
     7
 10
-391.0903926402016
 20
-607.0975451589003
 30
0.0
 11
-391.0945882549823
 21
-607.0733652351225
 31
0.0
  0
LINE
  5
142
  8
1
  6
CONTINUOUS
 62
     7
 10
-391.0945882549823
 20
-607.0733652351225
 30
0.0
 11
-391.097592363336
 21
-607.0490085680622
 31
0.0
  0
LINE
  5
143
  8
1
  6
CONTINUOUS
 62
     7
 10
-391.097592363336
 20
-607.0490085680622
 30
0.0
 11
-391.0993977281025
 21
-607.0245338350637
 31
0.0
  0
LINE
  5
144
  8
1
  6
CONTINUOUS
 62
     7
 10
-391.0993977281025
 20
-607.0245338350637
 30
0.0
 11
-391.1
 21
-606.9999999979027
 31
0.0
  0
LINE
  5
145
  8
1
  6
CONTINUOUS
 62
     7
 10
-379.5999999999999
 20
-607.4999999978494
 30
0.0
 11
-390.6
 21
-607.4999999978494
 31
0.0
  0
LINE
  5
146
  8
1
  6
CONTINUOUS
 62
     7
 10
-379.0999999999999
 20
-606.9999999979027
 30
0.0
 11
-379.1006022718973
 21
-607.0245338350637
 31
0.0
  0
LINE
  5
147
  8
1
  6
CONTINUOUS
 62
     7
 10
-379.1006022718973
 20
-607.0245338350637
 30
0.0
 11
-379.1024076366638
 21
-607.0490085680622
 31
0.0
  0
LINE
  5
148
  8
1
  6
CONTINUOUS
 62
     7
 10
-379.1024076366638
 20
-607.0490085680622
 30
0.0
 11
-379.1054117450175
 21
-607.0733652351225
 31
0.0
  0
LINE
  5
149
  8
1
  6
CONTINUOUS
 62
     7
 10
-379.1054117450175
 20
-607.0733652351225
 30
0.0
 11
-379.1096073597983
 21
-607.0975451589003
 31
0.0
  0
LINE
  5
14A
  8
1
  6
CONTINUOUS
 62
     7
 10
-379.1096073597983
 20
-607.0975451589003
 30
0.0
 11
-379.1149843734027
 21
-607.1214900878413
 31
0.0
  0
LINE
  5
14B
  8
1
  6
CONTINUOUS
 62
     7
 10
-379.1149843734027
 20
-607.1214900878413
 30
0.0
 11
-379.1215298321338
 21
-607.1451423365144
 31
0.0
  0
LINE
  5
14C
  8
1
  6
CONTINUOUS
 62
     7
 10
-379.1215298321338
 20
-607.1451423365144
 30
0.0
 11
-379.1292279674084
 21
-607.1684449245809
 31
0.0
  0
LINE
  5
14D
  8
1
  6
CONTINUOUS
 62
     7
 10
-379.1292279674084
 20
-607.1684449245809
 30
0.0
 11
-379.1380602337443
 21
-607.1913417140648
 31
0.0
  0
LINE
  5
14E
  8
1
  6
CONTINUOUS
 62
     7
 10
-379.1380602337443
 20
-607.1913417140648
 30
0.0
 11
-379.1480053534382
 21
-607.213777544595
 31
0.0
  0
LINE
  5
14F
  8
1
  6
CONTINUOUS
 62
     7
 10
-379.1480053534382
 20
-607.213777544595
 30
0.0
 11
-379.1590393678258
 21
-607.2356983662905
 31
0.0
  0
LINE
  5
150
  8
1
  6
CONTINUOUS
 62
     7
 10
-379.1590393678258
 20
-607.2356983662905
 30
0.0
 11
-379.1711356949997
 21
-607.2570513699719
 31
0.0
  0
LINE
  5
151
  8
1
  6
CONTINUOUS
 62
     7
 10
-379.1711356949997
 20
-607.2570513699719
 30
0.0
 11
-379.1842651938487
 21
-607.2777851143829
 31
0.0
  0
LINE
  5
152
  8
1
  6
CONTINUOUS
 62
     7
 10
-379.1842651938487
 20
-607.2777851143829
 30
0.0
 11
-379.1983962342596
 21
-607.2978496501171
 31
0.0
  0
LINE
  5
153
  8
1
  6
CONTINUOUS
 62
     7
 10
-379.1983962342596
 20
-607.2978496501171
 30
0.0
 11
-379.2134947733185
 21
-607.3171966399508
 31
0.0
  0
LINE
  5
154
  8
1
  6
CONTINUOUS
 62
     7
 10
-379.2134947733185
 20
-607.3171966399508
 30
0.0
 11
-379.2295244373224
 21
-607.3357794752903
 31
0.0
  0
LINE
  5
155
  8
1
  6
CONTINUOUS
 62
     7
 10
-379.2295244373224
 20
-607.3357794752903
 30
0.0
 11
-379.2464466094066
 21
-607.3535533884583
 31
0.0
  0
LINE
  5
156
  8
1
  6
CONTINUOUS
 62
     7
 10
-379.2464466094066
 20
-607.3535533884583
 30
0.0
 11
-379.2642205225764
 21
-607.3704755605406
 31
0.0
  0
LINE
  5
157
  8
1
  6
CONTINUOUS
 62
     7
 10
-379.2642205225764
 20
-607.3704755605406
 30
0.0
 11
-379.2828033579181
 21
-607.3865052245428
 31
0.0
  0
LINE
  5
158
  8
1
  6
CONTINUOUS
 62
     7
 10
-379.2828033579181
 20
-607.3865052245428
 30
0.0
 11
-379.3021503477537
 21
-607.4016037636002
 31
0.0
  0
LINE
  5
159
  8
1
  6
CONTINUOUS
 62
     7
 10
-379.3021503477537
 20
-607.4016037636002
 30
0.0
 11
-379.3222148834901
 21
-607.4157348040096
 31
0.0
  0
LINE
  5
15A
  8
1
  6
CONTINUOUS
 62
     7
 10
-379.3222148834901
 20
-607.4157348040096
 30
0.0
 11
-379.3429486279033
 21
-607.4288643028572
 31
0.0
  0
LINE
  5
15B
  8
1
  6
CONTINUOUS
 62
     7
 10
-379.3429486279033
 20
-607.4288643028572
 30
0.0
 11
-379.3643016315869
 21
-607.44096063003
 31
0.0
  0
LINE
  5
15C
  8
1
  6
CONTINUOUS
 62
     7
 10
-379.3643016315869
 20
-607.44096063003
 30
0.0
 11
-379.3862224532848
 21
-607.4519946444162
 31
0.0
  0
LINE
  5
15D
  8
1
  6
CONTINUOUS
 62
     7
 10
-379.3862224532848
 20
-607.4519946444162
 30
0.0
 11
-379.4086582838174
 21
-607.461939764109
 31
0.0
  0
LINE
  5
15E
  8
1
  6
CONTINUOUS
 62
     7
 10
-379.4086582838174
 20
-607.461939764109
 30
0.0
 11
-379.4315550733039
 21
-607.4707720304441
 31
0.0
  0
LINE
  5
15F
  8
1
  6
CONTINUOUS
 62
     7
 10
-379.4315550733039
 20
-607.4707720304441
 30
0.0
 11
-379.4548576613727
 21
-607.4784701657179
 31
0.0
  0
LINE
  5
160
  8
1
  6
CONTINUOUS
 62
     7
 10
-379.4548576613727
 20
-607.4784701657179
 30
0.0
 11
-379.4785099100483
 21
-607.4850156244484
 31
0.0
  0
LINE
  5
161
  8
1
  6
CONTINUOUS
 62
     7
 10
-379.4785099100483
 20
-607.4850156244484
 30
0.0
 11
-379.5024548389919
 21
-607.4903926380521
 31
0.0
  0
LINE
  5
162
  8
1
  6
CONTINUOUS
 62
     7
 10
-379.5024548389919
 20
-607.4903926380521
 30
0.0
 11
-379.5266347627722
 21
-607.4945882528324
 31
0.0
  0
LINE
  5
163
  8
1
  6
CONTINUOUS
 62
     7
 10
-379.5266347627722
 20
-607.4945882528324
 30
0.0
 11
-379.5509914298352
 21
-607.4975923611859
 31
0.0
  0
LINE
  5
164
  8
1
  6
CONTINUOUS
 62
     7
 10
-379.5509914298352
 20
-607.4975923611859
 30
0.0
 11
-379.5754661628362
 21
-607.499397725952
 31
0.0
  0
LINE
  5
165
  8
1
  6
CONTINUOUS
 62
     7
 10
-379.5754661628362
 20
-607.499397725952
 30
0.0
 11
-379.5999999999999
 21
-607.4999999978494
 31
0.0
  0
LINE
  5
166
  8
1
  6
CONTINUOUS
 62
     7
 10
-379.0999999999999
 20
-602.1558431546433
 30
0.0
 11
-379.0999999999999
 21
-606.9999999979027
 31
0.0
  0
LINE
  5
167
  8
1
  6
CONTINUOUS
 62
     7
 10
-375.0999999999999
 20
-615.9999999969452
 30
0.0
 11
-375.0999999999999
 21
-595.9999999990727
 31
0.0
  0
LINE
  5
168
  8
1
  6
CONTINUOUS
 62
     7
 10
-395.1
 20
-614.7500000008207
 30
0.0
 11
-395.0999999999999
 21
-595.9999999990728
 31
0.0
  0
LINE
  5
169
  8
1
  6
CONTINUOUS
 62
     7
 10
-391.1000000000001
 20
-756.9906416533432
 30
0.0
 11
-391.0903926402017
 21
-757.0900125373743
 31
0.0
  0
LINE
  5
16A
  8
1
  6
CONTINUOUS
 62
     7
 10
-391.0903926402017
 20
-757.0900125373743
 30
0.0
 11
-391.0619397662557
 21
-757.1855646540598
 31
0.0
  0
LINE
  5
16B
  8
1
  6
CONTINUOUS
 62
     7
 10
-391.0619397662557
 20
-757.1855646540598
 30
0.0
 11
-391.0157348061513
 21
-757.2736259891419
 31
0.0
  0
LINE
  5
16C
  8
1
  6
CONTINUOUS
 62
     7
 10
-391.0157348061513
 20
-757.2736259891419
 30
0.0
 11
-390.9535533905934
 21
-757.3508123948986
 31
0.0
  0
LINE
  5
16D
  8
1
  6
CONTINUOUS
 62
     7
 10
-390.9535533905934
 20
-757.3508123948986
 30
0.0
 11
-390.8777851165099
 21
-757.4141576410435
 31
0.0
  0
LINE
  5
16E
  8
1
  6
CONTINUOUS
 62
     7
 10
-390.8777851165099
 20
-757.4141576410435
 30
0.0
 11
-390.7913417161826
 21
-757.4612274052917
 31
0.0
  0
LINE
  5
16F
  8
1
  6
CONTINUOUS
 62
     7
 10
-390.7913417161826
 20
-757.4612274052917
 30
0.0
 11
-390.6975451610081
 21
-757.4902128229999
 31
0.0
  0
LINE
  5
170
  8
1
  6
CONTINUOUS
 62
     7
 10
-390.6975451610081
 20
-757.4902128229999
 30
0.0
 11
-390.6
 21
-757.5000000008209
 31
0.0
  0
LINE
  5
171
  8
1
  6
CONTINUOUS
 62
     7
 10
-379.6
 20
-757.5000000008209
 30
0.0
 11
-379.5024548389919
 21
-757.4902128229999
 31
0.0
  0
LINE
  5
172
  8
1
  6
CONTINUOUS
 62
     7
 10
-379.5024548389919
 20
-757.4902128229999
 30
0.0
 11
-379.4086582838174
 21
-757.4612274052917
 31
0.0
  0
LINE
  5
173
  8
1
  6
CONTINUOUS
 62
     7
 10
-379.4086582838174
 20
-757.4612274052917
 30
0.0
 11
-379.3222148834901
 21
-757.4141576410435
 31
0.0
  0
LINE
  5
174
  8
1
  6
CONTINUOUS
 62
     7
 10
-379.3222148834901
 20
-757.4141576410435
 30
0.0
 11
-379.2464466094066
 21
-757.3508123948986
 31
0.0
  0
LINE
  5
175
  8
1
  6
CONTINUOUS
 62
     7
 10
-379.2464466094066
 20
-757.3508123948986
 30
0.0
 11
-379.1842651938487
 21
-757.2736259891419
 31
0.0
  0
LINE
  5
176
  8
1
  6
CONTINUOUS
 62
     7
 10
-379.1842651938487
 20
-757.2736259891419
 30
0.0
 11
-379.1380602337443
 21
-757.1855646540598
 31
0.0
  0
LINE
  5
177
  8
1
  6
CONTINUOUS
 62
     7
 10
-379.1380602337443
 20
-757.1855646540598
 30
0.0
 11
-379.1096073597983
 21
-757.0900125373743
 31
0.0
  0
LINE
  5
178
  8
1
  6
CONTINUOUS
 62
     7
 10
-379.1096073597983
 20
-757.0900125373743
 30
0.0
 11
-379.0999999999999
 21
-756.9906416533432
 31
0.0
  0
LINE
  5
179
  8
1
  6
CONTINUOUS
 62
     7
 10
-390.6
 20
-602.5000000008209
 30
0.0
 11
-390.697545161008
 21
-602.509787178642
 31
0.0
  0
LINE
  5
17A
  8
1
  6
CONTINUOUS
 62
     7
 10
-390.697545161008
 20
-602.509787178642
 30
0.0
 11
-390.7913417161825
 21
-602.5387725963502
 31
0.0
  0
LINE
  5
17B
  8
1
  6
CONTINUOUS
 62
     7
 10
-390.7913417161825
 20
-602.5387725963502
 30
0.0
 11
-390.8777851165098
 21
-602.5858423605982
 31
0.0
  0
LINE
  5
17C
  8
1
  6
CONTINUOUS
 62
     7
 10
-390.8777851165098
 20
-602.5858423605982
 30
0.0
 11
-390.9535533905932
 21
-602.6491876067431
 31
0.0
  0
LINE
  5
17D
  8
1
  6
CONTINUOUS
 62
     7
 10
-390.9535533905932
 20
-602.6491876067431
 30
0.0
 11
-391.0157348061512
 21
-602.7263740125
 31
0.0
  0
LINE
  5
17E
  8
1
  6
CONTINUOUS
 62
     7
 10
-391.0157348061512
 20
-602.7263740125
 30
0.0
 11
-391.0619397662555
 21
-602.814435347582
 31
0.0
  0
LINE
  5
17F
  8
1
  6
CONTINUOUS
 62
     7
 10
-391.0619397662555
 20
-602.814435347582
 30
0.0
 11
-391.0903926402015
 21
-602.9099874642675
 31
0.0
  0
LINE
  5
180
  8
1
  6
CONTINUOUS
 62
     7
 10
-391.0903926402015
 20
-602.9099874642675
 30
0.0
 11
-391.0999999999999
 21
-603.0093583482985
 31
0.0
  0
LINE
  5
181
  8
1
  6
CONTINUOUS
 62
     7
 10
-379.1
 20
-603.0093583482985
 30
0.0
 11
-379.1096073597984
 21
-602.9099874642675
 31
0.0
  0
LINE
  5
182
  8
1
  6
CONTINUOUS
 62
     7
 10
-379.1096073597984
 20
-602.9099874642675
 30
0.0
 11
-379.1380602337443
 21
-602.814435347582
 31
0.0
  0
LINE
  5
183
  8
1
  6
CONTINUOUS
 62
     7
 10
-379.1380602337443
 20
-602.814435347582
 30
0.0
 11
-379.1842651938487
 21
-602.7263740125
 31
0.0
  0
LINE
  5
184
  8
1
  6
CONTINUOUS
 62
     7
 10
-379.1842651938487
 20
-602.7263740125
 30
0.0
 11
-379.2464466094067
 21
-602.6491876067431
 31
0.0
  0
LINE
  5
185
  8
1
  6
CONTINUOUS
 62
     7
 10
-379.2464466094067
 20
-602.6491876067431
 30
0.0
 11
-379.3222148834901
 21
-602.5858423605982
 31
0.0
  0
LINE
  5
186
  8
1
  6
CONTINUOUS
 62
     7
 10
-379.3222148834901
 20
-602.5858423605982
 30
0.0
 11
-379.4086582838174
 21
-602.5387725963502
 31
0.0
  0
LINE
  5
187
  8
1
  6
CONTINUOUS
 62
     7
 10
-379.4086582838174
 20
-602.5387725963502
 30
0.0
 11
-379.5024548389919
 21
-602.509787178642
 31
0.0
  0
LINE
  5
188
  8
1
  6
CONTINUOUS
 62
     7
 10
-379.5024548389919
 20
-602.509787178642
 30
0.0
 11
-379.5999999999999
 21
-602.5000000008209
 31
0.0
  0
LINE
  5
189
  8
1
  6
CONTINUOUS
 62
     7
 10
-379.6
 20
-757.5000000008209
 30
0.0
 11
-390.6
 21
-757.5000000008209
 31
0.0
  0
LINE
  5
18A
  8
1
  6
CONTINUOUS
 62
     7
 10
-379.5999999999999
 20
-602.5000000008209
 30
0.0
 11
-390.6
 21
-602.5000000008209
 31
0.0
  0
LINE
  5
18B
  8
1
  6
CONTINUOUS
 62
     7
 10
-395.1
 20
-745.2500000008207
 30
0.0
 11
-397.6
 21
-745.2500000008207
 31
0.0
  0
LINE
  5
18C
  8
1
  6
CONTINUOUS
 62
     7
 10
-397.6
 20
-745.2500000008207
 30
0.0
 11
-397.6
 21
-735.2500000008207
 31
0.0
  0
LINE
  5
18D
  8
1
  6
CONTINUOUS
 62
     7
 10
-395.1
 20
-735.2500000008207
 30
0.0
 11
-395.1
 21
-745.2500000008207
 31
0.0
  0
LINE
  5
18E
  8
1
  6
CONTINUOUS
 62
   253
 10
-395.1
 20
-624.7500000008207
 30
0.0
 11
-397.6
 21
-624.7500000008207
 31
0.0
  0
LINE
  5
18F
  8
1
  6
CONTINUOUS
 62
     7
 10
-395.1
 20
-624.7500000008207
 30
0.0
 11
-395.1
 21
-735.2500000008207
 31
0.0
  0
LINE
  5
190
  8
1
  6
CONTINUOUS
 62
     7
 10
-397.6
 20
-624.7500000008207
 30
0.0
 11
-397.6
 21
-735.2500000008207
 31
0.0
  0
LINE
  5
191
  8
1
  6
CONTINUOUS
 62
     7
 10
-397.6
 20
-614.7500000008207
 30
0.0
 11
-395.1
 21
-614.7500000008207
 31
0.0
  0
LINE
  5
192
  8
1
  6
CONTINUOUS
 62
     7
 10
-395.1
 20
-614.7500000008207
 30
0.0
 11
-395.1
 21
-624.7500000008207
 31
0.0
  0
LINE
  5
193
  8
1
  6
CONTINUOUS
 62
     7
 10
-397.6
 20
-624.7500000008207
 30
0.0
 11
-397.6
 21
-614.7500000008207
 31
0.0
  0
ARC
  5
194
  8
1
  6
CONTINUOUS
 62
     7
 10
-394.1
 20
-622.1563754652174
 30
0.0
 40
1.000000000000001
 50
180.0
 51
268.9999999999995
  0
ARC
  5
195
  8
1
  6
CONTINUOUS
 62
     7
 10
-394.1
 20
-737.843624536424
 30
0.0
 40
0.9999999999999831
 50
91.00000000000006
 51
180.0
  0
LINE
  5
196
  8
1
  6
CONTINUOUS
 62
     7
 10
-357.5999999999999
 20
-699.6253809273865
 30
0.0
 11
-357.5999999999999
 21
-713.374619074255
 31
0.0
  0
LINE
  5
197
  8
1
  6
CONTINUOUS
 62
     7
 10
-357.5999999999999
 20
-646.6253809273865
 30
0.0
 11
-357.5999999999999
 21
-660.374619074255
 31
0.0
  0
LINE
  5
198
  8
1
  6
CONTINUOUS
 62
     7
 10
-362.0214641710322
 20
-736.2835392826833
 30
0.0
 11
-394.1174524064372
 21
-736.8437768412676
 31
0.0
  0
LINE
  5
199
  8
1
  6
CONTINUOUS
 62
     7
 10
-394.1174524064372
 20
-623.1562231603738
 30
0.0
 11
-362.0214641710322
 21
-623.7164607189582
 31
0.0
  0
ARC
  5
19A
  8
1
  6
CONTINUOUS
 62
     7
 10
-362.0999999999999
 20
-628.2157753471619
 30
0.0
 40
4.499999999999983
 50
359.9999999999998
 51
89.00000000000001
  0
LINE
  5
19B
  8
1
  6
CONTINUOUS
 62
     7
 10
-357.5999999999999
 20
-628.2157753471619
 30
0.0
 11
-357.5999999999999
 21
-646.3470982105182
 31
0.0
  0
LINE
  5
19C
  8
1
  6
CONTINUOUS
 62
     7
 10
-357.5999999999999
 20
-660.6529017911233
 30
0.0
 11
-357.5999999999999
 21
-699.3470982105181
 31
0.0
  0
LINE
  5
19D
  8
1
  6
CONTINUOUS
 62
     7
 10
-357.5999999999999
 20
-713.6529017911232
 30
0.0
 11
-357.5999999999999
 21
-731.7842246544795
 31
0.0
  0
ARC
  5
19E
  8
1
  6
CONTINUOUS
 62
     7
 10
-362.0999999999999
 20
-731.7842246544795
 30
0.0
 40
4.500000000000004
 50
271.0000000000002
 51
0.0
  0
LINE
  5
19F
  8
1
  6
CONTINUOUS
 62
     7
 10
-357.5999999999999
 20
-699.5436376631413
 30
0.0
 11
-357.5999999999999
 21
-699.6253809273865
 31
0.0
  0
LINE
  5
1A0
  8
1
  6
CONTINUOUS
 62
     7
 10
-357.5999999999999
 20
-699.3470982105181
 30
0.0
 11
-357.5999999999999
 21
-699.5436376631413
 31
0.0
  0
LINE
  5
1A1
  8
1
  6
CONTINUOUS
 62
     7
 10
-357.5999999999999
 20
-660.374619074255
 30
0.0
 11
-357.5999999999999
 21
-660.4563623385001
 31
0.0
  0
LINE
  5
1A2
  8
1
  6
CONTINUOUS
 62
     7
 10
-357.5999999999999
 20
-660.4563623385002
 30
0.0
 11
-357.5999999999999
 21
-660.6011327870258
 31
0.0
  0
LINE
  5
1A3
  8
1
  6
CONTINUOUS
 62
     7
 10
-357.5999999999999
 20
-713.374619074255
 30
0.0
 11
-357.5999999999999
 21
-713.4563623385002
 31
0.0
  0
LINE
  5
1A4
  8
1
  6
CONTINUOUS
 62
     7
 10
-357.5999999999999
 20
-713.4563623385002
 30
0.0
 11
-357.5999999999999
 21
-713.6011327870258
 31
0.0
  0
LINE
  5
1A5
  8
1
  6
CONTINUOUS
 62
     7
 10
-357.5999999999999
 20
-646.3470982105182
 30
0.0
 11
-357.5999999999999
 21
-646.5436376631412
 31
0.0
  0
LINE
  5
1A6
  8
1
  6
CONTINUOUS
 62
     7
 10
-357.5999999999999
 20
-646.5436376631412
 30
0.0
 11
-357.5999999999999
 21
-646.6253809273865
 31
0.0
  0
LINE
  5
1A7
  8
1
  6
CONTINUOUS
 62
     7
 10
-666.0556197135736
 20
-542.6
 30
0.0
 11
-666.1300058376681
 21
-542.6761204674888
 31
0.0
  0
LINE
  5
1A8
  8
1
  6
CONTINUOUS
 62
     7
 10
-666.1300058376681
 20
-542.6761204674888
 30
0.0
 11
-666.17141192886
 21
-542.7967924685194
 31
0.0
  0
ARC
  5
1A9
  8
1
  6
CONTINUOUS
 62
     7
 10
-662.720713785279
 20
-543.5398669314206
 30
0.0
 40
3.529798483699796
 50
167.8474834225308
 51
180.9761287305449
  0
LINE
  5
1AA
  8
1
  6
CONTINUOUS
 62
     7
 10
-662.1680135198741
 20
-542.6
 30
0.0
 11
-666.0556197135736
 21
-542.6
 31
0.0
  0
ARC
  5
1AB
  8
1
  6
CONTINUOUS
 62
     7
 10
-659.1676467838973
 20
-543.5252644434744
 30
0.0
 40
3.195621080349379
 50
165.3691018379835
 51
181.340090798171
  0
LINE
  5
1AC
  8
1
  6
CONTINUOUS
 62
     7
 10
-662.2596437635628
 20
-542.7180787356517
 30
0.0
 11
-662.2059352370842
 21
-542.6192147195968
 31
0.0
  0
LINE
  5
1AD
  8
1
  6
CONTINUOUS
 62
     7
 10
-662.2059352370842
 20
-542.6192147195968
 30
0.0
 11
-662.1680135198741
 21
-542.6
 31
0.0
  0
LINE
  5
1AE
  8
1
  6
CONTINUOUS
 62
     7
 10
-662.3623938295591
 20
-543.6
 30
0.0
 11
-662.3623938295591
 21
-561.6000000000001
 31
0.0
  0
LINE
  5
1AF
  8
1
  6
CONTINUOUS
 62
     7
 10
-662.1680135198741
 20
-562.6000000000001
 30
0.0
 11
-662.2423996439686
 21
-562.5238795325114
 31
0.0
  0
LINE
  5
1B0
  8
1
  6
CONTINUOUS
 62
     7
 10
-662.2423996439686
 20
-562.5238795325114
 30
0.0
 11
-662.2838057351604
 21
-562.4032075314808
 31
0.0
  0
ARC
  5
1B1
  8
1
  6
CONTINUOUS
 62
     7
 10
-658.8331075915794
 20
-561.6601330685795
 30
0.0
 40
3.529798483699796
 50
179.023871269455
 51
192.1525165774692
  0
LINE
  5
1B2
  8
1
  6
CONTINUOUS
 62
     7
 10
-662.2488115745688
 20
-562.6000000000001
 30
0.0
 11
-666.0556197135736
 21
-562.6000000000001
 31
0.0
  0
ARC
  5
1B3
  8
1
  6
CONTINUOUS
 62
     7
 10
-663.0552529776037
 20
-561.6747355565261
 30
0.0
 40
3.195621080342727
 50
178.65990920182
 51
194.6308981620394
  0
LINE
  5
1B4
  8
1
  6
CONTINUOUS
 62
     7
 10
-666.1472499572624
 20
-562.4819212643483
 30
0.0
 11
-666.0935414307837
 21
-562.5807852804033
 31
0.0
  0
LINE
  5
1B5
  8
1
  6
CONTINUOUS
 62
     7
 10
-666.0935414307837
 20
-562.5807852804033
 30
0.0
 11
-666.0556197135736
 21
-562.6000000000001
 31
0.0
  0
LINE
  5
1B6
  8
1
  6
CONTINUOUS
 62
     7
 10
-666.2500000232587
 20
-543.6
 30
0.0
 11
-666.2500000232587
 21
-561.6000000000001
 31
0.0
  0
LINE
  5
1B7
  8
1
  6
CONTINUOUS
 62
     7
 10
-664.8590450144944
 20
-546.6
 30
0.0
 11
-664.8776575087227
 21
-546.6096073597984
 31
0.0
  0
LINE
  5
1B8
  8
1
  6
CONTINUOUS
 62
     7
 10
-664.8776575087227
 20
-546.6096073597984
 30
0.0
 11
-664.8955547352356
 21
-546.6380602337443
 31
0.0
  0
LINE
  5
1B9
  8
1
  6
CONTINUOUS
 62
     7
 10
-664.8955547352356
 20
-546.6380602337443
 30
0.0
 11
-664.9120489136554
 21
-546.6842651938487
 31
0.0
  0
LINE
  5
1BA
  8
1
  6
CONTINUOUS
 62
     7
 10
-664.9120489136554
 20
-546.6842651938487
 30
0.0
 11
-664.9265061819555
 21
-546.7464466094067
 31
0.0
  0
LINE
  5
1BB
  8
1
  6
CONTINUOUS
 62
     7
 10
-664.9265061819555
 20
-546.7464466094067
 30
0.0
 11
-664.9383709554226
 21
-546.8222148834902
 31
0.0
  0
LINE
  5
1BC
  8
1
  6
CONTINUOUS
 62
     7
 10
-664.9383709554226
 20
-546.8222148834902
 30
0.0
 11
-664.9471872774664
 21
-546.9086582838174
 31
0.0
  0
LINE
  5
1BD
  8
1
  6
CONTINUOUS
 62
     7
 10
-664.9471872774664
 20
-546.9086582838174
 30
0.0
 11
-664.9526163417748
 21
-547.002454838992
 31
0.0
  0
LINE
  5
1BE
  8
1
  6
CONTINUOUS
 62
     7
 10
-664.9526163417748
 20
-547.002454838992
 30
0.0
 11
-664.9544495124513
 21
-547.1
 31
0.0
  0
LINE
  5
1BF
  8
1
  6
CONTINUOUS
 62
     7
 10
-664.9544495124513
 20
-558.1
 30
0.0
 11
-664.9544495124513
 21
-547.1
 31
0.0
  0
LINE
  5
1C0
  8
1
  6
CONTINUOUS
 62
     7
 10
-664.9544495124513
 20
-558.1
 30
0.0
 11
-664.9526163417748
 21
-558.1975451610081
 31
0.0
  0
LINE
  5
1C1
  8
1
  6
CONTINUOUS
 62
     7
 10
-664.9526163417748
 20
-558.1975451610081
 30
0.0
 11
-664.9471872774664
 21
-558.2913417161826
 31
0.0
  0
LINE
  5
1C2
  8
1
  6
CONTINUOUS
 62
     7
 10
-664.9471872774664
 20
-558.2913417161826
 30
0.0
 11
-664.9383709554226
 21
-558.3777851165098
 31
0.0
  0
LINE
  5
1C3
  8
1
  6
CONTINUOUS
 62
     7
 10
-664.9383709554226
 20
-558.3777851165098
 30
0.0
 11
-664.9265061819555
 21
-558.4535533905934
 31
0.0
  0
LINE
  5
1C4
  8
1
  6
CONTINUOUS
 62
     7
 10
-664.9265061819555
 20
-558.4535533905934
 30
0.0
 11
-664.9120489136554
 21
-558.5157348061514
 31
0.0
  0
LINE
  5
1C5
  8
1
  6
CONTINUOUS
 62
     7
 10
-664.9120489136554
 20
-558.5157348061514
 30
0.0
 11
-664.8955547352357
 21
-558.5619397662557
 31
0.0
  0
LINE
  5
1C6
  8
1
  6
CONTINUOUS
 62
     7
 10
-664.8955547352357
 20
-558.5619397662557
 30
0.0
 11
-664.8776575087227
 21
-558.5903926402017
 31
0.0
  0
LINE
  5
1C7
  8
1
  6
CONTINUOUS
 62
     7
 10
-664.8776575087227
 20
-558.5903926402017
 30
0.0
 11
-664.8590450144944
 21
-558.6
 31
0.0
  0
LINE
  5
1C8
  8
1
  6
CONTINUOUS
 62
     7
 10
-663.9174363070389
 20
-558.6000000000001
 30
0.0
 11
-664.8590450144944
 21
-558.6000000000001
 31
0.0
  0
LINE
  5
1C9
  8
1
  6
CONTINUOUS
 62
     7
 10
-663.8202461521964
 20
-558.1
 30
0.0
 11
-663.9174363070389
 21
-558.6000000000001
 31
0.0
  0
LINE
  5
1CA
  8
1
  6
CONTINUOUS
 62
     7
 10
-663.8202461521964
 20
-547.1
 30
0.0
 11
-663.8202461521964
 21
-558.1
 31
0.0
  0
LINE
  5
1CB
  8
1
  6
CONTINUOUS
 62
     7
 10
-663.9174363070389
 20
-546.6
 30
0.0
 11
-663.8202461521963
 21
-547.1
 31
0.0
  0
LINE
  5
1CC
  8
1
  6
CONTINUOUS
 62
     7
 10
-664.8590450144944
 20
-546.6
 30
0.0
 11
-663.9174363070389
 21
-546.6
 31
0.0
  0
LINE
  5
1CD
  8
1
  6
CONTINUOUS
 62
     7
 10
-669.2500000227113
 20
-542.6
 30
0.0
 11
-666.0556197135736
 21
-542.6
 31
0.0
  0
LINE
  5
1CE
  8
1
  6
CONTINUOUS
 62
     7
 10
-669.2500000227113
 20
-543.6
 30
0.0
 11
-669.2500000227113
 21
-542.6
 31
0.0
  0
LINE
  5
1CF
  8
1
  6
CONTINUOUS
 62
     7
 10
-666.0556197135736
 20
-562.6000000000001
 30
0.0
 11
-669.2500000227113
 21
-562.6000000000001
 31
0.0
  0
LINE
  5
1D0
  8
1
  6
CONTINUOUS
 62
     7
 10
-669.2500000227113
 20
-562.6000000000001
 30
0.0
 11
-669.2500000227113
 21
-561.6000000000001
 31
0.0
  0
LINE
  5
1D1
  8
1
  6
CONTINUOUS
 62
     7
 10
-669.2500000232586
 20
-561.6000000000001
 30
0.0
 11
-669.2500000232586
 21
-543.6
 31
0.0
  0
LINE
  5
1D2
  8
1
  6
CONTINUOUS
 62
     7
 10
-659.2500000117661
 20
-543.6
 30
0.0
 11
-659.2500000117661
 21
-561.6000000000001
 31
0.0
  0
ARC
  5
1D3
  8
1
  6
CONTINUOUS
 62
     7
 10
-660.2500000117661
 20
-561.6000000000001
 30
0.0
 40
1.000000000000001
 50
270.0
 51
0.0
  0
ARC
  5
1D4
  8
1
  6
CONTINUOUS
 62
     7
 10
-660.2500000117661
 20
-543.6
 30
0.0
 40
1.000000000000001
 50
0.0
 51
90.0
  0
LINE
  5
1D5
  8
1
  6
CONTINUOUS
 62
     7
 10
-662.1680135198741
 20
-542.6
 30
0.0
 11
-660.2500000117661
 21
-542.6
 31
0.0
  0
LINE
  5
1D6
  8
1
  6
CONTINUOUS
 62
     7
 10
-669.249999980025
 20
-541.6
 30
0.0
 11
-669.249999980025
 21
-542.6
 31
0.0
  0
ARC
  5
1D7
  8
1
  6
CONTINUOUS
 62
     7
 10
-660.249999977836
 20
-529.6
 30
0.0
 40
1.000000000000112
 50
0.0
 51
90.0
  0
LINE
  5
1D8
  8
1
  6
CONTINUOUS
 62
     7
 10
-669.2499999794776
 20
-541.6
 30
0.0
 11
-669.2499999794776
 21
-531.6
 31
0.0
  0
LINE
  5
1D9
  8
1
  6
CONTINUOUS
 62
     7
 10
-669.2499999778358
 20
-528.6
 30
0.0
 11
-660.249999977836
 21
-528.6
 31
0.0
  0
LINE
  5
1DA
  8
1
  6
CONTINUOUS
 62
     7
 10
-669.2499999778358
 20
-531.6
 30
0.0
 11
-669.2499999778358
 21
-528.6
 31
0.0
  0
LINE
  5
1DB
  8
1
  6
CONTINUOUS
 62
     7
 10
-435.7499999767413
 20
-562.6000000000001
 30
0.0
 11
-435.7499999767413
 21
-565.1
 31
0.0
  0
LINE
  5
1DC
  8
1
  6
CONTINUOUS
 62
     7
 10
-435.7499999767413
 20
-565.1
 30
0.0
 11
-445.7499999767414
 21
-565.1
 31
0.0
  0
LINE
  5
1DD
  8
1
  6
CONTINUOUS
 62
     7
 10
-445.7499999767414
 20
-562.6000000000001
 30
0.0
 11
-435.7499999767413
 21
-562.6000000000001
 31
0.0
  0
LINE
  5
1DE
  8
1
  6
CONTINUOUS
 62
     7
 10
-658.2499999767414
 20
-562.6000000000001
 30
0.0
 11
-445.7499999767414
 21
-562.6000000000001
 31
0.0
  0
LINE
  5
1DF
  8
1
  6
CONTINUOUS
 62
     7
 10
-658.2499999767414
 20
-565.1
 30
0.0
 11
-445.7499999767414
 21
-565.1
 31
0.0
  0
LINE
  5
1E0
  8
1
  6
CONTINUOUS
 62
     7
 10
-668.2499999767414
 20
-565.1
 30
0.0
 11
-668.2499999767414
 21
-562.6000000000001
 31
0.0
  0
LINE
  5
1E1
  8
1
  6
CONTINUOUS
 62
     7
 10
-662.2488115745688
 20
-562.6000000000001
 30
0.0
 11
-658.2499999767414
 21
-562.6000000000001
 31
0.0
  0
LINE
  5
1E2
  8
1
  6
CONTINUOUS
 62
     7
 10
-658.2499999767414
 20
-565.1
 30
0.0
 11
-668.2499999767414
 21
-565.1
 31
0.0
  0
ARC
  5
1E3
  8
1
  6
CONTINUOUS
 62
     7
 10
-443.156375441138
 20
-561.6000000000001
 30
0.0
 40
1.000000000000001
 50
181.0000000000005
 51
270.0000000000015
  0
LINE
  5
1E4
  8
1
  6
CONTINUOUS
 62
     7
 10
-444.7164606948787
 20
-529.5214641710323
 30
0.0
 11
-444.1562231362944
 21
-561.6174524064373
 31
0.0
  0
LINE
  5
1E5
  8
1
  6
CONTINUOUS
 62
     7
 10
-659.2499999783831
 20
-543.6
 30
0.0
 11
-659.2499999767414
 21
-529.6
 31
0.0
  0
ARC
  5
1E6
  8
1
  6
CONTINUOUS
 62
     7
 10
-449.2157753230825
 20
-529.6
 30
0.0
 40
4.499999999999983
 50
0.9999999999999748
 51
89.99999999999982
  0
LINE
  5
1E7
  8
1
  6
CONTINUOUS
 62
     7
 10
-654.7499999767414
 20
-525.1000000000001
 30
0.0
 11
-449.2157753230825
 21
-525.1000000000001
 31
0.0
  0
ARC
  5
1E8
  8
1
  6
CONTINUOUS
 62
     7
 10
-654.7499999767414
 20
-529.6
 30
0.0
 40
4.499999999999948
 50
90.0
 51
180.0
  0
ARC
  5
1E9
  8
1
  6
CONTINUOUS
 62
     7
 10
-442.156375441138
 20
-561.6000000000001
 30
0.0
 40
1.0
 50
180.9999999999978
 51
270.0
  0
LINE
  5
1EA
  8
1
  6
CONTINUOUS
 62
     7
 10
-443.7164606948788
 20
-529.5214641710323
 30
0.0
 11
-443.1562231362945
 21
-561.6174524064373
 31
0.0
  0
LINE
  5
1EB
  8
1
  6
CONTINUOUS
 62
     7
 10
-448.5439179264582
 20
-525.1000000000001
 30
0.0
 11
-448.2157753230825
 21
-525.1000000000001
 31
0.0
  0
ARC
  5
1EC
  8
1
  6
CONTINUOUS
 62
     7
 10
-448.2157753230816
 20
-529.5999999999935
 30
0.0
 40
4.499999999993398
 50
72.80341998412098
 51
90.00000000001205
  0
ARC
  5
1ED
  8
1
  6
CONTINUOUS
 62
     7
 10
-448.2157753230825
 20
-529.6
 30
0.0
 40
4.500000000000002
 50
1.0
 51
72.80341998413422
  0
LINE
  5
1EE
  8
1
  6
CONTINUOUS
 62
     7
 10
-576.7684658858323
 20
-525.1000000000001
 30
0.0
 11
-576.9957386120543
 21
-525.1000000000001
 31
0.0
  0
LINE
  5
1EF
  8
1
  6
CONTINUOUS
 62
     7
 10
-648.4833646462665
 20
-651.7417719465128
 30
0.0
 11
-648.4893265711185
 21
-651.8085670459454
 31
0.0
  0
LINE
  5
1F0
  8
1
  6
CONTINUOUS
 62
     7
 10
-648.4893265711185
 20
-651.8085670459454
 30
0.0
 11
-648.4950600575042
 21
-652.0074261213405
 31
0.0
  0
LINE
  5
1F1
  8
1
  6
CONTINUOUS
 62
     7
 10
-648.4950600575042
 20
-652.0074261213405
 30
0.0
 11
-648.5003445572029
 21
-652.3306997230679
 31
0.0
  0
LINE
  5
1F2
  8
1
  6
CONTINUOUS
 62
     7
 10
-648.5003445572029
 20
-652.3306997230679
 30
0.0
 11
-648.5049767930233
 21
-652.765952586968
 31
0.0
  0
LINE
  5
1F3
  8
1
  6
CONTINUOUS
 62
     7
 10
-648.5049767930233
 20
-652.765952586968
 30
0.0
 11
-648.5087785782042
 21
-653.2964419777538
 31
0.0
  0
LINE
  5
1F4
  8
1
  6
CONTINUOUS
 62
     7
 10
-648.5087785782042
 20
-653.2964419777538
 30
0.0
 11
-648.5116036706686
 21
-653.9017617265542
 31
0.0
  0
LINE
  5
1F5
  8
1
  6
CONTINUOUS
 62
     7
 10
-648.5116036706686
 20
-653.9017617265542
 30
0.0
 11
-648.5133433984713
 21
-654.5586271886061
 31
0.0
  0
LINE
  5
1F6
  8
1
  6
CONTINUOUS
 62
     7
 10
-648.5133433984713
 20
-654.5586271886061
 30
0.0
 11
-648.513930840049
 21
-655.2417709263755
 31
0.0
  0
LINE
  5
1F7
  8
1
  6
CONTINUOUS
 62
     7
 10
-648.513930840049
 20
-655.2417709263755
 30
0.0
 11
-648.5133433984713
 21
-655.9249146641447
 31
0.0
  0
LINE
  5
1F8
  8
1
  6
CONTINUOUS
 62
     7
 10
-648.5133433984713
 20
-655.9249146641447
 30
0.0
 11
-648.5116036706686
 21
-656.5817801261967
 31
0.0
  0
LINE
  5
1F9
  8
1
  6
CONTINUOUS
 62
     7
 10
-648.5116036706686
 20
-656.5817801261967
 30
0.0
 11
-648.5087785782042
 21
-657.1870998749972
 31
0.0
  0
LINE
  5
1FA
  8
1
  6
CONTINUOUS
 62
     7
 10
-648.5087785782042
 20
-657.1870998749972
 30
0.0
 11
-648.5049767930233
 21
-657.7175892657832
 31
0.0
  0
LINE
  5
1FB
  8
1
  6
CONTINUOUS
 62
     7
 10
-648.5049767930233
 20
-657.7175892657832
 30
0.0
 11
-648.5003445572029
 21
-658.1528421296833
 31
0.0
  0
LINE
  5
1FC
  8
1
  6
CONTINUOUS
 62
     7
 10
-648.5003445572029
 20
-658.1528421296833
 30
0.0
 11
-648.4950600575042
 21
-658.476115731411
 31
0.0
  0
LINE
  5
1FD
  8
1
  6
CONTINUOUS
 62
     7
 10
-648.4950600575042
 20
-658.476115731411
 30
0.0
 11
-648.4893265711185
 21
-658.6749748068062
 31
0.0
  0
LINE
  5
1FE
  8
1
  6
CONTINUOUS
 62
     7
 10
-648.4893265711185
 20
-658.6749748068062
 30
0.0
 11
-648.4833646462665
 21
-658.741769906239
 31
0.0
  0
LINE
  5
1FF
  8
1
  6
CONTINUOUS
 62
     7
 10
-646.1368711547912
 20
-653.1198127424573
 30
0.0
 11
-646.1376178267672
 21
-653.1184606253738
 31
0.0
  0
LINE
  5
200
  8
1
  6
CONTINUOUS
 62
     7
 10
-645.996277064486
 20
-653.941770926376
 30
0.0
 11
-646.1419004724188
 21
-653.1781498399225
 31
0.0
  0
ARC
  5
201
  8
1
  6
CONTINUOUS
 62
     7
 10
-649.329656598742
 20
-654.4841625940419
 30
0.0
 40
3.377218950638339
 50
357.7729447417783
 51
9.241901185040831
  0
LINE
  5
202
  8
1
  6
CONTINUOUS
 62
     7
 10
-645.9549885353559
 20
-654.6154001744551
 30
0.0
 11
-645.9771687172564
 21
-654.7188120626005
 31
0.0
  0
LINE
  5
203
  8
1
  6
CONTINUOUS
 62
     7
 10
-645.9771687172564
 20
-654.7188120626005
 30
0.0
 11
-646.003258292883
 21
-654.7417709263759
 31
0.0
  0
LINE
  5
204
  8
1
  6
CONTINUOUS
 62
     7
 10
-646.003258292883
 20
-654.7417709263759
 30
0.0
 11
-646.1555454673324
 21
-654.7417709263759
 31
0.0
  0
LINE
  5
205
  8
1
  6
CONTINUOUS
 62
     7
 10
-646.1555454673324
 20
-654.7417709263759
 30
0.0
 11
-646.1560665227784
 21
-655.2417709263759
 31
0.0
  0
LINE
  5
206
  8
1
  6
CONTINUOUS
 62
     7
 10
-646.1560665227784
 20
-655.2417709263759
 30
0.0
 11
-646.1555454673324
 21
-655.7417709263759
 31
0.0
  0
LINE
  5
207
  8
1
  6
CONTINUOUS
 62
     7
 10
-646.1555454673324
 20
-655.7417709263759
 30
0.0
 11
-646.003258292883
 21
-655.7417709263759
 31
0.0
  0
LINE
  5
208
  8
1
  6
CONTINUOUS
 62
     7
 10
-646.003258292883
 20
-655.7417709263759
 30
0.0
 11
-645.9570121910024
 21
-655.8495473442355
 31
0.0
  0
ARC
  5
209
  8
1
  6
CONTINUOUS
 62
     7
 10
-649.2213932254264
 20
-656.0116078454324
 30
0.0
 40
3.268401313173608
 50
350.6648804557545
 51
2.84212092482511
  0
LINE
  5
20A
  8
1
  6
CONTINUOUS
 62
     7
 10
-646.1419004724188
 20
-657.3053920128295
 30
0.0
 11
-645.996277064486
 21
-656.5417709263761
 31
0.0
  0
LINE
  5
20B
  8
1
  6
CONTINUOUS
 62
     7
 10
-646.1419004724187
 20
-657.3053920128294
 30
0.0
 11
-646.1376178267672
 21
-657.365081227378
 31
0.0
  0
LINE
  5
20C
  8
1
  6
CONTINUOUS
 62
     7
 10
-646.1376178267672
 20
-657.365081227378
 30
0.0
 11
-646.1368711547912
 21
-657.3637291102946
 31
0.0
  0
LINE
  5
20D
  8
1
  6
CONTINUOUS
 62
     7
 10
-646.1376178267672
 20
-653.1184606253738
 30
0.0
 11
-646.1419004724188
 21
-653.1781498399225
 31
0.0
  0
LINE
  5
20E
  8
1
  6
CONTINUOUS
 62
     7
 10
-648.4833646462665
 20
-701.2582300954024
 30
0.0
 11
-648.4893265711185
 21
-701.3250251948351
 31
0.0
  0
LINE
  5
20F
  8
1
  6
CONTINUOUS
 62
     7
 10
-648.4893265711185
 20
-701.3250251948351
 30
0.0
 11
-648.4950600575042
 21
-701.5238842702303
 31
0.0
  0
LINE
  5
210
  8
1
  6
CONTINUOUS
 62
     7
 10
-648.4950600575042
 20
-701.5238842702303
 30
0.0
 11
-648.5003445572029
 21
-701.8471578719577
 31
0.0
  0
LINE
  5
211
  8
1
  6
CONTINUOUS
 62
     7
 10
-648.5003445572029
 20
-701.8471578719577
 30
0.0
 11
-648.5049767930233
 21
-702.2824107358579
 31
0.0
  0
LINE
  5
212
  8
1
  6
CONTINUOUS
 62
     7
 10
-648.5049767930233
 20
-702.2824107358579
 30
0.0
 11
-648.5087785782042
 21
-702.8129001266437
 31
0.0
  0
LINE
  5
213
  8
1
  6
CONTINUOUS
 62
     7
 10
-648.5087785782042
 20
-702.8129001266437
 30
0.0
 11
-648.5116036706686
 21
-703.4182198754443
 31
0.0
  0
LINE
  5
214
  8
1
  6
CONTINUOUS
 62
     7
 10
-648.5116036706686
 20
-703.4182198754443
 30
0.0
 11
-648.5133433984713
 21
-704.0750853374963
 31
0.0
  0
LINE
  5
215
  8
1
  6
CONTINUOUS
 62
     7
 10
-648.5133433984713
 20
-704.0750853374963
 30
0.0
 11
-648.513930840049
 21
-704.7582290752656
 31
0.0
  0
LINE
  5
216
  8
1
  6
CONTINUOUS
 62
     7
 10
-648.513930840049
 20
-704.7582290752656
 30
0.0
 11
-648.5133433984713
 21
-705.441372813035
 31
0.0
  0
LINE
  5
217
  8
1
  6
CONTINUOUS
 62
     7
 10
-648.5133433984713
 20
-705.441372813035
 30
0.0
 11
-648.5116036706686
 21
-706.0982382750869
 31
0.0
  0
LINE
  5
218
  8
1
  6
CONTINUOUS
 62
     7
 10
-648.5116036706686
 20
-706.0982382750869
 30
0.0
 11
-648.5087785782042
 21
-706.7035580238874
 31
0.0
  0
LINE
  5
219
  8
1
  6
CONTINUOUS
 62
     7
 10
-648.5087785782042
 20
-706.7035580238874
 30
0.0
 11
-648.5049767930233
 21
-707.2340474146732
 31
0.0
  0
LINE
  5
21A
  8
1
  6
CONTINUOUS
 62
     7
 10
-648.5049767930233
 20
-707.2340474146732
 30
0.0
 11
-648.5003445572029
 21
-707.6693002785734
 31
0.0
  0
LINE
  5
21B
  8
1
  6
CONTINUOUS
 62
     7
 10
-648.5003445572029
 20
-707.6693002785734
 30
0.0
 11
-648.4950600575042
 21
-707.9925738803008
 31
0.0
  0
LINE
  5
21C
  8
1
  6
CONTINUOUS
 62
     7
 10
-648.4950600575042
 20
-707.9925738803008
 30
0.0
 11
-648.4893265711185
 21
-708.1914329556959
 31
0.0
  0
LINE
  5
21D
  8
1
  6
CONTINUOUS
 62
     7
 10
-648.4893265711185
 20
-708.1914329556959
 30
0.0
 11
-648.4833646462665
 21
-708.2582280551286
 31
0.0
  0
LINE
  5
21E
  8
1
  6
CONTINUOUS
 62
     7
 10
-646.1376178267672
 20
-706.8815393762676
 30
0.0
 11
-646.1368711547912
 21
-706.8801872591841
 31
0.0
  0
LINE
  5
21F
  8
1
  6
CONTINUOUS
 62
     7
 10
-646.1376178267672
 20
-702.6349187742634
 30
0.0
 11
-646.1419004724187
 21
-702.694607988812
 31
0.0
  0
LINE
  5
220
  8
1
  6
CONTINUOUS
 62
     7
 10
-645.996277064486
 20
-703.4582290752653
 30
0.0
 11
-646.1419004724188
 21
-702.6946079888119
 31
0.0
  0
LINE
  5
221
  8
1
  6
CONTINUOUS
 62
     7
 10
-646.003258292883
 20
-704.2582290752656
 30
0.0
 11
-645.9570121910024
 21
-704.150452657406
 31
0.0
  0
ARC
  5
222
  8
1
  6
CONTINUOUS
 62
     7
 10
-649.2213932254289
 20
-703.9883921562092
 30
0.0
 40
3.268401313176096
 50
357.1578790751796
 51
9.335119544241024
  0
LINE
  5
223
  8
1
  6
CONTINUOUS
 62
     7
 10
-646.1555454673324
 20
-704.2582290752656
 30
0.0
 11
-646.003258292883
 21
-704.2582290752656
 31
0.0
  0
LINE
  5
224
  8
1
  6
CONTINUOUS
 62
     7
 10
-646.1555454673324
 20
-704.2582290752655
 30
0.0
 11
-646.1560665227784
 21
-704.7582290752655
 31
0.0
  0
LINE
  5
225
  8
1
  6
CONTINUOUS
 62
     7
 10
-646.1560665227784
 20
-704.7582290752655
 30
0.0
 11
-646.1555454673324
 21
-705.2582290752655
 31
0.0
  0
LINE
  5
226
  8
1
  6
CONTINUOUS
 62
     7
 10
-646.003258292883
 20
-705.2582290752656
 30
0.0
 11
-646.1555454673324
 21
-705.2582290752656
 31
0.0
  0
ARC
  5
227
  8
1
  6
CONTINUOUS
 62
     7
 10
-649.3296565987447
 20
-705.5158374075996
 30
0.0
 40
3.377218950641051
 50
350.7580988149637
 51
2.227055258217092
  0
LINE
  5
228
  8
1
  6
CONTINUOUS
 62
     7
 10
-645.9549885353559
 20
-705.3845998271863
 30
0.0
 11
-645.9771687172564
 21
-705.2811879390409
 31
0.0
  0
LINE
  5
229
  8
1
  6
CONTINUOUS
 62
     7
 10
-645.9771687172564
 20
-705.2811879390409
 30
0.0
 11
-646.003258292883
 21
-705.2582290752656
 31
0.0
  0
LINE
  5
22A
  8
1
  6
CONTINUOUS
 62
     7
 10
-646.1419004724187
 20
-706.8218501617189
 30
0.0
 11
-645.9962770644859
 21
-706.0582290752654
 31
0.0
  0
LINE
  5
22B
  8
1
  6
CONTINUOUS
 62
     7
 10
-646.1368711547912
 20
-702.6362708913468
 30
0.0
 11
-646.1376178267672
 21
-702.6349187742634
 31
0.0
  0
LINE
  5
22C
  8
1
  6
CONTINUOUS
 62
     7
 10
-646.1419004724188
 20
-706.8218501617189
 30
0.0
 11
-646.1376178267672
 21
-706.8815393762676
 31
0.0
  0
LINE
  5
22D
  8
1
  6
CONTINUOUS
 62
     7
 10
-662.2488115745688
 20
-615.5843300413972
 30
0.0
 11
-666.0556197135736
 21
-595.9999999990727
 31
0.0
  0
LINE
  5
22E
  8
1
  6
CONTINUOUS
 62
     7
 10
-669.2499999408957
 20
-745.5000000008209
 30
0.0
 11
-669.2499999307714
 21
-764.0000000008209
 31
0.0
  0
LINE
  5
22F
  8
1
  6
CONTINUOUS
 62
     7
 10
-669.2500000114925
 20
-616.5000000008209
 30
0.0
 11
-669.2499999419902
 21
-743.5000000008209
 31
0.0
  0
LINE
  5
230
  8
1
  6
CONTINUOUS
 62
     7
 10
-669.2500000227113
 20
-596.0000000008209
 30
0.0
 11
-669.2500000125871
 21
-614.5000000008209
 31
0.0
  0
LINE
  5
231
  8
1
  6
CONTINUOUS
 62
     7
 10
-666.0556196216336
 20
-763.9999999990728
 30
0.0
 11
-662.248811510949
 21
-744.4156699880004
 31
0.0
  0
LINE
  5
232
  8
1
  6
CONTINUOUS
 62
     7
 10
-666.249999930224
 20
-764.9999999991792
 30
0.0
 11
-669.249999930224
 21
-765.000000000821
 31
0.0
  0
LINE
  5
233
  8
1
  6
CONTINUOUS
 62
     7
 10
-669.249999930224
 20
-765.000000000821
 30
0.0
 11
-669.2499999307713
 21
-764.000000000821
 31
0.0
  0
LINE
  5
234
  8
1
  6
CONTINUOUS
 62
     7
 10
-666.0556196216336
 20
-763.9999999990728
 30
0.0
 11
-666.249999930224
 21
-764.9999999991791
 31
0.0
  0
LINE
  5
235
  8
1
  6
CONTINUOUS
 62
     7
 10
-660.4720486021479
 20
-744.9999999960171
 30
0.0
 11
-662.362393758415
 21
-744.9999999970515
 31
0.0
  0
ARC
  5
236
  8
1
  6
CONTINUOUS
 62
     7
 10
-665.7499999414429
 20
-744.4999999989054
 30
0.0
 40
0.5000000000000004
 50
0.0000000313570956
 51
90.0000000313571
  0
ARC
  5
237
  8
1
  6
CONTINUOUS
 62
     7
 10
-665.7499999414429
 20
-744.4999999989054
 30
0.0
 40
0.5000000000000004
 50
270.0000000313571
 51
0.0000000313571036
  0
LINE
  5
238
  8
1
  6
CONTINUOUS
 62
     7
 10
-669.2499999411693
 20
-745.000000000821
 30
0.0
 11
-665.7499999411693
 21
-744.9999999989057
 31
0.0
  0
LINE
  5
239
  8
1
  6
CONTINUOUS
 62
     7
 10
-669.2499999408957
 20
-745.5000000008209
 30
0.0
 11
-669.2499999411693
 21
-745.000000000821
 31
0.0
  0
LINE
  5
23A
  8
1
  6
CONTINUOUS
 62
     7
 10
-665.7499999417165
 20
-743.9999999989055
 30
0.0
 11
-669.2499999417165
 21
-744.0000000008209
 31
0.0
  0
LINE
  5
23B
  8
1
  6
CONTINUOUS
 62
     7
 10
-669.2499999417165
 20
-744.0000000008209
 30
0.0
 11
-669.2499999419902
 21
-743.5000000008209
 31
0.0
  0
ARC
  5
23C
  8
1
  6
CONTINUOUS
 62
     7
 10
-665.7500000120398
 20
-615.4999999989054
 30
0.0
 40
0.5000000000000004
 50
270.0000000313539
 51
0.0000000313571036
  0
LINE
  5
23D
  8
1
  6
CONTINUOUS
 62
     7
 10
-662.362393829559
 20
-614.9999999970515
 30
0.0
 11
-660.4720485599926
 21
-614.9999999960171
 31
0.0
  0
ARC
  5
23E
  8
1
  6
CONTINUOUS
 62
     7
 10
-665.7500000120398
 20
-615.4999999989054
 30
0.0
 40
0.5000000000000004
 50
0.0000000313570956
 51
90.0000000313571
  0
LINE
  5
23F
  8
1
  6
CONTINUOUS
 62
     7
 10
-669.2500000117661
 20
-616.0000000008209
 30
0.0
 11
-665.7500000117662
 21
-615.9999999989057
 31
0.0
  0
LINE
  5
240
  8
1
  6
CONTINUOUS
 62
     7
 10
-669.2500000114925
 20
-616.5000000008209
 30
0.0
 11
-669.2500000117661
 21
-616.0000000008209
 31
0.0
  0
LINE
  5
241
  8
1
  6
CONTINUOUS
 62
     7
 10
-665.7500000123134
 20
-614.9999999989055
 30
0.0
 11
-669.2500000123134
 21
-615.0000000008209
 31
0.0
  0
LINE
  5
242
  8
1
  6
CONTINUOUS
 62
     7
 10
-669.2500000123134
 20
-615.0000000008209
 30
0.0
 11
-669.250000012587
 21
-614.5000000008209
 31
0.0
  0
LINE
  5
243
  8
1
  6
CONTINUOUS
 62
     7
 10
-669.2500000232586
 20
-595.0000000008209
 30
0.0
 11
-666.2500000232586
 21
-594.9999999991792
 31
0.0
  0
LINE
  5
244
  8
1
  6
CONTINUOUS
 62
     7
 10
-669.2500000227113
 20
-596.0000000008209
 30
0.0
 11
-669.2500000232586
 21
-595.0000000008209
 31
0.0
  0
LINE
  5
245
  8
1
  6
CONTINUOUS
 62
     7
 10
-666.2500000232586
 20
-594.9999999991792
 30
0.0
 11
-666.0556197135736
 21
-595.9999999990728
 31
0.0
  0
LINE
  5
246
  8
1
  6
CONTINUOUS
 62
   253
 10
-448.1038579531099
 20
-734.3959135671867
 30
0.0
 11
-655.2499999767414
 21
-734.3959135671867
 31
0.0
  0
LINE
  5
247
  8
1
  6
CONTINUOUS
 62
   253
 10
-655.2499999767414
 20
-625.6040864344548
 30
0.0
 11
-448.1038579531099
 21
-625.6040864344548
 31
0.0
  0
LINE
  5
248
  8
1
  6
CONTINUOUS
 62
   253
 10
-446.6040864103753
 20
-648.3540864344546
 30
0.0
 11
-446.3039797969848
 21
-648.3540864344546
 31
0.0
  0
LINE
  5
249
  8
1
  6
CONTINUOUS
 62
   253
 10
-445.6040864103754
 20
-702.0539798210642
 30
0.0
 11
-445.6040864103754
 21
-710.9460201805773
 31
0.0
  0
LINE
  5
24A
  8
1
  6
CONTINUOUS
 62
   253
 10
-446.6040864103753
 20
-627.1038579771894
 30
0.0
 11
-446.6329017379487
 21
-626.811242729268
 31
0.0
  0
LINE
  5
24B
  8
1
  6
CONTINUOUS
 62
   253
 10
-446.6329017379487
 20
-626.811242729268
 30
0.0
 11
-446.7182407918143
 21
-626.5298857282219
 31
0.0
  0
LINE
  5
24C
  8
1
  6
CONTINUOUS
 62
   253
 10
-446.7182407918143
 20
-626.5298857282219
 30
0.0
 11
-446.8568253076211
 21
-626.2705951865241
 31
0.0
  0
LINE
  5
24D
  8
1
  6
CONTINUOUS
 62
   253
 10
-446.8568253076211
 20
-626.2705951865241
 30
0.0
 11
-447.0433316186868
 21
-626.0433316427662
 31
0.0
  0
LINE
  5
24E
  8
1
  6
CONTINUOUS
 62
   253
 10
-447.0433316186868
 20
-626.0433316427662
 30
0.0
 11
-447.2705951624446
 21
-625.8568253317005
 31
0.0
  0
LINE
  5
24F
  8
1
  6
CONTINUOUS
 62
   253
 10
-447.2705951624446
 20
-625.8568253317005
 30
0.0
 11
-447.5298857041424
 21
-625.7182408158938
 31
0.0
  0
LINE
  5
250
  8
1
  6
CONTINUOUS
 62
   253
 10
-447.5298857041424
 20
-625.7182408158938
 30
0.0
 11
-447.8112427051885
 21
-625.6329017620282
 31
0.0
  0
LINE
  5
251
  8
1
  6
CONTINUOUS
 62
   253
 10
-447.8112427051885
 20
-625.6329017620282
 30
0.0
 11
-448.1038579531099
 21
-625.6040864344548
 31
0.0
  0
LINE
  5
252
  8
1
  6
CONTINUOUS
 62
   253
 10
-446.3039797969848
 20
-711.6459135671869
 30
0.0
 11
-446.1674260146215
 21
-711.6324664143192
 31
0.0
  0
LINE
  5
253
  8
1
  6
CONTINUOUS
 62
   253
 10
-446.1674260146215
 20
-711.6324664143192
 30
0.0
 11
-446.0361260807999
 21
-711.5926415225154
 31
0.0
  0
LINE
  5
254
  8
1
  6
CONTINUOUS
 62
   253
 10
-446.0361260807999
 20
-711.5926415225154
 30
0.0
 11
-445.9151238280077
 21
-711.5279687484722
 31
0.0
  0
LINE
  5
255
  8
1
  6
CONTINUOUS
 62
   253
 10
-445.9151238280077
 20
-711.5279687484722
 30
0.0
 11
-445.8090675075874
 21
-711.4409324699748
 31
0.0
  0
LINE
  5
256
  8
1
  6
CONTINUOUS
 62
   253
 10
-445.8090675075874
 20
-711.4409324699748
 30
0.0
 11
-445.72203122909
 21
-711.3348761495545
 31
0.0
  0
LINE
  5
257
  8
1
  6
CONTINUOUS
 62
   253
 10
-445.72203122909
 20
-711.3348761495545
 30
0.0
 11
-445.6573584550468
 21
-711.2138738967622
 31
0.0
  0
LINE
  5
258
  8
1
  6
CONTINUOUS
 62
   253
 10
-445.6573584550468
 20
-711.2138738967622
 30
0.0
 11
-445.6175335632429
 21
-711.0825739629406
 31
0.0
  0
LINE
  5
259
  8
1
  6
CONTINUOUS
 62
   253
 10
-445.6175335632429
 20
-711.0825739629406
 30
0.0
 11
-445.6040864103753
 21
-710.9460201805773
 31
0.0
  0
LINE
  5
25A
  8
1
  6
CONTINUOUS
 62
   253
 10
-445.6040864103753
 20
-649.0539798210643
 30
0.0
 11
-445.6175335632429
 21
-648.917426038701
 31
0.0
  0
LINE
  5
25B
  8
1
  6
CONTINUOUS
 62
   253
 10
-445.6175335632429
 20
-648.917426038701
 30
0.0
 11
-445.6573584550468
 21
-648.7861261048795
 31
0.0
  0
LINE
  5
25C
  8
1
  6
CONTINUOUS
 62
   253
 10
-445.6573584550468
 20
-648.7861261048795
 30
0.0
 11
-445.7220312290901
 21
-648.6651238520872
 31
0.0
  0
LINE
  5
25D
  8
1
  6
CONTINUOUS
 62
   253
 10
-445.7220312290901
 20
-648.6651238520872
 30
0.0
 11
-445.8090675075874
 21
-648.5590675316669
 31
0.0
  0
LINE
  5
25E
  8
1
  6
CONTINUOUS
 62
   253
 10
-445.8090675075874
 20
-648.5590675316669
 30
0.0
 11
-445.9151238280077
 21
-648.4720312531695
 31
0.0
  0
LINE
  5
25F
  8
1
  6
CONTINUOUS
 62
   253
 10
-445.9151238280077
 20
-648.4720312531695
 30
0.0
 11
-446.0361260807999
 21
-648.4073584791263
 31
0.0
  0
LINE
  5
260
  8
1
  6
CONTINUOUS
 62
   253
 10
-446.0361260807999
 20
-648.4073584791263
 30
0.0
 11
-446.1674260146215
 21
-648.3675335873224
 31
0.0
  0
LINE
  5
261
  8
1
  6
CONTINUOUS
 62
   253
 10
-446.1674260146215
 20
-648.3675335873224
 30
0.0
 11
-446.3039797969848
 21
-648.3540864344548
 31
0.0
  0
LINE
  5
262
  8
1
  6
CONTINUOUS
 62
   253
 10
-446.6040864103753
 20
-711.6459135671868
 30
0.0
 11
-446.6040864103753
 21
-732.8961420244522
 31
0.0
  0
LINE
  5
263
  8
1
  6
CONTINUOUS
 62
   253
 10
-445.6040864103754
 20
-649.0539798210641
 30
0.0
 11
-445.6040864103754
 21
-657.9460201805772
 31
0.0
  0
LINE
  5
264
  8
1
  6
CONTINUOUS
 62
   253
 10
-446.6040864103753
 20
-658.6459135671867
 30
0.0
 11
-446.6040864103753
 21
-701.3540864344548
 31
0.0
  0
LINE
  5
265
  8
1
  6
CONTINUOUS
 62
   253
 10
-446.6040864103753
 20
-701.3540864344548
 30
0.0
 11
-446.3039797969848
 21
-701.3540864344548
 31
0.0
  0
LINE
  5
266
  8
1
  6
CONTINUOUS
 62
   253
 10
-656.7499999767413
 20
-732.8956850751209
 30
0.0
 11
-656.7499999767413
 21
-627.1043149265206
 31
0.0
  0
LINE
  5
267
  8
1
  6
CONTINUOUS
 62
   253
 10
-446.3039797969848
 20
-711.6459135671868
 30
0.0
 11
-446.6040864103753
 21
-711.6459135671868
 31
0.0
  0
LINE
  5
268
  8
1
  6
CONTINUOUS
 62
   253
 10
-655.2499999767414
 20
-625.6040864344548
 30
0.0
 11
-655.5426354597656
 21
-625.6329129042608
 31
0.0
  0
LINE
  5
269
  8
1
  6
CONTINUOUS
 62
   253
 10
-655.5426354597656
 20
-625.6329129042608
 30
0.0
 11
-655.824025125289
 21
-625.7182845286106
 31
0.0
  0
LINE
  5
26A
  8
1
  6
CONTINUOUS
 62
   253
 10
-655.824025125289
 20
-625.7182845286106
 30
0.0
 11
-656.0833553262707
 21
-625.8569205238574
 31
0.0
  0
LINE
  5
26B
  8
1
  6
CONTINUOUS
 62
   253
 10
-656.0833553262707
 20
-625.8569205238574
 30
0.0
 11
-656.3106601485212
 21
-626.0434931864515
 31
0.0
  0
LINE
  5
26C
  8
1
  6
CONTINUOUS
 62
   253
 10
-656.3106601485212
 20
-626.0434931864515
 30
0.0
 11
-656.4972043951952
 21
-626.2708326336009
 31
0.0
  0
LINE
  5
26D
  8
1
  6
CONTINUOUS
 62
   253
 10
-656.4972043951952
 20
-626.2708326336009
 30
0.0
 11
-656.6358192755083
 21
-626.5302023378449
 31
0.0
  0
LINE
  5
26E
  8
1
  6
CONTINUOUS
 62
   253
 10
-656.6358192755083
 20
-626.5302023378449
 30
0.0
 11
-656.7211778973463
 21
-626.8116348669057
 31
0.0
  0
LINE
  5
26F
  8
1
  6
CONTINUOUS
 62
   253
 10
-656.7211778973463
 20
-626.8116348669057
 30
0.0
 11
-656.7499999767414
 21
-627.1043149265206
 31
0.0
  0
LINE
  5
270
  8
1
  6
CONTINUOUS
 62
   253
 10
-448.1038579531099
 20
-734.3959135671868
 30
0.0
 11
-447.8112427051885
 21
-734.3670982396134
 31
0.0
  0
LINE
  5
271
  8
1
  6
CONTINUOUS
 62
   253
 10
-447.8112427051885
 20
-734.3670982396134
 30
0.0
 11
-447.5298857041424
 21
-734.2817591857478
 31
0.0
  0
LINE
  5
272
  8
1
  6
CONTINUOUS
 62
   253
 10
-447.5298857041424
 20
-734.2817591857478
 30
0.0
 11
-447.2705951624446
 21
-734.143174669941
 31
0.0
  0
LINE
  5
273
  8
1
  6
CONTINUOUS
 62
   253
 10
-447.2705951624446
 20
-734.143174669941
 30
0.0
 11
-447.0433316186868
 21
-733.9566683588753
 31
0.0
  0
LINE
  5
274
  8
1
  6
CONTINUOUS
 62
   253
 10
-447.0433316186868
 20
-733.9566683588753
 30
0.0
 11
-446.8568253076211
 21
-733.7294048151174
 31
0.0
  0
LINE
  5
275
  8
1
  6
CONTINUOUS
 62
   253
 10
-446.8568253076211
 20
-733.7294048151174
 30
0.0
 11
-446.7182407918143
 21
-733.4701142734197
 31
0.0
  0
LINE
  5
276
  8
1
  6
CONTINUOUS
 62
   253
 10
-446.7182407918143
 20
-733.4701142734197
 30
0.0
 11
-446.6329017379487
 21
-733.1887572723736
 31
0.0
  0
LINE
  5
277
  8
1
  6
CONTINUOUS
 62
   253
 10
-446.6329017379487
 20
-733.1887572723736
 30
0.0
 11
-446.6040864103753
 21
-732.8961420244522
 31
0.0
  0
LINE
  5
278
  8
1
  6
CONTINUOUS
 62
   253
 10
-446.3039797969848
 20
-658.6459135671867
 30
0.0
 11
-446.6040864103753
 21
-658.6459135671867
 31
0.0
  0
LINE
  5
279
  8
1
  6
CONTINUOUS
 62
   253
 10
-445.6040864103753
 20
-702.0539798210642
 30
0.0
 11
-445.6175335632429
 21
-701.9174260387009
 31
0.0
  0
LINE
  5
27A
  8
1
  6
CONTINUOUS
 62
   253
 10
-445.6175335632429
 20
-701.9174260387009
 30
0.0
 11
-445.6573584550468
 21
-701.7861261048794
 31
0.0
  0
LINE
  5
27B
  8
1
  6
CONTINUOUS
 62
   253
 10
-445.6573584550468
 20
-701.7861261048794
 30
0.0
 11
-445.7220312290901
 21
-701.665123852087
 31
0.0
  0
LINE
  5
27C
  8
1
  6
CONTINUOUS
 62
   253
 10
-445.7220312290901
 20
-701.665123852087
 30
0.0
 11
-445.8090675075874
 21
-701.5590675316668
 31
0.0
  0
LINE
  5
27D
  8
1
  6
CONTINUOUS
 62
   253
 10
-445.8090675075874
 20
-701.5590675316668
 30
0.0
 11
-445.9151238280077
 21
-701.4720312531693
 31
0.0
  0
LINE
  5
27E
  8
1
  6
CONTINUOUS
 62
   253
 10
-445.9151238280077
 20
-701.4720312531693
 30
0.0
 11
-446.0361260807999
 21
-701.4073584791262
 31
0.0
  0
LINE
  5
27F
  8
1
  6
CONTINUOUS
 62
   253
 10
-446.0361260807999
 20
-701.4073584791262
 30
0.0
 11
-446.1674260146215
 21
-701.3675335873223
 31
0.0
  0
LINE
  5
280
  8
1
  6
CONTINUOUS
 62
   253
 10
-446.1674260146215
 20
-701.3675335873223
 30
0.0
 11
-446.3039797969848
 21
-701.3540864344546
 31
0.0
  0
LINE
  5
281
  8
1
  6
CONTINUOUS
 62
   253
 10
-446.6040864103753
 20
-627.1038579771894
 30
0.0
 11
-446.6040864103753
 21
-648.3540864344548
 31
0.0
  0
LINE
  5
282
  8
1
  6
CONTINUOUS
 62
   253
 10
-656.7499999767414
 20
-732.8956850751209
 30
0.0
 11
-656.7211778973463
 21
-733.1883651347358
 31
0.0
  0
LINE
  5
283
  8
1
  6
CONTINUOUS
 62
   253
 10
-656.7211778973463
 20
-733.1883651347358
 30
0.0
 11
-656.6358192755083
 21
-733.4697976637966
 31
0.0
  0
LINE
  5
284
  8
1
  6
CONTINUOUS
 62
   253
 10
-656.6358192755083
 20
-733.4697976637966
 30
0.0
 11
-656.4972043951952
 21
-733.7291673680406
 31
0.0
  0
LINE
  5
285
  8
1
  6
CONTINUOUS
 62
   253
 10
-656.4972043951952
 20
-733.7291673680406
 30
0.0
 11
-656.3106601485212
 21
-733.95650681519
 31
0.0
  0
LINE
  5
286
  8
1
  6
CONTINUOUS
 62
   253
 10
-656.3106601485212
 20
-733.95650681519
 30
0.0
 11
-656.0833553262707
 21
-734.1430794777841
 31
0.0
  0
LINE
  5
287
  8
1
  6
CONTINUOUS
 62
   253
 10
-656.0833553262707
 20
-734.1430794777841
 30
0.0
 11
-655.824025125289
 21
-734.2817154730309
 31
0.0
  0
LINE
  5
288
  8
1
  6
CONTINUOUS
 62
   253
 10
-655.824025125289
 20
-734.2817154730309
 30
0.0
 11
-655.5426354597656
 21
-734.3670870973807
 31
0.0
  0
LINE
  5
289
  8
1
  6
CONTINUOUS
 62
   253
 10
-655.5426354597656
 20
-734.3670870973807
 30
0.0
 11
-655.2499999767414
 21
-734.3959135671868
 31
0.0
  0
LINE
  5
28A
  8
1
  6
CONTINUOUS
 62
   253
 10
-446.3039797969848
 20
-658.6459135671868
 30
0.0
 11
-446.1674260146215
 21
-658.6324664143191
 31
0.0
  0
LINE
  5
28B
  8
1
  6
CONTINUOUS
 62
   253
 10
-446.1674260146215
 20
-658.6324664143191
 30
0.0
 11
-446.0361260807999
 21
-658.5926415225152
 31
0.0
  0
LINE
  5
28C
  8
1
  6
CONTINUOUS
 62
   253
 10
-446.0361260807999
 20
-658.5926415225152
 30
0.0
 11
-445.9151238280077
 21
-658.5279687484721
 31
0.0
  0
LINE
  5
28D
  8
1
  6
CONTINUOUS
 62
   253
 10
-445.9151238280077
 20
-658.5279687484721
 30
0.0
 11
-445.8090675075874
 21
-658.4409324699747
 31
0.0
  0
LINE
  5
28E
  8
1
  6
CONTINUOUS
 62
   253
 10
-445.8090675075874
 20
-658.4409324699747
 30
0.0
 11
-445.7220312290901
 21
-658.3348761495544
 31
0.0
  0
LINE
  5
28F
  8
1
  6
CONTINUOUS
 62
   253
 10
-445.7220312290901
 20
-658.3348761495544
 30
0.0
 11
-445.6573584550468
 21
-658.213873896762
 31
0.0
  0
LINE
  5
290
  8
1
  6
CONTINUOUS
 62
   253
 10
-445.6573584550468
 20
-658.213873896762
 30
0.0
 11
-445.6175335632429
 21
-658.0825739629405
 31
0.0
  0
LINE
  5
291
  8
1
  6
CONTINUOUS
 62
   253
 10
-445.6175335632429
 20
-658.0825739629405
 30
0.0
 11
-445.6040864103753
 21
-657.9460201805772
 31
0.0
  0
LINE
  5
292
  8
1
  6
CONTINUOUS
 62
     7
 10
-668.2499999767413
 20
-735.2500000008207
 30
0.0
 11
-668.2499999767413
 21
-624.7500000008208
 31
0.0
  0
LINE
  5
293
  8
1
  6
CONTINUOUS
 62
     7
 10
-445.7499999767413
 20
-745.2500000008207
 30
0.0
 11
-658.2499999767413
 21
-745.2500000008207
 31
0.0
  0
LINE
  5
294
  8
1
  6
CONTINUOUS
 62
     7
 10
-435.7499999767413
 20
-624.7500000008207
 30
0.0
 11
-435.7499999767413
 21
-735.2500000008206
 31
0.0
  0
LINE
  5
295
  8
1
  6
CONTINUOUS
 62
     7
 10
-658.2499999767413
 20
-614.7500000008208
 30
0.0
 11
-445.7499999767413
 21
-614.7500000008208
 31
0.0
  0
ARC
  5
296
  8
1
  6
CONTINUOUS
 62
     7
 10
-445.7499999767414
 20
-735.2500000008207
 30
0.0
 40
9.999999999999988
 50
270.0
 51
0.0000000000000568
  0
ARC
  5
297
  8
1
  6
CONTINUOUS
 62
     7
 10
-445.7499999767414
 20
-624.7500000008207
 30
0.0
 40
9.999999999999995
 50
0.000000000000007
 51
90.0
  0
ARC
  5
298
  8
1
  6
CONTINUOUS
 62
     7
 10
-658.2499999767413
 20
-624.7500000008208
 30
0.0
 40
10.00000000000001
 50
90.00000000000001
 51
180.0
  0
ARC
  5
299
  8
1
  6
CONTINUOUS
 62
     7
 10
-658.2499999767414
 20
-735.2500000008207
 30
0.0
 40
10.00000000000001
 50
180.0
 51
270.0000000000002
  0
LINE
  5
29A
  8
1
  6
CONTINUOUS
 62
   253
 10
-456.4086316507426
 20
-728.3413492883516
 30
0.0
 11
-456.3840944692211
 21
-728.3407506964815
 31
0.0
  0
LINE
  5
29B
  8
1
  6
CONTINUOUS
 62
   253
 10
-456.3840944692211
 20
-728.3407506964815
 30
0.0
 11
-456.3596166693594
 21
-728.3389488901942
 31
0.0
  0
LINE
  5
29C
  8
1
  6
CONTINUOUS
 62
   253
 10
-456.3596166693594
 20
-728.3389488901942
 30
0.0
 11
-456.3352572146051
 21
-728.3359482097776
 31
0.0
  0
LINE
  5
29D
  8
1
  6
CONTINUOUS
 62
   253
 10
-456.3352572146051
 20
-728.3359482097776
 30
0.0
 11
-456.3110747833294
 21
-728.3317558834332
 31
0.0
  0
LINE
  5
29E
  8
1
  6
CONTINUOUS
 62
   253
 10
-456.3110747833294
 20
-728.3317558834332
 30
0.0
 11
-456.2871276274801
 21
-728.3263820098633
 31
0.0
  0
LINE
  5
29F
  8
1
  6
CONTINUOUS
 62
   253
 10
-456.2871276274801
 20
-728.3263820098633
 30
0.0
 11
-456.2634734322608
 21
-728.3198395339449
 31
0.0
  0
LINE
  5
2A0
  8
1
  6
CONTINUOUS
 62
   253
 10
-456.2634734322608
 20
-728.3198395339449
 30
0.0
 11
-456.2401691771753
 21
-728.3121442155478
 31
0.0
  0
LINE
  5
2A1
  8
1
  6
CONTINUOUS
 62
   253
 10
-456.2401691771753
 20
-728.3121442155478
 30
0.0
 11
-456.2172709987734
 21
-728.303314591571
 31
0.0
  0
LINE
  5
2A2
  8
1
  6
CONTINUOUS
 62
   253
 10
-456.2172709987734
 20
-728.303314591571
 30
0.0
 11
-456.1948340554246
 21
-728.2933719312898
 31
0.0
  0
LINE
  5
2A3
  8
1
  6
CONTINUOUS
 62
   253
 10
-456.1948340554246
 20
-728.2933719312898
 30
0.0
 11
-456.1729123944513
 21
-728.2823401851219
 31
0.0
  0
LINE
  5
2A4
  8
1
  6
CONTINUOUS
 62
   253
 10
-456.1729123944513
 20
-728.2823401851219
 30
0.0
 11
-456.1515588219352
 21
-728.2702459269339
 31
0.0
  0
LINE
  5
2A5
  8
1
  6
CONTINUOUS
 62
   253
 10
-456.1515588219352
 20
-728.2702459269339
 30
0.0
 11
-456.1308247755162
 21
-728.2571182900283
 31
0.0
  0
LINE
  5
2A6
  8
1
  6
CONTINUOUS
 62
   253
 10
-456.1308247755162
 20
-728.2571182900283
 30
0.0
 11
-456.110760200486
 21
-728.2429888969671
 31
0.0
  0
LINE
  5
2A7
  8
1
  6
CONTINUOUS
 62
   253
 10
-456.110760200486
 20
-728.2429888969671
 30
0.0
 11
-456.0914134294777
 21
-728.2278917833955
 31
0.0
  0
LINE
  5
2A8
  8
1
  6
CONTINUOUS
 62
   253
 10
-456.0914134294777
 20
-728.2278917833955
 30
0.0
 11
-456.072831066039
 21
-728.2118633160572
 31
0.0
  0
LINE
  5
2A9
  8
1
  6
CONTINUOUS
 62
   253
 10
-456.072831066039
 20
-728.2118633160572
 30
0.0
 11
-456.0550578723715
 21
-728.1949421051905
 31
0.0
  0
LINE
  5
2AA
  8
1
  6
CONTINUOUS
 62
   253
 10
-456.0550578723715
 20
-728.1949421051905
 30
0.0
 11
-456.0381366615048
 21
-728.177168911523
 31
0.0
  0
LINE
  5
2AB
  8
1
  6
CONTINUOUS
 62
   253
 10
-456.0381366615048
 20
-728.177168911523
 30
0.0
 11
-456.0221081941665
 21
-728.1585865480844
 31
0.0
  0
LINE
  5
2AC
  8
1
  6
CONTINUOUS
 62
   253
 10
-456.0221081941665
 20
-728.1585865480844
 30
0.0
 11
-456.007011080595
 21
-728.139239777076
 31
0.0
  0
LINE
  5
2AD
  8
1
  6
CONTINUOUS
 62
   253
 10
-456.007011080595
 20
-728.139239777076
 30
0.0
 11
-455.9928816875337
 21
-728.1191752020459
 31
0.0
  0
LINE
  5
2AE
  8
1
  6
CONTINUOUS
 62
   253
 10
-455.9928816875337
 20
-728.1191752020459
 30
0.0
 11
-455.9797540506282
 21
-728.0984411556268
 31
0.0
  0
LINE
  5
2AF
  8
1
  6
CONTINUOUS
 62
   253
 10
-455.9797540506282
 20
-728.0984411556268
 30
0.0
 11
-455.9676597924401
 21
-728.0770875831107
 31
0.0
  0
LINE
  5
2B0
  8
1
  6
CONTINUOUS
 62
   253
 10
-455.9676597924401
 20
-728.0770875831107
 30
0.0
 11
-455.9566280462722
 21
-728.0551659221375
 31
0.0
  0
LINE
  5
2B1
  8
1
  6
CONTINUOUS
 62
   253
 10
-455.9566280462722
 20
-728.0551659221375
 30
0.0
 11
-455.946685385991
 21
-728.0327289787888
 31
0.0
  0
LINE
  5
2B2
  8
1
  6
CONTINUOUS
 62
   253
 10
-455.946685385991
 20
-728.0327289787888
 30
0.0
 11
-455.9378557620142
 21
-728.0098308003867
 31
0.0
  0
LINE
  5
2B3
  8
1
  6
CONTINUOUS
 62
   253
 10
-455.9378557620142
 20
-728.0098308003867
 30
0.0
 11
-455.9301604436171
 21
-727.9865265453013
 31
0.0
  0
LINE
  5
2B4
  8
1
  6
CONTINUOUS
 62
   253
 10
-455.9301604436171
 20
-727.9865265453013
 30
0.0
 11
-455.9236179676988
 21
-727.962872350082
 31
0.0
  0
LINE
  5
2B5
  8
1
  6
CONTINUOUS
 62
   253
 10
-455.9236179676988
 20
-727.962872350082
 30
0.0
 11
-455.9182440941289
 21
-727.9389251942326
 31
0.0
  0
LINE
  5
2B6
  8
1
  6
CONTINUOUS
 62
   253
 10
-455.9182440941289
 20
-727.9389251942326
 30
0.0
 11
-455.9140517677844
 21
-727.914742762957
 31
0.0
  0
LINE
  5
2B7
  8
1
  6
CONTINUOUS
 62
   253
 10
-455.9140517677844
 20
-727.914742762957
 30
0.0
 11
-455.9110510873679
 21
-727.8903833082027
 31
0.0
  0
LINE
  5
2B8
  8
1
  6
CONTINUOUS
 62
   253
 10
-455.9110510873679
 20
-727.8903833082027
 30
0.0
 11
-455.9092492810806
 21
-727.8659055083409
 31
0.0
  0
LINE
  5
2B9
  8
1
  6
CONTINUOUS
 62
   253
 10
-455.9092492810806
 20
-727.8659055083409
 30
0.0
 11
-455.9086506892106
 21
-727.8413683268194
 31
0.0
  0
LINE
  5
2BA
  8
1
  6
CONTINUOUS
 62
     7
 10
-503.2499999767413
 20
-733.0000000008207
 30
0.0
 11
-504.2499999767413
 21
-733.0000000008207
 31
0.0
  0
LINE
  5
2BB
  8
1
  6
CONTINUOUS
 62
   253
 10
-460.7587458815501
 20
-728.3413492883516
 30
0.0
 11
-461.2464498656432
 21
-728.389396665916
 31
0.0
  0
LINE
  5
2BC
  8
1
  6
CONTINUOUS
 62
   253
 10
-461.2464498656432
 20
-728.389396665916
 30
0.0
 11
-461.7154090810125
 21
-728.5316628326382
 31
0.0
  0
LINE
  5
2BD
  8
1
  6
CONTINUOUS
 62
   253
 10
-461.7154090810125
 20
-728.5316628326382
 30
0.0
 11
-462.1476034297498
 21
-728.7626811078998
 31
0.0
  0
LINE
  5
2BE
  8
1
  6
CONTINUOUS
 62
   253
 10
-462.1476034297498
 20
-728.7626811078998
 30
0.0
 11
-462.526425530607
 21
-729.0735744469551
 31
0.0
  0
LINE
  5
2BF
  8
1
  6
CONTINUOUS
 62
   253
 10
-462.526425530607
 20
-729.0735744469551
 30
0.0
 11
-462.8373188696623
 21
-729.4523965478123
 31
0.0
  0
LINE
  5
2C0
  8
1
  6
CONTINUOUS
 62
   253
 10
-462.8373188696623
 20
-729.4523965478123
 30
0.0
 11
-463.0683371449239
 21
-729.8845908965498
 31
0.0
  0
LINE
  5
2C1
  8
1
  6
CONTINUOUS
 62
   253
 10
-463.0683371449239
 20
-729.8845908965498
 30
0.0
 11
-463.210603311646
 21
-730.3535501119189
 31
0.0
  0
LINE
  5
2C2
  8
1
  6
CONTINUOUS
 62
   253
 10
-463.210603311646
 20
-730.3535501119189
 30
0.0
 11
-463.2586506892105
 21
-730.841254096012
 31
0.0
  0
LINE
  5
2C3
  8
1
  6
CONTINUOUS
 62
   253
 10
-460.7587458815501
 20
-728.3413492883516
 30
0.0
 11
-456.4086316507426
 21
-728.3413492883516
 31
0.0
  0
LINE
  5
2C4
  8
1
  6
CONTINUOUS
 62
   253
 10
-455.9086506892106
 20
-727.8413683268194
 30
0.0
 11
-455.9086506892106
 21
-727.7500000008207
 31
0.0
  0
LINE
  5
2C5
  8
1
  6
CONTINUOUS
 62
   253
 10
-455.9086506892106
 20
-632.2500000008207
 30
0.0
 11
-455.9086506892106
 21
-632.1586316748221
 31
0.0
  0
CIRCLE
  5
2C6
  8
1
  6
CONTINUOUS
 62
     7
 10
-483.2499999767413
 20
-721.7500000008208
 30
0.0
 40
3.100000000000005
  0
LINE
  5
2C7
  8
1
  6
CONTINUOUS
 62
     7
 10
-507.2499999767414
 20
-733.0000000008207
 30
0.0
 11
-507.7499999767414
 21
-733.0000000008207
 31
0.0
  0
LINE
  5
2C8
  8
1
  6
CONTINUOUS
 62
     7
 10
-596.2499999767413
 20
-627.0000000008208
 30
0.0
 11
-596.7499999767414
 21
-627.0000000008208
 31
0.0
  0
LINE
  5
2C9
  8
1
  6
CONTINUOUS
 62
     7
 10
-599.7499999767414
 20
-627.0000000008208
 30
0.0
 11
-600.2499999767414
 21
-627.0000000008208
 31
0.0
  0
LINE
  5
2CA
  8
1
  6
CONTINUOUS
 62
     7
 10
-600.2499999767413
 20
-627.0000000008208
 30
0.0
 11
-601.2499999767413
 21
-627.0000000008208
 31
0.0
  0
LINE
  5
2CB
  8
1
  6
CONTINUOUS
 62
   253
 10
-641.2413492642721
 20
-730.841254096012
 30
0.0
 11
-641.2893966418366
 21
-730.3535501119189
 31
0.0
  0
LINE
  5
2CC
  8
1
  6
CONTINUOUS
 62
   253
 10
-641.2893966418366
 20
-730.3535501119189
 30
0.0
 11
-641.4316628085587
 21
-729.8845908965498
 31
0.0
  0
LINE
  5
2CD
  8
1
  6
CONTINUOUS
 62
   253
 10
-641.4316628085587
 20
-729.8845908965498
 30
0.0
 11
-641.6626810838203
 21
-729.4523965478123
 31
0.0
  0
LINE
  5
2CE
  8
1
  6
CONTINUOUS
 62
   253
 10
-641.6626810838203
 20
-729.4523965478123
 30
0.0
 11
-641.9735744228757
 21
-729.0735744469551
 31
0.0
  0
LINE
  5
2CF
  8
1
  6
CONTINUOUS
 62
   253
 10
-641.9735744228757
 20
-729.0735744469551
 30
0.0
 11
-642.3523965237329
 21
-728.7626811078998
 31
0.0
  0
LINE
  5
2D0
  8
1
  6
CONTINUOUS
 62
   253
 10
-642.3523965237329
 20
-728.7626811078998
 30
0.0
 11
-642.7845908724703
 21
-728.5316628326382
 31
0.0
  0
LINE
  5
2D1
  8
1
  6
CONTINUOUS
 62
   253
 10
-642.7845908724703
 20
-728.5316628326382
 30
0.0
 11
-643.2535500878395
 21
-728.389396665916
 31
0.0
  0
LINE
  5
2D2
  8
1
  6
CONTINUOUS
 62
   253
 10
-643.2535500878395
 20
-728.389396665916
 30
0.0
 11
-643.7412540719325
 21
-728.3413492883516
 31
0.0
  0
LINE
  5
2D3
  8
1
  6
CONTINUOUS
 62
   253
 10
-648.0913683027401
 20
-728.3413492883516
 30
0.0
 11
-643.7412540719326
 21
-728.3413492883516
 31
0.0
  0
LINE
  5
2D4
  8
1
  6
CONTINUOUS
 62
     7
 10
-596.7499999767414
 20
-733.0000000008207
 30
0.0
 11
-597.2499999767413
 21
-733.0000000008207
 31
0.0
  0
LINE
  5
2D5
  8
1
  6
CONTINUOUS
 62
     7
 10
-553.2499999767414
 20
-627.0000000008208
 30
0.0
 11
-553.7499999767415
 21
-627.0000000008208
 31
0.0
  0
CIRCLE
  5
2D6
  8
1
  6
CONTINUOUS
 62
     7
 10
-529.2499999767414
 20
-638.2500000008207
 30
0.0
 40
3.099999999999998
  0
LINE
  5
2D7
  8
1
  6
CONTINUOUS
 62
     7
 10
-550.7499999767414
 20
-627.0000000008208
 30
0.0
 11
-551.2499999767413
 21
-627.0000000008208
 31
0.0
  0
LINE
  5
2D8
  8
1
  6
CONTINUOUS
 62
   253
 10
-649.5913111873364
 20
-727.8413683268194
 30
0.0
 11
-649.5913111873364
 21
-727.7500000008207
 31
0.0
  0
LINE
  5
2D9
  8
1
  6
CONTINUOUS
 62
   253
 10
-648.591349264272
 20
-727.7500000008208
 30
0.0
 11
-648.591349264272
 21
-727.8413683268195
 31
0.0
  0
LINE
  5
2DA
  8
1
  6
CONTINUOUS
 62
   253
 10
-649.5913111873364
 20
-727.8413683268194
 30
0.0
 11
-648.5913492642721
 21
-727.8413683268194
 31
0.0
  0
LINE
  5
2DB
  8
1
  6
CONTINUOUS
 62
   253
 10
-455.9086506892106
 20
-632.158631674822
 30
0.0
 11
-455.9092492810805
 21
-632.1340944933005
 31
0.0
  0
LINE
  5
2DC
  8
1
  6
CONTINUOUS
 62
   253
 10
-455.9092492810805
 20
-632.1340944933005
 30
0.0
 11
-455.9110510873679
 21
-632.1096166934387
 31
0.0
  0
LINE
  5
2DD
  8
1
  6
CONTINUOUS
 62
   253
 10
-455.9110510873679
 20
-632.1096166934387
 30
0.0
 11
-455.9140517677844
 21
-632.0852572386844
 31
0.0
  0
LINE
  5
2DE
  8
1
  6
CONTINUOUS
 62
   253
 10
-455.9140517677844
 20
-632.0852572386844
 30
0.0
 11
-455.9182440941289
 21
-632.0610748074088
 31
0.0
  0
LINE
  5
2DF
  8
1
  6
CONTINUOUS
 62
   253
 10
-455.9182440941289
 20
-632.0610748074088
 30
0.0
 11
-455.9236179676988
 21
-632.0371276515594
 31
0.0
  0
LINE
  5
2E0
  8
1
  6
CONTINUOUS
 62
   253
 10
-455.9236179676988
 20
-632.0371276515594
 30
0.0
 11
-455.9301604436171
 21
-632.0134734563402
 31
0.0
  0
LINE
  5
2E1
  8
1
  6
CONTINUOUS
 62
   253
 10
-455.9301604436171
 20
-632.0134734563402
 30
0.0
 11
-455.9378557620142
 21
-631.9901692012547
 31
0.0
  0
LINE
  5
2E2
  8
1
  6
CONTINUOUS
 62
   253
 10
-455.9378557620142
 20
-631.9901692012547
 30
0.0
 11
-455.946685385991
 21
-631.9672710228527
 31
0.0
  0
LINE
  5
2E3
  8
1
  6
CONTINUOUS
 62
   253
 10
-455.946685385991
 20
-631.9672710228527
 30
0.0
 11
-455.9566280462722
 21
-631.9448340795041
 31
0.0
  0
LINE
  5
2E4
  8
1
  6
CONTINUOUS
 62
   253
 10
-455.9566280462722
 20
-631.9448340795041
 30
0.0
 11
-455.9676597924401
 21
-631.9229124185307
 31
0.0
  0
LINE
  5
2E5
  8
1
  6
CONTINUOUS
 62
   253
 10
-455.9676597924401
 20
-631.9229124185307
 30
0.0
 11
-455.9797540506282
 21
-631.9015588460146
 31
0.0
  0
LINE
  5
2E6
  8
1
  6
CONTINUOUS
 62
   253
 10
-455.9797540506282
 20
-631.9015588460146
 30
0.0
 11
-455.9928816875337
 21
-631.8808247995956
 31
0.0
  0
LINE
  5
2E7
  8
1
  6
CONTINUOUS
 62
   253
 10
-455.9928816875337
 20
-631.8808247995956
 30
0.0
 11
-456.007011080595
 21
-631.8607602245654
 31
0.0
  0
LINE
  5
2E8
  8
1
  6
CONTINUOUS
 62
   253
 10
-456.007011080595
 20
-631.8607602245654
 30
0.0
 11
-456.0221081941665
 21
-631.841413453557
 31
0.0
  0
LINE
  5
2E9
  8
1
  6
CONTINUOUS
 62
   253
 10
-456.0221081941665
 20
-631.841413453557
 30
0.0
 11
-456.0381366615048
 21
-631.8228310901184
 31
0.0
  0
LINE
  5
2EA
  8
1
  6
CONTINUOUS
 62
   253
 10
-456.0381366615048
 20
-631.8228310901184
 30
0.0
 11
-456.0550578723715
 21
-631.8050578964509
 31
0.0
  0
LINE
  5
2EB
  8
1
  6
CONTINUOUS
 62
   253
 10
-456.0550578723715
 20
-631.8050578964509
 30
0.0
 11
-456.0728310660389
 21
-631.7881366855843
 31
0.0
  0
LINE
  5
2EC
  8
1
  6
CONTINUOUS
 62
   253
 10
-456.0728310660389
 20
-631.7881366855843
 30
0.0
 11
-456.0914134294777
 21
-631.7721082182459
 31
0.0
  0
LINE
  5
2ED
  8
1
  6
CONTINUOUS
 62
   253
 10
-456.0914134294777
 20
-631.7721082182459
 30
0.0
 11
-456.110760200486
 21
-631.7570111046743
 31
0.0
  0
LINE
  5
2EE
  8
1
  6
CONTINUOUS
 62
   253
 10
-456.110760200486
 20
-631.7570111046743
 30
0.0
 11
-456.1308247755161
 21
-631.7428817116131
 31
0.0
  0
LINE
  5
2EF
  8
1
  6
CONTINUOUS
 62
   253
 10
-456.1308247755161
 20
-631.7428817116131
 30
0.0
 11
-456.1515588219352
 21
-631.7297540747077
 31
0.0
  0
LINE
  5
2F0
  8
1
  6
CONTINUOUS
 62
   253
 10
-456.1515588219352
 20
-631.7297540747077
 30
0.0
 11
-456.1729123944513
 21
-631.7176598165195
 31
0.0
  0
LINE
  5
2F1
  8
1
  6
CONTINUOUS
 62
   253
 10
-456.1729123944513
 20
-631.7176598165195
 30
0.0
 11
-456.1948340554246
 21
-631.7066280703516
 31
0.0
  0
LINE
  5
2F2
  8
1
  6
CONTINUOUS
 62
   253
 10
-456.1948340554246
 20
-631.7066280703516
 30
0.0
 11
-456.2172709987734
 21
-631.6966854100704
 31
0.0
  0
LINE
  5
2F3
  8
1
  6
CONTINUOUS
 62
   253
 10
-456.2172709987734
 20
-631.6966854100704
 30
0.0
 11
-456.2401691771753
 21
-631.6878557860936
 31
0.0
  0
LINE
  5
2F4
  8
1
  6
CONTINUOUS
 62
   253
 10
-456.2401691771753
 20
-631.6878557860936
 30
0.0
 11
-456.2634734322607
 21
-631.6801604676965
 31
0.0
  0
LINE
  5
2F5
  8
1
  6
CONTINUOUS
 62
   253
 10
-456.2634734322607
 20
-631.6801604676965
 30
0.0
 11
-456.2871276274801
 21
-631.6736179917781
 31
0.0
  0
LINE
  5
2F6
  8
1
  6
CONTINUOUS
 62
   253
 10
-456.2871276274801
 20
-631.6736179917781
 30
0.0
 11
-456.3110747833294
 21
-631.6682441182082
 31
0.0
  0
LINE
  5
2F7
  8
1
  6
CONTINUOUS
 62
   253
 10
-456.3110747833294
 20
-631.6682441182082
 30
0.0
 11
-456.3352572146051
 21
-631.6640517918639
 31
0.0
  0
LINE
  5
2F8
  8
1
  6
CONTINUOUS
 62
   253
 10
-456.3352572146051
 20
-631.6640517918639
 30
0.0
 11
-456.3596166693594
 21
-631.6610511114474
 31
0.0
  0
LINE
  5
2F9
  8
1
  6
CONTINUOUS
 62
   253
 10
-456.3596166693594
 20
-631.6610511114474
 30
0.0
 11
-456.3840944692211
 21
-631.65924930516
 31
0.0
  0
LINE
  5
2FA
  8
1
  6
CONTINUOUS
 62
   253
 10
-456.3840944692211
 20
-631.65924930516
 30
0.0
 11
-456.4086316507426
 21
-631.65865071329
 31
0.0
  0
LINE
  5
2FB
  8
1
  6
CONTINUOUS
 62
     7
 10
-480.9587121292635
 20
-716.7500000008208
 30
0.0
 11
-485.5412878242192
 21
-716.7500000008208
 31
0.0
  0
LINE
  5
2FC
  8
1
  6
CONTINUOUS
 62
     7
 10
-595.2499999767413
 20
-733.0000000008207
 30
0.0
 11
-596.2499999767413
 21
-733.0000000008207
 31
0.0
  0
LINE
  5
2FD
  8
1
  6
CONTINUOUS
 62
     7
 10
-599.2499999767413
 20
-733.0000000008207
 30
0.0
 11
-599.7499999767413
 21
-733.0000000008207
 31
0.0
  0
CIRCLE
  5
2FE
  8
1
  6
CONTINUOUS
 62
     7
 10
-529.2499999767414
 20
-721.7500000008208
 30
0.0
 40
3.099999999999995
  0
LINE
  5
2FF
  8
1
  6
CONTINUOUS
 62
     7
 10
-572.9587121292634
 20
-643.2500000008208
 30
0.0
 11
-577.5412878242192
 21
-643.2500000008208
 31
0.0
  0
ARC
  5
300
  8
1
  6
CONTINUOUS
 62
     7
 10
-453.2499999767414
 20
-728.0000000008207
 30
0.0
 40
4.999999999999997
 50
270.0
 51
0.0
  0
LINE
  5
301
  8
1
  6
CONTINUOUS
 62
     7
 10
-462.2586887661463
 20
-733.0000000008207
 30
0.0
 11
-453.2499999767413
 21
-733.0000000008207
 31
0.0
  0
LINE
  5
302
  8
1
  6
CONTINUOUS
 62
     7
 10
-450.8999999767414
 20
-644.2500000008208
 30
0.0
 11
-450.8999999767414
 21
-715.7500000008208
 31
0.0
  0
LINE
  5
303
  8
1
  6
CONTINUOUS
 62
     7
 10
-453.2499999767414
 20
-627.0000000008208
 30
0.0
 11
-462.2586887661464
 21
-627.0000000008208
 31
0.0
  0
ARC
  5
304
  8
1
  6
CONTINUOUS
 62
     7
 10
-453.2499999767414
 20
-632.0000000008207
 30
0.0
 40
5.000000000000004
 50
0.000000000000007
 51
90.0
  0
LINE
  5
305
  8
1
  6
CONTINUOUS
 62
     7
 10
-448.2499999767413
 20
-680.0000000008207
 30
0.0
 11
-448.2499999767413
 21
-644.2500200008208
 31
0.0
  0
LINE
  5
306
  8
1
  6
CONTINUOUS
 62
     7
 10
-448.2499999767414
 20
-644.2500000008208
 30
0.0
 11
-448.2499999767414
 21
-632.2500000008207
 31
0.0
  0
LINE
  5
307
  8
1
  6
CONTINUOUS
 62
     7
 10
-448.2499999767414
 20
-632.2499800008208
 30
0.0
 11
-448.2499999767414
 21
-632.0000000008208
 31
0.0
  0
LINE
  5
308
  8
1
  6
CONTINUOUS
 62
     7
 10
-448.2499999767414
 20
-728.0000000008207
 30
0.0
 11
-448.2499999767414
 21
-727.7500200008208
 31
0.0
  0
LINE
  5
309
  8
1
  6
CONTINUOUS
 62
     7
 10
-448.2499999767414
 20
-727.7500000008208
 30
0.0
 11
-448.2499999767414
 21
-715.7500000008208
 31
0.0
  0
LINE
  5
30A
  8
1
  6
CONTINUOUS
 62
     7
 10
-448.2499999767414
 20
-715.7499800008208
 30
0.0
 11
-448.2499999767414
 21
-680.0000000008207
 31
0.0
  0
LINE
  5
30B
  8
1
  6
CONTINUOUS
 62
     7
 10
-578.0784944118354
 20
-634.7500000008207
 30
0.0
 11
-572.4215055416473
 21
-634.7500000008207
 31
0.0
  0
ARC
  5
30C
  8
1
  6
CONTINUOUS
 62
     7
 10
-618.421679916785
 20
-637.2501514180346
 30
0.0
 40
2.500151423294835
 50
19.47650228878521
 51
89.99600385826112
  0
ARC
  5
30D
  8
1
  6
CONTINUOUS
 62
     7
 10
-621.2499999767414
 20
-638.2500000008207
 30
0.0
 40
5.499999999999993
 50
294.6199773286571
 51
19.47250614704643
  0
LINE
  5
30E
  8
1
  6
CONTINUOUS
 62
     7
 10
-618.9587121292634
 20
-643.2500000008208
 30
0.0
 11
-623.5412878242192
 21
-643.2500000008208
 31
0.0
  0
ARC
  5
30F
  8
1
  6
CONTINUOUS
 62
     7
 10
-621.2499999767414
 20
-638.2500000008207
 30
0.0
 40
5.5
 50
160.5274938529535
 51
245.3800226713429
  0
ARC
  5
310
  8
1
  6
CONTINUOUS
 62
     7
 10
-624.0783200366877
 20
-637.2501514180487
 30
0.0
 40
2.500151423308929
 50
90.00399614196719
 51
160.5234977109864
  0
LINE
  5
311
  8
1
  6
CONTINUOUS
 62
     7
 10
-624.0784944118353
 20
-634.7500000008207
 30
0.0
 11
-618.4215055416472
 21
-634.7500000008207
 31
0.0
  0
CIRCLE
  5
312
  8
1
  6
CONTINUOUS
 62
     7
 10
-621.2499999767414
 20
-638.2500000008207
 30
0.0
 40
3.099999999999992
  0
LINE
  5
313
  8
1
  6
CONTINUOUS
 62
     7
 10
-526.9587121292634
 20
-643.2500000008208
 30
0.0
 11
-531.5412878242191
 21
-643.2500000008208
 31
0.0
  0
LINE
  5
314
  8
1
  6
CONTINUOUS
 62
     7
 10
-504.7499999767413
 20
-733.0000000008207
 30
0.0
 11
-505.2499999767413
 21
-733.0000000008207
 31
0.0
  0
CIRCLE
  5
315
  8
1
  6
CONTINUOUS
 62
     7
 10
-483.2499999767413
 20
-638.2500000008207
 30
0.0
 40
3.099999999999992
  0
ARC
  5
316
  8
1
  6
CONTINUOUS
 62
     7
 10
-480.421679916795
 20
-722.7498485835928
 30
0.0
 40
2.500151423308929
 50
270.0039961419672
 51
340.5234977109865
  0
ARC
  5
317
  8
1
  6
CONTINUOUS
 62
     7
 10
-486.0783200366976
 20
-722.7498485836068
 30
0.0
 40
2.50015142329488
 50
199.4765022887862
 51
269.9960038582608
  0
ARC
  5
318
  8
1
  6
CONTINUOUS
 62
     7
 10
-486.0783200366877
 20
-637.2501514180487
 30
0.0
 40
2.500151423308929
 50
90.00399614196719
 51
160.5234977109864
  0
LINE
  5
319
  8
1
  6
CONTINUOUS
 62
     7
 10
-595.2499999767413
 20
-627.0000000008208
 30
0.0
 11
-596.2499999767413
 21
-627.0000000008208
 31
0.0
  0
LINE
  5
31A
  8
1
  6
CONTINUOUS
 62
     7
 10
-504.2499999767413
 20
-627.0000000008208
 30
0.0
 11
-504.7499999767413
 21
-627.0000000008208
 31
0.0
  0
LINE
  5
31B
  8
1
  6
CONTINUOUS
 62
     7
 10
-507.7499999767413
 20
-627.0000000008208
 30
0.0
 11
-508.2499999767414
 21
-627.0000000008208
 31
0.0
  0
LINE
  5
31C
  8
1
  6
CONTINUOUS
 62
     7
 10
-508.2499999767414
 20
-627.0000000008208
 30
0.0
 11
-509.2499999767414
 21
-627.0000000008208
 31
0.0
  0
ARC
  5
31D
  8
1
  6
CONTINUOUS
 62
     7
 10
-532.0783200366876
 20
-637.2501514180487
 30
0.0
 40
2.500151423308922
 50
90.00399614196705
 51
160.5234977109864
  0
ARC
  5
31E
  8
1
  6
CONTINUOUS
 62
     7
 10
-526.421679916785
 20
-637.2501514180346
 30
0.0
 40
2.500151423294844
 50
19.47650228878532
 51
89.99600385826112
  0
ARC
  5
31F
  8
1
  6
CONTINUOUS
 62
     7
 10
-483.2499999767413
 20
-721.7500000008208
 30
0.0
 40
5.499999999999995
 50
114.6199773286569
 51
199.4725061470466
  0
ARC
  5
320
  8
1
  6
CONTINUOUS
 62
     7
 10
-483.2499999767413
 20
-721.7500000008208
 30
0.0
 40
5.500000000000005
 50
340.5274938529535
 51
65.38002267134311
  0
LINE
  5
321
  8
1
  6
CONTINUOUS
 62
     7
 10
-618.9587121292634
 20
-716.7500000008208
 30
0.0
 11
-623.5412878242192
 21
-716.7500000008208
 31
0.0
  0
LINE
  5
322
  8
1
  6
CONTINUOUS
 62
     7
 10
-480.9587121292635
 20
-643.2500000008208
 30
0.0
 11
-485.5412878242193
 21
-643.2500000008208
 31
0.0
  0
ARC
  5
323
  8
1
  6
CONTINUOUS
 62
     7
 10
-483.2499999767413
 20
-638.2500000008207
 30
0.0
 40
5.499999999999993
 50
294.619977328657
 51
19.47250614704643
  0
LINE
  5
324
  8
1
  6
CONTINUOUS
 62
     7
 10
-508.2499999767414
 20
-733.0000000008207
 30
0.0
 11
-509.2499999767414
 21
-733.0000000008207
 31
0.0
  0
LINE
  5
325
  8
1
  6
CONTINUOUS
 62
   253
 10
-463.2586506892105
 20
-733.0000000008207
 30
0.0
 11
-463.2586506892105
 21
-730.841254096012
 31
0.0
  0
LINE
  5
326
  8
1
  6
CONTINUOUS
 62
     7
 10
-462.2586887661463
 20
-733.0000000008207
 30
0.0
 11
-463.2586506892105
 21
-733.0000000008207
 31
0.0
  0
LINE
  5
327
  8
1
  6
CONTINUOUS
 62
     7
 10
-553.2499999767413
 20
-733.0000000008207
 30
0.0
 11
-553.7499999767413
 21
-733.0000000008207
 31
0.0
  0
LINE
  5
328
  8
1
  6
CONTINUOUS
 62
     7
 10
-526.9587121292634
 20
-716.7500000008208
 30
0.0
 11
-531.5412878242191
 21
-716.7500000008208
 31
0.0
  0
ARC
  5
329
  8
1
  6
CONTINUOUS
 62
     7
 10
-578.0783200366975
 20
-722.7498485836068
 30
0.0
 40
2.500151423294864
 50
199.4765022887857
 51
269.9960038582608
  0
ARC
  5
32A
  8
1
  6
CONTINUOUS
 62
     7
 10
-575.2499999767413
 20
-721.7500000008208
 30
0.0
 40
5.499999999999997
 50
114.6199773286569
 51
199.4725061470465
  0
LINE
  5
32B
  8
1
  6
CONTINUOUS
 62
     7
 10
-572.9587121292634
 20
-716.7500000008208
 30
0.0
 11
-577.5412878242192
 21
-716.7500000008208
 31
0.0
  0
ARC
  5
32C
  8
1
  6
CONTINUOUS
 62
     7
 10
-575.2499999767413
 20
-721.7500000008208
 30
0.0
 40
5.499999999999995
 50
340.5274938529535
 51
65.38002267134317
  0
ARC
  5
32D
  8
1
  6
CONTINUOUS
 62
     7
 10
-572.4216799167949
 20
-722.7498485835928
 30
0.0
 40
2.500151423308916
 50
270.0039961419669
 51
340.5234977109865
  0
LINE
  5
32E
  8
1
  6
CONTINUOUS
 62
     7
 10
-578.0784944118354
 20
-725.2500000008207
 30
0.0
 11
-572.4215055416473
 21
-725.2500000008207
 31
0.0
  0
CIRCLE
  5
32F
  8
1
  6
CONTINUOUS
 62
     7
 10
-575.2499999767413
 20
-721.7500000008208
 30
0.0
 40
3.099999999999998
  0
LINE
  5
330
  8
1
  6
CONTINUOUS
 62
   253
 10
-641.2413492642721
 20
-627.0000000008208
 30
0.0
 11
-641.2413492642721
 21
-629.1587459056295
 31
0.0
  0
LINE
  5
331
  8
1
  6
CONTINUOUS
 62
     7
 10
-642.2413111873362
 20
-627.0000000008208
 30
0.0
 11
-641.2413492642721
 21
-627.0000000008208
 31
0.0
  0
ARC
  5
332
  8
1
  6
CONTINUOUS
 62
     7
 10
-529.2499999767414
 20
-638.2500000008207
 30
0.0
 40
5.499999999999996
 50
160.5274938529535
 51
245.3800226713429
  0
LINE
  5
333
  8
1
  6
CONTINUOUS
 62
   253
 10
-643.7412540719325
 20
-631.65865071329
 30
0.0
 11
-643.2535500878395
 21
-631.6106033357255
 31
0.0
  0
LINE
  5
334
  8
1
  6
CONTINUOUS
 62
   253
 10
-643.2535500878395
 20
-631.6106033357255
 30
0.0
 11
-642.7845908724703
 21
-631.4683371690033
 31
0.0
  0
LINE
  5
335
  8
1
  6
CONTINUOUS
 62
   253
 10
-642.7845908724703
 20
-631.4683371690033
 30
0.0
 11
-642.3523965237329
 21
-631.2373188937418
 31
0.0
  0
LINE
  5
336
  8
1
  6
CONTINUOUS
 62
   253
 10
-642.3523965237329
 20
-631.2373188937418
 30
0.0
 11
-641.9735744228757
 21
-630.9264255546864
 31
0.0
  0
LINE
  5
337
  8
1
  6
CONTINUOUS
 62
   253
 10
-641.9735744228757
 20
-630.9264255546864
 30
0.0
 11
-641.6626810838203
 21
-630.5476034538292
 31
0.0
  0
LINE
  5
338
  8
1
  6
CONTINUOUS
 62
   253
 10
-641.6626810838203
 20
-630.5476034538292
 30
0.0
 11
-641.4316628085587
 21
-630.1154091050918
 31
0.0
  0
LINE
  5
339
  8
1
  6
CONTINUOUS
 62
   253
 10
-641.4316628085587
 20
-630.1154091050918
 30
0.0
 11
-641.2893966418366
 21
-629.6464498897226
 31
0.0
  0
LINE
  5
33A
  8
1
  6
CONTINUOUS
 62
   253
 10
-641.2893966418366
 20
-629.6464498897226
 30
0.0
 11
-641.2413492642721
 21
-629.1587459056295
 31
0.0
  0
ARC
  5
33B
  8
1
  6
CONTINUOUS
 62
     7
 10
-529.2499999767414
 20
-638.2500000008207
 30
0.0
 40
5.499999999999996
 50
294.619977328657
 51
19.47250614704643
  0
ARC
  5
33C
  8
1
  6
CONTINUOUS
 62
     7
 10
-624.0783200366976
 20
-722.7498485836069
 30
0.0
 40
2.500151423294855
 50
199.4765022887855
 51
269.9960038582608
  0
ARC
  5
33D
  8
1
  6
CONTINUOUS
 62
     7
 10
-621.2499999767414
 20
-721.7500000008208
 30
0.0
 40
5.5
 50
114.6199773286569
 51
199.4725061470465
  0
ARC
  5
33E
  8
1
  6
CONTINUOUS
 62
     7
 10
-621.2499999767414
 20
-721.7500000008208
 30
0.0
 40
5.499999999999993
 50
340.5274938529535
 51
65.38002267134323
  0
ARC
  5
33F
  8
1
  6
CONTINUOUS
 62
     7
 10
-618.4216799167949
 20
-722.7498485835928
 30
0.0
 40
2.500151423308929
 50
270.0039961419672
 51
340.5234977109865
  0
LINE
  5
340
  8
1
  6
CONTINUOUS
 62
     7
 10
-624.0784944118353
 20
-725.2500000008207
 30
0.0
 11
-618.4215055416472
 21
-725.2500000008207
 31
0.0
  0
CIRCLE
  5
341
  8
1
  6
CONTINUOUS
 62
     7
 10
-621.2499999767414
 20
-721.7500000008208
 30
0.0
 40
3.099999999999992
  0
LINE
  5
342
  8
1
  6
CONTINUOUS
 62
     7
 10
-532.0784944118354
 20
-725.2500000008207
 30
0.0
 11
-526.4215055416472
 21
-725.2500000008207
 31
0.0
  0
LINE
  5
343
  8
1
  6
CONTINUOUS
 62
     7
 10
-532.0784944118354
 20
-634.7500000008207
 30
0.0
 11
-526.4215055416472
 21
-634.7500000008207
 31
0.0
  0
LINE
  5
344
  8
1
  6
CONTINUOUS
 62
   253
 10
-463.2586506892105
 20
-629.1587459056294
 30
0.0
 11
-463.2586506892105
 21
-627.0000000008207
 31
0.0
  0
LINE
  5
345
  8
1
  6
CONTINUOUS
 62
     7
 10
-463.2586506892105
 20
-627.0000000008208
 30
0.0
 11
-462.2586887661463
 21
-627.0000000008208
 31
0.0
  0
LINE
  5
346
  8
1
  6
CONTINUOUS
 62
   253
 10
-456.4086316507426
 20
-631.65865071329
 30
0.0
 11
-460.7587458815501
 21
-631.65865071329
 31
0.0
  0
LINE
  5
347
  8
1
  6
CONTINUOUS
 62
   253
 10
-463.2586506892105
 20
-629.1587459056295
 30
0.0
 11
-463.210603311646
 21
-629.6464498897226
 31
0.0
  0
LINE
  5
348
  8
1
  6
CONTINUOUS
 62
   253
 10
-463.210603311646
 20
-629.6464498897226
 30
0.0
 11
-463.0683371449239
 21
-630.1154091050918
 31
0.0
  0
LINE
  5
349
  8
1
  6
CONTINUOUS
 62
   253
 10
-463.0683371449239
 20
-630.1154091050918
 30
0.0
 11
-462.8373188696623
 21
-630.5476034538292
 31
0.0
  0
LINE
  5
34A
  8
1
  6
CONTINUOUS
 62
   253
 10
-462.8373188696623
 20
-630.5476034538292
 30
0.0
 11
-462.5264255306069
 21
-630.9264255546864
 31
0.0
  0
LINE
  5
34B
  8
1
  6
CONTINUOUS
 62
   253
 10
-462.5264255306069
 20
-630.9264255546864
 30
0.0
 11
-462.1476034297497
 21
-631.2373188937418
 31
0.0
  0
LINE
  5
34C
  8
1
  6
CONTINUOUS
 62
   253
 10
-462.1476034297497
 20
-631.2373188937418
 30
0.0
 11
-461.7154090810124
 21
-631.4683371690033
 31
0.0
  0
LINE
  5
34D
  8
1
  6
CONTINUOUS
 62
   253
 10
-461.7154090810124
 20
-631.4683371690033
 30
0.0
 11
-461.2464498656432
 21
-631.6106033357255
 31
0.0
  0
LINE
  5
34E
  8
1
  6
CONTINUOUS
 62
   253
 10
-461.2464498656432
 20
-631.6106033357255
 30
0.0
 11
-460.7587458815501
 21
-631.65865071329
 31
0.0
  0
LINE
  5
34F
  8
1
  6
CONTINUOUS
 62
     7
 10
-599.2499999767413
 20
-627.0000000008208
 30
0.0
 11
-599.7499999767413
 21
-627.0000000008208
 31
0.0
  0
LINE
  5
350
  8
1
  6
CONTINUOUS
 62
     7
 10
-549.2499999767414
 20
-627.0000000008208
 30
0.0
 11
-550.2499999767414
 21
-627.0000000008208
 31
0.0
  0
LINE
  5
351
  8
1
  6
CONTINUOUS
 62
   253
 10
-648.591349264272
 20
-632.158631674822
 30
0.0
 11
-648.591349264272
 21
-632.2500000008207
 31
0.0
  0
LINE
  5
352
  8
1
  6
CONTINUOUS
 62
     7
 10
-507.2499999767414
 20
-627.0000000008208
 30
0.0
 11
-507.7499999767414
 21
-627.0000000008208
 31
0.0
  0
ARC
  5
353
  8
1
  6
CONTINUOUS
 62
     7
 10
-572.421679916785
 20
-637.2501514180346
 30
0.0
 40
2.500151423294864
 50
19.47650228878567
 51
89.99600385826082
  0
ARC
  5
354
  8
1
  6
CONTINUOUS
 62
     7
 10
-575.2499999767413
 20
-638.2500000008207
 30
0.0
 40
5.5
 50
294.619977328657
 51
19.47250614704643
  0
ARC
  5
355
  8
1
  6
CONTINUOUS
 62
     7
 10
-575.2499999767413
 20
-638.2500000008207
 30
0.0
 40
5.499999999999996
 50
160.5274938529535
 51
245.3800226713429
  0
ARC
  5
356
  8
1
  6
CONTINUOUS
 62
     7
 10
-578.0783200366877
 20
-637.2501514180487
 30
0.0
 40
2.500151423308916
 50
90.00399614196688
 51
160.5234977109865
  0
CIRCLE
  5
357
  8
1
  6
CONTINUOUS
 62
     7
 10
-575.2499999767413
 20
-638.2500000008207
 30
0.0
 40
3.099999999999998
  0
ARC
  5
358
  8
1
  6
CONTINUOUS
 62
     7
 10
-526.421679916795
 20
-722.7498485835928
 30
0.0
 40
2.500151423308922
 50
270.003996141967
 51
340.5234977109864
  0
ARC
  5
359
  8
1
  6
CONTINUOUS
 62
     7
 10
-532.0783200366976
 20
-722.7498485836069
 30
0.0
 40
2.500151423294844
 50
199.4765022887853
 51
269.9960038582611
  0
LINE
  5
35A
  8
1
  6
CONTINUOUS
 62
     7
 10
-599.7499999767414
 20
-733.0000000008207
 30
0.0
 11
-600.2499999767414
 21
-733.0000000008207
 31
0.0
  0
LINE
  5
35B
  8
1
  6
CONTINUOUS
 62
     7
 10
-596.2499999767413
 20
-733.0000000008207
 30
0.0
 11
-596.7499999767414
 21
-733.0000000008207
 31
0.0
  0
LINE
  5
35C
  8
1
  6
CONTINUOUS
 62
     7
 10
-600.2499999767413
 20
-733.0000000008207
 30
0.0
 11
-601.2499999767413
 21
-733.0000000008207
 31
0.0
  0
LINE
  5
35D
  8
1
  6
CONTINUOUS
 62
     7
 10
-507.7499999767413
 20
-733.0000000008207
 30
0.0
 11
-508.2499999767414
 21
-733.0000000008207
 31
0.0
  0
LINE
  5
35E
  8
1
  6
CONTINUOUS
 62
     7
 10
-504.2499999767413
 20
-733.0000000008207
 30
0.0
 11
-504.7499999767413
 21
-733.0000000008207
 31
0.0
  0
LINE
  5
35F
  8
1
  6
CONTINUOUS
 62
   253
 10
-643.7412540719325
 20
-631.65865071329
 30
0.0
 11
-648.0913683027401
 21
-631.65865071329
 31
0.0
  0
ARC
  5
360
  8
1
  6
CONTINUOUS
 62
     7
 10
-529.2499999767414
 20
-721.7500000008208
 30
0.0
 40
5.499999999999997
 50
114.6199773286569
 51
199.4725061470465
  0
ARC
  5
361
  8
1
  6
CONTINUOUS
 62
     7
 10
-529.2499999767414
 20
-721.7500000008208
 30
0.0
 40
5.500000000000001
 50
340.5274938529535
 51
65.38002267134311
  0
LINE
  5
362
  8
1
  6
CONTINUOUS
 62
     7
 10
-550.7499999767414
 20
-733.0000000008207
 30
0.0
 11
-551.2499999767413
 21
-733.0000000008207
 31
0.0
  0
LINE
  5
363
  8
1
  6
CONTINUOUS
 62
   253
 10
-641.2413492642721
 20
-730.841254096012
 30
0.0
 11
-641.2413492642721
 21
-733.0000000008207
 31
0.0
  0
LINE
  5
364
  8
1
  6
CONTINUOUS
 62
     7
 10
-641.2413492642721
 20
-733.0000000008207
 30
0.0
 11
-642.2413111873362
 21
-733.0000000008207
 31
0.0
  0
LINE
  5
365
  8
1
  6
CONTINUOUS
 62
   253
 10
-648.591349264272
 20
-727.8413683268194
 30
0.0
 11
-648.5907506724021
 21
-727.8659055083409
 31
0.0
  0
LINE
  5
366
  8
1
  6
CONTINUOUS
 62
   253
 10
-648.5907506724021
 20
-727.8659055083409
 30
0.0
 11
-648.5889488661147
 21
-727.8903833082027
 31
0.0
  0
LINE
  5
367
  8
1
  6
CONTINUOUS
 62
   253
 10
-648.5889488661147
 20
-727.8903833082027
 30
0.0
 11
-648.5859481856983
 21
-727.9147427629571
 31
0.0
  0
LINE
  5
368
  8
1
  6
CONTINUOUS
 62
   253
 10
-648.5859481856983
 20
-727.9147427629571
 30
0.0
 11
-648.5817558593538
 21
-727.9389251942328
 31
0.0
  0
LINE
  5
369
  8
1
  6
CONTINUOUS
 62
   253
 10
-648.5817558593538
 20
-727.9389251942328
 30
0.0
 11
-648.5763819857839
 21
-727.962872350082
 31
0.0
  0
LINE
  5
36A
  8
1
  6
CONTINUOUS
 62
   253
 10
-648.5763819857839
 20
-727.962872350082
 30
0.0
 11
-648.5698395098656
 21
-727.9865265453013
 31
0.0
  0
LINE
  5
36B
  8
1
  6
CONTINUOUS
 62
   253
 10
-648.5698395098656
 20
-727.9865265453013
 30
0.0
 11
-648.5621441914685
 21
-728.0098308003867
 31
0.0
  0
LINE
  5
36C
  8
1
  6
CONTINUOUS
 62
   253
 10
-648.5621441914685
 20
-728.0098308003867
 30
0.0
 11
-648.5533145674916
 21
-728.0327289787888
 31
0.0
  0
LINE
  5
36D
  8
1
  6
CONTINUOUS
 62
   253
 10
-648.5533145674916
 20
-728.0327289787888
 30
0.0
 11
-648.5433719072105
 21
-728.0551659221375
 31
0.0
  0
LINE
  5
36E
  8
1
  6
CONTINUOUS
 62
   253
 10
-648.5433719072105
 20
-728.0551659221375
 30
0.0
 11
-648.5323401610425
 21
-728.0770875831108
 31
0.0
  0
LINE
  5
36F
  8
1
  6
CONTINUOUS
 62
   253
 10
-648.5323401610425
 20
-728.0770875831108
 30
0.0
 11
-648.5202459028545
 21
-728.0984411556269
 31
0.0
  0
LINE
  5
370
  8
1
  6
CONTINUOUS
 62
   253
 10
-648.5202459028545
 20
-728.0984411556269
 30
0.0
 11
-648.507118265949
 21
-728.1191752020459
 31
0.0
  0
LINE
  5
371
  8
1
  6
CONTINUOUS
 62
   253
 10
-648.507118265949
 20
-728.1191752020459
 30
0.0
 11
-648.4929888728876
 21
-728.139239777076
 31
0.0
  0
LINE
  5
372
  8
1
  6
CONTINUOUS
 62
   253
 10
-648.4929888728876
 20
-728.139239777076
 30
0.0
 11
-648.4778917593161
 21
-728.1585865480844
 31
0.0
  0
LINE
  5
373
  8
1
  6
CONTINUOUS
 62
   253
 10
-648.4778917593161
 20
-728.1585865480844
 30
0.0
 11
-648.4618632919778
 21
-728.177168911523
 31
0.0
  0
LINE
  5
374
  8
1
  6
CONTINUOUS
 62
   253
 10
-648.4618632919778
 20
-728.177168911523
 30
0.0
 11
-648.4449420811111
 21
-728.1949421051906
 31
0.0
  0
LINE
  5
375
  8
1
  6
CONTINUOUS
 62
   253
 10
-648.4449420811111
 20
-728.1949421051906
 30
0.0
 11
-648.4271688874437
 21
-728.2118633160572
 31
0.0
  0
LINE
  5
376
  8
1
  6
CONTINUOUS
 62
   253
 10
-648.4271688874437
 20
-728.2118633160572
 30
0.0
 11
-648.408586524005
 21
-728.2278917833956
 31
0.0
  0
LINE
  5
377
  8
1
  6
CONTINUOUS
 62
   253
 10
-648.408586524005
 20
-728.2278917833956
 30
0.0
 11
-648.3892397529967
 21
-728.2429888969671
 31
0.0
  0
LINE
  5
378
  8
1
  6
CONTINUOUS
 62
   253
 10
-648.3892397529967
 20
-728.2429888969671
 30
0.0
 11
-648.3691751779666
 21
-728.2571182900284
 31
0.0
  0
LINE
  5
379
  8
1
  6
CONTINUOUS
 62
   253
 10
-648.3691751779666
 20
-728.2571182900284
 30
0.0
 11
-648.3484411315475
 21
-728.2702459269339
 31
0.0
  0
LINE
  5
37A
  8
1
  6
CONTINUOUS
 62
   253
 10
-648.3484411315475
 20
-728.2702459269339
 30
0.0
 11
-648.3270875590314
 21
-728.2823401851219
 31
0.0
  0
LINE
  5
37B
  8
1
  6
CONTINUOUS
 62
   253
 10
-648.3270875590314
 20
-728.2823401851219
 30
0.0
 11
-648.3051658980579
 21
-728.2933719312898
 31
0.0
  0
LINE
  5
37C
  8
1
  6
CONTINUOUS
 62
   253
 10
-648.3051658980579
 20
-728.2933719312898
 30
0.0
 11
-648.2827289547092
 21
-728.303314591571
 31
0.0
  0
LINE
  5
37D
  8
1
  6
CONTINUOUS
 62
   253
 10
-648.2827289547092
 20
-728.303314591571
 30
0.0
 11
-648.2598307763074
 21
-728.3121442155478
 31
0.0
  0
LINE
  5
37E
  8
1
  6
CONTINUOUS
 62
   253
 10
-648.2598307763074
 20
-728.3121442155478
 30
0.0
 11
-648.236526521222
 21
-728.3198395339449
 31
0.0
  0
LINE
  5
37F
  8
1
  6
CONTINUOUS
 62
   253
 10
-648.236526521222
 20
-728.3198395339449
 30
0.0
 11
-648.2128723260025
 21
-728.3263820098633
 31
0.0
  0
LINE
  5
380
  8
1
  6
CONTINUOUS
 62
   253
 10
-648.2128723260025
 20
-728.3263820098633
 30
0.0
 11
-648.1889251701532
 21
-728.3317558834332
 31
0.0
  0
LINE
  5
381
  8
1
  6
CONTINUOUS
 62
   253
 10
-648.1889251701532
 20
-728.3317558834332
 30
0.0
 11
-648.1647427388775
 21
-728.3359482097776
 31
0.0
  0
LINE
  5
382
  8
1
  6
CONTINUOUS
 62
   253
 10
-648.1647427388775
 20
-728.3359482097776
 30
0.0
 11
-648.1403832841232
 21
-728.3389488901942
 31
0.0
  0
LINE
  5
383
  8
1
  6
CONTINUOUS
 62
   253
 10
-648.1403832841232
 20
-728.3389488901942
 30
0.0
 11
-648.1159054842616
 21
-728.3407506964816
 31
0.0
  0
LINE
  5
384
  8
1
  6
CONTINUOUS
 62
   253
 10
-648.1159054842616
 20
-728.3407506964816
 30
0.0
 11
-648.0913683027401
 21
-728.3413492883516
 31
0.0
  0
LINE
  5
385
  8
1
  6
CONTINUOUS
 62
     7
 10
-596.7499999767414
 20
-627.0000000008208
 30
0.0
 11
-597.2499999767413
 21
-627.0000000008208
 31
0.0
  0
LINE
  5
386
  8
1
  6
CONTINUOUS
 62
     7
 10
-503.2499999767413
 20
-627.0000000008208
 30
0.0
 11
-504.2499999767413
 21
-627.0000000008208
 31
0.0
  0
LINE
  5
387
  8
1
  6
CONTINUOUS
 62
     7
 10
-504.7499999767413
 20
-627.0000000008208
 30
0.0
 11
-505.2499999767413
 21
-627.0000000008208
 31
0.0
  0
LINE
  5
388
  8
1
  6
CONTINUOUS
 62
     7
 10
-553.7499999767414
 20
-733.0000000008207
 30
0.0
 11
-554.2499999767413
 21
-733.0000000008207
 31
0.0
  0
LINE
  5
389
  8
1
  6
CONTINUOUS
 62
     7
 10
-550.2499999767413
 20
-733.0000000008207
 30
0.0
 11
-550.7499999767413
 21
-733.0000000008207
 31
0.0
  0
LINE
  5
38A
  8
1
  6
CONTINUOUS
 62
     7
 10
-486.0784944118354
 20
-725.2500000008207
 30
0.0
 11
-480.4215055416473
 21
-725.2500000008207
 31
0.0
  0
ARC
  5
38B
  8
1
  6
CONTINUOUS
 62
     7
 10
-483.2499999767413
 20
-638.2500000008207
 30
0.0
 40
5.5
 50
160.5274938529535
 51
245.3800226713429
  0
ARC
  5
38C
  8
1
  6
CONTINUOUS
 62
     7
 10
-480.421679916785
 20
-637.2501514180346
 30
0.0
 40
2.500151423294835
 50
19.47650228878521
 51
89.99600385826146
  0
LINE
  5
38D
  8
1
  6
CONTINUOUS
 62
     7
 10
-486.0784944118355
 20
-634.7500000008207
 30
0.0
 11
-480.4215055416473
 21
-634.7500000008207
 31
0.0
  0
LINE
  5
38E
  8
1
  6
CONTINUOUS
 62
   253
 10
-648.0913683027401
 20
-631.65865071329
 30
0.0
 11
-648.1159054842616
 21
-631.65924930516
 31
0.0
  0
LINE
  5
38F
  8
1
  6
CONTINUOUS
 62
   253
 10
-648.1159054842616
 20
-631.65924930516
 30
0.0
 11
-648.1403832841232
 21
-631.6610511114474
 31
0.0
  0
LINE
  5
390
  8
1
  6
CONTINUOUS
 62
   253
 10
-648.1403832841232
 20
-631.6610511114474
 30
0.0
 11
-648.1647427388775
 21
-631.6640517918639
 31
0.0
  0
LINE
  5
391
  8
1
  6
CONTINUOUS
 62
   253
 10
-648.1647427388775
 20
-631.6640517918639
 30
0.0
 11
-648.1889251701532
 21
-631.6682441182082
 31
0.0
  0
LINE
  5
392
  8
1
  6
CONTINUOUS
 62
   253
 10
-648.1889251701532
 20
-631.6682441182082
 30
0.0
 11
-648.2128723260025
 21
-631.6736179917781
 31
0.0
  0
LINE
  5
393
  8
1
  6
CONTINUOUS
 62
   253
 10
-648.2128723260025
 20
-631.6736179917781
 30
0.0
 11
-648.236526521222
 21
-631.6801604676965
 31
0.0
  0
LINE
  5
394
  8
1
  6
CONTINUOUS
 62
   253
 10
-648.236526521222
 20
-631.6801604676965
 30
0.0
 11
-648.2598307763074
 21
-631.6878557860936
 31
0.0
  0
LINE
  5
395
  8
1
  6
CONTINUOUS
 62
   253
 10
-648.2598307763074
 20
-631.6878557860936
 30
0.0
 11
-648.2827289547092
 21
-631.6966854100705
 31
0.0
  0
LINE
  5
396
  8
1
  6
CONTINUOUS
 62
   253
 10
-648.2827289547092
 20
-631.6966854100705
 30
0.0
 11
-648.3051658980579
 21
-631.7066280703516
 31
0.0
  0
LINE
  5
397
  8
1
  6
CONTINUOUS
 62
   253
 10
-648.3051658980579
 20
-631.7066280703516
 30
0.0
 11
-648.3270875590314
 21
-631.7176598165195
 31
0.0
  0
LINE
  5
398
  8
1
  6
CONTINUOUS
 62
   253
 10
-648.3270875590314
 20
-631.7176598165195
 30
0.0
 11
-648.3484411315475
 21
-631.7297540747077
 31
0.0
  0
LINE
  5
399
  8
1
  6
CONTINUOUS
 62
   253
 10
-648.3484411315475
 20
-631.7297540747077
 30
0.0
 11
-648.3691751779666
 21
-631.7428817116131
 31
0.0
  0
LINE
  5
39A
  8
1
  6
CONTINUOUS
 62
   253
 10
-648.3691751779666
 20
-631.7428817116131
 30
0.0
 11
-648.3892397529967
 21
-631.7570111046743
 31
0.0
  0
LINE
  5
39B
  8
1
  6
CONTINUOUS
 62
   253
 10
-648.3892397529967
 20
-631.7570111046743
 30
0.0
 11
-648.408586524005
 21
-631.7721082182459
 31
0.0
  0
LINE
  5
39C
  8
1
  6
CONTINUOUS
 62
   253
 10
-648.408586524005
 20
-631.7721082182459
 30
0.0
 11
-648.4271688874437
 21
-631.7881366855843
 31
0.0
  0
LINE
  5
39D
  8
1
  6
CONTINUOUS
 62
   253
 10
-648.4271688874437
 20
-631.7881366855843
 30
0.0
 11
-648.4449420811111
 21
-631.8050578964509
 31
0.0
  0
LINE
  5
39E
  8
1
  6
CONTINUOUS
 62
   253
 10
-648.4449420811111
 20
-631.8050578964509
 30
0.0
 11
-648.4618632919778
 21
-631.8228310901184
 31
0.0
  0
LINE
  5
39F
  8
1
  6
CONTINUOUS
 62
   253
 10
-648.4618632919778
 20
-631.8228310901184
 30
0.0
 11
-648.4778917593161
 21
-631.841413453557
 31
0.0
  0
LINE
  5
3A0
  8
1
  6
CONTINUOUS
 62
   253
 10
-648.4778917593161
 20
-631.841413453557
 30
0.0
 11
-648.4929888728876
 21
-631.8607602245654
 31
0.0
  0
LINE
  5
3A1
  8
1
  6
CONTINUOUS
 62
   253
 10
-648.4929888728876
 20
-631.8607602245654
 30
0.0
 11
-648.507118265949
 21
-631.8808247995956
 31
0.0
  0
LINE
  5
3A2
  8
1
  6
CONTINUOUS
 62
   253
 10
-648.507118265949
 20
-631.8808247995956
 30
0.0
 11
-648.5202459028545
 21
-631.9015588460146
 31
0.0
  0
LINE
  5
3A3
  8
1
  6
CONTINUOUS
 62
   253
 10
-648.5202459028545
 20
-631.9015588460146
 30
0.0
 11
-648.5323401610425
 21
-631.9229124185307
 31
0.0
  0
LINE
  5
3A4
  8
1
  6
CONTINUOUS
 62
   253
 10
-648.5323401610425
 20
-631.9229124185307
 30
0.0
 11
-648.5433719072105
 21
-631.9448340795041
 31
0.0
  0
LINE
  5
3A5
  8
1
  6
CONTINUOUS
 62
   253
 10
-648.5433719072105
 20
-631.9448340795041
 30
0.0
 11
-648.5533145674916
 21
-631.9672710228527
 31
0.0
  0
LINE
  5
3A6
  8
1
  6
CONTINUOUS
 62
   253
 10
-648.5533145674916
 20
-631.9672710228527
 30
0.0
 11
-648.5621441914685
 21
-631.9901692012547
 31
0.0
  0
LINE
  5
3A7
  8
1
  6
CONTINUOUS
 62
   253
 10
-648.5621441914685
 20
-631.9901692012547
 30
0.0
 11
-648.5698395098656
 21
-632.0134734563402
 31
0.0
  0
LINE
  5
3A8
  8
1
  6
CONTINUOUS
 62
   253
 10
-648.5698395098656
 20
-632.0134734563402
 30
0.0
 11
-648.5763819857839
 21
-632.0371276515594
 31
0.0
  0
LINE
  5
3A9
  8
1
  6
CONTINUOUS
 62
   253
 10
-648.5763819857839
 20
-632.0371276515594
 30
0.0
 11
-648.5817558593538
 21
-632.0610748074088
 31
0.0
  0
LINE
  5
3AA
  8
1
  6
CONTINUOUS
 62
   253
 10
-648.5817558593538
 20
-632.0610748074088
 30
0.0
 11
-648.5859481856983
 21
-632.0852572386844
 31
0.0
  0
LINE
  5
3AB
  8
1
  6
CONTINUOUS
 62
   253
 10
-648.5859481856983
 20
-632.0852572386844
 30
0.0
 11
-648.5889488661147
 21
-632.1096166934387
 31
0.0
  0
LINE
  5
3AC
  8
1
  6
CONTINUOUS
 62
   253
 10
-648.5889488661147
 20
-632.1096166934387
 30
0.0
 11
-648.5907506724021
 21
-632.1340944933005
 31
0.0
  0
LINE
  5
3AD
  8
1
  6
CONTINUOUS
 62
   253
 10
-648.5907506724021
 20
-632.1340944933005
 30
0.0
 11
-648.591349264272
 21
-632.158631674822
 31
0.0
  0
LINE
  5
3AE
  8
1
  6
CONTINUOUS
 62
     7
 10
-554.2499999767413
 20
-733.0000000008207
 30
0.0
 11
-555.2499999767413
 21
-733.0000000008207
 31
0.0
  0
LINE
  5
3AF
  8
1
  6
CONTINUOUS
 62
     7
 10
-651.2499999767414
 20
-733.0000000008207
 30
0.0
 11
-642.2413111873364
 21
-733.0000000008207
 31
0.0
  0
ARC
  5
3B0
  8
1
  6
CONTINUOUS
 62
     7
 10
-651.2499999767414
 20
-632.0000000008208
 30
0.0
 40
4.999999999999997
 50
90.00000000000001
 51
180.0
  0
ARC
  5
3B1
  8
1
  6
CONTINUOUS
 62
     7
 10
-651.2499999767414
 20
-728.0000000008207
 30
0.0
 40
5.000000000000004
 50
180.0
 51
270.0
  0
LINE
  5
3B2
  8
1
  6
CONTINUOUS
 62
     7
 10
-642.2413111873362
 20
-627.0000000008208
 30
0.0
 11
-651.2499999767413
 21
-627.0000000008208
 31
0.0
  0
LINE
  5
3B3
  8
1
  6
CONTINUOUS
 62
     7
 10
-549.2499999767413
 20
-733.0000000008207
 30
0.0
 11
-550.2499999767413
 21
-733.0000000008207
 31
0.0
  0
LINE
  5
3B4
  8
1
  6
CONTINUOUS
 62
     7
 10
-550.2499999767414
 20
-627.0000000008208
 30
0.0
 11
-550.7499999767414
 21
-627.0000000008208
 31
0.0
  0
LINE
  5
3B5
  8
1
  6
CONTINUOUS
 62
     7
 10
-553.7499999767414
 20
-627.0000000008208
 30
0.0
 11
-554.2499999767413
 21
-627.0000000008208
 31
0.0
  0
LINE
  5
3B6
  8
1
  6
CONTINUOUS
 62
     7
 10
-554.2499999767414
 20
-627.0000000008208
 30
0.0
 11
-555.2499999767414
 21
-627.0000000008208
 31
0.0
  0
LINE
  5
3B7
  8
1
  6
CONTINUOUS
 62
     7
 10
-648.3089589359196
 20
-708.2429689471517
 30
0.0
 11
-648.3089589359196
 21
-715.7500000008208
 31
0.0
  0
LINE
  5
3B8
  8
1
  6
CONTINUOUS
 62
     7
 10
-648.5651686608999
 20
-709.9913112114158
 30
0.0
 11
-648.5651686608999
 21
-715.7500000008208
 31
0.0
  0
LINE
  5
3B9
  8
1
  6
CONTINUOUS
 62
   253
 10
-648.5301088790936
 20
-709.9562514296096
 30
0.0
 11
-648.5651686608999
 21
-709.9913112114158
 31
0.0
  0
LINE
  5
3BA
  8
1
  6
CONTINUOUS
 62
   253
 10
-648.5128074541553
 20
-702.0436724181602
 30
0.0
 11
-648.5128074541553
 21
-703.8177221632859
 31
0.0
  0
LINE
  5
3BB
  8
1
  6
CONTINUOUS
 62
   253
 10
-648.5128074541553
 20
-654.3012640143963
 30
0.0
 11
-648.5128074541553
 21
-656.1822778383554
 31
0.0
  0
LINE
  5
3BC
  8
1
  6
CONTINUOUS
 62
     7
 10
-648.3089589359196
 20
-644.2500000008208
 30
0.0
 11
-648.3089589359196
 21
-651.7570310544899
 31
0.0
  0
LINE
  5
3BD
  8
1
  6
CONTINUOUS
 62
     7
 10
-648.3089589359196
 20
-658.7265107982621
 30
0.0
 11
-648.3089589359196
 21
-660.5000000008207
 31
0.0
  0
LINE
  5
3BE
  8
1
  6
CONTINUOUS
 62
     7
 10
-648.3176858037103
 20
-661.5000000008207
 30
0.0
 11
-648.3089589359196
 21
-660.5000000008207
 31
0.0
  0
LINE
  5
3BF
  8
1
  6
CONTINUOUS
 62
     7
 10
-648.3176858037103
 20
-698.5000000008208
 30
0.0
 11
-648.3176858037103
 21
-661.5000000008207
 31
0.0
  0
LINE
  5
3C0
  8
1
  6
CONTINUOUS
 62
     7
 10
-648.3089589359196
 20
-699.5000000008208
 30
0.0
 11
-648.3176858037103
 21
-698.5000000008208
 31
0.0
  0
LINE
  5
3C1
  8
1
  6
CONTINUOUS
 62
     7
 10
-648.3089589359196
 20
-699.5000000008208
 30
0.0
 11
-648.3089589359196
 21
-701.2734892033795
 31
0.0
  0
LINE
  5
3C2
  8
1
  6
CONTINUOUS
 62
     7
 10
-641.2413492642721
 20
-627.0000000008208
 30
0.0
 11
-641.223819373369
 21
-627.0000000008208
 31
0.0
  0
LINE
  5
3C3
  8
1
  6
CONTINUOUS
 62
     7
 10
-455.9348312925828
 20
-715.7500000008208
 30
0.0
 11
-455.9348312925828
 21
-644.2500000008208
 31
0.0
  0
LINE
  5
3C4
  8
1
  6
CONTINUOUS
 62
     7
 10
-463.2586506892105
 20
-733.0000000008207
 30
0.0
 11
-463.2761805801136
 21
-733.0000000008207
 31
0.0
  0
LINE
  5
3C5
  8
1
  6
CONTINUOUS
 62
     7
 10
-463.2586506892105
 20
-627.0000000008208
 30
0.0
 11
-463.2761805801136
 21
-627.0000000008208
 31
0.0
  0
LINE
  5
3C6
  8
1
  6
CONTINUOUS
 62
     7
 10
-641.2413492642721
 20
-733.0000000008207
 30
0.0
 11
-641.223819373369
 21
-733.0000000008207
 31
0.0
  0
LINE
  5
3C7
  8
1
  6
CONTINUOUS
 62
     7
 10
-553.2499999767413
 20
-733.0000000008207
 30
0.0
 11
-551.2499999767413
 21
-733.0000000008207
 31
0.0
  0
LINE
  5
3C8
  8
1
  6
CONTINUOUS
 62
     7
 10
-499.1612765373624
 20
-627.0000000008208
 30
0.0
 11
-503.2499999767413
 21
-627.0000000008208
 31
0.0
  0
LINE
  5
3C9
  8
1
  6
CONTINUOUS
 62
     7
 10
-509.2499999767414
 20
-627.0000000008208
 30
0.0
 11
-513.3387234161203
 21
-627.0000000008208
 31
0.0
  0
LINE
  5
3CA
  8
1
  6
CONTINUOUS
 62
     7
 10
-605.3387234161203
 20
-627.0000000008208
 30
0.0
 11
-601.2499999767413
 21
-627.0000000008208
 31
0.0
  0
LINE
  5
3CB
  8
1
  6
CONTINUOUS
 62
     7
 10
-559.3387234161203
 20
-627.0000000008208
 30
0.0
 11
-555.2499999767413
 21
-627.0000000008208
 31
0.0
  0
LINE
  5
3CC
  8
1
  6
CONTINUOUS
 62
     7
 10
-599.2499999767413
 20
-627.0000000008208
 30
0.0
 11
-597.2499999767413
 21
-627.0000000008208
 31
0.0
  0
LINE
  5
3CD
  8
1
  6
CONTINUOUS
 62
     7
 10
-549.2499999767413
 20
-733.0000000008207
 30
0.0
 11
-545.1612765373624
 21
-733.0000000008207
 31
0.0
  0
LINE
  5
3CE
  8
1
  6
CONTINUOUS
 62
     7
 10
-505.2499999767413
 20
-733.0000000008207
 30
0.0
 11
-507.2499999767414
 21
-733.0000000008207
 31
0.0
  0
LINE
  5
3CF
  8
1
  6
CONTINUOUS
 62
     7
 10
-509.2499999767414
 20
-733.0000000008207
 30
0.0
 11
-513.3387234161203
 21
-733.0000000008207
 31
0.0
  0
LINE
  5
3D0
  8
1
  6
CONTINUOUS
 62
     7
 10
-553.2499999767414
 20
-627.0000000008208
 30
0.0
 11
-551.2499999767414
 21
-627.0000000008208
 31
0.0
  0
LINE
  5
3D1
  8
1
  6
CONTINUOUS
 62
     7
 10
-549.2499999767414
 20
-627.0000000008208
 30
0.0
 11
-545.1612765373625
 21
-627.0000000008208
 31
0.0
  0
LINE
  5
3D2
  8
1
  6
CONTINUOUS
 62
     7
 10
-505.2499999767413
 20
-627.0000000008208
 30
0.0
 11
-507.2499999767414
 21
-627.0000000008208
 31
0.0
  0
LINE
  5
3D3
  8
1
  6
CONTINUOUS
 62
     7
 10
-595.2499999767413
 20
-733.0000000008207
 30
0.0
 11
-591.1612765373624
 21
-733.0000000008207
 31
0.0
  0
LINE
  5
3D4
  8
1
  6
CONTINUOUS
 62
     7
 10
-595.2499999767413
 20
-627.0000000008208
 30
0.0
 11
-591.1612765373624
 21
-627.0000000008208
 31
0.0
  0
LINE
  5
3D5
  8
1
  6
CONTINUOUS
 62
     7
 10
-499.1612765373624
 20
-733.0000000008207
 30
0.0
 11
-503.2499999767413
 21
-733.0000000008207
 31
0.0
  0
LINE
  5
3D6
  8
1
  6
CONTINUOUS
 62
     7
 10
-605.3387234161203
 20
-733.0000000008207
 30
0.0
 11
-601.2499999767413
 21
-733.0000000008207
 31
0.0
  0
LINE
  5
3D7
  8
1
  6
CONTINUOUS
 62
     7
 10
-599.2499999767413
 20
-733.0000000008207
 30
0.0
 11
-597.2499999767413
 21
-733.0000000008207
 31
0.0
  0
LINE
  5
3D8
  8
1
  6
CONTINUOUS
 62
     7
 10
-559.3387234161203
 20
-733.0000000008207
 30
0.0
 11
-555.2499999767413
 21
-733.0000000008207
 31
0.0
  0
LINE
  5
3D9
  8
1
  6
CONTINUOUS
 62
     7
 10
-591.1612765373624
 20
-733.0000000008207
 30
0.0
 11
-559.3387234161203
 21
-733.0000000008207
 31
0.0
  0
LINE
  5
3DA
  8
1
  6
CONTINUOUS
 62
     7
 10
-591.1612765373624
 20
-627.0000000008208
 30
0.0
 11
-559.3387234161203
 21
-627.0000000008208
 31
0.0
  0
LINE
  5
3DB
  8
1
  6
CONTINUOUS
 62
     7
 10
-545.1612765373625
 20
-733.0000000008207
 30
0.0
 11
-513.3387234161203
 21
-733.0000000008207
 31
0.0
  0
LINE
  5
3DC
  8
1
  6
CONTINUOUS
 62
     7
 10
-545.1612765373625
 20
-627.0000000008208
 30
0.0
 11
-513.3387234161203
 21
-627.0000000008208
 31
0.0
  0
LINE
  5
3DD
  8
1
  6
CONTINUOUS
 62
     7
 10
-641.223819373369
 20
-627.0000000008208
 30
0.0
 11
-605.3387234161202
 21
-627.0000000008208
 31
0.0
  0
LINE
  5
3DE
  8
1
  6
CONTINUOUS
 62
     7
 10
-499.1612765373624
 20
-733.0000000008207
 30
0.0
 11
-463.2761805801136
 21
-733.0000000008207
 31
0.0
  0
LINE
  5
3DF
  8
1
  6
CONTINUOUS
 62
     7
 10
-499.1612765373624
 20
-627.0000000008208
 30
0.0
 11
-463.2761805801136
 21
-627.0000000008208
 31
0.0
  0
LINE
  5
3E0
  8
1
  6
CONTINUOUS
 62
     7
 10
-641.223819373369
 20
-733.0000000008207
 30
0.0
 11
-605.3387234161202
 21
-733.0000000008207
 31
0.0
  0
LINE
  5
3E1
  8
1
  6
CONTINUOUS
 62
     7
 10
-460.2499999767413
 20
-728.2889119262854
 30
0.0
 11
-460.2499999767413
 21
-728.28454849239
 31
0.0
  0
LINE
  5
3E2
  8
1
  6
CONTINUOUS
 62
     7
 10
-448.2499999767413
 20
-727.7500000008208
 30
0.0
 11
-551.2499999767414
 21
-727.7500000008208
 31
0.0
  0
LINE
  5
3E3
  8
1
  6
CONTINUOUS
 62
     7
 10
-551.2499999767414
 20
-727.7500000008208
 30
0.0
 11
-553.2499999767414
 21
-727.7500000008208
 31
0.0
  0
LINE
  5
3E4
  8
1
  6
CONTINUOUS
 62
     7
 10
-553.2499999767414
 20
-727.7500000008208
 30
0.0
 11
-656.2499999767414
 21
-727.7500000008208
 31
0.0
  0
LINE
  5
3E5
  8
1
  6
CONTINUOUS
 62
     7
 10
-448.2499999767413
 20
-727.7500000008208
 30
0.0
 11
-448.2499999767413
 21
-715.7500000008208
 31
0.0
  0
LINE
  5
3E6
  8
1
  6
CONTINUOUS
 62
     7
 10
-448.2499999767413
 20
-715.7500000008208
 30
0.0
 11
-551.2499999767414
 21
-715.7500000008208
 31
0.0
  0
LINE
  5
3E7
  8
1
  6
CONTINUOUS
 62
     7
 10
-551.2499999767414
 20
-715.7500000008208
 30
0.0
 11
-553.2499999767414
 21
-715.7500000008208
 31
0.0
  0
LINE
  5
3E8
  8
1
  6
CONTINUOUS
 62
     7
 10
-553.2499999767414
 20
-715.7500000008208
 30
0.0
 11
-656.2499999767414
 21
-715.7500000008208
 31
0.0
  0
LINE
  5
3E9
  8
1
  6
CONTINUOUS
 62
     7
 10
-448.2499999767413
 20
-632.2500000008207
 30
0.0
 11
-551.2499999767414
 21
-632.2500000008207
 31
0.0
  0
LINE
  5
3EA
  8
1
  6
CONTINUOUS
 62
     7
 10
-551.2499999767414
 20
-632.2500000008207
 30
0.0
 11
-553.2499999767414
 21
-632.2500000008207
 31
0.0
  0
LINE
  5
3EB
  8
1
  6
CONTINUOUS
 62
     7
 10
-553.2499999767414
 20
-632.2500000008207
 30
0.0
 11
-656.2499999767414
 21
-632.2500000008207
 31
0.0
  0
LINE
  5
3EC
  8
1
  6
CONTINUOUS
 62
     7
 10
-448.2499999767413
 20
-632.2500000008207
 30
0.0
 11
-448.2499999767413
 21
-644.2500000008208
 31
0.0
  0
LINE
  5
3ED
  8
1
  6
CONTINUOUS
 62
     7
 10
-448.2499999767413
 20
-644.2500000008208
 30
0.0
 11
-551.2499999767414
 21
-644.2500000008208
 31
0.0
  0
LINE
  5
3EE
  8
1
  6
CONTINUOUS
 62
     7
 10
-551.2499999767414
 20
-644.2500000008208
 30
0.0
 11
-553.2499999767414
 21
-644.2500000008208
 31
0.0
  0
LINE
  5
3EF
  8
1
  6
CONTINUOUS
 62
     7
 10
-553.2499999767414
 20
-644.2500000008208
 30
0.0
 11
-656.2499999767414
 21
-644.2500000008208
 31
0.0
  0
LINE
  5
3F0
  8
1
  6
CONTINUOUS
 62
     7
 10
-551.2499999767414
 20
-727.7500000008208
 30
0.0
 11
-551.2499999767414
 21
-715.7500000008208
 31
0.0
  0
LINE
  5
3F1
  8
1
  6
CONTINUOUS
 62
     7
 10
-551.2499999767414
 20
-715.7500000008208
 30
0.0
 11
-551.2499999767414
 21
-644.2500000008208
 31
0.0
  0
LINE
  5
3F2
  8
1
  6
CONTINUOUS
 62
     7
 10
-551.2499999767414
 20
-644.2500000008208
 30
0.0
 11
-551.2499999767414
 21
-632.2500000008207
 31
0.0
  0
LINE
  5
3F3
  8
1
  6
CONTINUOUS
 62
     7
 10
-553.2499999767414
 20
-632.2500000008207
 30
0.0
 11
-553.2499999767414
 21
-644.2500000008208
 31
0.0
  0
LINE
  5
3F4
  8
1
  6
CONTINUOUS
 62
     7
 10
-553.2499999767414
 20
-644.2500000008208
 30
0.0
 11
-553.2499999767414
 21
-715.7500000008208
 31
0.0
  0
LINE
  5
3F5
  8
1
  6
CONTINUOUS
 62
     7
 10
-553.2499999767414
 20
-715.7500000008208
 30
0.0
 11
-553.2499999767414
 21
-727.7500000008208
 31
0.0
  0
LINE
  5
3F6
  8
1
  6
CONTINUOUS
 62
     7
 10
-648.4833646462665
 20
-658.741769906239
 30
0.0
 11
-647.3639927328703
 21
-658.6438337958964
 31
0.0
  0
LINE
  5
3F7
  8
1
  6
CONTINUOUS
 62
     7
 10
-647.3639927328703
 20
-651.8397080568554
 30
0.0
 11
-648.4833646462665
 21
-651.7417719465128
 31
0.0
  0
ARC
  5
3F8
  8
1
  6
CONTINUOUS
 62
     7
 10
-647.4774642018484
 20
-657.3482235441387
 30
0.0
 40
1.300569764795849
 50
275.0080191734901
 51
344.2226502711375
  0
ARC
  5
3F9
  8
1
  6
CONTINUOUS
 62
     7
 10
-647.4774811813066
 20
-653.1353383904359
 30
0.0
 40
1.300591249245251
 50
15.80791680119048
 51
84.99263931975356
  0
ARC
  5
3FA
  8
1
  6
CONTINUOUS
 62
     7
 10
-654.883144273423
 20
-655.2417709263759
 30
0.0
 40
8.999999999999998
 50
13.63720060360984
 51
15.87317945088043
  0
ARC
  5
3FB
  8
1
  6
CONTINUOUS
 62
     7
 10
-654.883144273423
 20
-655.2417709263759
 30
0.0
 40
9.0
 50
344.1268205491196
 51
346.3627993963902
  0
LINE
  5
3FC
  8
1
  6
CONTINUOUS
 62
     7
 10
-648.4833646462665
 20
-708.2582280551286
 30
0.0
 11
-647.3639927328703
 21
-708.160291944786
 31
0.0
  0
LINE
  5
3FD
  8
1
  6
CONTINUOUS
 62
     7
 10
-647.3639927328703
 20
-701.3561662057451
 30
0.0
 11
-648.4833646462665
 21
-701.2582300954025
 31
0.0
  0
ARC
  5
3FE
  8
1
  6
CONTINUOUS
 62
     7
 10
-647.4774642018484
 20
-706.8646816930283
 30
0.0
 40
1.300569764795857
 50
275.0080191734907
 51
344.2226502711371
  0
ARC
  5
3FF
  8
1
  6
CONTINUOUS
 62
     7
 10
-647.4774811813066
 20
-702.6517965393255
 30
0.0
 40
1.300591249245254
 50
15.80791680119104
 51
84.99263931975356
  0
ARC
  5
400
  8
1
  6
CONTINUOUS
 62
     7
 10
-654.883144273423
 20
-704.7582290752655
 30
0.0
 40
9.000000000000002
 50
13.63720060360997
 51
15.87317945088068
  0
ARC
  5
401
  8
1
  6
CONTINUOUS
 62
     7
 10
-654.883144273423
 20
-704.7582290752655
 30
0.0
 40
8.999999999999996
 50
344.1268205491193
 51
346.3627993963901
  0
LINE
  5
402
  8
0
  6
CENTER
 62
     1
 10
-407.6
 20
-680.0000000008207
 30
0.0
 11
-352.5999999999999
 21
-680.0000000008207
 31
0.0
  0
LINE
  5
404
  8
0
  6
CENTER
 62
     1
 10
-679.2499999767414
 20
-680.0000000008207
 30
0.0
 11
-425.7499999767413
 21
-680.0000000008207
 31
0.0
  0
LINE
  5
405
  8
0
  6
CENTER
 62
     1
 10
-552.2499999767414
 20
-755.2500000008207
 30
0.0
 11
-552.2499999767414
 21
-604.7500000008208
 31
0.0
  0
LINE
  5
406
  8
0
  6
CENTER
 62
     1
 10
-552.2499999767414
 20
-575.1
 30
0.0
 11
-552.2499999767414
 21
-520.1000000000001
 31
0.0
  0
LINE
  5
407
  8
1
  6
CONTINUOUS
 62
     7
 10
-656.2499999767414
 20
-632.0000000008208
 30
0.0
 11
-656.2499999767414
 21
-728.0000000008207
 31
0.0
  0
ENDSEC
  0
EOF
