  0
SECTION
  2
HEADER
  9
$ACADVER
  1
AC1006
  9
$DWGCODEPAGE
  3
ansi_932
  9
$INSBASE
 10
0.0
 20
0.0
 30
0.0
  9
$EXTMIN
 10
371.6712798948038
 20
154.4741111522855
  9
$EXTMAX
 10
403.6712798948039
 20
307.1445217490968
  9
$LIMMIN
 10
0.0
 20
0.0
  9
$LIMMAX
 10
12.0
 20
9.0
  9
$ORTHOMODE
 70
     0
  9
$REGENMODE
 70
     1
  9
$FILLMODE
 70
     1
  9
$QTEXTMODE
 70
     0
  9
$MIRRTEXT
 70
     1
  9
$DRAGMODE
 70
     2
  9
$LTSCALE
 40
1.0
  9
$OSMODE
 70
    37
  9
$ATTMODE
 70
     1
  9
$TEXTSIZE
 40
0.2
  9
$TRACEWID
 40
0.05
  9
$TEXTSTYLE
  7
STANDARD
  9
$CLAYER
  8
0
  9
$CELTYPE
  6
BYLAYER
  9
$CECOLOR
 62
   256
  9
$DIMSCALE
 40
1.0
  9
$DIMASZ
 40
3.0
  9
$DIMEXO
 40
0.0625
  9
$DIMDLI
 40
0.38
  9
$DIMRND
 40
0.0
  9
$DIMDLE
 40
0.0
  9
$DIMEXE
 40
1.5
  9
$DIMTP
 40
0.0
  9
$DIMTM
 40
0.0
  9
$DIMTXT
 40
3.0
  9
$DIMCEN
 40
0.09
  9
$DIMTSZ
 40
0.0
  9
$DIMTOL
 70
     0
  9
$DIMLIM
 70
     0
  9
$DIMTIH
 70
     1
  9
$DIMTOH
 70
     1
  9
$DIMSE1
 70
     0
  9
$DIMSE2
 70
     0
  9
$DIMTAD
 70
     1
  9
$DIMZIN
 70
     0
  9
$DIMBLK
  1

  9
$DIMASO
 70
     1
  9
$DIMSHO
 70
     1
  9
$DIMPOST
  1

  9
$DIMAPOST
  1

  9
$DIMALT
 70
     0
  9
$DIMALTD
 70
     2
  9
$DIMALTF
 40
25.4
  9
$DIMLFAC
 40
1.0
  9
$DIMTOFL
 70
     0
  9
$DIMTVP
 40
0.0
  9
$DIMTIX
 70
     0
  9
$DIMSOXD
 70
     0
  9
$DIMSAH
 70
     0
  9
$DIMBLK1
  1

  9
$DIMBLK2
  1

  9
$LUNITS
 70
     2
  9
$LUPREC
 70
     4
  9
$SKETCHINC
 40
0.1
  9
$FILLETRAD
 40
0.5
  9
$AUNITS
 70
     0
  9
$AUPREC
 70
     0
  9
$MENU
  1
.
  9
$ELEVATION
 40
0.0
  9
$THICKNESS
 40
0.0
  9
$LIMCHECK
 70
     0
  9
$CHAMFERA
 40
0.0
  9
$CHAMFERB
 40
0.0
  9
$SKPOLY
 70
     0
  9
$TDCREATE
 40
2459475.534560289
  9
$TDUPDATE
 40
2459475.534560475
  9
$TDINDWG
 40
0.0000000116
  9
$TDUSRTIMER
 40
0.0000000116
  9
$USRTIMER
 70
     1
  9
$ANGBASE
 50
0.0
  9
$ANGDIR
 70
     0
  9
$PDMODE
 70
     0
  9
$PDSIZE
 40
0.0
  9
$PLINEWID
 40
0.0
  9
$COORDS
 70
     1
  9
$SPLFRAME
 70
     0
  9
$SPLINETYPE
 70
     6
  9
$SPLINESEGS
 70
     8
  9
$ATTDIA
 70
     0
  9
$ATTREQ
 70
     1
  9
$HANDLING
 70
     1
  9
$HANDSEED
  5
1BF
  9
$SURFTAB1
 70
     6
  9
$SURFTAB2
 70
     6
  9
$SURFTYPE
 70
     6
  9
$SURFU
 70
     6
  9
$SURFV
 70
     6
  9
$UCSNAME
  2

  9
$UCSORG
 10
0.0
 20
0.0
 30
0.0
  9
$UCSXDIR
 10
1.0
 20
0.0
 30
0.0
  9
$UCSYDIR
 10
0.0
 20
1.0
 30
0.0
  9
$USERI1
 70
     0
  9
$USERI2
 70
     0
  9
$USERI3
 70
     0
  9
$USERI4
 70
     0
  9
$USERI5
 70
     0
  9
$USERR1
 40
0.0
  9
$USERR2
 40
0.0
  9
$USERR3
 40
0.0
  9
$USERR4
 40
0.0
  9
$USERR5
 40
0.0
  9
$WORLDVIEW
 70
     1
  0
ENDSEC
  0
SECTION
  2
TABLES
  0
TABLE
  2
VPORT
 70
     1
  0
VPORT
  2
*ACTIVE
 70
     0
 10
0.0
 20
0.0
 11
1.0
 21
1.0
 12
387.6712798948039
 22
230.8093164506911
 13
0.0
 23
0.0
 14
0.5
 24
0.5
 15
0.5
 25
0.5
 16
0.0
 26
0.0
 36
1.0
 17
0.0
 27
0.0
 37
0.0
 40
152.6704105968113
 41
1.6
 42
50.0
 43
0.0
 44
0.0
 50
0.0
 51
0.0
 71
     0
 72
   100
 73
     1
 74
     3
 75
     0
 76
     0
 77
     0
 78
     0
  0
ENDTAB
  0
TABLE
  2
LTYPE
 70
     1
  0
LTYPE
  2
CONTINUOUS
 70
     0
  3
Solid line
 72
    65
 73
     0
 40
0.0
  0
ENDTAB
  0
TABLE
  2
LAYER
 70
     1
  0
LAYER
  2
0
 70
     0
 62
     7
  6
CONTINUOUS
  0
ENDTAB
  0
TABLE
  2
STYLE
 70
     2
  0
STYLE
  2
STANDARD
 70
     0
 40
0.0
 41
1.0
 50
0.0
 71
     0
 42
0.2
  3
txt
  4

  0
STYLE
  2
ＭＳ_ゴシック
 70
     0
 40
0.0
 41
1.0
 50
0.0
 71
     0
 42
0.2
  3
ＭＳ ゴシック.shx
  4

  0
ENDTAB
  0
TABLE
  2
VIEW
 70
     0
  0
ENDTAB
  0
TABLE
  2
UCS
 70
     0
  0
ENDTAB
  0
ENDSEC
  0
SECTION
  2
BLOCKS
  0
BLOCK
  8
0
  2
D_FRAME_VIEW_1330
 70
     0
 10
0.0
 20
0.0
 30
0.0
  0
POLYLINE
  5
70
  8
0
  6
CONTINUOUS
 62
     7
 66
     1
 10
0.0
 20
0.0
 30
0.0
  0
VERTEX
  5
11A
  8
0
  6
CONTINUOUS
 62
     7
 10
386.9285945986287
 20
292.3516731393392
 30
0.0
  0
VERTEX
  5
11B
  8
0
  6
CONTINUOUS
 62
     7
 10
386.7770803181562
 20
292.4760182667586
 30
0.0
  0
VERTEX
  5
11C
  8
0
  6
CONTINUOUS
 62
     7
 10
386.6042210566172
 20
292.5684138300966
 30
0.0
  0
VERTEX
  5
11D
  8
0
  6
CONTINUOUS
 62
     7
 10
386.4166575712044
 20
292.6253102567338
 30
0.0
  0
VERTEX
  5
11E
  8
0
  6
CONTINUOUS
 62
     7
 10
386.2215955132299
 20
292.6445217490968
 30
0.0
  0
SEQEND
  5
1AF
  8
0
  6
CONTINUOUS
 62
     7
  0
LINE
  5
71
  8
0
  6
CONTINUOUS
 62
     7
 10
381.4711275899602
 20
292.6445217490967
 30
0.0
 11
386.2215955132299
 21
292.6445217490967
 31
0.0
  0
POLYLINE
  5
72
  8
0
  6
CONTINUOUS
 62
     7
 66
     1
 10
0.0
 20
0.0
 30
0.0
  0
VERTEX
  5
11F
  8
0
  6
CONTINUOUS
 62
     7
 10
381.4711275899603
 20
292.6445217490968
 30
0.0
  0
VERTEX
  5
120
  8
0
  6
CONTINUOUS
 62
     7
 10
381.2760507580127
 20
292.6253115307146
 30
0.0
  0
VERTEX
  5
121
  8
0
  6
CONTINUOUS
 62
     7
 10
381.0884794239819
 20
292.5684188281375
 30
0.0
  0
VERTEX
  5
122
  8
0
  6
CONTINUOUS
 62
     7
 10
380.9156190628501
 20
292.4760291509329
 30
0.0
  0
VERTEX
  5
123
  8
0
  6
CONTINUOUS
 62
     7
 10
380.7641100336782
 20
292.3516916102225
 30
0.0
  0
VERTEX
  5
124
  8
0
  6
CONTINUOUS
 62
     7
 10
380.6397724929678
 20
292.2001825810506
 30
0.0
  0
VERTEX
  5
125
  8
0
  6
CONTINUOUS
 62
     7
 10
380.5473828157632
 20
292.0273222199187
 30
0.0
  0
VERTEX
  5
126
  8
0
  6
CONTINUOUS
 62
     7
 10
380.4904901131861
 20
291.839750885888
 30
0.0
  0
VERTEX
  5
127
  8
0
  6
CONTINUOUS
 62
     7
 10
380.4712798948039
 20
291.6446740539404
 30
0.0
  0
SEQEND
  5
1B0
  8
0
  6
CONTINUOUS
 62
     7
  0
LINE
  5
73
  8
0
  6
CONTINUOUS
 62
     7
 10
380.4712798948039
 20
276.3943694442531
 30
0.0
 11
380.4712798948039
 21
291.6446740539403
 31
0.0
  0
POLYLINE
  5
74
  8
0
  6
CONTINUOUS
 62
     7
 66
     1
 10
0.0
 20
0.0
 30
0.0
  0
VERTEX
  5
128
  8
0
  6
CONTINUOUS
 62
     7
 10
380.4712798948039
 20
276.3943694442532
 30
0.0
  0
VERTEX
  5
129
  8
0
  6
CONTINUOUS
 62
     7
 10
380.4904901131861
 20
276.1992926123056
 30
0.0
  0
VERTEX
  5
12A
  8
0
  6
CONTINUOUS
 62
     7
 10
380.5473828157632
 20
276.0117212782748
 30
0.0
  0
VERTEX
  5
12B
  8
0
  6
CONTINUOUS
 62
     7
 10
380.6397724929678
 20
275.838860917143
 30
0.0
  0
VERTEX
  5
12C
  8
0
  6
CONTINUOUS
 62
     7
 10
380.7641100336782
 20
275.6873518879711
 30
0.0
  0
VERTEX
  5
12D
  8
0
  6
CONTINUOUS
 62
     7
 10
380.9156190628501
 20
275.5630143472607
 30
0.0
  0
VERTEX
  5
12E
  8
0
  6
CONTINUOUS
 62
     7
 10
381.0884794239819
 20
275.4706246700561
 30
0.0
  0
VERTEX
  5
12F
  8
0
  6
CONTINUOUS
 62
     7
 10
381.2760507580127
 20
275.413731967479
 30
0.0
  0
VERTEX
  5
130
  8
0
  6
CONTINUOUS
 62
     7
 10
381.4711275899603
 20
275.3945217490968
 30
0.0
  0
SEQEND
  5
1B1
  8
0
  6
CONTINUOUS
 62
     7
  0
LINE
  5
75
  8
0
  6
CONTINUOUS
 62
     7
 10
392.1714321996474
 20
275.3945217490967
 30
0.0
 11
381.4711275899602
 21
275.3945217490967
 31
0.0
  0
POLYLINE
  5
76
  8
0
  6
CONTINUOUS
 62
     7
 66
     1
 10
0.0
 20
0.0
 30
0.0
  0
VERTEX
  5
131
  8
0
  6
CONTINUOUS
 62
     7
 10
392.1714321996475
 20
275.3945217490968
 30
0.0
  0
VERTEX
  5
132
  8
0
  6
CONTINUOUS
 62
     7
 10
392.3665090315951
 20
275.413731967479
 30
0.0
  0
VERTEX
  5
133
  8
0
  6
CONTINUOUS
 62
     7
 10
392.5540803656259
 20
275.4706246700561
 30
0.0
  0
VERTEX
  5
134
  8
0
  6
CONTINUOUS
 62
     7
 10
392.7269407267577
 20
275.5630143472607
 30
0.0
  0
VERTEX
  5
135
  8
0
  6
CONTINUOUS
 62
     7
 10
392.8784497559296
 20
275.6873518879711
 30
0.0
  0
VERTEX
  5
136
  8
0
  6
CONTINUOUS
 62
     7
 10
393.00278729664
 20
275.838860917143
 30
0.0
  0
VERTEX
  5
137
  8
0
  6
CONTINUOUS
 62
     7
 10
393.0951769738446
 20
276.0117212782748
 30
0.0
  0
VERTEX
  5
138
  8
0
  6
CONTINUOUS
 62
     7
 10
393.1520696764217
 20
276.1992926123056
 30
0.0
  0
VERTEX
  5
139
  8
0
  6
CONTINUOUS
 62
     7
 10
393.1712798948039
 20
276.3943694442532
 30
0.0
  0
SEQEND
  5
1B2
  8
0
  6
CONTINUOUS
 62
     7
  0
LINE
  5
77
  8
0
  6
CONTINUOUS
 62
     7
 10
393.1712798948039
 20
285.6948373675228
 30
0.0
 11
393.1712798948039
 21
276.3943694442531
 31
0.0
  0
POLYLINE
  5
78
  8
0
  6
CONTINUOUS
 62
     7
 66
     1
 10
0.0
 20
0.0
 30
0.0
  0
VERTEX
  5
13A
  8
0
  6
CONTINUOUS
 62
     7
 10
393.1712798948039
 20
285.6948373675228
 30
0.0
  0
VERTEX
  5
13B
  8
0
  6
CONTINUOUS
 62
     7
 10
393.1520684024409
 20
285.8898994254972
 30
0.0
  0
VERTEX
  5
13C
  8
0
  6
CONTINUOUS
 62
     7
 10
393.0951719758037
 20
286.0774629109101
 30
0.0
  0
VERTEX
  5
13D
  8
0
  6
CONTINUOUS
 62
     7
 10
393.0027764124657
 20
286.250322172449
 30
0.0
  0
VERTEX
  5
13E
  8
0
  6
CONTINUOUS
 62
     7
 10
392.8784312850463
 20
286.4018364529216
 30
0.0
  0
SEQEND
  5
1B3
  8
0
  6
CONTINUOUS
 62
     7
  0
LINE
  5
79
  8
0
  6
CONTINUOUS
 62
     7
 10
386.9285945986287
 20
292.3516731393392
 30
0.0
 11
392.8784312850464
 21
286.4018364529215
 31
0.0
  0
POLYLINE
  5
7A
  8
0
  6
CONTINUOUS
 62
     7
 66
     1
 10
0.0
 20
0.0
 30
0.0
  0
VERTEX
  5
13F
  8
0
  6
CONTINUOUS
 62
     7
 10
393.1712798948039
 20
247.8946740539403
 30
0.0
  0
VERTEX
  5
140
  8
0
  6
CONTINUOUS
 62
     7
 10
393.1520696764217
 20
248.0897508858879
 30
0.0
  0
VERTEX
  5
141
  8
0
  6
CONTINUOUS
 62
     7
 10
393.0951769738446
 20
248.2773222199187
 30
0.0
  0
VERTEX
  5
142
  8
0
  6
CONTINUOUS
 62
     7
 10
393.00278729664
 20
248.4501825810505
 30
0.0
  0
VERTEX
  5
143
  8
0
  6
CONTINUOUS
 62
     7
 10
392.8784497559296
 20
248.6016916102224
 30
0.0
  0
VERTEX
  5
144
  8
0
  6
CONTINUOUS
 62
     7
 10
392.7269407267577
 20
248.7260291509328
 30
0.0
  0
VERTEX
  5
145
  8
0
  6
CONTINUOUS
 62
     7
 10
392.5540803656259
 20
248.8184188281374
 30
0.0
  0
VERTEX
  5
146
  8
0
  6
CONTINUOUS
 62
     7
 10
392.3665090315951
 20
248.8753115307145
 30
0.0
  0
VERTEX
  5
147
  8
0
  6
CONTINUOUS
 62
     7
 10
392.1714321996475
 20
248.8945217490968
 30
0.0
  0
SEQEND
  5
1B4
  8
0
  6
CONTINUOUS
 62
     7
  0
LINE
  5
7B
  8
0
  6
CONTINUOUS
 62
     7
 10
392.1714321996474
 20
248.8945217490968
 30
0.0
 11
381.4711275899602
 21
248.8945217490968
 31
0.0
  0
POLYLINE
  5
7C
  8
0
  6
CONTINUOUS
 62
     7
 66
     1
 10
0.0
 20
0.0
 30
0.0
  0
VERTEX
  5
148
  8
0
  6
CONTINUOUS
 62
     7
 10
381.4711275899603
 20
248.8945217490968
 30
0.0
  0
VERTEX
  5
149
  8
0
  6
CONTINUOUS
 62
     7
 10
381.2760507580127
 20
248.8753115307145
 30
0.0
  0
VERTEX
  5
14A
  8
0
  6
CONTINUOUS
 62
     7
 10
381.0884794239819
 20
248.8184188281374
 30
0.0
  0
VERTEX
  5
14B
  8
0
  6
CONTINUOUS
 62
     7
 10
380.9156190628501
 20
248.7260291509329
 30
0.0
  0
VERTEX
  5
14C
  8
0
  6
CONTINUOUS
 62
     7
 10
380.7641100336782
 20
248.6016916102224
 30
0.0
  0
VERTEX
  5
14D
  8
0
  6
CONTINUOUS
 62
     7
 10
380.6397724929678
 20
248.4501825810505
 30
0.0
  0
VERTEX
  5
14E
  8
0
  6
CONTINUOUS
 62
     7
 10
380.5473828157632
 20
248.2773222199187
 30
0.0
  0
VERTEX
  5
14F
  8
0
  6
CONTINUOUS
 62
     7
 10
380.4904901131861
 20
248.089750885888
 30
0.0
  0
VERTEX
  5
150
  8
0
  6
CONTINUOUS
 62
     7
 10
380.4712798948039
 20
247.8946740539404
 30
0.0
  0
SEQEND
  5
1B5
  8
0
  6
CONTINUOUS
 62
     7
  0
LINE
  5
7D
  8
0
  6
CONTINUOUS
 62
     7
 10
380.4712798948039
 20
247.8946740539403
 30
0.0
 11
380.4712798948039
 21
232.6443694442532
 31
0.0
  0
POLYLINE
  5
7E
  8
0
  6
CONTINUOUS
 62
     7
 66
     1
 10
0.0
 20
0.0
 30
0.0
  0
VERTEX
  5
151
  8
0
  6
CONTINUOUS
 62
     7
 10
380.4712798948039
 20
232.6443694442531
 30
0.0
  0
VERTEX
  5
152
  8
0
  6
CONTINUOUS
 62
     7
 10
380.4904901131861
 20
232.4492926123056
 30
0.0
  0
VERTEX
  5
153
  8
0
  6
CONTINUOUS
 62
     7
 10
380.5473828157632
 20
232.2617212782748
 30
0.0
  0
VERTEX
  5
154
  8
0
  6
CONTINUOUS
 62
     7
 10
380.6397724929678
 20
232.088860917143
 30
0.0
  0
VERTEX
  5
155
  8
0
  6
CONTINUOUS
 62
     7
 10
380.7641100336782
 20
231.9373518879711
 30
0.0
  0
VERTEX
  5
156
  8
0
  6
CONTINUOUS
 62
     7
 10
380.9156190628501
 20
231.8130143472606
 30
0.0
  0
VERTEX
  5
157
  8
0
  6
CONTINUOUS
 62
     7
 10
381.0884794239819
 20
231.7206246700561
 30
0.0
  0
VERTEX
  5
158
  8
0
  6
CONTINUOUS
 62
     7
 10
381.2760507580127
 20
231.663731967479
 30
0.0
  0
VERTEX
  5
159
  8
0
  6
CONTINUOUS
 62
     7
 10
381.4711275899603
 20
231.6445217490967
 30
0.0
  0
SEQEND
  5
1B6
  8
0
  6
CONTINUOUS
 62
     7
  0
LINE
  5
7F
  8
0
  6
CONTINUOUS
 62
     7
 10
381.4711275899602
 20
231.6445217490968
 30
0.0
 11
386.2215955132299
 21
231.6445217490968
 31
0.0
  0
POLYLINE
  5
80
  8
0
  6
CONTINUOUS
 62
     7
 66
     1
 10
0.0
 20
0.0
 30
0.0
  0
VERTEX
  5
15A
  8
0
  6
CONTINUOUS
 62
     7
 10
386.2215955132299
 20
231.6445217490967
 30
0.0
  0
VERTEX
  5
15B
  8
0
  6
CONTINUOUS
 62
     7
 10
386.4166575712044
 20
231.6637332414597
 30
0.0
  0
VERTEX
  5
15C
  8
0
  6
CONTINUOUS
 62
     7
 10
386.6042210566172
 20
231.720629668097
 30
0.0
  0
VERTEX
  5
15D
  8
0
  6
CONTINUOUS
 62
     7
 10
386.7770803181562
 20
231.8130252314349
 30
0.0
  0
VERTEX
  5
15E
  8
0
  6
CONTINUOUS
 62
     7
 10
386.9285945986287
 20
231.9373703588543
 30
0.0
  0
SEQEND
  5
1B7
  8
0
  6
CONTINUOUS
 62
     7
  0
LINE
  5
81
  8
0
  6
CONTINUOUS
 62
     7
 10
386.9285945986287
 20
231.9373703588543
 30
0.0
 11
392.8784312850463
 21
237.8872070452719
 31
0.0
  0
POLYLINE
  5
82
  8
0
  6
CONTINUOUS
 62
     7
 66
     1
 10
0.0
 20
0.0
 30
0.0
  0
VERTEX
  5
15F
  8
0
  6
CONTINUOUS
 62
     7
 10
392.8784312850463
 20
237.8872070452719
 30
0.0
  0
VERTEX
  5
160
  8
0
  6
CONTINUOUS
 62
     7
 10
393.0027764124657
 20
238.0387213257445
 30
0.0
  0
VERTEX
  5
161
  8
0
  6
CONTINUOUS
 62
     7
 10
393.0951719758037
 20
238.2115805872834
 30
0.0
  0
VERTEX
  5
162
  8
0
  6
CONTINUOUS
 62
     7
 10
393.1520684024409
 20
238.3991440726963
 30
0.0
  0
VERTEX
  5
163
  8
0
  6
CONTINUOUS
 62
     7
 10
393.1712798948039
 20
238.5942061306708
 30
0.0
  0
SEQEND
  5
1B8
  8
0
  6
CONTINUOUS
 62
     7
  0
LINE
  5
83
  8
0
  6
CONTINUOUS
 62
     7
 10
393.1712798948039
 20
238.5942061306708
 30
0.0
 11
393.1712798948039
 21
247.8946740539403
 31
0.0
  0
LINE
  5
84
  8
0
  6
CONTINUOUS
 62
     7
 10
372.6712798948039
 20
299.1445217490963
 30
0.0
 11
375.1712798948039
 21
299.1445217490963
 31
0.0
  0
LINE
  5
85
  8
0
  6
CONTINUOUS
 62
     7
 10
375.1712798948038
 20
299.1445217490963
 30
0.0
 11
375.1712798948038
 21
303.1445217490963
 31
0.0
  0
LINE
  5
86
  8
0
  6
CONTINUOUS
 62
     7
 10
372.6712798948039
 20
303.1445217490963
 30
0.0
 11
375.1712798948039
 21
303.1445217490963
 31
0.0
  0
LINE
  5
87
  8
0
  6
CONTINUOUS
 62
     7
 10
372.6712798948039
 20
303.1445217490963
 30
0.0
 11
372.6712798948039
 21
307.1445217490968
 31
0.0
  0
LINE
  5
88
  8
0
  6
CONTINUOUS
 62
     7
 10
372.6712798948039
 20
307.1445217490968
 30
0.0
 11
373.9108812501058
 21
307.1445217490968
 31
0.0
  0
ARC
  5
89
  8
0
  6
CONTINUOUS
 62
     7
 10
373.9108812501058
 20
304.1445217490968
 30
0.0
 40
3.000000000000001
 50
4.76364169072622
 51
90.00000000000011
  0
LINE
  5
8A
  8
0
  6
CONTINUOUS
 62
     7
 10
376.9005185248404
 20
304.393658188658
 30
0.0
 11
377.4420412647673
 21
297.8953853095355
 31
0.0
  0
ARC
  5
8B
  8
0
  6
CONTINUOUS
 62
     7
 10
380.431678539502
 20
298.1445217490968
 30
0.0
 40
3.000000000000003
 50
184.7636416907262
 51
269.9999999999999
  0
LINE
  5
8C
  8
0
  6
CONTINUOUS
 62
     7
 10
380.431678539502
 20
295.1445217490968
 30
0.0
 11
386.4286392076846
 21
295.1445217490968
 31
0.0
  0
ARC
  5
8D
  8
0
  6
CONTINUOUS
 62
     7
 10
386.4286392076846
 20
292.1445217490968
 30
0.0
 40
2.999999999999989
 50
45.0
 51
90.00000000000026
  0
LINE
  5
8E
  8
0
  6
CONTINUOUS
 62
     7
 10
388.5499595512443
 20
294.2658420926564
 30
0.0
 11
393.6712798948039
 21
289.1445217490968
 31
0.0
  0
LINE
  5
8F
  8
0
  6
CONTINUOUS
 62
     7
 10
395.6712798948039
 20
285.1445217490968
 30
0.0
 11
395.6712798948039
 21
268.1445217490967
 31
0.0
  0
LINE
  5
90
  8
0
  6
CONTINUOUS
 62
     9
 10
393.1712798948039
 20
268.1445217490967
 30
0.0
 11
395.6712798948039
 21
268.1445217490967
 31
0.0
  0
LINE
  5
91
  8
0
  6
CONTINUOUS
 62
     7
 10
393.1712798948039
 20
271.8946740539404
 30
0.0
 11
393.1712798948039
 21
268.1445217490967
 31
0.0
  0
POLYLINE
  5
92
  8
0
  6
CONTINUOUS
 62
     7
 66
     1
 10
0.0
 20
0.0
 30
0.0
  0
VERTEX
  5
164
  8
0
  6
CONTINUOUS
 62
     7
 10
393.1712798948039
 20
271.8946740539403
 30
0.0
  0
VERTEX
  5
165
  8
0
  6
CONTINUOUS
 62
     7
 10
393.1520696764217
 20
272.089750885888
 30
0.0
  0
VERTEX
  5
166
  8
0
  6
CONTINUOUS
 62
     7
 10
393.0951769738446
 20
272.2773222199187
 30
0.0
  0
VERTEX
  5
167
  8
0
  6
CONTINUOUS
 62
     7
 10
393.00278729664
 20
272.4501825810505
 30
0.0
  0
VERTEX
  5
168
  8
0
  6
CONTINUOUS
 62
     7
 10
392.8784497559296
 20
272.6016916102224
 30
0.0
  0
VERTEX
  5
169
  8
0
  6
CONTINUOUS
 62
     7
 10
392.7269407267577
 20
272.7260291509328
 30
0.0
  0
VERTEX
  5
16A
  8
0
  6
CONTINUOUS
 62
     7
 10
392.5540803656259
 20
272.8184188281374
 30
0.0
  0
VERTEX
  5
16B
  8
0
  6
CONTINUOUS
 62
     7
 10
392.3665090315951
 20
272.8753115307145
 30
0.0
  0
VERTEX
  5
16C
  8
0
  6
CONTINUOUS
 62
     7
 10
392.1714321996475
 20
272.8945217490968
 30
0.0
  0
SEQEND
  5
1B9
  8
0
  6
CONTINUOUS
 62
     7
  0
LINE
  5
93
  8
0
  6
CONTINUOUS
 62
     7
 10
381.4711275899602
 20
272.8945217490968
 30
0.0
 11
392.1714321996474
 21
272.8945217490968
 31
0.0
  0
POLYLINE
  5
94
  8
0
  6
CONTINUOUS
 62
     7
 66
     1
 10
0.0
 20
0.0
 30
0.0
  0
VERTEX
  5
16D
  8
0
  6
CONTINUOUS
 62
     7
 10
381.4711275899602
 20
272.8945217490968
 30
0.0
  0
VERTEX
  5
16E
  8
0
  6
CONTINUOUS
 62
     7
 10
381.2760507580127
 20
272.8753115307145
 30
0.0
  0
VERTEX
  5
16F
  8
0
  6
CONTINUOUS
 62
     7
 10
381.0884794239819
 20
272.8184188281374
 30
0.0
  0
VERTEX
  5
170
  8
0
  6
CONTINUOUS
 62
     7
 10
380.9156190628501
 20
272.7260291509328
 30
0.0
  0
VERTEX
  5
171
  8
0
  6
CONTINUOUS
 62
     7
 10
380.7641100336782
 20
272.6016916102224
 30
0.0
  0
VERTEX
  5
172
  8
0
  6
CONTINUOUS
 62
     7
 10
380.6397724929678
 20
272.4501825810505
 30
0.0
  0
VERTEX
  5
173
  8
0
  6
CONTINUOUS
 62
     7
 10
380.5473828157632
 20
272.2773222199187
 30
0.0
  0
VERTEX
  5
174
  8
0
  6
CONTINUOUS
 62
     7
 10
380.4904901131861
 20
272.089750885888
 30
0.0
  0
VERTEX
  5
175
  8
0
  6
CONTINUOUS
 62
     7
 10
380.4712798948038
 20
271.8946740539404
 30
0.0
  0
SEQEND
  5
1BA
  8
0
  6
CONTINUOUS
 62
     7
  0
LINE
  5
95
  8
0
  6
CONTINUOUS
 62
     7
 10
380.4712798948039
 20
252.3943694442531
 30
0.0
 11
380.4712798948039
 21
271.8946740539404
 31
0.0
  0
POLYLINE
  5
96
  8
0
  6
CONTINUOUS
 62
     7
 66
     1
 10
0.0
 20
0.0
 30
0.0
  0
VERTEX
  5
176
  8
0
  6
CONTINUOUS
 62
     7
 10
380.4712798948039
 20
252.3943694442531
 30
0.0
  0
VERTEX
  5
177
  8
0
  6
CONTINUOUS
 62
     7
 10
380.4904901131861
 20
252.1992926123056
 30
0.0
  0
VERTEX
  5
178
  8
0
  6
CONTINUOUS
 62
     7
 10
380.5473828157632
 20
252.0117212782748
 30
0.0
  0
VERTEX
  5
179
  8
0
  6
CONTINUOUS
 62
     7
 10
380.6397724929678
 20
251.838860917143
 30
0.0
  0
VERTEX
  5
17A
  8
0
  6
CONTINUOUS
 62
     7
 10
380.7641100336782
 20
251.6873518879711
 30
0.0
  0
VERTEX
  5
17B
  8
0
  6
CONTINUOUS
 62
     7
 10
380.9156190628501
 20
251.5630143472606
 30
0.0
  0
VERTEX
  5
17C
  8
0
  6
CONTINUOUS
 62
     7
 10
381.0884794239819
 20
251.4706246700561
 30
0.0
  0
VERTEX
  5
17D
  8
0
  6
CONTINUOUS
 62
     7
 10
381.2760507580127
 20
251.413731967479
 30
0.0
  0
VERTEX
  5
17E
  8
0
  6
CONTINUOUS
 62
     7
 10
381.4711275899603
 20
251.3945217490967
 30
0.0
  0
SEQEND
  5
1BB
  8
0
  6
CONTINUOUS
 62
     7
  0
LINE
  5
97
  8
0
  6
CONTINUOUS
 62
     7
 10
381.4711275899602
 20
251.3945217490967
 30
0.0
 11
392.1714321996474
 21
251.3945217490967
 31
0.0
  0
POLYLINE
  5
98
  8
0
  6
CONTINUOUS
 62
     7
 66
     1
 10
0.0
 20
0.0
 30
0.0
  0
VERTEX
  5
17F
  8
0
  6
CONTINUOUS
 62
     7
 10
392.1714321996475
 20
251.3945217490967
 30
0.0
  0
VERTEX
  5
180
  8
0
  6
CONTINUOUS
 62
     7
 10
392.3665090315951
 20
251.413731967479
 30
0.0
  0
VERTEX
  5
181
  8
0
  6
CONTINUOUS
 62
     7
 10
392.5540803656259
 20
251.4706246700561
 30
0.0
  0
VERTEX
  5
182
  8
0
  6
CONTINUOUS
 62
     7
 10
392.7269407267577
 20
251.5630143472606
 30
0.0
  0
VERTEX
  5
183
  8
0
  6
CONTINUOUS
 62
     7
 10
392.8784497559296
 20
251.6873518879711
 30
0.0
  0
VERTEX
  5
184
  8
0
  6
CONTINUOUS
 62
     7
 10
393.00278729664
 20
251.838860917143
 30
0.0
  0
VERTEX
  5
185
  8
0
  6
CONTINUOUS
 62
     7
 10
393.0951769738446
 20
252.0117212782748
 30
0.0
  0
VERTEX
  5
186
  8
0
  6
CONTINUOUS
 62
     7
 10
393.1520696764217
 20
252.1992926123056
 30
0.0
  0
VERTEX
  5
187
  8
0
  6
CONTINUOUS
 62
     7
 10
393.1712798948039
 20
252.3943694442531
 30
0.0
  0
SEQEND
  5
1BC
  8
0
  6
CONTINUOUS
 62
     7
  0
LINE
  5
99
  8
0
  6
CONTINUOUS
 62
     7
 10
393.1712798948039
 20
252.3943694442531
 30
0.0
 11
393.1712798948039
 21
256.1445217490967
 31
0.0
  0
LINE
  5
9A
  8
0
  6
CONTINUOUS
 62
     9
 10
393.1712798948039
 20
256.1445217490967
 30
0.0
 11
395.6712798948039
 21
256.1445217490967
 31
0.0
  0
LINE
  5
9B
  8
0
  6
CONTINUOUS
 62
     7
 10
395.6712798948039
 20
239.1445217490967
 30
0.0
 11
395.6712798948039
 21
256.1445217490967
 31
0.0
  0
LINE
  5
9C
  8
0
  6
CONTINUOUS
 62
     7
 10
388.5499595512443
 20
230.0232014055371
 30
0.0
 11
393.6712798948039
 21
235.1445217490967
 31
0.0
  0
ARC
  5
9D
  8
0
  6
CONTINUOUS
 62
     7
 10
386.4286392076846
 20
232.1445217490967
 30
0.0
 40
2.999999999999989
 50
269.9999999999998
 51
315.0
  0
LINE
  5
9E
  8
0
  6
CONTINUOUS
 62
     7
 10
380.431678539502
 20
229.1445217490967
 30
0.0
 11
386.4286392076846
 21
229.1445217490967
 31
0.0
  0
ARC
  5
9F
  8
0
  6
CONTINUOUS
 62
     7
 10
380.431678539502
 20
226.1445217490967
 30
0.0
 40
3.000000000000003
 50
90.00000000000009
 51
175.2363583092737
  0
LINE
  5
A0
  8
0
  6
CONTINUOUS
 62
     7
 10
376.9005185248404
 20
219.8953853095355
 30
0.0
 11
377.4420412647673
 21
226.393658188658
 31
0.0
  0
ARC
  5
A1
  8
0
  6
CONTINUOUS
 62
     7
 10
373.9108812501058
 20
220.1445217490967
 30
0.0
 40
3.000000000000001
 50
269.9999999999999
 51
355.2363583092738
  0
LINE
  5
A2
  8
0
  6
CONTINUOUS
 62
     7
 10
372.6712798948039
 20
217.1445217490967
 30
0.0
 11
373.9108812501058
 21
217.1445217490967
 31
0.0
  0
LINE
  5
A3
  8
0
  6
CONTINUOUS
 62
     7
 10
372.6712798948039
 20
221.1445217490971
 30
0.0
 11
372.6712798948039
 21
217.1445217490967
 31
0.0
  0
LINE
  5
A4
  8
0
  6
CONTINUOUS
 62
     7
 10
372.6712798948039
 20
221.1445217490971
 30
0.0
 11
375.1712798948039
 21
221.1445217490971
 31
0.0
  0
LINE
  5
A5
  8
0
  6
CONTINUOUS
 62
     7
 10
375.1712798948038
 20
225.1445217490972
 30
0.0
 11
375.1712798948038
 21
221.1445217490971
 31
0.0
  0
LINE
  5
A6
  8
0
  6
CONTINUOUS
 62
     7
 10
372.6712798948039
 20
225.1445217490972
 30
0.0
 11
375.1712798948039
 21
225.1445217490972
 31
0.0
  0
LINE
  5
A7
  8
0
  6
CONTINUOUS
 62
     7
 10
372.6712798948039
 20
237.6445217490967
 30
0.0
 11
372.6712798948039
 21
225.1445217490972
 31
0.0
  0
LINE
  5
A8
  8
0
  6
CONTINUOUS
 62
     9
 10
377.9712798948039
 20
237.6445217490967
 30
0.0
 11
372.6712798948039
 21
237.6445217490967
 31
0.0
  0
LINE
  5
A9
  8
0
  6
CONTINUOUS
 62
     7
 10
377.9712798948039
 20
260.6445217490967
 30
0.0
 11
377.9712798948039
 21
237.6445217490967
 31
0.0
  0
LINE
  5
AA
  8
0
  6
CONTINUOUS
 62
     9
 10
372.6712798948039
 20
260.6445217490967
 30
0.0
 11
377.9712798948039
 21
260.6445217490967
 31
0.0
  0
LINE
  5
AB
  8
0
  6
CONTINUOUS
 62
     7
 10
372.6712798948039
 20
260.6445217490967
 30
0.0
 11
372.6712798948039
 21
262.1445217490967
 31
0.0
  0
LINE
  5
AC
  8
0
  6
CONTINUOUS
 62
     7
 10
372.6712798948039
 20
262.1445217490967
 30
0.0
 11
372.6712798948038
 21
267.1445217490966
 31
0.0
  0
LINE
  5
AD
  8
0
  6
CONTINUOUS
 62
     7
 10
372.6712798948038
 20
294.6445217490967
 30
0.0
 11
372.6712798948039
 21
299.1445217490963
 31
0.0
  0
LINE
  5
AE
  8
0
  6
CONTINUOUS
 62
     7
 10
377.9712798948039
 20
255.748566703973
 30
0.0
 11
372.6712798948039
 21
255.748566703973
 31
0.0
  0
LINE
  5
AF
  8
0
  6
CONTINUOUS
 62
     7
 10
372.6712798948039
 20
255.748566703973
 30
0.0
 11
372.6712798948039
 21
260.6445217490967
 31
0.0
  0
LINE
  5
B0
  8
0
  6
CONTINUOUS
 62
     7
 10
372.6712798948039
 20
237.6445217490967
 30
0.0
 11
372.6712798948039
 21
242.5404767942205
 31
0.0
  0
LINE
  5
B1
  8
0
  6
CONTINUOUS
 62
     7
 10
372.6712798948039
 20
242.5404767942205
 30
0.0
 11
377.9712798948039
 21
242.5404767942206
 31
0.0
  0
LINE
  5
B2
  8
0
  6
CONTINUOUS
 62
     7
 10
393.2061900246603
 20
258.1445217490967
 30
0.0
 11
393.1712798948038
 21
256.1445217490967
 31
0.0
  0
LINE
  5
B3
  8
0
  6
CONTINUOUS
 62
     7
 10
395.6712798948039
 20
258.1445217490967
 30
0.0
 11
393.2061900246603
 21
258.1445217490967
 31
0.0
  0
LINE
  5
B4
  8
0
  6
CONTINUOUS
 62
     7
 10
395.6712798948039
 20
256.1445217490967
 30
0.0
 11
395.6712798948039
 21
258.1445217490967
 31
0.0
  0
LINE
  5
B5
  8
0
  6
CONTINUOUS
 62
     7
 10
395.6712798948039
 20
266.1445217490967
 30
0.0
 11
393.2061900246603
 21
266.1445217490967
 31
0.0
  0
LINE
  5
B6
  8
0
  6
CONTINUOUS
 62
     7
 10
393.2061900246603
 20
266.1445217490967
 30
0.0
 11
393.1712798948038
 21
268.1445217490967
 31
0.0
  0
LINE
  5
B7
  8
0
  6
CONTINUOUS
 62
     7
 10
395.6712798948039
 20
268.1445217490967
 30
0.0
 11
395.6712798948039
 21
266.1445217490967
 31
0.0
  0
LINE
  5
B8
  8
0
  6
CONTINUOUS
 62
     7
 10
394.1712798948039
 20
235.6445217490967
 30
0.0
 11
393.6712798948039
 21
235.1445217490967
 31
0.0
  0
LINE
  5
B9
  8
0
  6
CONTINUOUS
 62
     7
 10
395.6712798948039
 20
285.6445217490968
 30
0.0
 11
395.6712798948039
 21
285.1445217490968
 31
0.0
  0
LINE
  5
BA
  8
0
  6
CONTINUOUS
 62
     7
 10
393.6712798948039
 20
289.1445217490968
 30
0.0
 11
394.1712798948039
 21
288.6445217490968
 31
0.0
  0
LINE
  5
BB
  8
0
  6
CONTINUOUS
 62
     7
 10
395.6712798948039
 20
239.1445217490967
 30
0.0
 11
395.6712798948039
 21
238.6445217490967
 31
0.0
  0
LINE
  5
BC
  8
0
  6
CONTINUOUS
 62
     7
 10
372.6712798948038
 20
267.1445217490966
 30
0.0
 11
372.6712798948038
 21
294.6445217490967
 31
0.0
  0
LINE
  5
BD
  8
0
  6
CONTINUOUS
 62
     7
 10
403.6712798948039
 20
283.3945217490967
 30
0.0
 11
402.1712798948039
 21
283.3945217490967
 31
0.0
  0
LINE
  5
BE
  8
0
  6
CONTINUOUS
 62
     7
 10
402.1712798948039
 20
283.3945217490967
 30
0.0
 11
402.1712798948039
 21
290.8945217490967
 31
0.0
  0
LINE
  5
BF
  8
0
  6
CONTINUOUS
 62
     7
 10
403.6712798948039
 20
290.8945217490967
 30
0.0
 11
402.1712798948039
 21
290.8945217490967
 31
0.0
  0
LINE
  5
C0
  8
0
  6
CONTINUOUS
 62
     7
 10
403.6712798948039
 20
283.3945217490967
 30
0.0
 11
403.6712798948039
 21
290.8945217490967
 31
0.0
  0
LINE
  5
C1
  8
0
  6
CONTINUOUS
 62
     7
 10
403.6712798948039
 20
240.8945217490968
 30
0.0
 11
402.1712798948039
 21
240.8945217490968
 31
0.0
  0
LINE
  5
C2
  8
0
  6
CONTINUOUS
 62
     7
 10
403.6712798948039
 20
240.8945217490968
 30
0.0
 11
403.6712798948039
 21
233.3945217490968
 31
0.0
  0
LINE
  5
C3
  8
0
  6
CONTINUOUS
 62
     7
 10
403.6712798948039
 20
233.3945217490968
 30
0.0
 11
402.1712798948039
 21
233.3945217490968
 31
0.0
  0
LINE
  5
C4
  8
0
  6
CONTINUOUS
 62
     7
 10
402.1712798948039
 20
240.8945217490968
 30
0.0
 11
402.1712798948039
 21
233.3945217490968
 31
0.0
  0
ARC
  5
C5
  8
0
  6
CONTINUOUS
 62
     7
 10
392.6712798948039
 20
285.9018810619775
 30
0.0
 40
2.999999999999989
 50
0.0
 51
44.99999999999989
  0
LINE
  5
C6
  8
0
  6
CONTINUOUS
 62
     7
 10
394.7926002383635
 20
288.0232014055371
 30
0.0
 11
394.1712798948039
 21
288.6445217490968
 31
0.0
  0
LINE
  5
C7
  8
0
  6
CONTINUOUS
 62
     7
 10
395.6712798948039
 20
285.9018810619775
 30
0.0
 11
395.6712798948039
 21
285.6445217490967
 31
0.0
  0
ARC
  5
C8
  8
0
  6
CONTINUOUS
 62
     7
 10
392.6712798948039
 20
238.387162436216
 30
0.0
 40
3.000000000000003
 50
315.0
 51
0.0
  0
LINE
  5
C9
  8
0
  6
CONTINUOUS
 62
     7
 10
394.1712798948039
 20
235.6445217490967
 30
0.0
 11
394.7926002383635
 21
236.2658420926564
 31
0.0
  0
LINE
  5
CA
  8
0
  6
CONTINUOUS
 62
     7
 10
395.6712798948039
 20
238.387162436216
 30
0.0
 11
395.6712798948039
 21
238.6445217490968
 31
0.0
  0
LINE
  5
CB
  8
0
  6
CONTINUOUS
 62
     7
 10
400.1712798948039
 20
288.5945217490967
 30
0.0
 11
398.1712798948039
 21
288.5945217490967
 31
0.0
  0
LINE
  5
CC
  8
0
  6
CONTINUOUS
 62
     7
 10
400.1712798948039
 20
285.6945217490967
 30
0.0
 11
398.1712798948039
 21
285.6945217490967
 31
0.0
  0
LINE
  5
CD
  8
0
  6
CONTINUOUS
 62
     7
 10
400.1712798948039
 20
238.5945217490967
 30
0.0
 11
398.1712798948039
 21
238.5945217490967
 31
0.0
  0
LINE
  5
CE
  8
0
  6
CONTINUOUS
 62
     7
 10
400.1712798948039
 20
235.6945217490967
 30
0.0
 11
398.1712798948039
 21
235.6945217490967
 31
0.0
  0
ARC
  5
CF
  8
0
  6
CONTINUOUS
 62
     7
 10
278.7659072825509
 20
262.1445217490967
 30
0.0
 40
114.6148333913916
 50
358.0000000000003
 51
1.999999999999943
  0
LINE
  5
D0
  8
0
  6
CONTINUOUS
 62
     7
 10
395.6712798948039
 20
258.1445217490967
 30
0.0
 11
395.6712798948039
 21
266.1445217490967
 31
0.0
  0
LINE
  5
D1
  8
0
  6
CONTINUOUS
 62
     7
 10
398.1712798948039
 20
285.6945217490967
 30
0.0
 11
395.6712798948039
 21
285.6945217490965
 31
0.0
  0
LINE
  5
D2
  8
0
  6
CONTINUOUS
 62
     7
 10
398.1712798948039
 20
238.594521749097
 30
0.0
 11
395.6712798948039
 21
238.594521749097
 31
0.0
  0
LINE
  5
D3
  8
0
  6
CONTINUOUS
 62
     7
 10
402.1712798948038
 20
238.594521749097
 30
0.0
 11
400.1712798948039
 21
238.594521749097
 31
0.0
  0
LINE
  5
D4
  8
0
  6
CONTINUOUS
 62
     7
 10
394.2212798948041
 20
235.694521749097
 30
0.0
 11
398.1712798948039
 21
235.6945217490967
 31
0.0
  0
LINE
  5
D5
  8
0
  6
CONTINUOUS
 62
     7
 10
400.1712798948039
 20
288.5945217490965
 30
0.0
 11
402.1712798948038
 21
288.5945217490965
 31
0.0
  0
LINE
  5
D6
  8
0
  6
CONTINUOUS
 62
     7
 10
402.1712798948038
 20
285.6945217490965
 30
0.0
 11
400.1712798948039
 21
285.6945217490965
 31
0.0
  0
LINE
  5
D7
  8
0
  6
CONTINUOUS
 62
     7
 10
400.1712798948039
 20
235.694521749097
 30
0.0
 11
402.1712798948038
 21
235.694521749097
 31
0.0
  0
LINE
  5
D8
  8
0
  6
CONTINUOUS
 62
     7
 10
394.2212798948041
 20
288.5945217490965
 30
0.0
 11
398.1712798948039
 21
288.5945217490965
 31
0.0
  0
LINE
  5
D9
  8
0
  6
CONTINUOUS
 62
     7
 10
372.6712798948039
 20
225.1445217490972
 30
0.0
 11
372.6712798948039
 21
221.1445217490972
 31
0.0
  0
LINE
  5
DA
  8
0
  6
CONTINUOUS
 62
     7
 10
372.6712798948039
 20
299.1445217490963
 30
0.0
 11
372.6712798948039
 21
303.1445217490963
 31
0.0
  0
ENDBLK
  8
0
  0
BLOCK
  8
0
  2
D_FRAME_VIEW_1791
 70
     0
 10
0.0
 20
0.0
 30
0.0
  0
LINE
  5
DF
  8
0
  6
CONTINUOUS
 62
     7
 10
372.6712798948039
 20
176.8067651579202
 30
0.0
 11
373.9108812501058
 21
176.8067651579202
 31
0.0
  0
LINE
  5
E0
  8
0
  6
CONTINUOUS
 62
     7
 10
372.6712798948039
 20
176.8067651579202
 30
0.0
 11
372.6712798948039
 21
196.8067651579202
 31
0.0
  0
LINE
  5
E1
  8
0
  6
CONTINUOUS
 62
     7
 10
372.6712798948039
 20
196.8067651579202
 30
0.0
 11
373.9108812501058
 21
196.8067651579202
 31
0.0
  0
LINE
  5
E2
  8
0
  6
CONTINUOUS
 62
     7
 10
373.9108812501058
 20
176.8067651579202
 30
0.0
 11
376.9005185248405
 21
176.8067651579202
 31
0.0
  0
LINE
  5
E3
  8
0
  6
CONTINUOUS
 62
     7
 10
376.9005185248404
 20
196.8067651579202
 30
0.0
 11
373.9108812501058
 21
196.8067651579202
 31
0.0
  0
LINE
  5
E4
  8
0
  6
CONTINUOUS
 62
     7
 10
376.9005185248404
 20
176.8067651579202
 30
0.0
 11
377.0046132281372
 21
176.8067651579202
 31
0.0
  0
LINE
  5
E5
  8
0
  6
CONTINUOUS
 62
     7
 10
377.3379465614706
 20
176.8067651579202
 30
0.0
 11
377.4420412647673
 21
176.8067651579202
 31
0.0
  0
LINE
  5
E6
  8
0
  6
CONTINUOUS
 62
     7
 10
376.9005185248404
 20
196.8067651579202
 30
0.0
 11
377.4420412647673
 21
196.8067651579202
 31
0.0
  0
LINE
  5
E7
  8
0
  6
CONTINUOUS
 62
     7
 10
377.3379465614706
 20
176.8067651579202
 30
0.0
 11
377.0046132281372
 21
176.8067651579202
 31
0.0
  0
LINE
  5
E8
  8
0
  6
CONTINUOUS
 62
     9
 10
380.431678539502
 20
176.8067651579202
 30
0.0
 11
380.431678539502
 21
196.8067651579202
 31
0.0
  0
LINE
  5
E9
  8
0
  6
CONTINUOUS
 62
     7
 10
380.431678539502
 20
176.8067651579202
 30
0.0
 11
377.4420412647673
 21
176.8067651579202
 31
0.0
  0
LINE
  5
EA
  8
0
  6
CONTINUOUS
 62
     7
 10
377.4420412647673
 20
196.8067651579202
 30
0.0
 11
380.431678539502
 21
196.8067651579202
 31
0.0
  0
LINE
  5
EB
  8
0
  6
CONTINUOUS
 62
     7
 10
383.5499595512443
 20
175.9280855014798
 30
0.0
 11
386.4286392076846
 21
173.0494058450394
 31
0.0
  0
ARC
  5
EC
  8
0
  6
CONTINUOUS
 62
     7
 10
381.4286392076846
 20
173.8067651579202
 30
0.0
 40
3.000000000000003
 50
44.99999999999995
 51
90.0
  0
LINE
  5
ED
  8
0
  6
CONTINUOUS
 62
     7
 10
380.431678539502
 20
176.8067651579202
 30
0.0
 11
381.4286392076846
 21
176.8067651579202
 31
0.0
  0
LINE
  5
EE
  8
0
  6
CONTINUOUS
 62
     7
 10
380.431678539502
 20
196.8067651579202
 30
0.0
 11
386.4286392076846
 21
196.8067651579202
 31
0.0
  0
LINE
  5
EF
  8
0
  6
CONTINUOUS
 62
     7
 10
386.4286392076846
 20
173.0494058450394
 30
0.0
 11
388.5499595512443
 21
170.9280855014798
 31
0.0
  0
LINE
  5
F0
  8
0
  6
CONTINUOUS
 62
     7
 10
388.5499595512443
 20
196.8067651579202
 30
0.0
 11
386.4286392076846
 21
196.8067651579202
 31
0.0
  0
LINE
  5
F1
  8
0
  6
CONTINUOUS
 62
     7
 10
394.1712798948039
 20
191.8067651579201
 30
0.0
 11
394.7926002383635
 21
191.8067651579201
 31
0.0
  0
ARC
  5
F2
  8
0
  6
CONTINUOUS
 62
     7
 10
395.6712798948042
 20
188.8067651579204
 30
0.0
 40
2.000000000000013
 50
116.0617671686892
 51
128.6821874534896
  0
LINE
  5
F3
  8
0
  6
CONTINUOUS
 62
     7
 10
394.4212798948041
 20
185.8067651579204
 30
0.0
 11
394.4212798948041
 21
190.36801465752
 31
0.0
  0
POLYLINE
  5
F4
  8
0
  6
CONTINUOUS
 62
     7
 66
     1
 10
0.0
 20
0.0
 30
0.0
  0
VERTEX
  5
18A
  8
0
  6
CONTINUOUS
 62
     7
 10
394.4212798948041
 20
185.8067651579204
 30
0.0
  0
VERTEX
  5
18B
  8
0
  6
CONTINUOUS
 62
     7
 10
394.3184593459656
 20
185.7783108799205
 30
0.0
  0
VERTEX
  5
18C
  8
0
  6
CONTINUOUS
 62
     7
 10
394.2448956419345
 20
185.7010445052856
 30
0.0
  0
VERTEX
  5
18D
  8
0
  6
CONTINUOUS
 62
     7
 10
394.2212798948041
 20
185.6067651579204
 30
0.0
  0
SEQEND
  5
1BD
  8
0
  6
CONTINUOUS
 62
     7
  0
LINE
  5
F5
  8
0
  6
CONTINUOUS
 62
     7
 10
394.2212798948041
 20
176.8067651579203
 30
0.0
 11
394.2212798948041
 21
185.6067651579204
 31
0.0
  0
LINE
  5
F6
  8
0
  6
CONTINUOUS
 62
     7
 10
391.9139205819232
 20
168.8067651579202
 30
0.0
 11
394.7926002383636
 21
168.8067651579202
 31
0.0
  0
ARC
  5
F7
  8
0
  6
CONTINUOUS
 62
     7
 10
391.9139205819232
 20
171.8067651579202
 30
0.0
 40
3.000000000000001
 50
225.0
 51
270.0
  0
POLYLINE
  5
F8
  8
0
  6
CONTINUOUS
 62
     7
 66
     1
 10
0.0
 20
0.0
 30
0.0
  0
VERTEX
  5
18E
  8
0
  6
CONTINUOUS
 62
     7
 10
394.1712798948039
 20
196.3067651579201
 30
0.0
  0
VERTEX
  5
18F
  8
0
  6
CONTINUOUS
 62
     7
 10
394.1706776229065
 20
196.3312989950839
 30
0.0
  0
VERTEX
  5
190
  8
0
  6
CONTINUOUS
 62
     7
 10
394.16887225814
 20
196.3557737280849
 30
0.0
  0
VERTEX
  5
191
  8
0
  6
CONTINUOUS
 62
     7
 10
394.1658681497863
 20
196.3801303951478
 30
0.0
  0
VERTEX
  5
192
  8
0
  6
CONTINUOUS
 62
     7
 10
394.1616725350055
 20
196.4043103189282
 30
0.0
  0
VERTEX
  5
193
  8
0
  6
CONTINUOUS
 62
     7
 10
394.1562955214012
 20
196.4282552478718
 30
0.0
  0
VERTEX
  5
194
  8
0
  6
CONTINUOUS
 62
     7
 10
394.1497500626699
 20
196.4519074965474
 30
0.0
  0
VERTEX
  5
195
  8
0
  6
CONTINUOUS
 62
     7
 10
394.1420519273954
 20
196.4752100846162
 30
0.0
  0
VERTEX
  5
196
  8
0
  6
CONTINUOUS
 62
     7
 10
394.1332196610595
 20
196.4981068741027
 30
0.0
  0
VERTEX
  5
197
  8
0
  6
CONTINUOUS
 62
     7
 10
394.1232745413656
 20
196.5205427046353
 30
0.0
  0
VERTEX
  5
198
  8
0
  6
CONTINUOUS
 62
     7
 10
394.112240526978
 20
196.5424635263331
 30
0.0
  0
VERTEX
  5
199
  8
0
  6
CONTINUOUS
 62
     7
 10
394.100144199804
 20
196.5638165300167
 30
0.0
  0
VERTEX
  5
19A
  8
0
  6
CONTINUOUS
 62
     7
 10
394.0870147009551
 20
196.5845502744299
 30
0.0
  0
VERTEX
  5
19B
  8
0
  6
CONTINUOUS
 62
     7
 10
394.0728836605442
 20
196.6046148101664
 30
0.0
  0
VERTEX
  5
19C
  8
0
  6
CONTINUOUS
 62
     7
 10
394.0577851214853
 20
196.623961800002
 30
0.0
  0
VERTEX
  5
19D
  8
0
  6
CONTINUOUS
 62
     7
 10
394.0417554574813
 20
196.6425446353436
 30
0.0
  0
VERTEX
  5
19E
  8
0
  6
CONTINUOUS
 62
     7
 10
394.0248332853972
 20
196.6603185485134
 30
0.0
  0
VERTEX
  5
19F
  8
0
  6
CONTINUOUS
 62
     7
 10
394.0070593722273
 20
196.6772407205976
 30
0.0
  0
VERTEX
  5
1A0
  8
0
  6
CONTINUOUS
 62
     7
 10
393.9884765368857
 20
196.6932703846015
 30
0.0
  0
VERTEX
  5
1A1
  8
0
  6
CONTINUOUS
 62
     7
 10
393.9691295470501
 20
196.7083689236605
 30
0.0
  0
VERTEX
  5
1A2
  8
0
  6
CONTINUOUS
 62
     7
 10
393.9490650113137
 20
196.7224999640714
 30
0.0
  0
VERTEX
  5
1A3
  8
0
  6
CONTINUOUS
 62
     7
 10
393.9283312669005
 20
196.7356294629203
 30
0.0
  0
VERTEX
  5
1A4
  8
0
  6
CONTINUOUS
 62
     7
 10
393.9069782632168
 20
196.7477257900943
 30
0.0
  0
VERTEX
  5
1A5
  8
0
  6
CONTINUOUS
 62
     7
 10
393.885057441519
 20
196.7587598044819
 30
0.0
  0
VERTEX
  5
1A6
  8
0
  6
CONTINUOUS
 62
     7
 10
393.8626216109864
 20
196.7687049241758
 30
0.0
  0
VERTEX
  5
1A7
  8
0
  6
CONTINUOUS
 62
     7
 10
393.8397248215
 20
196.7775371905117
 30
0.0
  0
VERTEX
  5
1A8
  8
0
  6
CONTINUOUS
 62
     7
 10
393.8164222334311
 20
196.7852353257862
 30
0.0
  0
VERTEX
  5
1A9
  8
0
  6
CONTINUOUS
 62
     7
 10
393.7927699847555
 20
196.7917807845174
 30
0.0
  0
VERTEX
  5
1AA
  8
0
  6
CONTINUOUS
 62
     7
 10
393.7688250558119
 20
196.7971577981218
 30
0.0
  0
VERTEX
  5
1AB
  8
0
  6
CONTINUOUS
 62
     7
 10
393.7446451320316
 20
196.8013534129025
 30
0.0
  0
VERTEX
  5
1AC
  8
0
  6
CONTINUOUS
 62
     7
 10
393.7202884649686
 20
196.8043575212562
 30
0.0
  0
VERTEX
  5
1AD
  8
0
  6
CONTINUOUS
 62
     7
 10
393.6958137319676
 20
196.8061628860227
 30
0.0
  0
VERTEX
  5
1AE
  8
0
  6
CONTINUOUS
 62
     7
 10
393.6712798948039
 20
196.8067651579202
 30
0.0
  0
SEQEND
  5
1BE
  8
0
  6
CONTINUOUS
 62
     7
  0
LINE
  5
F9
  8
0
  6
CONTINUOUS
 62
     7
 10
394.1712798948039
 20
196.3067651579201
 30
0.0
 11
394.1712798948039
 21
191.8067651579201
 31
0.0
  0
LINE
  5
FA
  8
0
  6
CONTINUOUS
 62
     7
 10
388.5499595512443
 20
170.9280855014798
 30
0.0
 11
389.7926002383635
 21
169.6854448143606
 31
0.0
  0
LINE
  5
FB
  8
0
  6
CONTINUOUS
 62
     7
 10
388.5499595512443
 20
196.8067651579202
 30
0.0
 11
393.6712798948039
 21
196.8067651579202
 31
0.0
  0
LINE
  5
FC
  8
0
  6
CONTINUOUS
 62
     7
 10
403.6712798948039
 20
188.8067651579201
 30
0.0
 11
403.6712798948039
 21
176.8067651579202
 31
0.0
  0
LINE
  5
FD
  8
0
  6
CONTINUOUS
 62
     7
 10
403.6712798948039
 20
176.8067651579202
 30
0.0
 11
402.1712798948039
 21
176.8067651579202
 31
0.0
  0
LINE
  5
FE
  8
0
  6
CONTINUOUS
 62
     7
 10
402.1712798948039
 20
188.8067651579201
 30
0.0
 11
402.1712798948039
 21
176.8067651579202
 31
0.0
  0
LINE
  5
FF
  8
0
  6
CONTINUOUS
 62
     7
 10
403.6712798948039
 20
192.5567651579201
 30
0.0
 11
403.6712798948039
 21
188.8067651579201
 31
0.0
  0
LINE
  5
100
  8
0
  6
CONTINUOUS
 62
     7
 10
402.1712798948039
 20
192.5567651579201
 30
0.0
 11
402.1712798948039
 21
188.8067651579201
 31
0.0
  0
LINE
  5
101
  8
0
  6
CONTINUOUS
 62
     7
 10
394.7926002383635
 20
190.603407042481
 30
0.0
 11
395.4017890452681
 21
190.8067651568332
 31
0.0
  0
LINE
  5
102
  8
0
  6
CONTINUOUS
 62
     7
 10
400.1712798948044
 20
190.36801465752
 30
0.0
 11
402.1712798948037
 21
190.36801465752
 31
0.0
  0
LINE
  5
103
  8
0
  6
CONTINUOUS
 62
     7
 10
400.1712798948042
 20
190.36801465752
 30
0.0
 11
400.1712798948042
 21
190.1842628893157
 31
0.0
  0
LINE
  5
104
  8
0
  6
CONTINUOUS
 62
     7
 10
400.1712798948039
 20
190.1842628893157
 30
0.0
 11
398.1712798948039
 21
190.1842628893157
 31
0.0
  0
LINE
  5
105
  8
0
  6
CONTINUOUS
 62
     7
 10
398.1712798948042
 20
190.36801465752
 30
0.0
 11
398.1712798948042
 21
190.1842628893157
 31
0.0
  0
LINE
  5
106
  8
0
  6
CONTINUOUS
 62
     7
 10
394.4212798948041
 20
190.36801465752
 30
0.0
 11
398.1712798948044
 21
190.36801465752
 31
0.0
  0
LINE
  5
107
  8
0
  6
CONTINUOUS
 62
     7
 10
394.2212798948041
 20
176.8067651579203
 30
0.0
 11
402.1712798948039
 21
176.8067651579201
 31
0.0
  0
LINE
  5
108
  8
0
  6
CONTINUOUS
 62
     7
 10
395.6712798948039
 20
168.8067651579202
 30
0.0
 11
395.6712798948039
 21
176.8067651579203
 31
0.0
  0
LINE
  5
109
  8
0
  6
CONTINUOUS
 62
     7
 10
394.7926002383635
 20
168.8067651579202
 30
0.0
 11
395.6712798948039
 21
168.8067651579202
 31
0.0
  0
LINE
  5
10A
  8
0
  6
CONTINUOUS
 62
     7
 10
395.6712798948039
 20
190.8067651579204
 30
0.0
 11
395.6712798948039
 21
191.8067651579201
 31
0.0
  0
LINE
  5
10B
  8
0
  6
CONTINUOUS
 62
     7
 10
395.6712798948039
 20
191.8067651579201
 30
0.0
 11
394.7926002383635
 21
191.8067651579201
 31
0.0
  0
LINE
  5
10C
  8
0
  6
CONTINUOUS
 62
     7
 10
395.6712798948039
 20
196.8067651579202
 30
0.0
 11
395.6712798948039
 21
196.3067651579201
 31
0.0
  0
LINE
  5
10D
  8
0
  6
CONTINUOUS
 62
     7
 10
393.6712798948039
 20
196.8067651579202
 30
0.0
 11
395.6712798948039
 21
196.8067651579202
 31
0.0
  0
LINE
  5
10E
  8
0
  6
CONTINUOUS
 62
     7
 10
395.6712798948039
 20
191.8067651579201
 30
0.0
 11
395.6712798948039
 21
196.3067651579201
 31
0.0
  0
LINE
  5
10F
  8
0
  6
CONTINUOUS
 62
     7
 10
403.6712798948039
 20
192.5567651579201
 30
0.0
 11
402.1712798948039
 21
192.5567651579201
 31
0.0
  0
LINE
  5
110
  8
0
  6
CONTINUOUS
 62
     7
 10
402.1712798948049
 20
190.8067651579204
 30
0.0
 11
395.4016490904027
 21
190.8067651579204
 31
0.0
  0
ENDBLK
  8
0
  0
ENDSEC
  0
SECTION
  2
ENTITIES
  0
INSERT
  5
DB
  8
0
  6
CONTINUOUS
 62
     7
  2
D_FRAME_VIEW_1330
 10
0.0
 20
0.0
 30
0.0
  0
INSERT
  5
111
  8
0
  6
CONTINUOUS
 62
     7
  2
D_FRAME_VIEW_1791
 10
0.0
 20
0.0
 30
0.0
  0
TEXT
  5
112
  8
0
  6
CONTINUOUS
 62
     7
 10
376.7743700492339
 20
153.9040536307149
 30
0.0
 40
5.0
  1
SBG-TD23
  0
ENDSEC
  0
EOF
