  0
SECTION
  2
HEADER
  9
$ACADVER
  1
AC1004
  9
$INSBASE
 10
0.0
 20
0.0
  9
$EXTMIN
 10
0.0
 20
0.0
  9
$EXTMAX
 10
404.2371507359818
 20
268.0
  9
$LIMMIN
 10
0.0
 20
0.0
  9
$LIMMAX
 10
12.0
 20
9.0
  9
$ORTHOMODE
 70
     0
  9
$REGENMODE
 70
     1
  9
$FILLMODE
 70
     1
  9
$QTEXTMODE
 70
     0
  9
$DRAGMODE
 70
     2
  9
$LTSCALE
 40
1.0
  9
$OSMODE
 70
    37
  9
$ATTMODE
 70
     1
  9
$TEXTSIZE
 40
0.2
  9
$TRACEWID
 40
0.05
  9
$TEXTSTYLE
  7
STANDARD
  9
$CLAYER
  8
0
  9
$CELTYPE
  6
BYLAYER
  9
$CECOLOR
 62
   256
  9
$DIMSCALE
 40
1.0
  9
$DIMASZ
 40
3.0
  9
$DIMEXO
 40
0.0625
  9
$DIMDLI
 40
0.38
  9
$DIMRND
 40
0.0
  9
$DIMDLE
 40
0.0
  9
$DIMEXE
 40
1.5
  9
$DIMTP
 40
0.0
  9
$DIMTM
 40
0.0
  9
$DIMTXT
 40
3.0
  9
$DIMCEN
 40
0.09
  9
$DIMTSZ
 40
0.0
  9
$DIMTOL
 70
     0
  9
$DIMLIM
 70
     0
  9
$DIMTIH
 70
     1
  9
$DIMTOH
 70
     1
  9
$DIMSE1
 70
     0
  9
$DIMSE2
 70
     0
  9
$DIMTAD
 70
     1
  9
$DIMZIN
 70
     0
  9
$DIMBLK
  1

  9
$DIMASO
 70
     1
  9
$DIMSHO
 70
     1
  9
$DIMPOST
  1

  9
$DIMAPOST
  1

  9
$DIMALT
 70
     0
  9
$DIMALTD
 70
     2
  9
$DIMALTF
 40
25.4
  9
$DIMLFAC
 40
1.0
  9
$DIMTOFL
 70
     0
  9
$DIMTVP
 40
0.0
  9
$DIMTIX
 70
     0
  9
$DIMSOXD
 70
     0
  9
$DIMSAH
 70
     0
  9
$DIMBLK1
  1

  9
$DIMBLK2
  1

  9
$LUNITS
 70
     2
  9
$LUPREC
 70
     4
  9
$SKETCHINC
 40
0.1
  9
$FILLETRAD
 40
0.5
  9
$AUNITS
 70
     0
  9
$AUPREC
 70
     0
  9
$MENU
  1
.
  9
$ELEVATION
 40
0.0
  9
$THICKNESS
 40
0.0
  9
$LIMCHECK
 70
     0
  9
$CHAMFERA
 40
0.0
  9
$CHAMFERB
 40
0.0
  9
$SKPOLY
 70
     0
  9
$TDCREATE
 40
2460628.571261238
  9
$TDUPDATE
 40
2460628.571266574
  9
$TDINDWG
 40
0.0000000116
  9
$TDUSRTIMER
 40
0.0000000116
  9
$USRTIMER
 70
     1
  9
$ANGBASE
 50
0.0
  9
$ANGDIR
 70
     0
  9
$PDMODE
 70
     0
  9
$PDSIZE
 40
0.0
  9
$PLINEWID
 40
0.0
  9
$COORDS
 70
     1
  9
$SPLFRAME
 70
     0
  9
$SPLINETYPE
 70
     6
  9
$SPLINESEGS
 70
     8
  9
$ATTDIA
 70
     0
  9
$ATTREQ
 70
     1
  9
$SURFTAB1
 70
     6
  9
$SURFTAB2
 70
     6
  9
$SURFTYPE
 70
     6
  9
$SURFU
 70
     6
  9
$SURFV
 70
     6
  9
$UCSNAME
  2

  9
$UCSORG
 10
0.0
 20
0.0
 30
0.0
  9
$UCSXDIR
 10
1.0
 20
0.0
 30
0.0
  9
$UCSYDIR
 10
0.0
 20
1.0
 30
0.0
  9
$USERI1
 70
     0
  9
$USERI2
 70
     0
  9
$USERI3
 70
     0
  9
$USERI4
 70
     0
  9
$USERI5
 70
     0
  9
$USERR1
 40
0.0
  9
$USERR2
 40
0.0
  9
$USERR3
 40
0.0
  9
$USERR4
 40
0.0
  9
$USERR5
 40
0.0
  9
$WORLDVIEW
 70
     1
  0
ENDSEC
  0
SECTION
  2
TABLES
  0
TABLE
  2
LTYPE
 70
     2
  0
LTYPE
  2
CONTINUOUS
 70
     0
  3
Solid line
 72
    65
 73
     0
 40
0.0
  0
LTYPE
  2
CENTER
 70
     0
  3

 72
    65
 73
     0
 40
0.0
  0
ENDTAB
  0
TABLE
  2
LAYER
 70
     2
  0
LAYER
  2
0
 70
     0
 62
     7
  6
CONTINUOUS
  0
LAYER
  2
1
 70
     0
 62
     7
  6
CONTINUOUS
  0
ENDTAB
  0
TABLE
  2
STYLE
 70
     2
  0
STYLE
  2
STANDARD
 70
     0
 40
0.0
 41
1.0
 50
0.0
 71
     0
 42
0.2
  3
txt
  4

  0
STYLE
  2
ＭＳ_ゴシック
 70
     0
 40
0.0
 41
1.0
 50
0.0
 71
     0
 42
0.2
  3
ＭＳ ゴシック.shx
  4

  0
ENDTAB
  0
TABLE
  2
VIEW
 70
     0
  0
ENDTAB
  0
ENDSEC
  0
SECTION
  2
BLOCKS
  0
BLOCK
  8
0
  2
D_FRAME_VIEW_4974
 70
     0
 10
0.0
 20
0.0
  0
LINE
  8
1
  6
CONTINUOUS
 62
     7
 10
298.5
 20
250.75
 11
298.5
 21
262.7500000000001
  0
LINE
  8
1
  6
CONTINUOUS
 62
     7
 10
298.5
 20
250.75
 11
182.5
 21
250.75
  0
LINE
  8
1
  6
CONTINUOUS
 62
     7
 10
182.5
 20
250.75
 11
182.5
 21
262.7500000000001
  0
LINE
  8
1
  6
CONTINUOUS
 62
     7
 10
298.5
 20
167.25
 11
298.5
 21
179.25
  0
LINE
  8
1
  6
CONTINUOUS
 62
     7
 10
182.5
 20
167.25
 11
182.5
 21
179.25
  0
LINE
  8
1
  6
CONTINUOUS
 62
     7
 10
182.5
 20
179.25
 11
298.5
 21
179.25
  0
LINE
  8
1
  6
CONTINUOUS
 62
     7
 10
239.5249999999999
 20
179.25
 11
239.5249999999999
 21
250.75
  0
LINE
  8
1
  6
CONTINUOUS
 62
     7
 10
295.85
 20
194.5
 11
295.5
 21
194.5
  0
LINE
  8
1
  6
CONTINUOUS
 62
     7
 10
295.0
 20
194.5043634338954
 11
295.5
 21
194.5
  0
LINE
  8
1
  6
CONTINUOUS
 62
     7
 10
294.9728224842555
 20
210.4728224842555
 11
295.8228224842555
 21
210.4728224842555
  0
LINE
  8
1
  6
CONTINUOUS
 62
     7
 10
295.5
 20
235.5
 11
295.0
 21
235.4956365661046
  0
LINE
  8
1
  6
CONTINUOUS
 62
     7
 10
294.9956368983907
 20
235.4956365661219
 11
294.9956368983907
 21
244.5043634339409
  0
LINE
  8
1
  6
CONTINUOUS
 62
     7
 10
295.0
 20
244.5043634338953
 11
295.5
 21
244.5
  0
LINE
  8
1
  6
CONTINUOUS
 62
     7
 10
295.5
 20
235.5
 11
295.85
 21
235.5
  0
LINE
  8
1
  6
CONTINUOUS
 62
     7
 10
295.5
 20
185.5
 11
295.0
 21
185.4956365661046
  0
LINE
  8
1
  6
CONTINUOUS
 62
     7
 10
294.9956368983907
 20
185.4956365660537
 11
294.9956368983907
 21
194.5043634338726
  0
LINE
  8
1
  6
CONTINUOUS
 62
     7
 10
295.8228224842555
 20
219.5271775157445
 11
294.9728224842555
 21
219.5271775157445
  0
LINE
  8
1
  6
CONTINUOUS
 62
     7
 10
295.5
 20
185.5
 11
295.85
 21
185.5
  0
LINE
  8
1
  6
CONTINUOUS
 62
     7
 10
294.9956368983907
 20
210.4956365661446
 11
294.9956368983907
 21
219.5043634338499
  0
POLYLINE
  8
1
  6
CONTINUOUS
 62
     7
 66
     1
  0
VERTEX
  8
1
  6
CONTINUOUS
 62
     7
 10
220.5000951923396
 20
169.75
  0
VERTEX
  8
1
  6
CONTINUOUS
 62
     7
 10
220.9878125685948
 20
169.7980339854024
  0
VERTEX
  8
1
  6
CONTINUOUS
 62
     7
 10
221.4567817351992
 20
169.9402902008893
  0
VERTEX
  8
1
  6
CONTINUOUS
 62
     7
 10
221.8889822118613
 20
170.1713023482261
  0
VERTEX
  8
1
  6
CONTINUOUS
 62
     7
 10
222.2678063818628
 20
170.4821936181371
  0
VERTEX
  8
1
  6
CONTINUOUS
 62
     7
 10
222.5786976517738
 20
170.8610177881386
  0
VERTEX
  8
1
  6
CONTINUOUS
 62
     7
 10
222.8097097991107
 20
171.2932182648007
  0
VERTEX
  8
1
  6
CONTINUOUS
 62
     7
 10
222.9519660145976
 20
171.7621874314052
  0
VERTEX
  8
1
  6
CONTINUOUS
 62
     7
 10
223.0
 20
172.2499048076604
  0
SEQEND
  8
1
  6
CONTINUOUS
 62
     7
  0
LINE
  8
1
  6
CONTINUOUS
 62
     7
 10
268.9999999999999
 20
256.75
 11
268.9999999999999
 21
257.7500951923396
  0
POLYLINE
  8
1
  6
CONTINUOUS
 62
     7
 66
     1
  0
VERTEX
  8
1
  6
CONTINUOUS
 62
     7
 10
260.4999048076604
 20
260.2499999999999
  0
VERTEX
  8
1
  6
CONTINUOUS
 62
     7
 10
260.0121874314051
 20
260.2019660145976
  0
VERTEX
  8
1
  6
CONTINUOUS
 62
     7
 10
259.5432182648007
 20
260.0597097991107
  0
VERTEX
  8
1
  6
CONTINUOUS
 62
     7
 10
259.1110177881386
 20
259.8286976517739
  0
VERTEX
  8
1
  6
CONTINUOUS
 62
     7
 10
258.7321936181371
 20
259.5178063818628
  0
VERTEX
  8
1
  6
CONTINUOUS
 62
     7
 10
258.421302348226
 20
259.1389822118613
  0
VERTEX
  8
1
  6
CONTINUOUS
 62
     7
 10
258.1902902008893
 20
258.7067817351992
  0
VERTEX
  8
1
  6
CONTINUOUS
 62
     7
 10
258.0480339854023
 20
258.2378125685948
  0
VERTEX
  8
1
  6
CONTINUOUS
 62
     7
 10
258.0
 20
257.7500951923395
  0
SEQEND
  8
1
  6
CONTINUOUS
 62
     7
  0
LINE
  8
1
  6
CONTINUOUS
 62
     7
 10
295.85
 20
210.5
 11
295.85
 21
194.5
  0
LINE
  8
1
  6
CONTINUOUS
 62
     7
 10
284.491311210595
 20
162.0
 11
283.4913492875308
 21
162.0
  0
LINE
  8
1
  6
CONTINUOUS
 62
     7
 10
261.2087121525221
 20
251.75
 11
265.7912878474779
 21
251.75
  0
POLYLINE
  8
1
  6
CONTINUOUS
 62
     7
 66
     1
  0
VERTEX
  8
1
  6
CONTINUOUS
 62
     7
 10
257.9999999999999
 20
172.2499048076604
  0
VERTEX
  8
1
  6
CONTINUOUS
 62
     7
 10
258.0480339854022
 20
171.7621874314052
  0
VERTEX
  8
1
  6
CONTINUOUS
 62
     7
 10
258.1902902008892
 20
171.2932182648007
  0
VERTEX
  8
1
  6
CONTINUOUS
 62
     7
 10
258.421302348226
 20
170.8610177881386
  0
VERTEX
  8
1
  6
CONTINUOUS
 62
     7
 10
258.732193618137
 20
170.4821936181371
  0
VERTEX
  8
1
  6
CONTINUOUS
 62
     7
 10
259.1110177881386
 20
170.1713023482261
  0
VERTEX
  8
1
  6
CONTINUOUS
 62
     7
 10
259.5432182648007
 20
169.9402902008893
  0
VERTEX
  8
1
  6
CONTINUOUS
 62
     7
 10
260.012187431405
 20
169.7980339854023
  0
VERTEX
  8
1
  6
CONTINUOUS
 62
     7
 10
260.4999048076604
 20
169.75
  0
SEQEND
  8
1
  6
CONTINUOUS
 62
     7
  0
LINE
  8
1
  6
CONTINUOUS
 62
     7
 10
223.0
 20
172.2499048076604
 11
223.0
 21
173.25
  0
ARC
  8
1
  6
CONTINUOUS
 62
     7
 10
217.5
 20
173.25
 40
5.5
 50
114.6199773286568
 51
180.0
  0
LINE
  8
1
  6
CONTINUOUS
 62
     7
 10
261.2087121525221
 20
178.25
 11
265.7912878474779
 21
178.25
  0
ARC
  8
1
  6
CONTINUOUS
 62
     7
 10
263.4999999999999
 20
173.25
 40
5.500000000000001
 50
114.6199773286569
 51
180.0
  0
LINE
  8
1
  6
CONTINUOUS
 62
     7
 10
212.0
 20
256.75
 11
212.0
 21
257.7500951923395
  0
ARC
  8
1
  6
CONTINUOUS
 62
     7
 10
263.4999999999999
 20
173.25
 40
5.5
 50
0.0
 51
65.38002267134317
  0
LINE
  8
1
  6
CONTINUOUS
 62
     7
 10
212.0
 20
173.25
 11
212.0
 21
172.2499048076604
  0
LINE
  8
1
  6
CONTINUOUS
 62
     7
 10
268.9999999999999
 20
173.25
 11
268.9999999999999
 21
172.2499048076604
  0
POLYLINE
  8
1
  6
CONTINUOUS
 62
     7
 66
     1
  0
VERTEX
  8
1
  6
CONTINUOUS
 62
     7
 10
212.0
 20
172.2499048076604
  0
VERTEX
  8
1
  6
CONTINUOUS
 62
     7
 10
212.0480339854023
 20
171.7621874314052
  0
VERTEX
  8
1
  6
CONTINUOUS
 62
     7
 10
212.1902902008893
 20
171.2932182648007
  0
VERTEX
  8
1
  6
CONTINUOUS
 62
     7
 10
212.4213023482261
 20
170.8610177881386
  0
VERTEX
  8
1
  6
CONTINUOUS
 62
     7
 10
212.7321936181371
 20
170.4821936181371
  0
VERTEX
  8
1
  6
CONTINUOUS
 62
     7
 10
213.1110177881386
 20
170.1713023482261
  0
VERTEX
  8
1
  6
CONTINUOUS
 62
     7
 10
213.5432182648007
 20
169.9402902008893
  0
VERTEX
  8
1
  6
CONTINUOUS
 62
     7
 10
214.0121874314051
 20
169.7980339854024
  0
VERTEX
  8
1
  6
CONTINUOUS
 62
     7
 10
214.4999048076604
 20
169.75
  0
SEQEND
  8
1
  6
CONTINUOUS
 62
     7
  0
CIRCLE
  8
1
  6
CONTINUOUS
 62
     7
 10
240.5
 20
265.75
 40
1.25
  0
LINE
  8
1
  6
CONTINUOUS
 62
     7
 10
243.0043443947025
 20
268.0
 11
237.9956556052975
 21
268.0
  0
POLYLINE
  8
1
  6
CONTINUOUS
 62
     7
 66
     1
  0
VERTEX
  8
1
  6
CONTINUOUS
 62
     7
 10
266.5000951923395
 20
169.75
  0
VERTEX
  8
1
  6
CONTINUOUS
 62
     7
 10
266.9878125685948
 20
169.7980339854024
  0
VERTEX
  8
1
  6
CONTINUOUS
 62
     7
 10
267.4567817351992
 20
169.9402902008893
  0
VERTEX
  8
1
  6
CONTINUOUS
 62
     7
 10
267.8889822118613
 20
170.1713023482261
  0
VERTEX
  8
1
  6
CONTINUOUS
 62
     7
 10
268.2678063818628
 20
170.4821936181371
  0
VERTEX
  8
1
  6
CONTINUOUS
 62
     7
 10
268.5786976517739
 20
170.8610177881386
  0
VERTEX
  8
1
  6
CONTINUOUS
 62
     7
 10
268.8097097991107
 20
171.2932182648007
  0
VERTEX
  8
1
  6
CONTINUOUS
 62
     7
 10
268.9519660145976
 20
171.7621874314052
  0
VERTEX
  8
1
  6
CONTINUOUS
 62
     7
 10
268.9999999999999
 20
172.2499048076604
  0
SEQEND
  8
1
  6
CONTINUOUS
 62
     7
  0
POLYLINE
  8
1
  6
CONTINUOUS
 62
     7
 66
     1
  0
VERTEX
  8
1
  6
CONTINUOUS
 62
     7
 10
268.9999999999999
 20
257.7500951923395
  0
VERTEX
  8
1
  6
CONTINUOUS
 62
     7
 10
268.9519660145976
 20
258.2378125685948
  0
VERTEX
  8
1
  6
CONTINUOUS
 62
     7
 10
268.8097097991107
 20
258.7067817351992
  0
VERTEX
  8
1
  6
CONTINUOUS
 62
     7
 10
268.5786976517739
 20
259.1389822118613
  0
VERTEX
  8
1
  6
CONTINUOUS
 62
     7
 10
268.2678063818628
 20
259.5178063818628
  0
VERTEX
  8
1
  6
CONTINUOUS
 62
     7
 10
267.8889822118613
 20
259.8286976517739
  0
VERTEX
  8
1
  6
CONTINUOUS
 62
     7
 10
267.4567817351992
 20
260.0597097991107
  0
VERTEX
  8
1
  6
CONTINUOUS
 62
     7
 10
266.9878125685948
 20
260.2019660145976
  0
VERTEX
  8
1
  6
CONTINUOUS
 62
     7
 10
266.5000951923395
 20
260.2499999999999
  0
SEQEND
  8
1
  6
CONTINUOUS
 62
     7
  0
LINE
  8
1
  6
CONTINUOUS
 62
     7
 10
237.9956556052975
 20
162.0
 11
237.4956746437654
 21
162.0
  0
POLYLINE
  8
1
  6
CONTINUOUS
 62
     7
 66
     1
  0
VERTEX
  8
1
  6
CONTINUOUS
 62
     7
 10
214.4999048076604
 20
260.2499999999999
  0
VERTEX
  8
1
  6
CONTINUOUS
 62
     7
 10
214.0121874314051
 20
260.2019660145976
  0
VERTEX
  8
1
  6
CONTINUOUS
 62
     7
 10
213.5432182648007
 20
260.0597097991107
  0
VERTEX
  8
1
  6
CONTINUOUS
 62
     7
 10
213.1110177881386
 20
259.8286976517739
  0
VERTEX
  8
1
  6
CONTINUOUS
 62
     7
 10
212.7321936181371
 20
259.5178063818628
  0
VERTEX
  8
1
  6
CONTINUOUS
 62
     7
 10
212.4213023482261
 20
259.1389822118613
  0
VERTEX
  8
1
  6
CONTINUOUS
 62
     7
 10
212.1902902008893
 20
258.7067817351992
  0
VERTEX
  8
1
  6
CONTINUOUS
 62
     7
 10
212.0480339854023
 20
258.2378125685948
  0
VERTEX
  8
1
  6
CONTINUOUS
 62
     7
 10
212.0
 20
257.7500951923395
  0
SEQEND
  8
1
  6
CONTINUOUS
 62
     7
  0
POLYLINE
  8
1
  6
CONTINUOUS
 62
     7
 66
     1
  0
VERTEX
  8
1
  6
CONTINUOUS
 62
     7
 10
223.0
 20
257.7500951923395
  0
VERTEX
  8
1
  6
CONTINUOUS
 62
     7
 10
222.9519660145976
 20
258.2378125685948
  0
VERTEX
  8
1
  6
CONTINUOUS
 62
     7
 10
222.8097097991107
 20
258.7067817351992
  0
VERTEX
  8
1
  6
CONTINUOUS
 62
     7
 10
222.5786976517738
 20
259.1389822118613
  0
VERTEX
  8
1
  6
CONTINUOUS
 62
     7
 10
222.2678063818628
 20
259.5178063818628
  0
VERTEX
  8
1
  6
CONTINUOUS
 62
     7
 10
221.8889822118613
 20
259.8286976517739
  0
VERTEX
  8
1
  6
CONTINUOUS
 62
     7
 10
221.4567817351992
 20
260.0597097991107
  0
VERTEX
  8
1
  6
CONTINUOUS
 62
     7
 10
220.9878125685948
 20
260.2019660145976
  0
VERTEX
  8
1
  6
CONTINUOUS
 62
     7
 10
220.5000951923396
 20
260.2499999999999
  0
SEQEND
  8
1
  6
CONTINUOUS
 62
     7
  0
LINE
  8
1
  6
CONTINUOUS
 62
     7
 10
266.5000951923395
 20
169.75
 11
260.4999048076604
 21
169.75
  0
LINE
  8
1
  6
CONTINUOUS
 62
     7
 10
258.0
 20
172.2499048076604
 11
258.0
 21
173.25
  0
CIRCLE
  8
1
  6
CONTINUOUS
 62
     7
 10
263.4999999999999
 20
173.25
 40
3.100000000000002
  0
ARC
  8
1
  6
CONTINUOUS
 62
     7
 10
293.5
 20
263.0
 40
4.99999999999999
 50
0.0
 51
90.0
  0
LINE
  8
1
  6
CONTINUOUS
 62
     7
 10
298.5
 20
215.0
 11
298.5
 21
250.74998
  0
LINE
  8
1
  6
CONTINUOUS
 62
     7
 10
298.5
 20
250.75
 11
298.5
 21
262.75
  0
LINE
  8
1
  6
CONTINUOUS
 62
     7
 10
298.5
 20
262.75002
 11
298.5
 21
263.0
  0
LINE
  8
1
  6
CONTINUOUS
 62
     7
 10
298.5
 20
167.0
 11
298.5
 21
167.24998
  0
LINE
  8
1
  6
CONTINUOUS
 62
     7
 10
298.5
 20
167.25
 11
298.5
 21
179.25
  0
LINE
  8
1
  6
CONTINUOUS
 62
     7
 10
298.5
 20
179.25002
 11
298.5
 21
215.0
  0
LINE
  8
1
  6
CONTINUOUS
 62
     7
 10
284.491311210595
 20
162.0
 11
293.5
 21
162.0
  0
LINE
  8
1
  6
CONTINUOUS
 62
     7
 10
295.85
 20
185.5
 11
295.85
 21
179.25
  0
LINE
  8
1
  6
CONTINUOUS
 62
     7
 10
295.85
 20
235.5
 11
295.85
 21
219.5
  0
LINE
  8
1
  6
CONTINUOUS
 62
     7
 10
295.85
 20
250.75
 11
295.85
 21
244.5
  0
LINE
  8
1
  6
CONTINUOUS
 62
     7
 10
293.5
 20
268.0
 11
284.491311210595
 21
268.0
  0
ARC
  8
1
  6
CONTINUOUS
 62
     7
 10
293.5
 20
167.0
 40
4.999999999999997
 50
270.0
 51
0.0
  0
LINE
  8
1
  6
CONTINUOUS
 62
     7
 10
182.5
 20
215.0
 11
182.5
 21
179.25002
  0
LINE
  8
1
  6
CONTINUOUS
 62
     7
 10
182.5
 20
179.25
 11
182.5
 21
167.25
  0
LINE
  8
1
  6
CONTINUOUS
 62
     7
 10
182.5
 20
167.24998
 11
182.5
 21
167.0
  0
LINE
  8
1
  6
CONTINUOUS
 62
     7
 10
182.5
 20
263.0
 11
182.5
 21
262.75002
  0
LINE
  8
1
  6
CONTINUOUS
 62
     7
 10
182.5
 20
262.7500000000001
 11
182.5
 21
250.75
  0
LINE
  8
1
  6
CONTINUOUS
 62
     7
 10
182.5
 20
250.74998
 11
182.5
 21
215.0
  0
LINE
  8
1
  6
CONTINUOUS
 62
     7
 10
185.15
 20
179.25
 11
185.15
 21
250.75
  0
LINE
  8
1
  6
CONTINUOUS
 62
     7
 10
187.5
 20
162.0
 11
196.508688789405
 21
162.0
  0
ARC
  8
1
  6
CONTINUOUS
 62
     7
 10
187.5
 20
263.0
 40
4.999999999999997
 50
90.0
 51
180.0
  0
ARC
  8
1
  6
CONTINUOUS
 62
     7
 10
187.5
 20
167.0
 40
5.000000000000004
 50
180.0
 51
270.0
  0
LINE
  8
1
  6
CONTINUOUS
 62
     7
 10
196.508688789405
 20
268.0
 11
187.5
 21
268.0
  0
CIRCLE
  8
1
  6
CONTINUOUS
 62
     7
 10
263.4999999999999
 20
256.75
 40
3.100000000000002
  0
LINE
  8
1
  6
CONTINUOUS
 62
     7
 10
257.9999999999999
 20
257.7500951923396
 11
257.9999999999999
 21
256.75
  0
LINE
  8
1
  6
CONTINUOUS
 62
     7
 10
185.1761806033723
 20
250.75
 11
185.1761806033723
 21
179.25
  0
LINE
  8
1
  6
CONTINUOUS
 62
     7
 10
219.7912878474779
 20
251.75
 11
215.2087121525221
 21
251.75
  0
ARC
  8
1
  6
CONTINUOUS
 62
     7
 10
217.5
 20
256.75
 40
5.500000000000001
 50
294.6199773286568
 51
0.0
  0
ARC
  8
1
  6
CONTINUOUS
 62
     7
 10
217.5
 20
256.75
 40
5.5
 50
180.0
 51
245.3800226713431
  0
ARC
  8
1
  6
CONTINUOUS
 62
     7
 10
263.4999999999999
 20
256.75
 40
5.500000000000001
 50
180.0
 51
245.3800226713432
  0
ARC
  8
1
  6
CONTINUOUS
 62
     7
 10
263.4999999999999
 20
256.75
 40
5.5
 50
294.6199773286568
 51
0.0
  0
LINE
  8
1
  6
CONTINUOUS
 62
     7
 10
219.7912878474779
 20
178.25
 11
215.2087121525221
 21
178.25
  0
ARC
  8
1
  6
CONTINUOUS
 62
     7
 10
217.5
 20
173.25
 40
5.500000000000001
 50
0.0
 51
65.38002267134314
  0
CIRCLE
  8
1
  6
CONTINUOUS
 62
     7
 10
217.5
 20
256.75
 40
3.100000000000002
  0
LINE
  8
1
  6
CONTINUOUS
 62
     7
 10
214.4999048076604
 20
260.25
 11
220.5000951923396
 21
260.25
  0
LINE
  8
1
  6
CONTINUOUS
 62
     7
 10
197.5086507124692
 20
162.0
 11
196.508688789405
 21
162.0
  0
LINE
  8
1
  6
CONTINUOUS
 62
     7
 10
266.5000951923395
 20
260.25
 11
260.4999048076604
 21
260.25
  0
LINE
  8
1
  6
CONTINUOUS
 62
     7
 10
223.0
 20
257.7500951923395
 11
223.0
 21
256.75
  0
LINE
  8
1
  6
CONTINUOUS
 62
     7
 10
214.4999048076604
 20
169.75
 11
220.5000951923396
 21
169.75
  0
CIRCLE
  8
1
  6
CONTINUOUS
 62
     7
 10
217.5
 20
173.25
 40
3.100000000000002
  0
LINE
  8
1
  6
CONTINUOUS
 62
     7
 10
243.5043253562346
 20
162.0
 11
243.0043443947025
 21
162.0
  0
LINE
  8
1
  6
CONTINUOUS
 62
     7
 10
243.0043443947025
 20
268.0
 11
243.5043253562346
 21
268.0
  0
LINE
  8
1
  6
CONTINUOUS
 62
     7
 10
237.4956746437654
 20
268.0
 11
237.9956556052975
 21
268.0
  0
LINE
  8
1
  6
CONTINUOUS
 62
     7
 10
237.9956556052975
 20
162.0
 11
243.0043443947025
 21
162.0
  0
CIRCLE
  8
1
  6
CONTINUOUS
 62
     7
 10
240.5
 20
164.25
 40
1.25
  0
LINE
  8
1
  6
CONTINUOUS
 62
     7
 10
196.508688789405
 20
268.0
 11
197.5086507124692
 21
268.0
  0
LINE
  8
1
  6
CONTINUOUS
 62
     7
 10
283.4913492875308
 20
268.0
 11
284.491311210595
 21
268.0
  0
LINE
  8
1
  6
CONTINUOUS
 62
     7
 10
237.48462550486
 20
268.0
 11
237.48462550486
 21
263.35
  0
LINE
  8
1
  6
CONTINUOUS
 62
     7
 10
237.48462550486
 20
268.0
 11
237.4956746437654
 21
268.0
  0
LINE
  8
1
  6
CONTINUOUS
 62
     7
 10
243.51537449514
 20
162.0
 11
243.51537449514
 21
166.65
  0
LINE
  8
1
  6
CONTINUOUS
 62
     7
 10
243.5043253562346
 20
162.0
 11
243.51537449514
 21
162.0
  0
LINE
  8
1
  6
CONTINUOUS
 62
     7
 10
237.48462550486
 20
162.0
 11
237.48462550486
 21
166.65
  0
LINE
  8
1
  6
CONTINUOUS
 62
     7
 10
237.48462550486
 20
162.0
 11
237.4956746437654
 21
162.0
  0
LINE
  8
1
  6
CONTINUOUS
 62
     7
 10
243.51537449514
 20
268.0
 11
243.51537449514
 21
263.35
  0
LINE
  8
1
  6
CONTINUOUS
 62
     7
 10
243.5043253562346
 20
268.0
 11
243.51537449514
 21
268.0
  0
POLYLINE
  8
1
  6
CONTINUOUS
 62
     7
 66
     1
  0
VERTEX
  8
1
  6
CONTINUOUS
 62
     7
 10
283.4738193966277
 20
265.8237242042882
  0
VERTEX
  8
1
  6
CONTINUOUS
 62
     7
 10
283.52185338203
 20
265.3360068280329
  0
VERTEX
  8
1
  6
CONTINUOUS
 62
     7
 10
283.664109597517
 20
264.8670376614285
  0
VERTEX
  8
1
  6
CONTINUOUS
 62
     7
 10
283.8951217448538
 20
264.4348371847664
  0
VERTEX
  8
1
  6
CONTINUOUS
 62
     7
 10
284.2060130147648
 20
264.0560130147649
  0
VERTEX
  8
1
  6
CONTINUOUS
 62
     7
 10
284.5848371847663
 20
263.7451217448538
  0
VERTEX
  8
1
  6
CONTINUOUS
 62
     7
 10
285.0170376614284
 20
263.514109597517
  0
VERTEX
  8
1
  6
CONTINUOUS
 62
     7
 10
285.4860068280328
 20
263.3718533820301
  0
VERTEX
  8
1
  6
CONTINUOUS
 62
     7
 10
285.9737242042881
 20
263.3238193966278
  0
SEQEND
  8
1
  6
CONTINUOUS
 62
     7
  0
POLYLINE
  8
1
  6
CONTINUOUS
 62
     7
 66
     1
  0
VERTEX
  8
1
  6
CONTINUOUS
 62
     7
 10
195.0262757957118
 20
263.3238193966278
  0
VERTEX
  8
1
  6
CONTINUOUS
 62
     7
 10
195.5139931719671
 20
263.3718533820301
  0
VERTEX
  8
1
  6
CONTINUOUS
 62
     7
 10
195.9829623385715
 20
263.514109597517
  0
VERTEX
  8
1
  6
CONTINUOUS
 62
     7
 10
196.4151628152336
 20
263.7451217448538
  0
VERTEX
  8
1
  6
CONTINUOUS
 62
     7
 10
196.7939869852351
 20
264.0560130147649
  0
VERTEX
  8
1
  6
CONTINUOUS
 62
     7
 10
197.1048782551461
 20
264.4348371847664
  0
VERTEX
  8
1
  6
CONTINUOUS
 62
     7
 10
197.335890402483
 20
264.8670376614285
  0
VERTEX
  8
1
  6
CONTINUOUS
 62
     7
 10
197.4781466179699
 20
265.3360068280329
  0
VERTEX
  8
1
  6
CONTINUOUS
 62
     7
 10
197.5261806033722
 20
265.8237242042882
  0
SEQEND
  8
1
  6
CONTINUOUS
 62
     7
  0
POLYLINE
  8
1
  6
CONTINUOUS
 62
     7
 66
     1
  0
VERTEX
  8
1
  6
CONTINUOUS
 62
     7
 10
285.9737242042881
 20
166.6761806033722
  0
VERTEX
  8
1
  6
CONTINUOUS
 62
     7
 10
285.4860068280328
 20
166.6281466179699
  0
VERTEX
  8
1
  6
CONTINUOUS
 62
     7
 10
285.0170376614284
 20
166.485890402483
  0
VERTEX
  8
1
  6
CONTINUOUS
 62
     7
 10
284.5848371847663
 20
166.2548782551461
  0
VERTEX
  8
1
  6
CONTINUOUS
 62
     7
 10
284.2060130147648
 20
165.9439869852351
  0
VERTEX
  8
1
  6
CONTINUOUS
 62
     7
 10
283.8951217448537
 20
165.5651628152336
  0
VERTEX
  8
1
  6
CONTINUOUS
 62
     7
 10
283.6641095975169
 20
165.1329623385715
  0
VERTEX
  8
1
  6
CONTINUOUS
 62
     7
 10
283.52185338203
 20
164.6639931719671
  0
VERTEX
  8
1
  6
CONTINUOUS
 62
     7
 10
283.4738193966277
 20
164.1762757957118
  0
SEQEND
  8
1
  6
CONTINUOUS
 62
     7
  0
POLYLINE
  8
1
  6
CONTINUOUS
 62
     7
 66
     1
  0
VERTEX
  8
1
  6
CONTINUOUS
 62
     7
 10
197.5261806033722
 20
164.1762757957118
  0
VERTEX
  8
1
  6
CONTINUOUS
 62
     7
 10
197.4781466179699
 20
164.6639931719671
  0
VERTEX
  8
1
  6
CONTINUOUS
 62
     7
 10
197.335890402483
 20
165.1329623385715
  0
VERTEX
  8
1
  6
CONTINUOUS
 62
     7
 10
197.1048782551461
 20
165.5651628152336
  0
VERTEX
  8
1
  6
CONTINUOUS
 62
     7
 10
196.7939869852351
 20
165.9439869852351
  0
VERTEX
  8
1
  6
CONTINUOUS
 62
     7
 10
196.4151628152336
 20
166.2548782551461
  0
VERTEX
  8
1
  6
CONTINUOUS
 62
     7
 10
195.9829623385715
 20
166.485890402483
  0
VERTEX
  8
1
  6
CONTINUOUS
 62
     7
 10
195.5139931719671
 20
166.6281466179699
  0
VERTEX
  8
1
  6
CONTINUOUS
 62
     7
 10
195.0262757957118
 20
166.6761806033722
  0
SEQEND
  8
1
  6
CONTINUOUS
 62
     7
  0
LINE
  8
1
  6
CONTINUOUS
 62
     7
 10
283.4738193966277
 20
162.0
 11
283.4738193966277
 21
164.1762757957118
  0
LINE
  8
1
  6
CONTINUOUS
 62
     7
 10
283.4738193966277
 20
162.0
 11
283.4913492875309
 21
162.0
  0
LINE
  8
1
  6
CONTINUOUS
 62
     7
 10
197.5261806033722
 20
268.0
 11
197.5261806033722
 21
265.8237242042882
  0
LINE
  8
1
  6
CONTINUOUS
 62
     7
 10
197.5086507124692
 20
268.0
 11
197.5261806033722
 21
268.0
  0
LINE
  8
1
  6
CONTINUOUS
 62
     7
 10
190.1848313158414
 20
250.75
 11
190.1848313158414
 21
179.25
  0
LINE
  8
1
  6
CONTINUOUS
 62
     7
 10
283.4738193966277
 20
268.0
 11
283.4738193966277
 21
265.8237242042882
  0
LINE
  8
1
  6
CONTINUOUS
 62
     7
 10
283.4738193966277
 20
268.0
 11
283.4913492875309
 21
268.0
  0
LINE
  8
1
  6
CONTINUOUS
 62
     7
 10
197.5261806033723
 20
162.0
 11
197.5261806033722
 21
164.1762757957118
  0
LINE
  8
1
  6
CONTINUOUS
 62
     7
 10
197.5086507124692
 20
162.0
 11
197.5261806033723
 21
162.0
  0
LINE
  8
1
  6
CONTINUOUS
 62
     7
 10
233.4112765606211
 20
268.0
 11
237.48462550486
 21
268.0
  0
LINE
  8
1
  6
CONTINUOUS
 62
     7
 10
243.51537449514
 20
268.0
 11
247.5887234393789
 21
268.0
  0
LINE
  8
1
  6
CONTINUOUS
 62
     7
 10
243.51537449514
 20
162.0
 11
247.5887234393789
 21
162.0
  0
LINE
  8
1
  6
CONTINUOUS
 62
     7
 10
233.4112765606211
 20
162.0
 11
237.48462550486
 21
162.0
  0
LINE
  8
1
  6
CONTINUOUS
 62
     7
 10
247.5887234393789
 20
162.0
 11
283.4738193966277
 21
162.0
  0
LINE
  8
1
  6
CONTINUOUS
 62
     7
 10
247.5887234393789
 20
268.0
 11
283.4738193966277
 21
268.0
  0
LINE
  8
1
  6
CONTINUOUS
 62
     7
 10
197.5261806033722
 20
268.0
 11
233.411276560621
 21
268.0
  0
LINE
  8
1
  6
CONTINUOUS
 62
     7
 10
197.5261806033723
 20
162.0
 11
233.4112765606211
 21
162.0
  0
LINE
  8
1
  6
CONTINUOUS
 62
     7
 10
197.5
 20
196.5
 11
197.5
 21
233.5
  0
ARC
  8
1
  6
CONTINUOUS
 62
     7
 10
200.0
 20
183.5
 40
2.500000000000002
 50
180.0
 51
269.9999999999997
  0
LINE
  8
1
  6
CONTINUOUS
 62
     7
 10
199.9999999999999
 20
249.0
 11
214.0
 21
249.0
  0
ARC
  8
1
  6
CONTINUOUS
 62
     7
 10
200.0
 20
246.5
 40
2.500000000000002
 50
90.00000000000034
 51
180.0
  0
ARC
  8
1
  6
CONTINUOUS
 62
     7
 10
280.9999999999999
 20
246.5
 40
2.500000000000002
 50
0.0
 51
89.99999999999966
  0
ARC
  8
1
  6
CONTINUOUS
 62
     7
 10
280.9999999999999
 20
183.5
 40
2.500000000000002
 50
270.0000000000003
 51
0.0
  0
LINE
  8
1
  6
CONTINUOUS
 62
     7
 10
259.9999999999999
 20
181.0
 11
245.9999999999999
 21
181.0
  0
ARC
  8
1
  6
CONTINUOUS
 62
     7
 10
235.0
 20
246.5
 40
2.500000000000002
 50
0.0
 51
89.99999999999966
  0
ARC
  8
1
  6
CONTINUOUS
 62
     7
 10
246.0
 20
183.5
 40
2.500000000000002
 50
180.0
 51
269.9999999999997
  0
LINE
  8
1
  6
CONTINUOUS
 62
     7
 10
221.5
 20
215.6
 11
221.5
 21
214.4
  0
ARC
  8
1
  6
CONTINUOUS
 62
     7
 10
221.0
 20
215.6
 40
0.5000000000000004
 50
359.9999999999999
 51
90.0
  0
LINE
  8
1
  6
CONTINUOUS
 62
     7
 10
214.0
 20
216.1
 11
221.0
 21
216.1
  0
ARC
  8
1
  6
CONTINUOUS
 62
     7
 10
214.0
 20
215.6
 40
0.5000000000000004
 50
90.0
 51
180.0
  0
LINE
  8
1
  6
CONTINUOUS
 62
     7
 10
213.5
 20
214.4
 11
213.5
 21
215.6
  0
ARC
  8
1
  6
CONTINUOUS
 62
     7
 10
214.0
 20
214.4
 40
0.5000000000000001
 50
180.0
 51
270.0
  0
LINE
  8
1
  6
CONTINUOUS
 62
     7
 10
221.0
 20
213.9
 11
214.0
 21
213.9
  0
ARC
  8
1
  6
CONTINUOUS
 62
     7
 10
221.0
 20
214.4
 40
0.5000000000000004
 50
270.0
 51
0.0000000000000568
  0
LINE
  8
1
  6
CONTINUOUS
 62
     7
 10
283.4999999999999
 20
195.5
 11
283.4999999999999
 21
183.5
  0
ARC
  8
1
  6
CONTINUOUS
 62
     7
 10
217.5
 20
215.0
 40
8.3
 50
7.267735092953728
 51
42.47001826692701
  0
ENDBLK
  8
0
  0
BLOCK
  8
0
  2
D_FRAME_VIEW_7840
 70
     0
 10
0.0
 20
0.0
  0
LINE
  8
1
  6
CONTINUOUS
 62
     7
 10
196.508688789405
 20
105.4
 11
237.0
 21
105.4
  0
LINE
  8
1
  6
CONTINUOUS
 62
     7
 10
244.0
 20
105.4
 11
284.491311210595
 21
105.4
  0
LINE
  8
1
  6
CONTINUOUS
 62
     7
 10
182.5
 20
102.9
 11
182.5
 21
105.4
  0
LINE
  8
1
  6
CONTINUOUS
 62
     7
 10
187.5
 20
102.9
 11
182.5
 21
102.9
  0
LINE
  8
1
  6
CONTINUOUS
 62
     7
 10
182.5
 20
105.4
 11
187.5
 21
105.4
  0
LINE
  8
1
  6
CONTINUOUS
 62
     7
 10
293.5
 20
102.9
 11
286.0
 21
102.9
  0
LINE
  8
1
  6
CONTINUOUS
 62
     7
 10
286.0
 20
102.9
 11
285.9999999999999
 21
100.4
  0
LINE
  8
1
  6
CONTINUOUS
 62
     7
 10
268.0
 20
100.4
 11
285.9999999999999
 21
100.4
  0
LINE
  8
1
  6
CONTINUOUS
 62
     7
 10
268.0
 20
101.4
 11
268.0
 21
100.4
  0
LINE
  8
1
  6
CONTINUOUS
 62
     7
 10
259.0
 20
101.4
 11
268.0
 21
101.4
  0
LINE
  8
1
  6
CONTINUOUS
 62
     7
 10
259.0
 20
100.4
 11
259.0
 21
101.4
  0
ARC
  8
1
  6
CONTINUOUS
 62
     7
 10
240.5
 20
86.39999999999999
 40
15.0
 50
68.96053021868278
 51
111.0394697813173
  0
LINE
  8
1
  6
CONTINUOUS
 62
     7
 10
222.0
 20
100.4
 11
235.1148351928655
 21
100.4
  0
LINE
  8
1
  6
CONTINUOUS
 62
     7
 10
222.0
 20
101.4
 11
222.0
 21
100.4
  0
LINE
  8
1
  6
CONTINUOUS
 62
     7
 10
213.0
 20
101.4
 11
222.0
 21
101.4
  0
LINE
  8
1
  6
CONTINUOUS
 62
     7
 10
213.0
 20
100.4
 11
213.0
 21
101.4
  0
LINE
  8
1
  6
CONTINUOUS
 62
     7
 10
195.0
 20
100.4
 11
213.0
 21
100.4
  0
LINE
  8
1
  6
CONTINUOUS
 62
     7
 10
195.0
 20
100.4
 11
195.0
 21
102.9
  0
ARC
  8
1
  6
CONTINUOUS
 62
     7
 10
196.508688789405
 20
104.4
 40
1.000000000000003
 50
0.4999999999999818
 51
90.0
  0
LINE
  8
1
  6
CONTINUOUS
 62
     7
 10
197.5086507124692
 20
104.4087265354984
 11
197.5261806033723
 21
102.4
  0
LINE
  8
1
  6
CONTINUOUS
 62
     7
 10
197.5261806033723
 20
102.4
 11
233.4112765606211
 21
102.4
  0
ARC
  8
1
  6
CONTINUOUS
 62
     7
 10
240.5
 20
86.39999999999999
 40
17.5
 50
99.9219867140655
 51
113.8955081861615
  0
ARC
  8
1
  6
CONTINUOUS
 62
     7
 10
237.9956556052975
 20
104.9
 40
0.5000000000000004
 50
89.99999999999986
 51
179.5
  0
LINE
  8
1
  6
CONTINUOUS
 62
     7
 10
237.9956556052975
 20
105.4
 11
243.0043443947025
 21
105.4
  0
ARC
  8
1
  6
CONTINUOUS
 62
     7
 10
243.0043443947025
 20
104.9
 40
0.5000000000000016
 50
0.5000000000000353
 51
90.0
  0
LINE
  8
1
  6
CONTINUOUS
 62
     7
 10
243.5043253562346
 20
104.9043632677492
 11
243.51537449514
 21
103.6382573554887
  0
ARC
  8
1
  6
CONTINUOUS
 62
     7
 10
240.5
 20
86.39999999999999
 40
17.5
 50
66.10449181383854
 51
80.07801328593456
  0
LINE
  8
1
  6
CONTINUOUS
 62
     7
 10
247.5887234393789
 20
102.4
 11
283.4738193966277
 21
102.4
  0
LINE
  8
1
  6
CONTINUOUS
 62
     7
 10
283.4738193966277
 20
102.4
 11
283.4913492875309
 21
104.4087265354984
  0
ARC
  8
1
  6
CONTINUOUS
 62
     7
 10
284.491311210595
 20
104.4
 40
1.000000000000001
 50
90.0
 51
179.5
  0
LINE
  8
1
  6
CONTINUOUS
 62
     7
 10
284.491311210595
 20
105.4
 11
293.5
 21
105.4
  0
LINE
  8
1
  6
CONTINUOUS
 62
     7
 10
245.8851648071345
 20
100.4
 11
259.0
 21
100.4
  0
LINE
  8
1
  6
CONTINUOUS
 62
     7
 10
237.48462550486
 20
103.6382573554887
 11
237.4956746437654
 21
104.9043632677492
  0
LINE
  8
1
  6
CONTINUOUS
 62
     7
 10
195.0
 20
102.9
 11
187.5
 21
102.9
  0
LINE
  8
1
  6
CONTINUOUS
 62
     7
 10
187.5
 20
105.4
 11
196.508688789405
 21
105.4
  0
LINE
  8
1
  6
CONTINUOUS
 62
     7
 10
293.5
 20
105.4
 11
298.5
 21
105.4
  0
LINE
  8
1
  6
CONTINUOUS
 62
     7
 10
298.5
 20
105.4
 11
298.5
 21
102.9
  0
LINE
  8
1
  6
CONTINUOUS
 62
     7
 10
298.5
 20
102.9
 11
293.5
 21
102.9
  0
ARC
  8
1
  6
CONTINUOUS
 62
     7
 10
240.5
 20
86.39999999999999
 40
15.0
 50
111.0394697813172
 51
129.9445051898149
  0
ARC
  8
1
  6
CONTINUOUS
 62
     7
 10
278.4999999999999
 20
86.39999999999999
 40
14.0
 50
90.0
 51
270.0
  0
ARC
  8
1
  6
CONTINUOUS
 62
     7
 10
202.5
 20
86.39999999999999
 40
14.0
 50
270.0
 51
90.0
  0
ARC
  8
1
  6
CONTINUOUS
 62
     7
 10
240.5
 20
86.39999999999999
 40
14.99999999999998
 50
50.05549481018514
 51
68.9605302186828
  0
ARC
  8
1
  6
CONTINUOUS
 62
     7
 10
240.5
 20
86.40005825892408
 40
15.00005450029795
 50
249.3065374047724
 51
290.6934625952276
  0
LINE
  8
1
  6
CONTINUOUS
 62
     7
 10
229.5
 20
74.89999999999999
 11
230.8693198578709
 21
74.89999999999999
  0
ARC
  8
1
  6
CONTINUOUS
 62
     7
 10
240.5
 20
86.39999999999999
 40
15.0
 50
230.0554948101851
 51
249.306458768814
  0
LINE
  8
1
  6
CONTINUOUS
 62
     7
 10
250.1306801421291
 20
74.89999999999999
 11
251.4999999999999
 21
74.89999999999999
  0
ARC
  8
1
  6
CONTINUOUS
 62
     7
 10
293.0
 20
100.9
 40
0.5000000000000004
 50
270.0
 51
0.0
  0
LINE
  8
1
  6
CONTINUOUS
 62
     7
 10
293.0
 20
100.4
 11
291.0
 21
100.4
  0
LINE
  8
1
  6
CONTINUOUS
 62
     7
 10
187.5
 20
100.9
 11
187.5
 21
102.9
  0
LINE
  8
1
  6
CONTINUOUS
 62
     7
 10
190.0
 20
72.39999999999999
 11
202.5
 21
72.39999999999999
  0
ARC
  8
1
  6
CONTINUOUS
 62
     7
 10
188.0
 20
71.89999999999999
 40
0.5000000000000004
 50
90.0
 51
180.0
  0
LINE
  8
1
  6
CONTINUOUS
 62
     7
 10
188.0
 20
72.39999999999999
 11
190.0
 21
72.39999999999999
  0
LINE
  8
1
  6
CONTINUOUS
 62
     7
 10
293.5
 20
102.9
 11
293.5
 21
100.9
  0
ARC
  8
1
  6
CONTINUOUS
 62
     7
 10
251.4999999999999
 20
86.39999999999999
 40
11.5
 50
270.0
 51
90.0
  0
LINE
  8
1
  6
CONTINUOUS
 62
     7
 10
291.0
 20
69.39999999999999
 11
190.0
 21
69.39999999999999
  0
LINE
  8
1
  6
CONTINUOUS
 62
     7
 10
195.0
 20
100.4
 11
190.0
 21
100.4
  0
ARC
  8
1
  6
CONTINUOUS
 62
     7
 10
229.5
 20
86.39999999999999
 40
11.5
 50
90.00000000000006
 51
270.0
  0
LINE
  8
1
  6
CONTINUOUS
 62
     7
 10
230.8693198578709
 20
97.89999999999999
 11
229.5
 21
97.89999999999999
  0
ARC
  8
1
  6
CONTINUOUS
 62
     7
 10
188.0
 20
100.9
 40
0.5000000000000004
 50
180.0
 51
270.0
  0
LINE
  8
1
  6
CONTINUOUS
 62
     7
 10
190.0
 20
100.4
 11
188.0
 21
100.4
  0
LINE
  8
1
  6
CONTINUOUS
 62
     7
 10
291.0
 20
72.39999999999999
 11
293.0
 21
72.39999999999999
  0
ARC
  8
1
  6
CONTINUOUS
 62
     7
 10
293.0
 20
71.89999999999999
 40
0.5000000000000004
 50
359.9999999999993
 51
90.0
  0
ARC
  8
1
  6
CONTINUOUS
 62
     7
 10
240.5
 20
86.39999999999999
 40
15.0
 50
290.693541231186
 51
309.9445051898149
  0
LINE
  8
1
  6
CONTINUOUS
 62
     7
 10
278.4999999999999
 20
72.39999999999999
 11
291.0
 21
72.39999999999999
  0
LINE
  8
1
  6
CONTINUOUS
 62
     7
 10
291.0
 20
100.4
 11
285.9999999999999
 21
100.4
  0
ARC
  8
1
  6
CONTINUOUS
 62
     7
 10
190.0
 20
71.89999999999999
 40
2.500000000000002
 50
180.0
 51
270.0
  0
ARC
  8
1
  6
CONTINUOUS
 62
     7
 10
291.0
 20
71.89999999999999
 40
2.500000000000002
 50
270.0
 51
359.9999999999998
  0
LINE
  8
1
  6
CONTINUOUS
 62
     7
 10
251.4999999999999
 20
97.89999999999999
 11
250.1306801421291
 21
97.89999999999999
  0
LINE
  8
1
  6
CONTINUOUS
 62
     7
 10
190.9999999999999
 20
76.99999999999999
 11
190.9999999999999
 21
78.99999999999999
  0
LINE
  8
1
  6
CONTINUOUS
 62
     7
 10
190.9999999999999
 20
93.79999999999994
 11
190.9999999999999
 21
95.79999999999998
  0
LINE
  8
1
  6
CONTINUOUS
 62
     7
 10
290.0000000000001
 20
95.79999999999998
 11
290.0000000000001
 21
93.79999999999994
  0
LINE
  8
1
  6
CONTINUOUS
 62
     7
 10
190.9999999999999
 20
78.99999999999999
 11
190.9999999999999
 21
93.79999999999994
  0
LINE
  8
1
  6
CONTINUOUS
 62
     7
 10
290.0000000000001
 20
78.99999999999999
 11
290.0000000000001
 21
93.79999999999994
  0
LINE
  8
1
  6
CONTINUOUS
 62
     7
 10
290.0000000000001
 20
78.99999999999999
 11
290.0000000000001
 21
76.99999999999999
  0
LINE
  8
1
  6
CONTINUOUS
 62
     7
 10
191.0
 20
98.89999999999999
 11
191.0
 21
100.4
  0
LINE
  8
1
  6
CONTINUOUS
 62
     7
 10
190.9999999999999
 20
95.79999999999998
 11
190.9999999999999
 21
97.29999999999998
  0
LINE
  8
1
  6
CONTINUOUS
 62
     7
 10
191.0
 20
72.39999999999999
 11
191.0
 21
73.89999999999999
  0
LINE
  8
1
  6
CONTINUOUS
 62
     7
 10
290.0000000000001
 20
97.29999999999998
 11
290.0000000000001
 21
95.79999999999998
  0
LINE
  8
1
  6
CONTINUOUS
 62
     7
 10
190.9999999999999
 20
75.49999999999999
 11
190.9999999999999
 21
76.99999999999999
  0
LINE
  8
1
  6
CONTINUOUS
 62
     7
 10
290.0000000000001
 20
100.4
 11
290.0
 21
98.89999999999999
  0
LINE
  8
1
  6
CONTINUOUS
 62
     7
 10
290.0000000000001
 20
76.99999999999999
 11
290.0000000000001
 21
75.49999999999999
  0
LINE
  8
1
  6
CONTINUOUS
 62
     7
 10
290.0
 20
73.89999999999999
 11
290.0
 21
72.39999999999999
  0
LINE
  8
1
  6
CONTINUOUS
 62
     7
 10
190.9999999999999
 20
97.29999999999998
 11
191.0
 21
98.89999999999999
  0
LINE
  8
1
  6
CONTINUOUS
 62
     7
 10
191.0
 20
73.89999999999999
 11
190.9999999999999
 21
75.49999999999999
  0
LINE
  8
1
  6
CONTINUOUS
 62
     7
 10
290.0000000000001
 20
97.29999999999998
 11
290.0
 21
98.89999999999999
  0
LINE
  8
1
  6
CONTINUOUS
 62
     7
 10
290.0
 20
73.89999999999999
 11
290.0000000000001
 21
75.49999999999999
  0
LINE
  8
1
  6
CONTINUOUS
 62
     7
 10
244.0
 20
103.5464281994822
 11
244.0
 21
105.4
  0
LINE
  8
1
  6
CONTINUOUS
 62
     7
 10
244.0
 20
105.4
 11
243.0043443947025
 21
105.4
  0
LINE
  8
1
  6
CONTINUOUS
 62
     7
 10
237.0
 20
103.5464281994822
 11
237.0
 21
105.4
  0
LINE
  8
1
  6
CONTINUOUS
 62
     7
 10
237.0
 20
105.4
 11
237.9956556052975
 21
105.4
  0
LINE
  8
1
  6
CONTINUOUS
 62
     7
 10
257.9738193966277
 20
102.4
 11
258.0
 21
105.4
  0
LINE
  8
1
  6
CONTINUOUS
 62
     7
 10
211.9738193966277
 20
102.4
 11
212.0
 21
105.4
  0
LINE
  8
1
  6
CONTINUOUS
 62
     7
 10
223.0
 20
105.4
 11
223.0261806033723
 21
102.4
  0
LINE
  8
1
  6
CONTINUOUS
 62
     7
 10
268.9999999999999
 20
105.4
 11
269.0261806033722
 21
102.4
  0
LINE
  8
1
  6
CONTINUOUS
 62
     7
 10
298.5
 20
93.39999999999999
 11
298.5
 21
92.89999999999999
  0
LINE
  8
1
  6
CONTINUOUS
 62
     7
 10
298.5
 20
87.39999999999999
 11
298.5
 21
86.89999999999999
  0
LINE
  8
1
  6
CONTINUOUS
 62
     7
 10
298.5
 20
95.89999999999999
 11
298.5
 21
95.39999999999999
  0
LINE
  8
1
  6
CONTINUOUS
 62
     7
 10
298.5
 20
90.39999999999999
 11
298.5
 21
89.89999999999999
  0
LINE
  8
1
  6
CONTINUOUS
 62
     7
 10
298.5
 20
96.39999999999999
 11
298.5
 21
95.89999999999999
  0
LINE
  8
1
  6
CONTINUOUS
 62
     7
 10
298.5
 20
87.89999999999999
 11
298.5
 21
87.39999999999999
  0
LINE
  8
1
  6
CONTINUOUS
 62
     7
 10
298.5
 20
92.89999999999999
 11
298.5
 21
92.39999999999999
  0
LINE
  8
1
  6
CONTINUOUS
 62
     7
 10
298.5
 20
90.89999999999999
 11
298.5
 21
90.39999999999999
  0
LINE
  8
1
  6
CONTINUOUS
 62
     7
 10
182.5
 20
92.89999999999999
 11
182.5
 21
93.39999999999999
  0
LINE
  8
1
  6
CONTINUOUS
 62
     7
 10
182.5
 20
95.39999999999999
 11
182.5
 21
95.89999999999999
  0
LINE
  8
1
  6
CONTINUOUS
 62
     7
 10
182.5
 20
89.89999999999999
 11
182.5
 21
90.39999999999999
  0
LINE
  8
1
  6
CONTINUOUS
 62
     7
 10
182.5
 20
95.89999999999999
 11
182.5
 21
96.39999999999999
  0
LINE
  8
1
  6
CONTINUOUS
 62
     7
 10
182.5
 20
86.89999999999999
 11
182.5
 21
87.39999999999999
  0
LINE
  8
1
  6
CONTINUOUS
 62
     7
 10
182.5
 20
87.39999999999999
 11
182.5
 21
87.89999999999999
  0
LINE
  8
1
  6
CONTINUOUS
 62
     7
 10
182.5
 20
92.39999999999999
 11
182.5
 21
92.89999999999999
  0
LINE
  8
1
  6
CONTINUOUS
 62
     7
 10
182.5
 20
90.39999999999999
 11
182.5
 21
90.89999999999999
  0
POLYLINE
  8
1
  6
CONTINUOUS
 62
     7
 66
     1
  0
VERTEX
  8
1
  6
CONTINUOUS
 62
     7
 10
293.2932897804079
 20
98.89074411135924
  0
VERTEX
  8
1
  6
CONTINUOUS
 62
     7
 10
293.2547730166747
 20
99.18468792127757
  0
VERTEX
  8
1
  6
CONTINUOUS
 62
     7
 10
293.1355872284503
 20
99.46760548892352
  0
VERTEX
  8
1
  6
CONTINUOUS
 62
     7
 10
292.9403485981511
 20
99.72853913955636
  0
VERTEX
  8
1
  6
CONTINUOUS
 62
     7
 10
292.6766189093223
 20
99.95738265709223
  0
VERTEX
  8
1
  6
CONTINUOUS
 62
     7
 10
292.354612671348
 20
100.1452727077603
  0
VERTEX
  8
1
  6
CONTINUOUS
 62
     7
 10
291.9868015014896
 20
100.2849321257084
  0
VERTEX
  8
1
  6
CONTINUOUS
 62
     7
 10
291.5874310869233
 20
100.3709517647704
  0
VERTEX
  8
1
  6
CONTINUOUS
 62
     7
 10
291.1719694353104
 20
100.4
  0
SEQEND
  8
1
  6
CONTINUOUS
 62
     7
  0
LINE
  8
1
  6
CONTINUOUS
 62
     7
 10
290.8063656610462
 20
100.4
 11
290.7931945844436
 21
98.89074411135924
  0
ARC
  8
1
  6
CONTINUOUS
 62
     7
 10
183.5
 20
70.39999999999999
 40
1.000000000000001
 50
179.9999999999988
 51
270.0
  0
POLYLINE
  8
1
  6
CONTINUOUS
 62
     7
 66
     1
  0
VERTEX
  8
1
  6
CONTINUOUS
 62
     7
 10
189.8280305646895
 20
100.4
  0
VERTEX
  8
1
  6
CONTINUOUS
 62
     7
 10
189.4125689130767
 20
100.3709517647704
  0
VERTEX
  8
1
  6
CONTINUOUS
 62
     7
 10
189.0131984985103
 20
100.2849321257084
  0
VERTEX
  8
1
  6
CONTINUOUS
 62
     7
 10
188.645387328652
 20
100.1452727077603
  0
VERTEX
  8
1
  6
CONTINUOUS
 62
     7
 10
188.3233810906777
 20
99.95738265709224
  0
VERTEX
  8
1
  6
CONTINUOUS
 62
     7
 10
188.0596514018488
 20
99.72853913955636
  0
VERTEX
  8
1
  6
CONTINUOUS
 62
     7
 10
187.8644127715497
 20
99.46760548892352
  0
VERTEX
  8
1
  6
CONTINUOUS
 62
     7
 10
187.7452269833252
 20
99.18468792127757
  0
VERTEX
  8
1
  6
CONTINUOUS
 62
     7
 10
187.706710219592
 20
98.89074411135924
  0
SEQEND
  8
1
  6
CONTINUOUS
 62
     7
  0
LINE
  8
1
  6
CONTINUOUS
 62
     7
 10
187.924881914361
 20
73.89074411135925
 11
187.706710219592
 21
98.89074411135924
  0
POLYLINE
  8
1
  6
CONTINUOUS
 62
     7
 66
     1
  0
VERTEX
  8
1
  6
CONTINUOUS
 62
     7
 10
187.924881914361
 20
73.89074411135924
  0
VERTEX
  8
1
  6
CONTINUOUS
 62
     7
 10
187.9678677342064
 20
73.5994254862553
  0
VERTEX
  8
1
  6
CONTINUOUS
 62
     7
 10
188.0900985064939
 20
73.31956748635757
  0
VERTEX
  8
1
  6
CONTINUOUS
 62
     7
 10
188.2869136861483
 20
73.06184083556687
  0
VERTEX
  8
1
  6
CONTINUOUS
 62
     7
 10
188.5508088943689
 20
72.83607241013281
  0
VERTEX
  8
1
  6
CONTINUOUS
 62
     7
 10
188.8717220535783
 20
72.65087054904951
  0
VERTEX
  8
1
  6
CONTINUOUS
 62
     7
 10
189.2374170450328
 20
72.51329682613748
  0
VERTEX
  8
1
  6
CONTINUOUS
 62
     7
 10
189.6339502605915
 20
72.42859679883557
  0
VERTEX
  8
1
  6
CONTINUOUS
 62
     7
 10
190.0462022594585
 20
72.39999999999999
  0
SEQEND
  8
1
  6
CONTINUOUS
 62
     7
  0
LINE
  8
1
  6
CONTINUOUS
 62
     7
 10
182.5
 20
102.9
 11
182.5
 21
96.39999999999999
  0
LINE
  8
1
  6
CONTINUOUS
 62
     7
 10
182.5
 20
95.39999999999999
 11
182.5
 21
93.39999999999999
  0
LINE
  8
1
  6
CONTINUOUS
 62
     7
 10
182.5
 20
92.39999999999999
 11
182.5
 21
90.89999999999999
  0
LINE
  8
1
  6
CONTINUOUS
 62
     7
 10
182.5
 20
89.89999999999999
 11
182.5
 21
87.89999999999999
  0
LINE
  8
1
  6
CONTINUOUS
 62
     7
 10
182.5
 20
86.89999999999999
 11
182.5
 21
70.40000000000002
  0
LINE
  8
1
  6
CONTINUOUS
 62
     7
 10
190.0
 20
69.39999999999999
 11
183.5
 21
69.39999999999999
  0
POLYLINE
  8
1
  6
CONTINUOUS
 62
     7
 66
     1
  0
VERTEX
  8
1
  6
CONTINUOUS
 62
     7
 10
290.9537977405415
 20
72.39999999999999
  0
VERTEX
  8
1
  6
CONTINUOUS
 62
     7
 10
291.3660497394084
 20
72.42859679883557
  0
VERTEX
  8
1
  6
CONTINUOUS
 62
     7
 10
291.7625829549672
 20
72.51329682613748
  0
VERTEX
  8
1
  6
CONTINUOUS
 62
     7
 10
292.1282779464217
 20
72.65087054904951
  0
VERTEX
  8
1
  6
CONTINUOUS
 62
     7
 10
292.4491911056311
 20
72.83607241013281
  0
VERTEX
  8
1
  6
CONTINUOUS
 62
     7
 10
292.7130863138516
 20
73.06184083556687
  0
VERTEX
  8
1
  6
CONTINUOUS
 62
     7
 10
292.909901493506
 20
73.31956748635757
  0
VERTEX
  8
1
  6
CONTINUOUS
 62
     7
 10
293.0321322657936
 20
73.5994254862553
  0
VERTEX
  8
1
  6
CONTINUOUS
 62
     7
 10
293.075118085639
 20
73.89074411135924
  0
SEQEND
  8
1
  6
CONTINUOUS
 62
     7
  0
LINE
  8
1
  6
CONTINUOUS
 62
     7
 10
290.5750228896746
 20
73.89074411135924
 11
290.5620133629049
 21
72.39999999999999
  0
LINE
  8
1
  6
CONTINUOUS
 62
     7
 10
293.293289780408
 20
98.89074411135924
 11
293.075118085639
 21
73.89074411135925
  0
LINE
  8
1
  6
CONTINUOUS
 62
     7
 10
290.5750228896746
 20
73.89074411135925
 11
290.7931945844436
 21
98.89074411135924
  0
ARC
  8
1
  6
CONTINUOUS
 62
     7
 10
297.5
 20
70.39999999999999
 40
1.000000000000001
 50
270.0
 51
0.0000000000011937
  0
LINE
  8
1
  6
CONTINUOUS
 62
     7
 10
298.5
 20
86.89999999999999
 11
298.5
 21
70.40000000000002
  0
LINE
  8
1
  6
CONTINUOUS
 62
     7
 10
298.5
 20
89.89999999999999
 11
298.5
 21
87.89999999999998
  0
LINE
  8
1
  6
CONTINUOUS
 62
     7
 10
298.5
 20
92.39999999999999
 11
298.5
 21
90.89999999999998
  0
LINE
  8
1
  6
CONTINUOUS
 62
     7
 10
298.5
 20
95.39999999999999
 11
298.5
 21
93.39999999999998
  0
LINE
  8
1
  6
CONTINUOUS
 62
     7
 10
298.5
 20
102.9
 11
298.5
 21
96.39999999999998
  0
LINE
  8
1
  6
CONTINUOUS
 62
     7
 10
291.0
 20
69.39999999999999
 11
297.5
 21
69.39999999999999
  0
LINE
  8
1
  6
CONTINUOUS
 62
     7
 10
190.2068054155564
 20
98.89074411135924
 11
190.1936343389538
 21
100.4
  0
LINE
  8
1
  6
CONTINUOUS
 62
     7
 10
190.437986637095
 20
72.39999999999999
 11
190.4249771103254
 21
73.89074411135924
  0
LINE
  8
1
  6
CONTINUOUS
 62
     7
 10
190.2068054155564
 20
98.89074411135924
 11
190.4249771103254
 21
73.89074411135925
  0
LINE
  8
1
  6
CONTINUOUS
 62
     7
 10
183.5
 20
69.39999999999999
 11
181.5
 21
69.39999999999999
  0
LINE
  8
1
  6
CONTINUOUS
 62
     7
 10
182.5
 20
70.39999999999999
 11
181.5
 21
69.39999999999999
  0
LINE
  8
1
  6
CONTINUOUS
 62
     7
 10
181.5
 20
101.4
 11
182.5000000000001
 21
100.4
  0
LINE
  8
1
  6
CONTINUOUS
 62
     7
 10
182.5
 20
101.4
 11
181.5
 21
101.4
  0
LINE
  8
1
  6
CONTINUOUS
 62
     7
 10
290.0
 20
73.04999999999998
 11
290.567685826969
 21
73.04999999999998
  0
LINE
  8
1
  6
CONTINUOUS
 62
     7
 10
190.2383669446265
 20
97.66823008753146
 11
190.2172455321022
 21
97.70020398343576
  0
LINE
  8
1
  6
CONTINUOUS
 62
     7
 10
205.242308991162
 20
100.3215799558773
 11
205.1912996432615
 21
100.3997903205307
  0
ENDBLK
  8
0
  0
BLOCK
  8
0
  2
D_FRAME_VIEW_7174
 70
     0
 10
0.0
 20
0.0
  0
LINE
  8
1
  6
CONTINUOUS
 62
     7
 10
130.4
 20
250.75
 11
130.4
 21
262.7500000000001
  0
LINE
  8
1
  6
CONTINUOUS
 62
     7
 10
130.4
 20
167.25
 11
130.4
 21
179.25
  0
LINE
  8
1
  6
CONTINUOUS
 62
     7
 10
95.39999999999998
 20
242.253079165932
 11
94.39999999999998
 21
242.2618060337228
  0
LINE
  8
1
  6
CONTINUOUS
 62
     7
 10
94.39999999999998
 20
242.2618060337228
 11
94.39999999999998
 21
244.2294670984865
  0
LINE
  8
1
  6
CONTINUOUS
 62
     7
 10
94.39999999999998
 20
244.2294670984865
 11
95.39999999999998
 21
244.2381939662772
  0
LINE
  8
1
  6
CONTINUOUS
 62
     7
 10
94.39999999999998
 20
187.7381939662772
 11
94.39999999999998
 21
185.7705329015135
  0
LINE
  8
1
  6
CONTINUOUS
 62
     7
 10
94.39999999999998
 20
187.7381939662772
 11
95.39999999999998
 21
187.746920834068
  0
LINE
  8
1
  6
CONTINUOUS
 62
     7
 10
95.39999999999998
 20
185.7618060337228
 11
94.39999999999998
 21
185.7705329015135
  0
LINE
  8
1
  6
CONTINUOUS
 62
     7
 10
127.9
 20
268.0
 11
130.4
 21
268.0
  0
LINE
  8
1
  6
CONTINUOUS
 62
     7
 10
130.4
 20
268.0
 11
130.4
 21
263.0
  0
LINE
  8
1
  6
CONTINUOUS
 62
     7
 10
127.9
 20
263.0
 11
127.9
 21
268.0
  0
LINE
  8
1
  6
CONTINUOUS
 62
     7
 10
130.4
 20
263.0
 11
130.4
 21
262.75002
  0
LINE
  8
1
  6
CONTINUOUS
 62
     7
 10
130.4
 20
262.7500000000001
 11
130.4
 21
250.75
  0
LINE
  8
1
  6
CONTINUOUS
 62
     7
 10
130.4
 20
250.74998
 11
130.4
 21
215.0
  0
LINE
  8
1
  6
CONTINUOUS
 62
     7
 10
130.4
 20
215.0
 11
130.4
 21
179.25002
  0
LINE
  8
1
  6
CONTINUOUS
 62
     7
 10
130.4
 20
179.25
 11
130.4
 21
167.25
  0
LINE
  8
1
  6
CONTINUOUS
 62
     7
 10
130.4
 20
167.24998
 11
130.4
 21
167.0
  0
LINE
  8
1
  6
CONTINUOUS
 62
     7
 10
127.9
 20
167.0
 11
127.9
 21
175.0
  0
LINE
  8
1
  6
CONTINUOUS
 62
     7
 10
125.4
 20
177.5
 11
95.39999999999998
 21
177.2381939662772
  0
LINE
  8
1
  6
CONTINUOUS
 62
     7
 10
125.4
 20
185.5
 11
125.4
 21
177.5
  0
ARC
  8
1
  6
CONTINUOUS
 62
     7
 10
122.4
 20
189.9826224211899
 40
2.000000000000002
 50
270.5000000000001
 51
0.0
  0
LINE
  8
1
  6
CONTINUOUS
 62
     7
 10
124.4
 20
190.01737757881
 11
124.4
 21
189.9826224211899
  0
ARC
  8
1
  6
CONTINUOUS
 62
     7
 10
122.4
 20
190.01737757881
 40
2.000000000000006
 50
0.0
 51
89.5
  0
LINE
  8
1
  6
CONTINUOUS
 62
     7
 10
95.39999999999998
 20
192.253079165932
 11
122.4174530709967
 21
192.0173014249384
  0
LINE
  8
1
  6
CONTINUOUS
 62
     7
 10
125.4
 20
194.5
 11
95.39999999999998
 21
194.2381939662772
  0
LINE
  8
1
  6
CONTINUOUS
 62
     7
 10
125.4
 20
235.5
 11
125.4
 21
194.5
  0
LINE
  8
1
  6
CONTINUOUS
 62
     7
 10
125.4
 20
235.5
 11
95.39999999999998
 21
235.7618060337228
  0
LINE
  8
1
  6
CONTINUOUS
 62
     7
 10
95.39999999999998
 20
237.746920834068
 11
122.4174530709967
 21
237.9826985750616
  0
ARC
  8
1
  6
CONTINUOUS
 62
     7
 10
122.4
 20
239.9826224211899
 40
2.000000000000002
 50
270.5000000000001
 51
0.0
  0
LINE
  8
1
  6
CONTINUOUS
 62
     7
 10
124.4
 20
240.01737757881
 11
124.4
 21
239.9826224211899
  0
ARC
  8
1
  6
CONTINUOUS
 62
     7
 10
122.4
 20
240.01737757881
 40
2.000000000000006
 50
0.0
 51
89.5
  0
LINE
  8
1
  6
CONTINUOUS
 62
     7
 10
125.4
 20
252.5
 11
125.4
 21
244.5
  0
LINE
  8
1
  6
CONTINUOUS
 62
     7
 10
125.4
 20
252.5
 11
95.39999999999998
 21
252.7618060337228
  0
LINE
  8
1
  6
CONTINUOUS
 62
     7
 10
127.9
 20
263.0
 11
127.9
 21
255.0
  0
LINE
  8
1
  6
CONTINUOUS
 62
     7
 10
125.4
 20
244.5
 11
95.39999999999998
 21
244.2381939662772
  0
LINE
  8
1
  6
CONTINUOUS
 62
     7
 10
95.39999999999998
 20
242.253079165932
 11
122.4174530709967
 21
242.0173014249384
  0
LINE
  8
1
  6
CONTINUOUS
 62
     7
 10
95.39999999999998
 20
187.746920834068
 11
122.4174530709967
 21
187.9826985750616
  0
LINE
  8
1
  6
CONTINUOUS
 62
     7
 10
125.4
 20
185.5
 11
95.39999999999998
 21
185.7618060337228
  0
LINE
  8
1
  6
CONTINUOUS
 62
     7
 10
94.39999999999998
 20
192.2618060337228
 11
94.39999999999998
 21
194.2294670984865
  0
LINE
  8
1
  6
CONTINUOUS
 62
     7
 10
94.39999999999998
 20
194.2294670984865
 11
95.39999999999998
 21
194.2381939662772
  0
LINE
  8
1
  6
CONTINUOUS
 62
     7
 10
95.39999999999998
 20
192.253079165932
 11
94.39999999999998
 21
192.2618060337228
  0
LINE
  8
1
  6
CONTINUOUS
 62
     7
 10
94.39999999999998
 20
175.0
 11
94.39999999999998
 21
177.2294670984865
  0
LINE
  8
1
  6
CONTINUOUS
 62
     7
 10
94.39999999999998
 20
177.2294670984865
 11
95.39999999999998
 21
177.2381939662772
  0
LINE
  8
1
  6
CONTINUOUS
 62
     7
 10
130.4
 20
162.0
 11
127.9
 21
162.0
  0
LINE
  8
1
  6
CONTINUOUS
 62
     7
 10
127.9
 20
162.0
 11
127.9
 21
167.0
  0
LINE
  8
1
  6
CONTINUOUS
 62
     7
 10
130.4
 20
167.0
 11
130.4
 21
162.0
  0
LINE
  8
1
  6
CONTINUOUS
 62
     7
 10
94.39999999999998
 20
252.7705329015135
 11
94.39999999999998
 21
255.0
  0
LINE
  8
1
  6
CONTINUOUS
 62
     7
 10
95.39999999999998
 20
252.7618060337228
 11
94.39999999999998
 21
252.7705329015135
  0
LINE
  8
1
  6
CONTINUOUS
 62
     7
 10
94.39999999999998
 20
235.7705329015135
 11
94.39999999999998
 21
237.7381939662772
  0
LINE
  8
1
  6
CONTINUOUS
 62
     7
 10
95.39999999999998
 20
235.7618060337228
 11
94.39999999999998
 21
235.7705329015135
  0
LINE
  8
1
  6
CONTINUOUS
 62
     7
 10
94.39999999999998
 20
237.7381939662772
 11
95.39999999999998
 21
237.746920834068
  0
ARC
  8
1
  6
CONTINUOUS
 62
     7
 10
122.4
 20
214.9826224211899
 40
2.000000000000002
 50
270.5000000000002
 51
0.0
  0
LINE
  8
1
  6
CONTINUOUS
 62
     7
 10
125.4
 20
210.5
 11
95.4
 21
210.7618060337228
  0
LINE
  8
1
  6
CONTINUOUS
 62
     7
 10
125.4
 20
219.5
 11
95.39999999999998
 21
219.2381939662772
  0
LINE
  8
1
  6
CONTINUOUS
 62
     7
 10
122.4174530709967
 20
212.9826985750616
 11
95.39999999999998
 21
212.746920834068
  0
LINE
  8
1
  6
CONTINUOUS
 62
     7
 10
95.39999999999998
 20
217.253079165932
 11
95.39999999999998
 21
219.2381939662772
  0
LINE
  8
1
  6
CONTINUOUS
 62
     7
 10
95.4
 20
210.7618060337228
 11
95.39999999999998
 21
212.746920834068
  0
LINE
  8
1
  6
CONTINUOUS
 62
     7
 10
124.4
 20
215.01737757881
 11
124.4
 21
214.9826224211899
  0
LINE
  8
1
  6
CONTINUOUS
 62
     7
 10
95.39999999999998
 20
217.253079165932
 11
122.4174530709967
 21
217.0173014249384
  0
ARC
  8
1
  6
CONTINUOUS
 62
     7
 10
122.4
 20
215.01737757881
 40
2.000000000000006
 50
0.0
 51
89.49999999999976
  0
LINE
  8
1
  6
CONTINUOUS
 62
     7
 10
125.9
 20
266.0
 11
127.9
 21
266.0
  0
LINE
  8
1
  6
CONTINUOUS
 62
     7
 10
95.39999999999998
 20
232.25
 11
94.39999999999998
 21
233.25
  0
LINE
  8
1
  6
CONTINUOUS
 62
     7
 10
94.39999999999998
 20
235.7705329015135
 11
94.39999999999998
 21
233.25
  0
LINE
  8
1
  6
CONTINUOUS
 62
     7
 10
95.39999999999998
 20
219.2381939662772
 11
95.39999999999998
 21
232.25
  0
LINE
  8
1
  6
CONTINUOUS
 62
     7
 10
94.39999999999998
 20
255.0
 11
94.39999999999998
 21
263.5
  0
ARC
  8
1
  6
CONTINUOUS
 62
     7
 10
96.89999999999998
 20
265.5
 40
0.5000000000000004
 50
0.0
 51
90.0
  0
LINE
  8
1
  6
CONTINUOUS
 62
     7
 10
97.39999999999999
 20
265.5
 11
97.39999999999999
 21
263.5
  0
LINE
  8
1
  6
CONTINUOUS
 62
     7
 10
94.39999999999998
 20
196.75
 11
95.39999999999998
 21
197.75
  0
LINE
  8
1
  6
CONTINUOUS
 62
     7
 10
94.39999999999998
 20
196.75
 11
94.39999999999998
 21
194.2294670984865
  0
LINE
  8
1
  6
CONTINUOUS
 62
     7
 10
95.39999999999998
 20
197.75
 11
95.39999999999998
 21
210.7618060337228
  0
ARC
  8
1
  6
CONTINUOUS
 62
     7
 10
96.89999999999998
 20
263.5
 40
2.500000000000002
 50
90.0
 51
180.0
  0
LINE
  8
1
  6
CONTINUOUS
 62
     7
 10
125.4
 20
255.0
 11
125.4
 21
263.5
  0
LINE
  8
1
  6
CONTINUOUS
 62
     7
 10
125.4
 20
263.5
 11
125.4
 21
265.5
  0
ARC
  8
1
  6
CONTINUOUS
 62
     7
 10
125.9
 20
265.5
 40
0.5000000000000004
 50
90.0
 51
180.0
  0
LINE
  8
1
  6
CONTINUOUS
 62
     7
 10
125.4
 20
164.5
 11
125.4
 21
166.5
  0
ARC
  8
1
  6
CONTINUOUS
 62
     7
 10
96.89999999999998
 20
166.5
 40
2.500000000000002
 50
180.0
 51
269.9999999999998
  0
LINE
  8
1
  6
CONTINUOUS
 62
     7
 10
94.39999999999998
 20
166.5
 11
94.39999999999998
 21
175.0
  0
LINE
  8
1
  6
CONTINUOUS
 62
     7
 10
125.4
 20
166.5
 11
125.4
 21
175.0
  0
LINE
  8
1
  6
CONTINUOUS
 62
     7
 10
97.39999999999999
 20
175.0
 11
97.39999999999999
 21
166.5
  0
LINE
  8
1
  6
CONTINUOUS
 62
     7
 10
97.39999999999999
 20
263.5
 11
97.39999999999999
 21
255.0
  0
LINE
  8
1
  6
CONTINUOUS
 62
     7
 10
97.39999999999999
 20
166.5
 11
97.39999999999999
 21
164.5
  0
ARC
  8
1
  6
CONTINUOUS
 62
     7
 10
96.89999999999998
 20
164.5
 40
0.5000000000000004
 50
270.0
 51
0.0
  0
LINE
  8
1
  6
CONTINUOUS
 62
     7
 10
94.39999999999998
 20
177.2294670984865
 11
94.39999999999998
 21
185.7207402306957
  0
LINE
  8
1
  6
CONTINUOUS
 62
     7
 10
94.39999999999998
 20
244.2792597693043
 11
94.39999999999998
 21
252.7705329015135
  0
LINE
  8
1
  6
CONTINUOUS
 62
     7
 10
94.39999999999998
 20
237.7381939662772
 11
94.39999999999998
 21
239.25
  0
LINE
  8
1
  6
CONTINUOUS
 62
     7
 10
94.39999999999998
 20
190.75
 11
94.39999999999999
 21
192.2618060337228
  0
LINE
  8
1
  6
CONTINUOUS
 62
     7
 10
94.39999999999998
 20
185.7207402306957
 11
94.39999999999998
 21
185.7705329015135
  0
LINE
  8
1
  6
CONTINUOUS
 62
     7
 10
94.39999999999998
 20
187.7381939662772
 11
94.39999999999998
 21
189.25
  0
LINE
  8
1
  6
CONTINUOUS
 62
     7
 10
94.39999999999998
 20
240.75
 11
94.39999999999998
 21
242.2618060337228
  0
LINE
  8
1
  6
CONTINUOUS
 62
     7
 10
94.39999999999998
 20
244.2294670984865
 11
94.39999999999998
 21
244.2792597693043
  0
LINE
  8
1
  6
CONTINUOUS
 62
     7
 10
95.39999999999998
 20
212.746920834068
 11
95.39999999999998
 21
217.253079165932
  0
LINE
  8
1
  6
CONTINUOUS
 62
     7
 10
94.39999999999998
 20
239.25
 11
94.39999999999998
 21
240.75
  0
LINE
  8
1
  6
CONTINUOUS
 62
     7
 10
94.39999999999998
 20
189.25
 11
94.39999999999998
 21
190.75
  0
LINE
  8
1
  6
CONTINUOUS
 62
     7
 10
125.4
 20
268.0
 11
125.4
 21
265.5
  0
LINE
  8
1
  6
CONTINUOUS
 62
     7
 10
125.4
 20
268.0
 11
127.9
 21
268.0
  0
LINE
  8
1
  6
CONTINUOUS
 62
     7
 10
125.4
 20
162.0
 11
125.4
 21
164.5
  0
LINE
  8
1
  6
CONTINUOUS
 62
     7
 10
125.4
 20
162.0
 11
127.9
 21
162.0
  0
LINE
  8
1
  6
CONTINUOUS
 62
     7
 10
96.89999999999998
 20
164.0
 11
125.4
 21
164.0
  0
LINE
  8
1
  6
CONTINUOUS
 62
     7
 10
125.4
 20
266.0
 11
96.89999999999998
 21
266.0
  0
LINE
  8
1
  6
CONTINUOUS
 62
     7
 10
95.65012267718883
 20
164.3348656674648
 11
95.65000000002199
 21
164.3349364905262
  0
ENDBLK
  8
0
  0
BLOCK
  8
0
  2
D_FRAME_DRAWING_17
 70
     0
 10
0.0
 20
0.0
  0
LINE
  8
0
  6
CONTINUOUS
 62
     7
 10
0.0
 20
0.0
 11
420.0
 21
0.0
  0
LINE
  8
0
  6
CONTINUOUS
 62
     7
 10
420.0
 20
0.0
 11
420.0
 21
297.0
  0
LINE
  8
0
  6
CONTINUOUS
 62
     7
 10
420.0
 20
297.0
 11
0.0
 21
297.0
  0
LINE
  8
0
  6
CONTINUOUS
 62
     7
 10
0.0
 20
297.0
 11
0.0
 21
0.0
  0
ENDBLK
  8
0
  0
ENDSEC
  0
SECTION
  2
ENTITIES
  0
INSERT
  8
1
  6
CONTINUOUS
 62
     7
  2
D_FRAME_VIEW_4974
 10
0.0
 20
0.0
 30
0.0
  0
TEXT
  8
1
  6
CONTINUOUS
 62
     7
 10
67.08181192947356
 20
87.39621107915468
 40
10.0
  1
ＳＢＧ－Ｗ（Ｍ）
  0
ARC
  8
1
  6
CONTINUOUS
 62
     7
 10
235.0
 20
183.5
 40
2.500000000000001
 50
270.0
 51
0.0
  0
LINE
  8
1
  6
CONTINUOUS
 62
     7
 10
246.0
 20
249.0
 11
280.9999999999999
 21
249.0
  0
LINE
  8
1
  6
CONTINUOUS
 62
     7
 10
290.567685826969
 20
250.75
 11
290.567685826969
 21
179.25
  0
ARC
  8
1
  6
CONTINUOUS
 62
     7
 10
263.5
 20
215.0
 40
8.199999999999996
 50
269.9999999999995
 51
90.0000000000004
  0
ARC
  8
1
  6
CONTINUOUS
 62
     7
 10
217.5
 20
215.0
 40
8.3
 50
180.0
 51
0.0
  0
LINE
  8
1
  6
CONTINUOUS
 62
     7
 10
127.9
 20
255.0
 11
94.39999999999998
 21
255.0
  0
LINE
  8
1
  6
CONTINUOUS
 62
     7
 10
127.9
 20
175.0
 11
94.39999999999998
 21
175.0
  0
LINE
  8
1
  6
CENTER
 62
     1
 10
212.0
 20
173.25
 11
268.9999999999999
 21
173.25
  0
LINE
  8
1
  6
CONTINUOUS
 62
     7
 10
283.4999999999999
 20
246.5
 11
283.4999999999999
 21
183.5
  0
LINE
  8
1
  6
CONTINUOUS
 62
     7
 10
298.5
 20
262.7500000000001
 11
182.5
 21
262.7500000000001
  0
ARC
  8
1
  6
CONTINUOUS
 62
     7
 10
263.5
 20
215.0
 40
8.199999999999996
 50
90.0000000000004
 51
269.9999999999997
  0
LINE
  8
1
  6
CENTER
 62
     1
 10
182.5
 20
215.0
 11
298.5
 21
215.0
  0
LINE
  8
1
  6
CENTER
 62
     1
 10
240.5
 20
162.0
 11
240.5
 21
268.0
  0
LINE
  8
1
  6
CENTER
 62
     1
 10
94.39999999999998
 20
240.0
 11
130.4
 21
240.0
  0
LINE
  8
1
  6
CENTER
 62
     1
 10
94.39999999999998
 20
190.0
 11
130.4
 21
190.0
  0
LINE
  8
1
  6
CENTER
 62
     1
 10
182.5
 20
86.39999999999999
 11
298.5
 21
86.39999999999999
  0
LINE
  8
1
  6
CONTINUOUS
 62
     7
 10
237.5
 20
246.5
 11
237.5
 21
183.5
  0
LINE
  8
1
  6
CENTER
 62
     1
 10
240.5
 20
69.39999999999999
 11
240.5
 21
105.4
  0
LINE
  8
1
  6
CENTER
 62
     1
 10
217.5
 20
162.0
 11
217.5
 21
268.0
  0
LINE
  8
1
  6
CENTER
 62
     1
 10
95.39999999999998
 20
215.0
 11
130.4
 21
215.0
  0
LINE
  8
1
  6
CONTINUOUS
 62
     7
 10
235.0
 20
181.0
 11
200.0
 21
181.0
  0
ARC
  8
1
  6
CONTINUOUS
 62
     7
 10
217.5
 20
215.0
 40
8.3
 50
359.9999999999999
 51
180.0
  0
LINE
  8
1
  6
CONTINUOUS
 62
     7
 10
197.5
 20
183.5
 11
197.5
 21
246.5
  0
LINE
  8
1
  6
CONTINUOUS
 62
     7
 10
280.9999999999999
 20
181.0
 11
246.0
 21
181.0
  0
LINE
  8
1
  6
CONTINUOUS
 62
     7
 10
243.5
 20
183.5
 11
243.5000000000001
 21
246.5
  0
LINE
  8
1
  6
CENTER
 62
     1
 10
212.0
 20
256.75
 11
268.9999999999999
 21
256.75
  0
LINE
  8
1
  6
CENTER
 62
     1
 10
263.4999999999999
 20
162.0
 11
263.4999999999999
 21
268.0
  0
LINE
  8
1
  6
CONTINUOUS
 62
     7
 10
182.5
 20
167.25
 11
298.5
 21
167.25
  0
LINE
  8
1
  6
CONTINUOUS
 62
     7
 10
200.0
 20
249.0
 11
235.0
 21
249.0
  0
ARC
  8
1
  6
CONTINUOUS
 62
     7
 10
246.0
 20
246.5
 40
2.500000000000001
 50
90.0
 51
180.0
  0
LINE
  8
1
  6
CONTINUOUS
 62
     7
 10
241.475
 20
179.25
 11
241.475
 21
250.75
  0
INSERT
  8
1
  6
CONTINUOUS
 62
     7
  2
D_FRAME_VIEW_7840
 10
0.0
 20
0.0
 30
0.0
  0
INSERT
  8
1
  6
CONTINUOUS
 62
     7
  2
D_FRAME_VIEW_7174
 10
0.0
 20
0.0
 30
0.0
  0
LINE
  8
1
  6
CENTER
 62
     1
 10
217.5
 20
204.7
 11
217.5
 21
225.3
  0
INSERT
  8
0
 62
     7
  2
D_FRAME_DRAWING_17
 10
0.0
 20
0.0
 30
0.0
  0
ENDSEC
  0
EOF
