  0
SECTION
  2
HEADER
  9
$ACADVER
  1
AC1004
  9
$INSBASE
 10
0.0
 20
0.0
  9
$EXTMIN
 10
0.0
 20
0.0
  9
$EXTMAX
 10
404.2371507359818
 20
260.5
  9
$LIMMIN
 10
0.0
 20
0.0
  9
$LIMMAX
 10
12.0
 20
9.0
  9
$ORTHOMODE
 70
     0
  9
$REGENMODE
 70
     1
  9
$FILLMODE
 70
     1
  9
$QTEXTMODE
 70
     0
  9
$DRAGMODE
 70
     2
  9
$LTSCALE
 40
1.0
  9
$OSMODE
 70
    37
  9
$ATTMODE
 70
     1
  9
$TEXTSIZE
 40
0.2
  9
$TRACEWID
 40
0.05
  9
$TEXTSTYLE
  7
STANDARD
  9
$CLAYER
  8
0
  9
$CELTYPE
  6
BYLAYER
  9
$CECOLOR
 62
   256
  9
$DIMSCALE
 40
1.0
  9
$DIMASZ
 40
3.0
  9
$DIMEXO
 40
0.0625
  9
$DIMDLI
 40
0.38
  9
$DIMRND
 40
0.0
  9
$DIMDLE
 40
0.0
  9
$DIMEXE
 40
1.5
  9
$DIMTP
 40
0.0
  9
$DIMTM
 40
0.0
  9
$DIMTXT
 40
3.0
  9
$DIMCEN
 40
0.09
  9
$DIMTSZ
 40
0.0
  9
$DIMTOL
 70
     0
  9
$DIMLIM
 70
     0
  9
$DIMTIH
 70
     1
  9
$DIMTOH
 70
     1
  9
$DIMSE1
 70
     0
  9
$DIMSE2
 70
     0
  9
$DIMTAD
 70
     1
  9
$DIMZIN
 70
     0
  9
$DIMBLK
  1

  9
$DIMASO
 70
     1
  9
$DIMSHO
 70
     1
  9
$DIMPOST
  1

  9
$DIMAPOST
  1

  9
$DIMALT
 70
     0
  9
$DIMALTD
 70
     2
  9
$DIMALTF
 40
25.4
  9
$DIMLFAC
 40
1.0
  9
$DIMTOFL
 70
     0
  9
$DIMTVP
 40
0.0
  9
$DIMTIX
 70
     0
  9
$DIMSOXD
 70
     0
  9
$DIMSAH
 70
     0
  9
$DIMBLK1
  1

  9
$DIMBLK2
  1

  9
$LUNITS
 70
     2
  9
$LUPREC
 70
     4
  9
$SKETCHINC
 40
0.1
  9
$FILLETRAD
 40
0.5
  9
$AUNITS
 70
     0
  9
$AUPREC
 70
     0
  9
$MENU
  1
.
  9
$ELEVATION
 40
0.0
  9
$THICKNESS
 40
0.0
  9
$LIMCHECK
 70
     0
  9
$CHAMFERA
 40
0.0
  9
$CHAMFERB
 40
0.0
  9
$SKPOLY
 70
     0
  9
$TDCREATE
 40
2460628.572451933
  9
$TDUPDATE
 40
2460628.572457002
  9
$TDINDWG
 40
0.0000000116
  9
$TDUSRTIMER
 40
0.0000000116
  9
$USRTIMER
 70
     1
  9
$ANGBASE
 50
0.0
  9
$ANGDIR
 70
     0
  9
$PDMODE
 70
     0
  9
$PDSIZE
 40
0.0
  9
$PLINEWID
 40
0.0
  9
$COORDS
 70
     1
  9
$SPLFRAME
 70
     0
  9
$SPLINETYPE
 70
     6
  9
$SPLINESEGS
 70
     8
  9
$ATTDIA
 70
     0
  9
$ATTREQ
 70
     1
  9
$SURFTAB1
 70
     6
  9
$SURFTAB2
 70
     6
  9
$SURFTYPE
 70
     6
  9
$SURFU
 70
     6
  9
$SURFV
 70
     6
  9
$UCSNAME
  2

  9
$UCSORG
 10
0.0
 20
0.0
 30
0.0
  9
$UCSXDIR
 10
1.0
 20
0.0
 30
0.0
  9
$UCSYDIR
 10
0.0
 20
1.0
 30
0.0
  9
$USERI1
 70
     0
  9
$USERI2
 70
     0
  9
$USERI3
 70
     0
  9
$USERI4
 70
     0
  9
$USERI5
 70
     0
  9
$USERR1
 40
0.0
  9
$USERR2
 40
0.0
  9
$USERR3
 40
0.0
  9
$USERR4
 40
0.0
  9
$USERR5
 40
0.0
  9
$WORLDVIEW
 70
     1
  0
ENDSEC
  0
SECTION
  2
TABLES
  0
TABLE
  2
LTYPE
 70
     2
  0
LTYPE
  2
CONTINUOUS
 70
     0
  3
Solid line
 72
    65
 73
     0
 40
0.0
  0
LTYPE
  2
CENTER
 70
     0
  3

 72
    65
 73
     0
 40
0.0
  0
ENDTAB
  0
TABLE
  2
LAYER
 70
     2
  0
LAYER
  2
0
 70
     0
 62
     7
  6
CONTINUOUS
  0
LAYER
  2
1
 70
     0
 62
     7
  6
CONTINUOUS
  0
ENDTAB
  0
TABLE
  2
STYLE
 70
     2
  0
STYLE
  2
STANDARD
 70
     0
 40
0.0
 41
1.0
 50
0.0
 71
     0
 42
0.2
  3
txt
  4

  0
STYLE
  2
ＭＳ_ゴシック
 70
     0
 40
0.0
 41
1.0
 50
0.0
 71
     0
 42
0.2
  3
ＭＳ ゴシック.shx
  4

  0
ENDTAB
  0
TABLE
  2
VIEW
 70
     0
  0
ENDTAB
  0
ENDSEC
  0
SECTION
  2
BLOCKS
  0
BLOCK
  8
0
  2
D_FRAME_VIEW_1444
 70
     0
 10
0.0
 20
0.0
  0
ENDBLK
  8
0
  0
BLOCK
  8
0
  2
D_FRAME_VIEW_3918
 70
     0
 10
0.0
 20
0.0
  0
ENDBLK
  8
0
  0
BLOCK
  8
0
  2
D_FRAME_VIEW_4287
 70
     0
 10
0.0
 20
0.0
  0
ENDBLK
  8
0
  0
BLOCK
  8
0
  2
D_FRAME_DRAWING_17
 70
     0
 10
0.0
 20
0.0
  0
LINE
  8
0
  6
CONTINUOUS
 62
     7
 10
0.0
 20
0.0
 11
420.0
 21
0.0
  0
LINE
  8
0
  6
CONTINUOUS
 62
     7
 10
420.0
 20
0.0
 11
420.0
 21
297.0
  0
LINE
  8
0
  6
CONTINUOUS
 62
     7
 10
420.0
 20
297.0
 11
0.0
 21
297.0
  0
LINE
  8
0
  6
CONTINUOUS
 62
     7
 10
0.0
 20
297.0
 11
0.0
 21
0.0
  0
ENDBLK
  8
0
  0
ENDSEC
  0
SECTION
  2
ENTITIES
  0
INSERT
  8
1
  6
CONTINUOUS
 62
     7
  2
D_FRAME_VIEW_1444
 10
0.0
 20
0.0
 30
0.0
  0
INSERT
  8
1
  6
CONTINUOUS
 62
     7
  2
D_FRAME_VIEW_3918
 10
0.0
 20
0.0
 30
0.0
  0
INSERT
  8
1
  6
CONTINUOUS
 62
     7
  2
D_FRAME_VIEW_4287
 10
0.0
 20
0.0
 30
0.0
  0
LINE
  8
1
  6
CONTINUOUS
 62
     7
 10
185.9112765606211
 20
260.5
 11
189.98462550486
 21
260.5
  0
LINE
  8
1
  6
CONTINUOUS
 62
     7
 10
196.01537449514
 20
154.5
 11
200.0887234393789
 21
154.5
  0
LINE
  8
1
  6
CONTINUOUS
 62
     7
 10
150.0086507124692
 20
154.5
 11
150.0261806033723
 21
154.5
  0
LINE
  8
1
  6
CONTINUOUS
 62
     7
 10
235.9738193966277
 20
260.5
 11
235.9913492875308
 21
260.5
  0
LINE
  8
1
  6
CONTINUOUS
 62
     7
 10
235.9738193966277
 20
260.5
 11
235.9738193966277
 21
258.3237242042882
  0
LINE
  8
1
  6
CONTINUOUS
 62
     7
 10
150.0261806033723
 20
154.5
 11
150.0261806033722
 21
156.6762757957119
  0
LINE
  8
1
  6
CONTINUOUS
 62
     7
 10
185.9112765606211
 20
154.5
 11
189.98462550486
 21
154.5
  0
LINE
  8
1
  6
CONTINUOUS
 62
     7
 10
196.01537449514
 20
260.5
 11
200.0887234393789
 21
260.5
  0
LINE
  8
1
  6
CONTINUOUS
 62
     7
 10
150.0261806033722
 20
260.5
 11
185.911276560621
 21
260.5
  0
LINE
  8
1
  6
CONTINUOUS
 62
     7
 10
150.0261806033723
 20
154.5
 11
185.9112765606211
 21
154.5
  0
LINE
  8
1
  6
CONTINUOUS
 62
     7
 10
200.0887234393789
 20
260.5
 11
235.9738193966277
 21
260.5
  0
LINE
  8
1
  6
CONTINUOUS
 62
     7
 10
200.0887234393789
 20
154.5
 11
235.9738193966277
 21
154.5
  0
LINE
  8
1
  6
CONTINUOUS
 62
     7
 10
135.0
 20
171.75
 11
251.0
 21
171.75
  0
LINE
  8
1
  6
CONTINUOUS
 62
     7
 10
135.0
 20
243.25
 11
135.0
 21
255.25
  0
LINE
  8
1
  6
CONTINUOUS
 62
     7
 10
193.975
 20
173.0
 11
193.975
 21
242.0
  0
LINE
  8
1
  6
CONTINUOUS
 62
     7
 10
135.0
 20
159.75
 11
135.0
 21
171.75
  0
LINE
  8
1
  6
CONTINUOUS
 62
     7
 10
251.0
 20
159.75
 11
251.0
 21
171.75
  0
LINE
  8
1
  6
CONTINUOUS
 62
     7
 10
251.0
 20
243.25
 11
135.0
 21
243.25
  0
LINE
  8
1
  6
CONTINUOUS
 62
     7
 10
251.0
 20
243.25
 11
251.0
 21
255.25
  0
LINE
  8
1
  6
CONTINUOUS
 62
     7
 10
192.025
 20
171.75
 11
192.025
 21
243.25
  0
LINE
  8
1
  6
CONTINUOUS
 62
     7
 10
135.0
 20
159.75
 11
189.7
 21
159.75
  0
LINE
  8
1
  6
CONTINUOUS
 62
     7
 10
248.0
 20
203.0
 11
248.35
 21
203.0
  0
LINE
  8
1
  6
CONTINUOUS
 62
     7
 10
248.3228224842555
 20
227.9728224842555
 11
248.35
 21
228.0
  0
LINE
  8
1
  6
CONTINUOUS
 62
     7
 10
247.5
 20
237.0043634338954
 11
248.0
 21
237.0
  0
LINE
  8
1
  6
CONTINUOUS
 62
     7
 10
248.3228224842555
 20
237.0271775157445
 11
248.35
 21
237.0
  0
LINE
  8
1
  6
CONTINUOUS
 62
     7
 10
247.4956368983907
 20
202.9956365661447
 11
247.4956368983907
 21
212.0043634338499
  0
LINE
  8
1
  6
CONTINUOUS
 62
     7
 10
248.35
 20
237.0
 11
248.0
 21
237.0
  0
LINE
  8
1
  6
CONTINUOUS
 62
     7
 10
248.3228224842555
 20
212.0271775157445
 11
247.4728224842555
 21
212.0271775157445
  0
LINE
  8
1
  6
CONTINUOUS
 62
     7
 10
247.4956368983907
 20
177.9956365660537
 11
247.4956368983907
 21
187.0043634338727
  0
LINE
  8
1
  6
CONTINUOUS
 62
     7
 10
248.0
 20
178.0
 11
247.5
 21
177.9956365661047
  0
LINE
  8
1
  6
CONTINUOUS
 62
     7
 10
247.5
 20
187.0043634338954
 11
248.0
 21
187.0
  0
LINE
  8
1
  6
CONTINUOUS
 62
     7
 10
248.0
 20
203.0
 11
247.5
 21
202.9956365661047
  0
LINE
  8
1
  6
CONTINUOUS
 62
     7
 10
247.4728224842555
 20
227.9728224842555
 11
248.3228224842555
 21
227.9728224842555
  0
LINE
  8
1
  6
CONTINUOUS
 62
     7
 10
248.0
 20
228.0
 11
248.35
 21
228.0
  0
LINE
  8
1
  6
CONTINUOUS
 62
     7
 10
248.3228224842555
 20
212.0271775157445
 11
248.35
 21
212.0
  0
LINE
  8
1
  6
CONTINUOUS
 62
     7
 10
248.35
 20
212.0
 11
248.0
 21
212.0
  0
LINE
  8
1
  6
CONTINUOUS
 62
     7
 10
247.4728224842555
 20
227.9728224842555
 11
247.4956368983653
 21
227.9956368983654
  0
LINE
  8
1
  6
CONTINUOUS
 62
     7
 10
247.4728224842555
 20
237.0271775157445
 11
247.4956368983654
 21
237.0043631016346
  0
LINE
  8
1
  6
CONTINUOUS
 62
     7
 10
248.0
 20
228.0
 11
247.5
 21
227.9956365661047
  0
LINE
  8
1
  6
CONTINUOUS
 62
     7
 10
247.5
 20
212.0043634338954
 11
248.0
 21
212.0
  0
LINE
  8
1
  6
CONTINUOUS
 62
     7
 10
248.35
 20
187.0
 11
248.0
 21
187.0
  0
LINE
  8
1
  6
CONTINUOUS
 62
     7
 10
247.4956368983907
 20
227.9956365661219
 11
247.4956368983907
 21
237.0043634339409
  0
LINE
  8
1
  6
CONTINUOUS
 62
     7
 10
248.3228224842555
 20
237.0271775157445
 11
247.4728224842555
 21
237.0271775157445
  0
CIRCLE
  8
1
  6
CONTINUOUS
 62
     7
 10
216.0
 20
165.75
 40
3.100000000000002
  0
LINE
  8
1
  6
CONTINUOUS
 62
     7
 10
248.0
 20
178.0
 11
248.35
 21
178.0
  0
POLYLINE
  8
1
  6
CONTINUOUS
 62
     7
 66
     1
  0
VERTEX
  8
1
  6
CONTINUOUS
 62
     7
 10
175.5
 20
250.2500951923396
  0
VERTEX
  8
1
  6
CONTINUOUS
 62
     7
 10
175.4519660145976
 20
250.7378125685948
  0
VERTEX
  8
1
  6
CONTINUOUS
 62
     7
 10
175.3097097991107
 20
251.2067817351992
  0
VERTEX
  8
1
  6
CONTINUOUS
 62
     7
 10
175.0786976517739
 20
251.6389822118613
  0
VERTEX
  8
1
  6
CONTINUOUS
 62
     7
 10
174.7678063818629
 20
252.0178063818628
  0
VERTEX
  8
1
  6
CONTINUOUS
 62
     7
 10
174.3889822118613
 20
252.3286976517739
  0
VERTEX
  8
1
  6
CONTINUOUS
 62
     7
 10
173.9567817351993
 20
252.5597097991107
  0
VERTEX
  8
1
  6
CONTINUOUS
 62
     7
 10
173.4878125685948
 20
252.7019660145976
  0
VERTEX
  8
1
  6
CONTINUOUS
 62
     7
 10
173.0000951923396
 20
252.75
  0
SEQEND
  8
1
  6
CONTINUOUS
 62
     7
  0
LINE
  8
1
  6
CONTINUOUS
 62
     7
 10
135.0
 20
159.74998
 11
135.0
 21
159.5
  0
LINE
  8
1
  6
CONTINUOUS
 62
     7
 10
135.0
 20
207.5
 11
135.0
 21
171.75002
  0
LINE
  8
1
  6
CONTINUOUS
 62
     7
 10
135.0
 20
255.5
 11
135.0
 21
255.25002
  0
LINE
  8
1
  6
CONTINUOUS
 62
     7
 10
149.008688789405
 20
260.5
 11
140.0
 21
260.5
  0
LINE
  8
1
  6
CONTINUOUS
 62
     7
 10
140.0
 20
154.5
 11
149.008688789405
 21
154.5
  0
LINE
  8
1
  6
CONTINUOUS
 62
     7
 10
213.7087121525221
 20
244.25
 11
218.2912878474779
 21
244.25
  0
LINE
  8
1
  6
CONTINUOUS
 62
     7
 10
135.0
 20
243.24998
 11
135.0
 21
207.5
  0
ARC
  8
1
  6
CONTINUOUS
 62
     7
 10
140.0
 20
159.5
 40
5.000000000000004
 50
180.0
 51
270.0
  0
LINE
  8
1
  6
CONTINUOUS
 62
     7
 10
137.65
 20
171.75
 11
137.65
 21
243.25
  0
POLYLINE
  8
1
  6
CONTINUOUS
 62
     7
 66
     1
  0
VERTEX
  8
1
  6
CONTINUOUS
 62
     7
 10
221.5
 20
250.2500951923396
  0
VERTEX
  8
1
  6
CONTINUOUS
 62
     7
 10
221.4519660145976
 20
250.7378125685948
  0
VERTEX
  8
1
  6
CONTINUOUS
 62
     7
 10
221.3097097991107
 20
251.2067817351992
  0
VERTEX
  8
1
  6
CONTINUOUS
 62
     7
 10
221.0786976517738
 20
251.6389822118613
  0
VERTEX
  8
1
  6
CONTINUOUS
 62
     7
 10
220.7678063818628
 20
252.0178063818628
  0
VERTEX
  8
1
  6
CONTINUOUS
 62
     7
 10
220.3889822118613
 20
252.3286976517739
  0
VERTEX
  8
1
  6
CONTINUOUS
 62
     7
 10
219.9567817351992
 20
252.5597097991107
  0
VERTEX
  8
1
  6
CONTINUOUS
 62
     7
 10
219.4878125685948
 20
252.7019660145976
  0
VERTEX
  8
1
  6
CONTINUOUS
 62
     7
 10
219.0000951923396
 20
252.75
  0
SEQEND
  8
1
  6
CONTINUOUS
 62
     7
  0
LINE
  8
1
  6
CONTINUOUS
 62
     7
 10
175.5
 20
250.2500951923396
 11
175.5
 21
249.25
  0
LINE
  8
1
  6
CONTINUOUS
 62
     7
 10
248.3238193966277
 20
227.5086887894051
 11
248.3238193966277
 21
212.491311210595
  0
POLYLINE
  8
1
  6
CONTINUOUS
 62
     7
 66
     1
  0
VERTEX
  8
1
  6
CONTINUOUS
 62
     7
 10
166.9999048076604
 20
252.75
  0
VERTEX
  8
1
  6
CONTINUOUS
 62
     7
 10
166.5121874314052
 20
252.7019660145976
  0
VERTEX
  8
1
  6
CONTINUOUS
 62
     7
 10
166.0432182648007
 20
252.5597097991107
  0
VERTEX
  8
1
  6
CONTINUOUS
 62
     7
 10
165.6110177881386
 20
252.3286976517738
  0
VERTEX
  8
1
  6
CONTINUOUS
 62
     7
 10
165.2321936181371
 20
252.0178063818628
  0
VERTEX
  8
1
  6
CONTINUOUS
 62
     7
 10
164.9213023482261
 20
251.6389822118613
  0
VERTEX
  8
1
  6
CONTINUOUS
 62
     7
 10
164.6902902008893
 20
251.2067817351992
  0
VERTEX
  8
1
  6
CONTINUOUS
 62
     7
 10
164.5480339854024
 20
250.7378125685948
  0
VERTEX
  8
1
  6
CONTINUOUS
 62
     7
 10
164.5
 20
250.2500951923396
  0
SEQEND
  8
1
  6
CONTINUOUS
 62
     7
  0
LINE
  8
1
  6
CONTINUOUS
 62
     7
 10
189.9956746437654
 20
260.5
 11
190.4956556052975
 21
260.5
  0
ARC
  8
1
  6
CONTINUOUS
 62
     7
 10
170.0
 20
249.25
 40
5.5
 50
180.0
 51
245.3800226713431
  0
LINE
  8
1
  6
CONTINUOUS
 62
     7
 10
213.7087121525221
 20
170.75
 11
218.2912878474779
 21
170.75
  0
LINE
  8
1
  6
CONTINUOUS
 62
     7
 10
135.0
 20
255.25
 11
135.0
 21
243.25
  0
LINE
  8
1
  6
CONTINUOUS
 62
     7
 10
221.5
 20
165.75
 11
221.5
 21
164.7499048076604
  0
LINE
  8
1
  6
CONTINUOUS
 62
     7
 10
135.0
 20
171.75
 11
135.0
 21
159.75
  0
LINE
  8
1
  6
CONTINUOUS
 62
     7
 10
248.35
 20
228.0
 11
248.35
 21
212.0
  0
LINE
  8
1
  6
CONTINUOUS
 62
     7
 10
248.3228224842555
 20
227.9728224842555
 11
248.3238193966277
 21
227.5086887894051
  0
ARC
  8
1
  6
CONTINUOUS
 62
     7
 10
216.0
 20
249.25
 40
5.500000000000001
 50
180.0
 51
245.3800226713432
  0
LINE
  8
1
  6
CONTINUOUS
 62
     7
 10
164.5
 20
249.25
 11
164.5
 21
250.2500951923396
  0
POLYLINE
  8
1
  6
CONTINUOUS
 62
     7
 66
     1
  0
VERTEX
  8
1
  6
CONTINUOUS
 62
     7
 10
219.0000951923396
 20
162.25
  0
VERTEX
  8
1
  6
CONTINUOUS
 62
     7
 10
219.4878125685948
 20
162.2980339854024
  0
VERTEX
  8
1
  6
CONTINUOUS
 62
     7
 10
219.9567817351992
 20
162.4402902008893
  0
VERTEX
  8
1
  6
CONTINUOUS
 62
     7
 10
220.3889822118613
 20
162.6713023482262
  0
VERTEX
  8
1
  6
CONTINUOUS
 62
     7
 10
220.7678063818628
 20
162.9821936181372
  0
VERTEX
  8
1
  6
CONTINUOUS
 62
     7
 10
221.0786976517738
 20
163.3610177881387
  0
VERTEX
  8
1
  6
CONTINUOUS
 62
     7
 10
221.3097097991107
 20
163.7932182648008
  0
VERTEX
  8
1
  6
CONTINUOUS
 62
     7
 10
221.4519660145976
 20
164.2621874314052
  0
VERTEX
  8
1
  6
CONTINUOUS
 62
     7
 10
221.5
 20
164.7499048076604
  0
SEQEND
  8
1
  6
CONTINUOUS
 62
     7
  0
POLYLINE
  8
1
  6
CONTINUOUS
 62
     7
 66
     1
  0
VERTEX
  8
1
  6
CONTINUOUS
 62
     7
 10
212.9999048076604
 20
252.75
  0
VERTEX
  8
1
  6
CONTINUOUS
 62
     7
 10
212.5121874314051
 20
252.7019660145976
  0
VERTEX
  8
1
  6
CONTINUOUS
 62
     7
 10
212.0432182648007
 20
252.5597097991107
  0
VERTEX
  8
1
  6
CONTINUOUS
 62
     7
 10
211.6110177881386
 20
252.3286976517738
  0
VERTEX
  8
1
  6
CONTINUOUS
 62
     7
 10
211.2321936181371
 20
252.0178063818628
  0
VERTEX
  8
1
  6
CONTINUOUS
 62
     7
 10
210.9213023482261
 20
251.6389822118613
  0
VERTEX
  8
1
  6
CONTINUOUS
 62
     7
 10
210.6902902008893
 20
251.2067817351992
  0
VERTEX
  8
1
  6
CONTINUOUS
 62
     7
 10
210.5480339854023
 20
250.7378125685948
  0
VERTEX
  8
1
  6
CONTINUOUS
 62
     7
 10
210.5
 20
250.2500951923396
  0
SEQEND
  8
1
  6
CONTINUOUS
 62
     7
  0
LINE
  8
1
  6
CONTINUOUS
 62
     7
 10
219.0000951923396
 20
162.25
 11
212.9999048076604
 21
162.25
  0
ARC
  8
1
  6
CONTINUOUS
 62
     7
 10
170.0
 20
249.25
 40
5.500000000000001
 50
294.6199773286568
 51
0.0
  0
ARC
  8
1
  6
CONTINUOUS
 62
     7
 10
216.0
 20
165.75
 40
5.5
 50
0.0
 51
65.38002267134317
  0
LINE
  8
1
  6
CONTINUOUS
 62
     7
 10
248.3238193966277
 20
212.491311210595
 11
248.3228224842555
 21
212.0271775157445
  0
LINE
  8
1
  6
CONTINUOUS
 62
     7
 10
221.5
 20
249.25
 11
221.5
 21
250.2500951923396
  0
ARC
  8
1
  6
CONTINUOUS
 62
     7
 10
216.0
 20
165.75
 40
5.500000000000001
 50
114.6199773286569
 51
180.0
  0
ARC
  8
1
  6
CONTINUOUS
 62
     7
 10
170.0
 20
165.75
 40
5.5
 50
114.6199773286568
 51
180.0
  0
POLYLINE
  8
1
  6
CONTINUOUS
 62
     7
 66
     1
  0
VERTEX
  8
1
  6
CONTINUOUS
 62
     7
 10
210.5
 20
164.7499048076604
  0
VERTEX
  8
1
  6
CONTINUOUS
 62
     7
 10
210.5480339854023
 20
164.2621874314052
  0
VERTEX
  8
1
  6
CONTINUOUS
 62
     7
 10
210.6902902008893
 20
163.7932182648008
  0
VERTEX
  8
1
  6
CONTINUOUS
 62
     7
 10
210.9213023482261
 20
163.3610177881387
  0
VERTEX
  8
1
  6
CONTINUOUS
 62
     7
 10
211.2321936181371
 20
162.9821936181372
  0
VERTEX
  8
1
  6
CONTINUOUS
 62
     7
 10
211.6110177881386
 20
162.6713023482261
  0
VERTEX
  8
1
  6
CONTINUOUS
 62
     7
 10
212.0432182648007
 20
162.4402902008893
  0
VERTEX
  8
1
  6
CONTINUOUS
 62
     7
 10
212.5121874314052
 20
162.2980339854024
  0
VERTEX
  8
1
  6
CONTINUOUS
 62
     7
 10
212.9999048076604
 20
162.2500000000001
  0
SEQEND
  8
1
  6
CONTINUOUS
 62
     7
  0
ARC
  8
1
  6
CONTINUOUS
 62
     7
 10
140.0
 20
255.5
 40
4.999999999999997
 50
90.0
 51
180.0
  0
LINE
  8
1
  6
CONTINUOUS
 62
     7
 10
210.5
 20
164.7499048076604
 11
210.5
 21
165.75
  0
LINE
  8
1
  6
CONTINUOUS
 62
     7
 10
236.991311210595
 20
154.5
 11
235.9913492875308
 21
154.5
  0
CIRCLE
  8
1
  6
CONTINUOUS
 62
     7
 10
193.0
 20
258.25
 40
1.25
  0
LINE
  8
1
  6
CONTINUOUS
 62
     7
 10
219.0000951923396
 20
252.75
 11
212.9999048076604
 21
252.75
  0
ARC
  8
1
  6
CONTINUOUS
 62
     7
 10
170.0
 20
165.75
 40
5.500000000000001
 50
0.0
 51
65.38002267134314
  0
CIRCLE
  8
1
  6
CONTINUOUS
 62
     7
 10
216.0
 20
249.25
 40
3.100000000000002
  0
POLYLINE
  8
1
  6
CONTINUOUS
 62
     7
 66
     1
  0
VERTEX
  8
1
  6
CONTINUOUS
 62
     7
 10
173.0000951923396
 20
162.25
  0
VERTEX
  8
1
  6
CONTINUOUS
 62
     7
 10
173.4878125685948
 20
162.2980339854024
  0
VERTEX
  8
1
  6
CONTINUOUS
 62
     7
 10
173.9567817351993
 20
162.4402902008893
  0
VERTEX
  8
1
  6
CONTINUOUS
 62
     7
 10
174.3889822118614
 20
162.6713023482262
  0
VERTEX
  8
1
  6
CONTINUOUS
 62
     7
 10
174.7678063818629
 20
162.9821936181372
  0
VERTEX
  8
1
  6
CONTINUOUS
 62
     7
 10
175.0786976517739
 20
163.3610177881387
  0
VERTEX
  8
1
  6
CONTINUOUS
 62
     7
 10
175.3097097991107
 20
163.7932182648008
  0
VERTEX
  8
1
  6
CONTINUOUS
 62
     7
 10
175.4519660145976
 20
164.2621874314052
  0
VERTEX
  8
1
  6
CONTINUOUS
 62
     7
 10
175.5
 20
164.7499048076604
  0
SEQEND
  8
1
  6
CONTINUOUS
 62
     7
  0
LINE
  8
1
  6
CONTINUOUS
 62
     7
 10
248.35
 20
178.0
 11
248.35
 21
171.75
  0
LINE
  8
1
  6
CONTINUOUS
 62
     7
 10
235.9913492875308
 20
260.5
 11
236.991311210595
 21
260.5
  0
ARC
  8
1
  6
CONTINUOUS
 62
     7
 10
216.0
 20
249.25
 40
5.5
 50
294.6199773286568
 51
0.0
  0
LINE
  8
1
  6
CONTINUOUS
 62
     7
 10
172.2912878474779
 20
170.75
 11
167.7087121525221
 21
170.75
  0
LINE
  8
1
  6
CONTINUOUS
 62
     7
 10
190.4956556052975
 20
154.5
 11
195.5043443947025
 21
154.5
  0
LINE
  8
1
  6
CONTINUOUS
 62
     7
 10
172.2912878474779
 20
244.25
 11
167.7087121525221
 21
244.25
  0
LINE
  8
1
  6
CONTINUOUS
 62
     7
 10
164.5
 20
165.75
 11
164.5
 21
164.7499048076604
  0
CIRCLE
  8
1
  6
CONTINUOUS
 62
     7
 10
193.0
 20
156.75
 40
1.25
  0
LINE
  8
1
  6
CONTINUOUS
 62
     7
 10
166.9999048076604
 20
252.75
 11
173.0000951923396
 21
252.75
  0
LINE
  8
1
  6
CONTINUOUS
 62
     7
 10
137.6761806033723
 20
243.25
 11
137.6761806033723
 21
171.75
  0
POLYLINE
  8
1
  6
CONTINUOUS
 62
     7
 66
     1
  0
VERTEX
  8
1
  6
CONTINUOUS
 62
     7
 10
164.5
 20
164.7499048076604
  0
VERTEX
  8
1
  6
CONTINUOUS
 62
     7
 10
164.5480339854024
 20
164.2621874314052
  0
VERTEX
  8
1
  6
CONTINUOUS
 62
     7
 10
164.6902902008893
 20
163.7932182648008
  0
VERTEX
  8
1
  6
CONTINUOUS
 62
     7
 10
164.9213023482261
 20
163.3610177881387
  0
VERTEX
  8
1
  6
CONTINUOUS
 62
     7
 10
165.2321936181371
 20
162.9821936181372
  0
VERTEX
  8
1
  6
CONTINUOUS
 62
     7
 10
165.6110177881386
 20
162.6713023482262
  0
VERTEX
  8
1
  6
CONTINUOUS
 62
     7
 10
166.0432182648007
 20
162.4402902008893
  0
VERTEX
  8
1
  6
CONTINUOUS
 62
     7
 10
166.5121874314052
 20
162.2980339854024
  0
VERTEX
  8
1
  6
CONTINUOUS
 62
     7
 10
166.9999048076604
 20
162.25
  0
SEQEND
  8
1
  6
CONTINUOUS
 62
     7
  0
LINE
  8
1
  6
CONTINUOUS
 62
     7
 10
195.5043443947025
 20
260.5
 11
196.0043253562346
 21
260.5
  0
LINE
  8
1
  6
CONTINUOUS
 62
     7
 10
248.35
 20
203.0
 11
248.35
 21
187.0
  0
LINE
  8
1
  6
CONTINUOUS
 62
     7
 10
166.9999048076604
 20
162.25
 11
173.0000951923396
 21
162.25
  0
LINE
  8
1
  6
CONTINUOUS
 62
     7
 10
196.0043253562346
 20
154.5
 11
195.5043443947025
 21
154.5
  0
LINE
  8
1
  6
CONTINUOUS
 62
     7
 10
246.0
 20
260.5
 11
236.991311210595
 21
260.5
  0
LINE
  8
1
  6
CONTINUOUS
 62
     7
 10
210.5
 20
250.2500951923396
 11
210.5
 21
249.25
  0
LINE
  8
1
  6
CONTINUOUS
 62
     7
 10
190.4956556052975
 20
154.5
 11
189.9956746437654
 21
154.5
  0
LINE
  8
1
  6
CONTINUOUS
 62
     7
 10
150.0086507124692
 20
154.5
 11
149.008688789405
 21
154.5
  0
LINE
  8
1
  6
CONTINUOUS
 62
     7
 10
251.0
 20
255.25002
 11
251.0
 21
255.5
  0
LINE
  8
1
  6
CONTINUOUS
 62
     7
 10
236.991311210595
 20
154.5
 11
246.0
 21
154.5
  0
LINE
  8
1
  6
CONTINUOUS
 62
     7
 10
251.0
 20
171.75002
 11
251.0
 21
207.5
  0
LINE
  8
1
  6
CONTINUOUS
 62
     7
 10
251.0
 20
207.5
 11
251.0
 21
243.24998
  0
ARC
  8
1
  6
CONTINUOUS
 62
     7
 10
246.0
 20
159.5
 40
4.999999999999997
 50
270.0
 51
0.0
  0
LINE
  8
1
  6
CONTINUOUS
 62
     7
 10
251.0
 20
159.75
 11
251.0
 21
171.75
  0
LINE
  8
1
  6
CONTINUOUS
 62
     7
 10
195.5043443947025
 20
260.5
 11
190.4956556052975
 21
260.5
  0
LINE
  8
1
  6
CONTINUOUS
 62
     7
 10
248.35
 20
243.25
 11
248.35
 21
237.0
  0
LINE
  8
1
  6
CONTINUOUS
 62
     7
 10
251.0
 20
159.5
 11
251.0
 21
159.74998
  0
LINE
  8
1
  6
CONTINUOUS
 62
     7
 10
175.5
 20
164.7499048076604
 11
175.5
 21
165.75
  0
LINE
  8
1
  6
CONTINUOUS
 62
     7
 10
251.0
 20
243.25
 11
251.0
 21
255.25
  0
ARC
  8
1
  6
CONTINUOUS
 62
     7
 10
246.0
 20
255.5
 40
4.99999999999999
 50
0.0
 51
90.0
  0
LINE
  8
1
  6
CONTINUOUS
 62
     7
 10
149.008688789405
 20
260.5
 11
150.0086507124692
 21
260.5
  0
LINE
  8
1
  6
CONTINUOUS
 62
     7
 10
248.3238193966277
 20
237.491311210595
 11
248.3228224842555
 21
237.0271775157445
  0
CIRCLE
  8
1
  6
CONTINUOUS
 62
     7
 10
170.0
 20
249.25
 40
3.100000000000002
  0
LINE
  8
1
  6
CONTINUOUS
 62
     7
 10
248.3238193966277
 20
243.25
 11
248.3238193966277
 21
237.491311210595
  0
CIRCLE
  8
1
  6
CONTINUOUS
 62
     7
 10
170.0
 20
165.75
 40
3.100000000000002
  0
LINE
  8
1
  6
CONTINUOUS
 62
     7
 10
247.4629108118893
 20
230.25
 11
247.4629108118893
 21
234.75
  0
LINE
  8
1
  6
CONTINUOUS
 62
     7
 10
247.4728224842555
 20
237.0271775157445
 11
247.4651686841585
 21
236.4913492875308
  0
LINE
  8
1
  6
CONTINUOUS
 62
     7
 10
196.0043253562346
 20
154.5
 11
196.01537449514
 21
154.5
  0
LINE
  8
1
  6
CONTINUOUS
 62
     7
 10
189.98462550486
 20
260.5
 11
189.9956746437654
 21
260.5
  0
LINE
  8
1
  6
CONTINUOUS
 62
     7
 10
247.4651686841585
 20
228.5086507124692
 11
247.4728224842555
 21
227.9728224842555
  0
LINE
  8
1
  6
CONTINUOUS
 62
     7
 10
247.4651686841585
 20
228.5086507124692
 11
247.4301089023523
 21
228.5437104942754
  0
LINE
  8
1
  6
CONTINUOUS
 62
     7
 10
189.98462550486
 20
260.5
 11
189.98462550486
 21
255.85
  0
LINE
  8
1
  6
CONTINUOUS
 62
     7
 10
247.4651686841585
 20
236.4913492875308
 11
247.4301089023523
 21
236.4562895057247
  0
LINE
  8
1
  6
CONTINUOUS
 62
     7
 10
247.4214581898832
 20
229.5436724173396
 11
247.4214581898832
 21
235.4563275826605
  0
LINE
  8
1
  6
CONTINUOUS
 62
     7
 10
247.4301089023524
 20
236.4562895057247
 11
247.4214581898832
 21
235.4563275826605
  0
LINE
  8
1
  6
CONTINUOUS
 62
     7
 10
196.0043253562346
 20
260.5
 11
196.01537449514
 21
260.5
  0
LINE
  8
1
  6
CONTINUOUS
 62
     7
 10
247.4214581898832
 20
229.5436724173396
 11
247.4301089023524
 21
228.5437104942754
  0
LINE
  8
1
  6
CONTINUOUS
 62
     7
 10
247.4629108118893
 20
234.75
 11
247.4478259035825
 21
234.75
  0
LINE
  8
1
  6
CONTINUOUS
 62
     7
 10
247.4478259035825
 20
234.75
 11
247.4478259035825
 21
230.25
  0
LINE
  8
1
  6
CONTINUOUS
 62
     7
 10
189.98462550486
 20
154.5
 11
189.9956746437654
 21
154.5
  0
LINE
  8
1
  6
CONTINUOUS
 62
     7
 10
247.4478259035825
 20
230.25
 11
247.4629108118893
 21
230.25
  0
LINE
  8
1
  6
CONTINUOUS
 62
     7
 10
189.98462550486
 20
154.5
 11
189.98462550486
 21
159.15
  0
LINE
  8
1
  6
CONTINUOUS
 62
     7
 10
196.01537449514
 20
260.5
 11
196.01537449514
 21
255.85
  0
LINE
  8
1
  6
CONTINUOUS
 62
     7
 10
196.01537449514
 20
154.5
 11
196.01537449514
 21
159.15
  0
POLYLINE
  8
1
  6
CONTINUOUS
 62
     7
 66
     1
  0
VERTEX
  8
1
  6
CONTINUOUS
 62
     7
 10
150.0261806033723
 20
156.6762757957119
  0
VERTEX
  8
1
  6
CONTINUOUS
 62
     7
 10
149.9781466179699
 20
157.1639931719671
  0
VERTEX
  8
1
  6
CONTINUOUS
 62
     7
 10
149.835890402483
 20
157.6329623385716
  0
VERTEX
  8
1
  6
CONTINUOUS
 62
     7
 10
149.6048782551461
 20
158.0651628152337
  0
VERTEX
  8
1
  6
CONTINUOUS
 62
     7
 10
149.2939869852351
 20
158.4439869852352
  0
VERTEX
  8
1
  6
CONTINUOUS
 62
     7
 10
148.9151628152336
 20
158.7548782551462
  0
VERTEX
  8
1
  6
CONTINUOUS
 62
     7
 10
148.4829623385715
 20
158.985890402483
  0
VERTEX
  8
1
  6
CONTINUOUS
 62
     7
 10
148.0139931719671
 20
159.1281466179699
  0
VERTEX
  8
1
  6
CONTINUOUS
 62
     7
 10
147.5262757957119
 20
159.1761806033723
  0
SEQEND
  8
1
  6
CONTINUOUS
 62
     7
  0
LINE
  8
1
  6
CONTINUOUS
 62
     7
 10
235.9738193966277
 20
154.5
 11
235.9913492875308
 21
154.5
  0
POLYLINE
  8
1
  6
CONTINUOUS
 62
     7
 66
     1
  0
VERTEX
  8
1
  6
CONTINUOUS
 62
     7
 10
235.9738193966277
 20
258.3237242042882
  0
VERTEX
  8
1
  6
CONTINUOUS
 62
     7
 10
236.0218533820301
 20
257.8360068280329
  0
VERTEX
  8
1
  6
CONTINUOUS
 62
     7
 10
236.164109597517
 20
257.3670376614285
  0
VERTEX
  8
1
  6
CONTINUOUS
 62
     7
 10
236.3951217448538
 20
256.9348371847664
  0
VERTEX
  8
1
  6
CONTINUOUS
 62
     7
 10
236.7060130147649
 20
256.5560130147649
  0
VERTEX
  8
1
  6
CONTINUOUS
 62
     7
 10
237.0848371847664
 20
256.2451217448538
  0
VERTEX
  8
1
  6
CONTINUOUS
 62
     7
 10
237.5170376614285
 20
256.014109597517
  0
VERTEX
  8
1
  6
CONTINUOUS
 62
     7
 10
237.9860068280329
 20
255.8718533820301
  0
VERTEX
  8
1
  6
CONTINUOUS
 62
     7
 10
238.4737242042881
 20
255.8238193966278
  0
SEQEND
  8
1
  6
CONTINUOUS
 62
     7
  0
LINE
  8
1
  6
CONTINUOUS
 62
     7
 10
235.9738193966277
 20
154.5
 11
235.9738193966277
 21
156.6762757957119
  0
POLYLINE
  8
1
  6
CONTINUOUS
 62
     7
 66
     1
  0
VERTEX
  8
1
  6
CONTINUOUS
 62
     7
 10
147.5262757957119
 20
255.8238193966278
  0
VERTEX
  8
1
  6
CONTINUOUS
 62
     7
 10
148.0139931719671
 20
255.8718533820301
  0
VERTEX
  8
1
  6
CONTINUOUS
 62
     7
 10
148.4829623385715
 20
256.014109597517
  0
VERTEX
  8
1
  6
CONTINUOUS
 62
     7
 10
148.9151628152336
 20
256.2451217448538
  0
VERTEX
  8
1
  6
CONTINUOUS
 62
     7
 10
149.2939869852351
 20
256.5560130147649
  0
VERTEX
  8
1
  6
CONTINUOUS
 62
     7
 10
149.6048782551461
 20
256.9348371847664
  0
VERTEX
  8
1
  6
CONTINUOUS
 62
     7
 10
149.835890402483
 20
257.3670376614285
  0
VERTEX
  8
1
  6
CONTINUOUS
 62
     7
 10
149.9781466179699
 20
257.8360068280329
  0
VERTEX
  8
1
  6
CONTINUOUS
 62
     7
 10
150.0261806033723
 20
258.3237242042882
  0
SEQEND
  8
1
  6
CONTINUOUS
 62
     7
  0
POLYLINE
  8
1
  6
CONTINUOUS
 62
     7
 66
     1
  0
VERTEX
  8
1
  6
CONTINUOUS
 62
     7
 10
238.4737242042881
 20
159.1761806033723
  0
VERTEX
  8
1
  6
CONTINUOUS
 62
     7
 10
237.9860068280329
 20
159.1281466179699
  0
VERTEX
  8
1
  6
CONTINUOUS
 62
     7
 10
237.5170376614284
 20
158.985890402483
  0
VERTEX
  8
1
  6
CONTINUOUS
 62
     7
 10
237.0848371847663
 20
158.7548782551462
  0
VERTEX
  8
1
  6
CONTINUOUS
 62
     7
 10
236.7060130147648
 20
158.4439869852352
  0
VERTEX
  8
1
  6
CONTINUOUS
 62
     7
 10
236.3951217448538
 20
158.0651628152337
  0
VERTEX
  8
1
  6
CONTINUOUS
 62
     7
 10
236.164109597517
 20
157.6329623385716
  0
VERTEX
  8
1
  6
CONTINUOUS
 62
     7
 10
236.0218533820301
 20
157.1639931719671
  0
VERTEX
  8
1
  6
CONTINUOUS
 62
     7
 10
235.9738193966277
 20
156.6762757957119
  0
SEQEND
  8
1
  6
CONTINUOUS
 62
     7
  0
LINE
  8
1
  6
CONTINUOUS
 62
     7
 10
142.6848313158415
 20
243.25
 11
142.6848313158415
 21
171.75
  0
LINE
  8
1
  6
CONTINUOUS
 62
     7
 10
150.0261806033722
 20
260.5
 11
150.0261806033722
 21
258.3237242042882
  0
LINE
  8
1
  6
CONTINUOUS
 62
     7
 10
150.0086507124692
 20
260.5
 11
150.0261806033722
 21
260.5
  0
LINE
  8
1
  6
CONTINUOUS
 62
     7
 10
190.0
 20
220.5
 11
190.0
 21
202.5
  0
ARC
  8
1
  6
CONTINUOUS
 62
     7
 10
152.5
 20
176.0
 40
2.500000000000002
 50
180.0
 51
269.9999999999997
  0
LINE
  8
1
  6
CONTINUOUS
 62
     7
 10
233.5
 20
173.5
 11
219.5
 21
173.5
  0
ARC
  8
1
  6
CONTINUOUS
 62
     7
 10
152.5
 20
239.0
 40
2.500000000000002
 50
90.00000000000034
 51
180.0
  0
ARC
  8
1
  6
CONTINUOUS
 62
     7
 10
233.5
 20
176.0
 40
2.500000000000002
 50
270.0000000000003
 51
0.0
  0
ARC
  8
1
  6
CONTINUOUS
 62
     7
 10
233.5
 20
239.0
 40
2.500000000000002
 50
0.0
 51
89.99999999999966
  0
ARC
  8
1
  6
CONTINUOUS
 62
     7
 10
198.5
 20
176.0
 40
2.500000000000002
 50
180.0
 51
269.9999999999997
  0
LINE
  8
1
  6
CONTINUOUS
 62
     7
 10
174.0
 20
208.1
 11
174.0
 21
206.9
  0
ARC
  8
1
  6
CONTINUOUS
 62
     7
 10
173.5
 20
208.1
 40
0.5000000000000004
 50
359.9999999999999
 51
90.0
  0
ARC
  8
1
  6
CONTINUOUS
 62
     7
 10
187.5
 20
239.0
 40
2.500000000000002
 50
0.0
 51
89.99999999999966
  0
LINE
  8
1
  6
CONTINUOUS
 62
     7
 10
166.5
 20
208.6
 11
173.5
 21
208.6
  0
ARC
  8
1
  6
CONTINUOUS
 62
     7
 10
166.5
 20
208.1
 40
0.5000000000000004
 50
90.0
 51
180.0
  0
LINE
  8
1
  6
CONTINUOUS
 62
     7
 10
166.0
 20
206.9
 11
166.0
 21
208.1
  0
ARC
  8
1
  6
CONTINUOUS
 62
     7
 10
166.5
 20
206.9
 40
0.5000000000000001
 50
180.0
 51
270.0
  0
LINE
  8
1
  6
CONTINUOUS
 62
     7
 10
173.5
 20
206.4
 11
166.5
 21
206.4
  0
ARC
  8
1
  6
CONTINUOUS
 62
     7
 10
173.5
 20
206.9
 40
0.5000000000000004
 50
270.0
 51
0.0000000000000568
  0
LINE
  8
1
  6
CONTINUOUS
 62
     7
 10
135.0
 20
258.5
 11
136.0
 21
258.5
  0
LINE
  8
1
  6
CONTINUOUS
 62
     7
 10
135.0
 20
255.5
 11
135.0
 21
258.5
  0
LINE
  8
1
  6
CONTINUOUS
 62
     7
 10
251.0
 20
258.5
 11
251.0
 21
255.5
  0
LINE
  8
1
  6
CONTINUOUS
 62
     7
 10
251.0
 20
156.5
 11
250.0
 21
156.5
  0
LINE
  8
1
  6
CONTINUOUS
 62
     7
 10
136.0
 20
156.5
 11
135.0
 21
156.5
  0
LINE
  8
1
  6
CONTINUOUS
 62
     7
 10
196.0
 20
176.0
 11
196.0
 21
185.5
  0
LINE
  8
1
  6
CONTINUOUS
 62
     7
 10
236.0
 20
188.0
 11
236.0
 21
176.0
  0
LINE
  8
1
  6
CONTINUOUS
 62
     7
 10
251.0
 20
159.5000000000001
 11
251.0
 21
156.5
  0
LINE
  8
1
  6
CONTINUOUS
 62
     7
 10
135.0
 20
156.5
 11
135.0
 21
159.5
  0
LINE
  8
1
  6
CONTINUOUS
 62
     7
 10
250.0
 20
258.5
 11
251.0
 21
258.5
  0
LINE
  8
1
  6
CONTINUOUS
 62
     7
 10
190.0
 20
185.5
 11
190.0
 21
176.0
  0
LINE
  8
1
  6
CONTINUOUS
 62
     7
 10
196.5
 20
87.74999999999999
 11
236.991311210595
 21
87.74999999999999
  0
LINE
  8
1
  6
CONTINUOUS
 62
     7
 10
149.008688789405
 20
87.74999999999999
 11
189.5
 21
87.74999999999999
  0
LINE
  8
1
  6
CONTINUOUS
 62
     7
 10
196.5
 20
87.74999999999999
 11
195.5043443947025
 21
87.74999999999999
  0
LINE
  8
1
  6
CONTINUOUS
 62
     7
 10
175.5
 20
87.74999999999999
 11
175.5261806033723
 21
84.74999999999999
  0
LINE
  8
1
  6
CONTINUOUS
 62
     7
 10
189.5
 20
87.74999999999999
 11
190.4956556052975
 21
87.74999999999999
  0
LINE
  8
1
  6
CONTINUOUS
 62
     7
 10
221.5
 20
87.74999999999999
 11
221.5261806033722
 21
84.74999999999999
  0
LINE
  8
1
  6
CONTINUOUS
 62
     7
 10
251.0
 20
78.75
 11
251.0
 21
78.25
  0
LINE
  8
1
  6
CONTINUOUS
 62
     7
 10
164.4738193966277
 20
84.74999999999999
 11
164.5
 21
87.74999999999999
  0
LINE
  8
1
  6
CONTINUOUS
 62
     7
 10
210.4738193966277
 20
84.74999999999999
 11
210.5
 21
87.74999999999999
  0
LINE
  8
1
  6
CONTINUOUS
 62
     7
 10
251.0
 20
73.25
 11
251.0
 21
72.75
  0
LINE
  8
1
  6
CONTINUOUS
 62
     7
 10
251.0
 20
75.75
 11
251.0
 21
75.25
  0
LINE
  8
1
  6
CONTINUOUS
 62
     7
 10
251.0
 20
75.25
 11
251.0
 21
74.75
  0
LINE
  8
1
  6
CONTINUOUS
 62
     7
 10
251.0
 20
69.74999999999999
 11
251.0
 21
69.24999999999999
  0
LINE
  8
1
  6
CONTINUOUS
 62
     7
 10
251.0
 20
72.75
 11
251.0
 21
72.25
  0
LINE
  8
1
  6
CONTINUOUS
 62
     7
 10
251.0
 20
70.24999999999999
 11
251.0
 21
69.74999999999999
  0
LINE
  8
1
  6
CONTINUOUS
 62
     7
 10
251.0
 20
78.25
 11
251.0
 21
77.75
  0
LINE
  8
1
  6
CONTINUOUS
 62
     7
 10
251.0
 20
77.75
 11
251.0
 21
75.74999999999999
  0
POLYLINE
  8
1
  6
CONTINUOUS
 62
     7
 66
     1
  0
VERTEX
  8
1
  6
CONTINUOUS
 62
     7
 10
142.3280305646895
 20
82.74999999999999
  0
VERTEX
  8
1
  6
CONTINUOUS
 62
     7
 10
141.9125689130767
 20
82.72095176477043
  0
VERTEX
  8
1
  6
CONTINUOUS
 62
     7
 10
141.5131984985103
 20
82.63493212570839
  0
VERTEX
  8
1
  6
CONTINUOUS
 62
     7
 10
141.145387328652
 20
82.49527270776028
  0
VERTEX
  8
1
  6
CONTINUOUS
 62
     7
 10
140.8233810906777
 20
82.30738265709223
  0
VERTEX
  8
1
  6
CONTINUOUS
 62
     7
 10
140.5596514018488
 20
82.07853913955636
  0
VERTEX
  8
1
  6
CONTINUOUS
 62
     7
 10
140.3644127715497
 20
81.81760548892352
  0
VERTEX
  8
1
  6
CONTINUOUS
 62
     7
 10
140.2452269833252
 20
81.53468792127757
  0
VERTEX
  8
1
  6
CONTINUOUS
 62
     7
 10
140.206710219592
 20
81.24074411135923
  0
SEQEND
  8
1
  6
CONTINUOUS
 62
     7
  0
LINE
  8
1
  6
CONTINUOUS
 62
     7
 10
251.0
 20
85.24999999999999
 11
251.0
 21
78.74999999999999
  0
LINE
  8
1
  6
CONTINUOUS
 62
     7
 10
251.0
 20
69.24999999999999
 11
251.0
 21
52.75000000000002
  0
LINE
  8
1
  6
CONTINUOUS
 62
     7
 10
251.0
 20
72.25
 11
251.0
 21
70.24999999999997
  0
LINE
  8
1
  6
CONTINUOUS
 62
     7
 10
135.0
 20
52.74999999999999
 11
134.0
 21
51.74999999999999
  0
LINE
  8
1
  6
CONTINUOUS
 62
     7
 10
245.7932897804079
 20
81.24074411135925
 11
245.575118085639
 21
56.24074411135925
  0
POLYLINE
  8
1
  6
CONTINUOUS
 62
     7
 66
     1
  0
VERTEX
  8
1
  6
CONTINUOUS
 62
     7
 10
243.4537977405415
 20
54.74999999999999
  0
VERTEX
  8
1
  6
CONTINUOUS
 62
     7
 10
243.8660497394085
 20
54.77859679883557
  0
VERTEX
  8
1
  6
CONTINUOUS
 62
     7
 10
244.2625829549672
 20
54.86329682613747
  0
VERTEX
  8
1
  6
CONTINUOUS
 62
     7
 10
244.6282779464217
 20
55.00087054904952
  0
VERTEX
  8
1
  6
CONTINUOUS
 62
     7
 10
244.9491911056311
 20
55.18607241013282
  0
VERTEX
  8
1
  6
CONTINUOUS
 62
     7
 10
245.2130863138517
 20
55.41184083556686
  0
VERTEX
  8
1
  6
CONTINUOUS
 62
     7
 10
245.4099014935061
 20
55.66956748635757
  0
VERTEX
  8
1
  6
CONTINUOUS
 62
     7
 10
245.5321322657936
 20
55.9494254862553
  0
VERTEX
  8
1
  6
CONTINUOUS
 62
     7
 10
245.575118085639
 20
56.24074411135924
  0
SEQEND
  8
1
  6
CONTINUOUS
 62
     7
  0
LINE
  8
1
  6
CONTINUOUS
 62
     7
 10
135.0
 20
69.24999999999999
 11
135.0
 21
52.75000000000002
  0
LINE
  8
1
  6
CONTINUOUS
 62
     7
 10
135.0
 20
51.74999999999999
 11
134.0
 21
51.74999999999999
  0
LINE
  8
1
  6
CONTINUOUS
 62
     7
 10
251.0
 20
74.75
 11
251.0
 21
73.24999999999999
  0
ARC
  8
1
  6
CONTINUOUS
 62
     7
 10
250.0
 20
52.74999999999999
 40
0.9999999999999939
 50
270.0
 51
0.0000000000011937
  0
POLYLINE
  8
1
  6
CONTINUOUS
 62
     7
 66
     1
  0
VERTEX
  8
1
  6
CONTINUOUS
 62
     7
 10
140.424881914361
 20
56.24074411135924
  0
VERTEX
  8
1
  6
CONTINUOUS
 62
     7
 10
140.4678677342064
 20
55.9494254862553
  0
VERTEX
  8
1
  6
CONTINUOUS
 62
     7
 10
140.5900985064939
 20
55.66956748635757
  0
VERTEX
  8
1
  6
CONTINUOUS
 62
     7
 10
140.7869136861483
 20
55.41184083556686
  0
VERTEX
  8
1
  6
CONTINUOUS
 62
     7
 10
141.0508088943689
 20
55.18607241013282
  0
VERTEX
  8
1
  6
CONTINUOUS
 62
     7
 10
141.3717220535783
 20
55.00087054904952
  0
VERTEX
  8
1
  6
CONTINUOUS
 62
     7
 10
141.7374170450328
 20
54.86329682613747
  0
VERTEX
  8
1
  6
CONTINUOUS
 62
     7
 10
142.1339502605915
 20
54.77859679883557
  0
VERTEX
  8
1
  6
CONTINUOUS
 62
     7
 10
142.5462022594585
 20
54.74999999999999
  0
SEQEND
  8
1
  6
CONTINUOUS
 62
     7
  0
LINE
  8
1
  6
CONTINUOUS
 62
     7
 10
140.424881914361
 20
56.24074411135925
 11
140.206710219592
 21
81.24074411135925
  0
ARC
  8
1
  6
CONTINUOUS
 62
     7
 10
136.0
 20
52.74999999999999
 40
1.000000000000001
 50
179.9999999999988
 51
270.0
  0
POLYLINE
  8
1
  6
CONTINUOUS
 62
     7
 66
     1
  0
VERTEX
  8
1
  6
CONTINUOUS
 62
     7
 10
245.7932897804079
 20
81.24074411135923
  0
VERTEX
  8
1
  6
CONTINUOUS
 62
     7
 10
245.7547730166748
 20
81.53468792127757
  0
VERTEX
  8
1
  6
CONTINUOUS
 62
     7
 10
245.6355872284503
 20
81.81760548892352
  0
VERTEX
  8
1
  6
CONTINUOUS
 62
     7
 10
245.4403485981512
 20
82.07853913955636
  0
VERTEX
  8
1
  6
CONTINUOUS
 62
     7
 10
245.1766189093223
 20
82.30738265709222
  0
VERTEX
  8
1
  6
CONTINUOUS
 62
     7
 10
244.854612671348
 20
82.49527270776028
  0
VERTEX
  8
1
  6
CONTINUOUS
 62
     7
 10
244.4868015014896
 20
82.63493212570839
  0
VERTEX
  8
1
  6
CONTINUOUS
 62
     7
 10
244.0874310869233
 20
82.72095176477043
  0
VERTEX
  8
1
  6
CONTINUOUS
 62
     7
 10
243.6719694353104
 20
82.74999999999999
  0
SEQEND
  8
1
  6
CONTINUOUS
 62
     7
  0
LINE
  8
1
  6
CONTINUOUS
 62
     7
 10
80.24999999999999
 20
243.25
 11
80.24999999999999
 21
255.25
  0
LINE
  8
1
  6
CONTINUOUS
 62
     7
 10
80.24999999999999
 20
159.75
 11
80.24999999999999
 21
171.75
  0
LINE
  8
1
  6
CONTINUOUS
 62
     7
 10
135.0
 20
36.74999999999999
 11
135.0
 21
51.74999999999999
  0
LINE
  8
1
  6
CONTINUOUS
 62
     7
 10
251.0
 20
51.74999999999999
 11
135.0
 21
51.74999999999999
  0
LINE
  8
1
  6
CONTINUOUS
 62
     7
 10
251.0
 20
36.74999999999999
 11
251.0
 21
51.74999999999999
  0
LINE
  8
1
  6
CONTINUOUS
 62
     7
 10
251.0
 20
36.74999999999999
 11
135.0
 21
36.74999999999999
  0
LINE
  8
1
  6
CONTINUOUS
 62
     7
 10
80.24999999999999
 20
255.5
 11
80.24999999999999
 21
255.25002
  0
LINE
  8
1
  6
CONTINUOUS
 62
     7
 10
44.24999999999998
 20
180.2381939662772
 11
44.24999999999998
 21
178.2705329015135
  0
LINE
  8
1
  6
CONTINUOUS
 62
     7
 10
80.24999999999999
 20
207.5
 11
80.24999999999999
 21
171.75002
  0
LINE
  8
1
  6
CONTINUOUS
 62
     7
 10
80.24999999999999
 20
159.74998
 11
80.24999999999999
 21
159.5
  0
LINE
  8
1
  6
CONTINUOUS
 62
     7
 10
45.24999999999998
 20
178.2618060337228
 11
44.24999999999998
 21
178.2705329015135
  0
LINE
  8
1
  6
CONTINUOUS
 62
     7
 10
77.74999999999999
 20
159.5
 11
77.74999999999999
 21
167.5
  0
LINE
  8
1
  6
CONTINUOUS
 62
     7
 10
80.24999999999999
 20
255.25
 11
80.24999999999999
 21
243.25
  0
LINE
  8
1
  6
CONTINUOUS
 62
     7
 10
44.24999999999998
 20
180.2381939662772
 11
45.24999999999998
 21
180.246920834068
  0
LINE
  8
1
  6
CONTINUOUS
 62
     7
 10
77.74999999999999
 20
255.5
 11
77.74999999999999
 21
260.5
  0
LINE
  8
1
  6
CONTINUOUS
 62
     7
 10
80.24999999999999
 20
243.24998
 11
80.24999999999999
 21
207.5
  0
LINE
  8
1
  6
CONTINUOUS
 62
     7
 10
75.24999999999999
 20
178.0
 11
75.24999999999999
 21
170.0
  0
ARC
  8
1
  6
CONTINUOUS
 62
     7
 10
72.24999999999999
 20
182.4826224211899
 40
2.000000000000002
 50
270.5000000000001
 51
0.0
  0
LINE
  8
1
  6
CONTINUOUS
 62
     7
 10
80.24999999999999
 20
171.75
 11
80.24999999999999
 21
159.75
  0
LINE
  8
1
  6
CONTINUOUS
 62
     7
 10
74.24999999999999
 20
182.5173775788101
 11
74.24999999999999
 21
182.4826224211899
  0
ARC
  8
1
  6
CONTINUOUS
 62
     7
 10
72.24999999999999
 20
182.5173775788101
 40
2.000000000000006
 50
0.0
 51
89.5
  0
LINE
  8
1
  6
CONTINUOUS
 62
     7
 10
45.24999999999999
 20
184.753079165932
 11
72.26745307099674
 21
184.5173014249384
  0
LINE
  8
1
  6
CONTINUOUS
 62
     7
 10
77.74999999999999
 20
260.5
 11
80.24999999999999
 21
260.5
  0
LINE
  8
1
  6
CONTINUOUS
 62
     7
 10
80.24999999999999
 20
260.5
 11
80.24999999999999
 21
255.5
  0
LINE
  8
1
  6
CONTINUOUS
 62
     7
 10
75.24999999999999
 20
170.0
 11
45.24999999999999
 21
169.7381939662773
  0
LINE
  8
1
  6
CONTINUOUS
 62
     7
 10
75.24999999999999
 20
187.0
 11
45.24999999999999
 21
186.7381939662772
  0
LINE
  8
1
  6
CONTINUOUS
 62
     7
 10
75.24999999999999
 20
228.0
 11
75.24999999999999
 21
187.0
  0
LINE
  8
1
  6
CONTINUOUS
 62
     7
 10
75.24999999999999
 20
228.0
 11
45.24999999999998
 21
228.2618060337228
  0
ARC
  8
1
  6
CONTINUOUS
 62
     7
 10
72.24999999999999
 20
232.48262242119
 40
2.000000000000002
 50
270.5000000000001
 51
0.0
  0
LINE
  8
1
  6
CONTINUOUS
 62
     7
 10
74.24999999999999
 20
232.5173775788101
 11
74.24999999999999
 21
232.48262242119
  0
LINE
  8
1
  6
CONTINUOUS
 62
     7
 10
77.74999999999999
 20
154.5
 11
77.74999999999999
 21
159.5
  0
LINE
  8
1
  6
CONTINUOUS
 62
     7
 10
44.24999999999999
 20
169.7294670984865
 11
45.24999999999999
 21
169.7381939662773
  0
LINE
  8
1
  6
CONTINUOUS
 62
     7
 10
45.24999999999998
 20
209.753079165932
 11
72.26745307099674
 21
209.5173014249384
  0
LINE
  8
1
  6
CONTINUOUS
 62
     7
 10
75.24999999999999
 20
245.0
 11
45.24999999999999
 21
245.2618060337228
  0
LINE
  8
1
  6
CONTINUOUS
 62
     7
 10
74.24999999999999
 20
207.5173775788101
 11
74.24999999999999
 21
207.48262242119
  0
LINE
  8
1
  6
CONTINUOUS
 62
     7
 10
45.24999999999998
 20
209.753079165932
 11
45.24999999999998
 21
211.7381939662772
  0
LINE
  8
1
  6
CONTINUOUS
 62
     7
 10
45.24999999999999
 20
245.2618060337228
 11
44.24999999999999
 21
245.2705329015135
  0
LINE
  8
1
  6
CONTINUOUS
 62
     7
 10
45.24999999999998
 20
180.246920834068
 11
72.26745307099674
 21
180.4826985750616
  0
LINE
  8
1
  6
CONTINUOUS
 62
     7
 10
72.26745307099674
 20
205.4826985750616
 11
45.24999999999999
 21
205.246920834068
  0
LINE
  8
1
  6
CONTINUOUS
 62
     7
 10
45.24999999999999
 20
184.753079165932
 11
44.24999999999999
 21
184.7618060337228
  0
LINE
  8
1
  6
CONTINUOUS
 62
     7
 10
45.25000000000001
 20
203.2618060337228
 11
45.24999999999998
 21
205.246920834068
  0
LINE
  8
1
  6
CONTINUOUS
 62
     7
 10
75.24999999999999
 20
178.0
 11
45.24999999999998
 21
178.2618060337228
  0
LINE
  8
1
  6
CONTINUOUS
 62
     7
 10
44.24999999999999
 20
186.7294670984865
 11
45.24999999999999
 21
186.7381939662772
  0
LINE
  8
1
  6
CONTINUOUS
 62
     7
 10
45.24999999999998
 20
228.2618060337228
 11
44.24999999999999
 21
228.2705329015135
  0
LINE
  8
1
  6
CONTINUOUS
 62
     7
 10
75.24999999999999
 20
212.0
 11
45.24999999999998
 21
211.7381939662772
  0
LINE
  8
1
  6
CONTINUOUS
 62
     7
 10
77.74999999999999
 20
255.5
 11
77.74999999999999
 21
247.5
  0
LINE
  8
1
  6
CONTINUOUS
 62
     7
 10
75.24999999999999
 20
203.0
 11
45.25
 21
203.2618060337228
  0
ARC
  8
1
  6
CONTINUOUS
 62
     7
 10
72.24999999999999
 20
207.5173775788101
 40
2.000000000000006
 50
0.0
 51
89.49999999999976
  0
ARC
  8
1
  6
CONTINUOUS
 62
     7
 10
72.24999999999999
 20
232.5173775788101
 40
1.999999999999978
 50
0.0
 51
89.5
  0
ARC
  8
1
  6
CONTINUOUS
 62
     7
 10
72.24999999999999
 20
207.48262242119
 40
2.000000000000002
 50
270.5000000000002
 51
0.0
  0
LINE
  8
1
  6
CONTINUOUS
 62
     7
 10
44.24999999999999
 20
247.5
 11
45.25000000000001
 21
247.5
  0
LINE
  8
1
  6
CONTINUOUS
 62
     7
 10
80.24999999999999
 20
159.5
 11
80.24999999999999
 21
154.5
  0
LINE
  8
1
  6
CONTINUOUS
 62
     7
 10
61.74999999999997
 20
247.5
 11
45.25000000000001
 21
247.5
  0
LINE
  8
1
  6
CONTINUOUS
 62
     7
 10
80.24999999999999
 20
154.5
 11
77.74999999999999
 21
154.5
  0
LINE
  8
1
  6
CONTINUOUS
 62
     7
 10
75.24999999999999
 20
245.0
 11
75.24999999999999
 21
237.0
  0
LINE
  8
1
  6
CONTINUOUS
 62
     7
 10
75.24999999999999
 20
159.0
 11
75.24999999999999
 21
167.5
  0
LINE
  8
1
  6
CONTINUOUS
 62
     7
 10
47.24999999999999
 20
167.5
 11
47.24999999999999
 21
159.0
  0
LINE
  8
1
  6
CONTINUOUS
 62
     7
 10
45.24999999999999
 20
224.75
 11
44.24999999999998
 21
225.75
  0
ARC
  8
1
  6
CONTINUOUS
 62
     7
 10
46.74999999999999
 20
159.0
 40
2.500000000000002
 50
180.0
 51
269.9999999999998
  0
ARC
  8
1
  6
CONTINUOUS
 62
     7
 10
46.74999999999999
 20
157.0
 40
0.5000000000000004
 50
270.0
 51
0.0
  0
LINE
  8
1
  6
CONTINUOUS
 62
     7
 10
44.5842504147281
 20
178.2236571898741
 11
44.5842504147281
 21
178.2676159423352
  0
LINE
  8
1
  6
CONTINUOUS
 62
     7
 10
75.24999999999999
 20
247.5
 11
75.24999999999999
 21
256.0
  0
LINE
  8
1
  6
CONTINUOUS
 62
     7
 10
47.24999999999999
 20
258.0
 11
47.24999999999999
 21
256.0
  0
LINE
  8
1
  6
CONTINUOUS
 62
     7
 10
75.24999999999999
 20
256.0
 11
75.24999999999999
 21
258.0
  0
LINE
  8
1
  6
CONTINUOUS
 62
     7
 10
45.24999999999999
 20
211.7381939662772
 11
45.24999999999999
 21
224.75
  0
LINE
  8
1
  6
CONTINUOUS
 62
     7
 10
75.24999999999999
 20
157.0
 11
75.24999999999999
 21
159.0
  0
LINE
  8
1
  6
CONTINUOUS
 62
     7
 10
44.24999999999999
 20
178.2207402306957
 11
44.5842504147281
 21
178.2236571898741
  0
LINE
  8
1
  6
CONTINUOUS
 62
     7
 10
47.24999999999999
 20
256.0
 11
47.24999999999999
 21
247.5
  0
LINE
  8
1
  6
CONTINUOUS
 62
     7
 10
44.24999999999999
 20
189.25
 11
45.24999999999999
 21
190.25
  0
ARC
  8
1
  6
CONTINUOUS
 62
     7
 10
46.74999999999999
 20
258.0
 40
0.5000000000000004
 50
0.0
 51
90.0
  0
LINE
  8
1
  6
CONTINUOUS
 62
     7
 10
45.24999999999999
 20
190.25
 11
45.24999999999999
 21
203.2618060337228
  0
LINE
  8
1
  6
CONTINUOUS
 62
     7
 10
47.24999999999999
 20
159.0
 11
47.24999999999999
 21
157.0
  0
ARC
  8
1
  6
CONTINUOUS
 62
     7
 10
46.74999999999999
 20
256.0
 40
2.500000000000002
 50
90.0
 51
180.0
  0
LINE
  8
1
  6
CONTINUOUS
 62
     7
 10
75.24999999999999
 20
154.5
 11
77.74999999999999
 21
154.5
  0
LINE
  8
1
  6
CONTINUOUS
 62
     7
 10
75.24999999999999
 20
260.5
 11
75.24999999999999
 21
258.0
  0
LINE
  8
1
  6
CONTINUOUS
 62
     7
 10
45.24999999999999
 20
205.246920834068
 11
45.24999999999999
 21
209.753079165932
  0
LINE
  8
1
  6
CONTINUOUS
 62
     7
 10
75.24999999999999
 20
154.5
 11
75.24999999999999
 21
157.0
  0
LINE
  8
1
  6
CONTINUOUS
 62
     7
 10
75.24999999999999
 20
260.5
 11
77.74999999999999
 21
260.5
  0
LINE
  8
1
  6
CONTINUOUS
 62
     7
 10
75.24999999999999
 20
258.5
 11
46.74999999999999
 21
258.5
  0
LINE
  8
1
  6
CONTINUOUS
 62
     7
 10
46.74999999999999
 20
156.5
 11
75.24999999999999
 21
156.5
  0
LINE
  8
1
  6
CONTINUOUS
 62
     7
 10
189.98462550486
 20
85.98825735548866
 11
189.9956746437654
 21
87.25436326774918
  0
LINE
  8
1
  6
CONTINUOUS
 62
     7
 10
135.0
 20
85.24999999999999
 11
135.0
 21
87.74999999999999
  0
LINE
  8
1
  6
CONTINUOUS
 62
     7
 10
200.0887234393789
 20
84.74999999999999
 11
235.9738193966277
 21
84.74999999999999
  0
LINE
  8
1
  6
CONTINUOUS
 62
     7
 10
238.5
 20
85.24999999999999
 11
238.5
 21
82.74999999999999
  0
LINE
  8
1
  6
CONTINUOUS
 62
     7
 10
236.991311210595
 20
87.74999999999999
 11
246.0
 21
87.74999999999999
  0
ARC
  8
1
  6
CONTINUOUS
 62
     7
 10
193.0
 20
68.74999999999999
 40
15.0
 50
50.05549481018514
 51
68.9605302186828
  0
LINE
  8
1
  6
CONTINUOUS
 62
     7
 10
147.5
 20
82.74999999999999
 11
165.5
 21
82.74999999999999
  0
LINE
  8
1
  6
CONTINUOUS
 62
     7
 10
196.0043253562346
 20
87.25436326774918
 11
196.01537449514
 21
85.98825735548866
  0
LINE
  8
1
  6
CONTINUOUS
 62
     7
 10
150.0086507124692
 20
86.75872653549835
 11
150.0261806033723
 21
84.74999999999999
  0
ARC
  8
1
  6
CONTINUOUS
 62
     7
 10
204.0
 20
68.74999999999999
 40
11.5
 50
270.0
 51
90.0
  0
LINE
  8
1
  6
CONTINUOUS
 62
     7
 10
211.5
 20
82.74999999999999
 11
211.5
 21
83.74999999999999
  0
LINE
  8
1
  6
CONTINUOUS
 62
     7
 10
150.0261806033723
 20
84.74999999999999
 11
185.9112765606211
 21
84.74999999999999
  0
LINE
  8
1
  6
CONTINUOUS
 62
     7
 10
147.5
 20
85.24999999999999
 11
140.0
 21
85.24999999999999
  0
ARC
  8
1
  6
CONTINUOUS
 62
     7
 10
193.0
 20
68.74999999999986
 40
14.99999999999987
 50
249.3064587688137
 51
290.6935412311862
  0
LINE
  8
1
  6
CONTINUOUS
 62
     7
 10
190.4956556052975
 20
87.74999999999999
 11
195.5043443947025
 21
87.74999999999999
  0
LINE
  8
1
  6
CONTINUOUS
 62
     7
 10
246.0
 20
85.24999999999999
 11
238.5
 21
85.24999999999999
  0
ARC
  8
1
  6
CONTINUOUS
 62
     7
 10
236.991311210595
 20
86.74999999999999
 40
1.000000000000001
 50
90.0
 51
179.5
  0
LINE
  8
1
  6
CONTINUOUS
 62
     7
 10
211.5
 20
83.74999999999999
 11
220.5
 21
83.74999999999999
  0
LINE
  8
1
  6
CONTINUOUS
 62
     7
 10
140.0
 20
87.74999999999999
 11
149.008688789405
 21
87.74999999999999
  0
LINE
  8
1
  6
CONTINUOUS
 62
     7
 10
198.3851648071345
 20
82.74999999999999
 11
211.5
 21
82.74999999999999
  0
LINE
  8
1
  6
CONTINUOUS
 62
     7
 10
220.5
 20
82.74999999999999
 11
238.5
 21
82.74999999999999
  0
ARC
  8
1
  6
CONTINUOUS
 62
     7
 10
195.5043443947025
 20
87.24999999999999
 40
0.5000000000000016
 50
0.5000000000000353
 51
90.0
  0
LINE
  8
1
  6
CONTINUOUS
 62
     7
 10
147.5
 20
82.74999999999999
 11
147.5
 21
85.24999999999999
  0
ARC
  8
1
  6
CONTINUOUS
 62
     7
 10
193.0
 20
68.74999999999999
 40
17.5
 50
66.10449181383854
 51
80.07801328593456
  0
ARC
  8
1
  6
CONTINUOUS
 62
     7
 10
149.008688789405
 20
86.74999999999999
 40
1.000000000000003
 50
0.4999999999999818
 51
90.0
  0
LINE
  8
1
  6
CONTINUOUS
 62
     7
 10
246.0
 20
87.74999999999999
 11
251.0
 21
87.74999999999999
  0
ARC
  8
1
  6
CONTINUOUS
 62
     7
 10
231.0
 20
68.74999999999999
 40
14.0
 50
90.0
 51
270.0
  0
ARC
  8
1
  6
CONTINUOUS
 62
     7
 10
155.0
 20
68.74999999999999
 40
14.0
 50
270.0
 51
90.0
  0
ARC
  8
1
  6
CONTINUOUS
 62
     7
 10
193.0
 20
68.74999999999999
 40
17.5
 50
99.9219867140655
 51
113.8955081861615
  0
LINE
  8
1
  6
CONTINUOUS
 62
     7
 10
165.5
 20
82.74999999999999
 11
165.5
 21
83.74999999999999
  0
LINE
  8
1
  6
CONTINUOUS
 62
     7
 10
165.5
 20
83.74999999999999
 11
174.5
 21
83.74999999999999
  0
LINE
  8
1
  6
CONTINUOUS
 62
     7
 10
135.0
 20
87.74999999999999
 11
140.0
 21
87.74999999999999
  0
LINE
  8
1
  6
CONTINUOUS
 62
     7
 10
174.5
 20
82.74999999999999
 11
187.6148351928655
 21
82.74999999999999
  0
ARC
  8
1
  6
CONTINUOUS
 62
     7
 10
193.0
 20
68.74999999999999
 40
15.0
 50
68.96053021868278
 51
111.0394697813173
  0
ARC
  8
1
  6
CONTINUOUS
 62
     7
 10
190.4956556052975
 20
87.24999999999999
 40
0.5000000000000004
 50
89.99999999999986
 51
179.5
  0
LINE
  8
1
  6
CONTINUOUS
 62
     7
 10
251.0
 20
87.74999999999999
 11
251.0
 21
85.24999999999999
  0
LINE
  8
1
  6
CONTINUOUS
 62
     7
 10
251.0
 20
85.24999999999999
 11
246.0
 21
85.24999999999999
  0
ARC
  8
1
  6
CONTINUOUS
 62
     7
 10
193.0
 20
68.74999999999999
 40
15.0
 50
111.0394697813172
 51
129.9445051898149
  0
LINE
  8
1
  6
CONTINUOUS
 62
     7
 10
140.0
 20
85.24999999999999
 11
135.0
 21
85.24999999999999
  0
LINE
  8
1
  6
CONTINUOUS
 62
     7
 10
235.9738193966277
 20
84.74999999999999
 11
235.9913492875308
 21
86.75872653549835
  0
LINE
  8
1
  6
CONTINUOUS
 62
     7
 10
246.0
 20
85.24999999999999
 11
246.0
 21
83.24999999999999
  0
LINE
  8
1
  6
CONTINUOUS
 62
     7
 10
182.0
 20
57.24999999999999
 11
183.3693198578709
 21
57.24999999999999
  0
LINE
  8
1
  6
CONTINUOUS
 62
     7
 10
174.5
 20
83.74999999999999
 11
174.5
 21
82.74999999999999
  0
LINE
  8
1
  6
CONTINUOUS
 62
     7
 10
220.5
 20
83.74999999999999
 11
220.5
 21
82.74999999999999
  0
LINE
  8
1
  6
CONTINUOUS
 62
     7
 10
245.5
 20
82.74999999999999
 11
243.5
 21
82.74999999999999
  0
LINE
  8
1
  6
CONTINUOUS
 62
     7
 10
202.6306801421291
 20
57.24999999999999
 11
204.0
 21
57.24999999999999
  0
LINE
  8
1
  6
CONTINUOUS
 62
     7
 10
142.5
 20
54.74999999999999
 11
155.0
 21
54.74999999999999
  0
LINE
  8
1
  6
CONTINUOUS
 62
     7
 10
204.0
 20
80.24999999999999
 11
202.6306801421291
 21
80.24999999999999
  0
ARC
  8
1
  6
CONTINUOUS
 62
     7
 10
142.5
 20
54.24999999999999
 40
2.500000000000002
 50
180.0
 51
270.0
  0
LINE
  8
1
  6
CONTINUOUS
 62
     7
 10
243.5
 20
82.74999999999999
 11
238.5
 21
82.74999999999999
  0
LINE
  8
1
  6
CONTINUOUS
 62
     7
 10
140.0
 20
83.24999999999999
 11
140.0
 21
85.24999999999999
  0
ARC
  8
1
  6
CONTINUOUS
 62
     7
 10
245.5
 20
54.24999999999999
 40
0.5000000000000004
 50
359.9999999999993
 51
90.0
  0
LINE
  8
1
  6
CONTINUOUS
 62
     7
 10
231.0
 20
54.74999999999999
 11
243.5
 21
54.74999999999999
  0
LINE
  8
1
  6
CONTINUOUS
 62
     7
 10
183.3693198578709
 20
80.24999999999999
 11
182.0
 21
80.24999999999999
  0
ARC
  8
1
  6
CONTINUOUS
 62
     7
 10
243.5
 20
54.24999999999999
 40
2.499999999999995
 50
270.0
 51
359.9999999999998
  0
ARC
  8
1
  6
CONTINUOUS
 62
     7
 10
140.5
 20
54.24999999999999
 40
0.5000000000000004
 50
90.0
 51
180.0
  0
LINE
  8
1
  6
CONTINUOUS
 62
     7
 10
147.5
 20
82.74999999999999
 11
142.5
 21
82.74999999999999
  0
ARC
  8
1
  6
CONTINUOUS
 62
     7
 10
245.5
 20
83.24999999999999
 40
0.5000000000000004
 50
270.0
 51
0.0
  0
ARC
  8
1
  6
CONTINUOUS
 62
     7
 10
182.0
 20
68.74999999999999
 40
11.5
 50
90.00000000000006
 51
270.0
  0
ARC
  8
1
  6
CONTINUOUS
 62
     7
 10
193.0
 20
68.74999999999999
 40
15.0
 50
230.0554948101851
 51
249.306458768814
  0
LINE
  8
1
  6
CONTINUOUS
 62
     7
 10
140.5
 20
54.74999999999999
 11
142.5
 21
54.74999999999999
  0
ARC
  8
1
  6
CONTINUOUS
 62
     7
 10
140.5
 20
83.24999999999999
 40
0.5000000000000004
 50
180.0
 51
270.0
  0
LINE
  8
1
  6
CONTINUOUS
 62
     7
 10
142.5
 20
82.74999999999999
 11
140.5
 21
82.74999999999999
  0
LINE
  8
1
  6
CONTINUOUS
 62
     7
 10
243.5
 20
54.74999999999999
 11
245.5
 21
54.74999999999999
  0
ARC
  8
1
  6
CONTINUOUS
 62
     7
 10
193.0
 20
68.74999999999999
 40
15.0
 50
290.693541231186
 51
309.9445051898149
  0
LINE
  8
1
  6
CONTINUOUS
 62
     7
 10
29.24999999999998
 20
156.5
 11
44.24999999999998
 21
156.5
  0
LINE
  8
1
  6
CONTINUOUS
 62
     7
 10
29.24999999999998
 20
156.5
 11
29.24999999999998
 21
258.5
  0
LINE
  8
1
  6
CONTINUOUS
 62
     7
 10
45.50000015853674
 20
258.1650636009923
 11
45.6073508913753
 21
258.2235901183805
  0
LINE
  8
1
  6
CONTINUOUS
 62
     7
 10
44.24999999999998
 20
236.7294670984865
 11
44.24999999999998
 21
258.5
  0
LINE
  8
1
  6
CONTINUOUS
 62
     7
 10
29.24999999999998
 20
258.5
 11
44.24999999999998
 21
258.5
  0
LINE
  8
1
  6
CONTINUOUS
 62
     7
 10
44.24999999999998
 20
156.5
 11
44.24999999999998
 21
178.2705329015135
  0
TEXT
  8
1
  6
CONTINUOUS
 62
     7
 10
267.5590846567463
 20
117.4318181818182
 40
10.0
  1
ＳＢＧ－ＷＭ－ＤＢＦ
  0
LINE
  8
1
  6
CONTINUOUS
 62
     7
 10
44.24999999999998
 20
159.0
 11
44.24999999999998
 21
256.0
  0
LINE
  8
1
  6
CONTINUOUS
 62
     7
 10
135.0
 20
159.75
 11
251.0
 21
159.75
  0
LINE
  8
1
  6
CONTINUOUS
 62
     7
 10
198.5
 20
241.5
 11
233.5
 21
241.5
  0
LINE
  8
1
  6
CONTINUOUS
 62
     7
 10
44.24999999999998
 20
234.7618060337228
 11
72.26745307099674
 21
234.5173014249384
  0
LINE
  8
1
  6
CENTER
 62
     1
 10
216.0
 20
154.5
 11
216.0
 21
260.5
  0
LINE
  8
1
  6
CONTINUOUS
 62
     7
 10
233.5
 20
173.5
 11
198.5
 21
173.5
  0
ARC
  8
1
  6
CONTINUOUS
 62
     7
 10
187.5
 20
176.0
 40
2.500000000000001
 50
270.0
 51
0.0
  0
LINE
  8
1
  6
CONTINUOUS
 62
     7
 10
135.0
 20
87.74999999999999
 11
135.0
 21
52.74999999999999
  0
LINE
  8
1
  6
CENTER
 62
     1
 10
170.0
 20
154.5
 11
170.0
 21
260.5
  0
LINE
  8
1
  6
CONTINUOUS
 62
     7
 10
243.067685826969
 20
243.25
 11
243.067685826969
 21
171.75
  0
ARC
  8
1
  6
CONTINUOUS
 62
     7
 10
198.5
 20
239.0
 40
2.500000000000001
 50
90.0
 51
180.0
  0
LINE
  8
1
  6
CONTINUOUS
 62
     7
 10
190.0
 20
239.0
 11
190.0
 21
176.0
  0
LINE
  8
1
  6
CONTINUOUS
 62
     7
 10
44.24999999999998
 20
230.2381939662772
 11
72.26745307099672
 21
230.4826985750616
  0
LINE
  8
1
  6
CONTINUOUS
 62
     7
 10
77.74999999999999
 20
167.5
 11
44.24999999999998
 21
167.4999999999999
  0
LINE
  8
1
  6
CONTINUOUS
 62
     7
 10
152.5
 20
241.5
 11
187.5
 21
241.5
  0
LINE
  8
1
  6
CONTINUOUS
 62
     7
 10
75.24999999999999
 20
237.0
 11
44.24999999999997
 21
236.7294670984865
  0
LINE
  8
1
  6
CENTER
 62
     1
 10
164.5
 20
165.75
 11
221.5
 21
165.75
  0
LINE
  8
1
  6
CENTER
 62
     1
 10
193.0
 20
36.74999999999999
 11
193.0
 21
87.74999999999999
  0
LINE
  8
1
  6
CENTER
 62
     1
 10
44.24999999999998
 20
232.5
 11
80.24999999999999
 21
232.5
  0
LINE
  8
1
  6
CENTER
 62
     1
 10
193.0
 20
154.5
 11
193.0
 21
260.5
  0
LINE
  8
1
  6
CONTINUOUS
 62
     7
 10
251.0
 20
255.25
 11
135.0
 21
255.25
  0
ARC
  8
1
  6
CONTINUOUS
 62
     7
 10
170.0
 20
207.5
 40
8.3
 50
180.0
 51
0.0
  0
LINE
  8
1
  6
CONTINUOUS
 62
     7
 10
196.0
 20
176.0
 11
196.0
 21
239.0
  0
LINE
  8
1
  6
CONTINUOUS
 62
     7
 10
77.74999999999999
 20
247.5
 11
44.24999999999999
 21
247.5000000000001
  0
LINE
  8
1
  6
CENTER
 62
     1
 10
135.0
 20
207.5
 11
251.0
 21
207.5
  0
LINE
  8
1
  6
CONTINUOUS
 62
     7
 10
150.0
 20
176.0
 11
150.0
 21
239.0
  0
ARC
  8
1
  6
CONTINUOUS
 62
     7
 10
216.0
 20
207.5
 40
8.199999999999996
 50
90.00000000000006
 51
270.0
  0
LINE
  8
1
  6
CENTER
 62
     1
 10
44.24999999999998
 20
182.5
 11
80.24999999999999
 21
182.5
  0
LINE
  8
1
  6
CONTINUOUS
 62
     7
 10
236.0
 20
176.0
 11
236.0
 21
239.0
  0
LINE
  8
1
  6
CENTER
 62
     1
 10
29.24999999999998
 20
207.5
 11
80.24999999999999
 21
207.5
  0
LINE
  8
1
  6
CENTER
 62
     1
 10
164.5
 20
249.25
 11
221.5
 21
249.25
  0
LINE
  8
1
  6
CENTER
 62
     1
 10
135.0
 20
68.74999999999999
 11
251.0
 21
68.74999999999999
  0
ARC
  8
1
  6
CONTINUOUS
 62
     7
 10
216.0
 20
207.5
 40
8.199999999999996
 50
270.0
 51
90.0
  0
LINE
  8
1
  6
CONTINUOUS
 62
     7
 10
187.5
 20
173.5
 11
152.5
 21
173.5
  0
ARC
  8
1
  6
CONTINUOUS
 62
     7
 10
170.0
 20
207.5
 40
8.3
 50
359.9999999999999
 51
180.0
  0
LINE
  8
1
  6
CENTER
 62
     1
 10
231.0
 20
52.74999999999999
 11
231.0
 21
84.74999999999999
  0
LINE
  8
1
  6
CENTER
 62
     1
 10
155.0
 20
52.74999999999999
 11
155.0
 21
84.74999999999999
  0
LINE
  8
1
  6
CENTER
 62
     1
 10
170.0
 20
197.2
 11
170.0
 21
217.8
  0
INSERT
  8
0
 62
     7
  2
D_FRAME_DRAWING_17
 10
0.0
 20
0.0
 30
0.0
  0
ENDSEC
  0
EOF
