  0
SECTION
  2
HEADER
  9
$ACADVER
  1
AC1004
  9
$INSBASE
 10
0.0
 20
0.0
  9
$EXTMIN
 10
0.0
 20
0.0
  9
$EXTMAX
 10
404.2371507359818
 20
258.0
  9
$LIMMIN
 10
0.0
 20
0.0
  9
$LIMMAX
 10
12.0
 20
9.0
  9
$ORTHOMODE
 70
     0
  9
$REGENMODE
 70
     1
  9
$FILLMODE
 70
     1
  9
$QTEXTMODE
 70
     0
  9
$DRAGMODE
 70
     2
  9
$LTSCALE
 40
1.0
  9
$OSMODE
 70
    37
  9
$ATTMODE
 70
     1
  9
$TEXTSIZE
 40
0.2
  9
$TRACEWID
 40
0.05
  9
$TEXTSTYLE
  7
STANDARD
  9
$CLAYER
  8
0
  9
$CELTYPE
  6
BYLAYER
  9
$CECOLOR
 62
   256
  9
$DIMSCALE
 40
1.0
  9
$DIMASZ
 40
3.0
  9
$DIMEXO
 40
0.0625
  9
$DIMDLI
 40
0.38
  9
$DIMRND
 40
0.0
  9
$DIMDLE
 40
0.0
  9
$DIMEXE
 40
1.5
  9
$DIMTP
 40
0.0
  9
$DIMTM
 40
0.0
  9
$DIMTXT
 40
3.0
  9
$DIMCEN
 40
0.09
  9
$DIMTSZ
 40
0.0
  9
$DIMTOL
 70
     0
  9
$DIMLIM
 70
     0
  9
$DIMTIH
 70
     1
  9
$DIMTOH
 70
     1
  9
$DIMSE1
 70
     0
  9
$DIMSE2
 70
     0
  9
$DIMTAD
 70
     1
  9
$DIMZIN
 70
     0
  9
$DIMBLK
  1

  9
$DIMASO
 70
     1
  9
$DIMSHO
 70
     1
  9
$DIMPOST
  1

  9
$DIMAPOST
  1

  9
$DIMALT
 70
     0
  9
$DIMALTD
 70
     2
  9
$DIMALTF
 40
25.4
  9
$DIMLFAC
 40
1.0
  9
$DIMTOFL
 70
     0
  9
$DIMTVP
 40
0.0
  9
$DIMTIX
 70
     0
  9
$DIMSOXD
 70
     0
  9
$DIMSAH
 70
     0
  9
$DIMBLK1
  1

  9
$DIMBLK2
  1

  9
$LUNITS
 70
     2
  9
$LUPREC
 70
     4
  9
$SKETCHINC
 40
0.1
  9
$FILLETRAD
 40
0.5
  9
$AUNITS
 70
     0
  9
$AUPREC
 70
     0
  9
$MENU
  1
.
  9
$ELEVATION
 40
0.0
  9
$THICKNESS
 40
0.0
  9
$LIMCHECK
 70
     0
  9
$CHAMFERA
 40
0.0
  9
$CHAMFERB
 40
0.0
  9
$SKPOLY
 70
     0
  9
$TDCREATE
 40
2460628.574579468
  9
$TDUPDATE
 40
2460628.574584398
  9
$TDINDWG
 40
0.0000000116
  9
$TDUSRTIMER
 40
0.0000000116
  9
$USRTIMER
 70
     1
  9
$ANGBASE
 50
0.0
  9
$ANGDIR
 70
     0
  9
$PDMODE
 70
     0
  9
$PDSIZE
 40
0.0
  9
$PLINEWID
 40
0.0
  9
$COORDS
 70
     1
  9
$SPLFRAME
 70
     0
  9
$SPLINETYPE
 70
     6
  9
$SPLINESEGS
 70
     8
  9
$ATTDIA
 70
     0
  9
$ATTREQ
 70
     1
  9
$SURFTAB1
 70
     6
  9
$SURFTAB2
 70
     6
  9
$SURFTYPE
 70
     6
  9
$SURFU
 70
     6
  9
$SURFV
 70
     6
  9
$UCSNAME
  2

  9
$UCSORG
 10
0.0
 20
0.0
 30
0.0
  9
$UCSXDIR
 10
1.0
 20
0.0
 30
0.0
  9
$UCSYDIR
 10
0.0
 20
1.0
 30
0.0
  9
$USERI1
 70
     0
  9
$USERI2
 70
     0
  9
$USERI3
 70
     0
  9
$USERI4
 70
     0
  9
$USERI5
 70
     0
  9
$USERR1
 40
0.0
  9
$USERR2
 40
0.0
  9
$USERR3
 40
0.0
  9
$USERR4
 40
0.0
  9
$USERR5
 40
0.0
  9
$WORLDVIEW
 70
     1
  0
ENDSEC
  0
SECTION
  2
TABLES
  0
TABLE
  2
LTYPE
 70
     2
  0
LTYPE
  2
CONTINUOUS
 70
     0
  3
Solid line
 72
    65
 73
     0
 40
0.0
  0
LTYPE
  2
CENTER
 70
     0
  3

 72
    65
 73
     0
 40
0.0
  0
ENDTAB
  0
TABLE
  2
LAYER
 70
     2
  0
LAYER
  2
0
 70
     0
 62
     7
  6
CONTINUOUS
  0
LAYER
  2
1
 70
     0
 62
     7
  6
CONTINUOUS
  0
ENDTAB
  0
TABLE
  2
STYLE
 70
     2
  0
STYLE
  2
STANDARD
 70
     0
 40
0.0
 41
1.0
 50
0.0
 71
     0
 42
0.2
  3
txt
  4

  0
STYLE
  2
ＭＳ_ゴシック
 70
     0
 40
0.0
 41
1.0
 50
0.0
 71
     0
 42
0.2
  3
ＭＳ ゴシック.shx
  4

  0
ENDTAB
  0
TABLE
  2
VIEW
 70
     0
  0
ENDTAB
  0
ENDSEC
  0
SECTION
  2
BLOCKS
  0
BLOCK
  8
0
  2
D_FRAME_VIEW_1444
 70
     0
 10
0.0
 20
0.0
  0
ENDBLK
  8
0
  0
BLOCK
  8
0
  2
D_FRAME_VIEW_3511
 70
     0
 10
0.0
 20
0.0
  0
ENDBLK
  8
0
  0
BLOCK
  8
0
  2
D_FRAME_VIEW_4158
 70
     0
 10
0.0
 20
0.0
  0
ENDBLK
  8
0
  0
BLOCK
  8
0
  2
D_FRAME_DRAWING_17
 70
     0
 10
0.0
 20
0.0
  0
LINE
  8
0
  6
CONTINUOUS
 62
     7
 10
0.0
 20
0.0
 11
420.0
 21
0.0
  0
LINE
  8
0
  6
CONTINUOUS
 62
     7
 10
420.0
 20
0.0
 11
420.0
 21
297.0
  0
LINE
  8
0
  6
CONTINUOUS
 62
     7
 10
420.0
 20
297.0
 11
0.0
 21
297.0
  0
LINE
  8
0
  6
CONTINUOUS
 62
     7
 10
0.0
 20
297.0
 11
0.0
 21
0.0
  0
ENDBLK
  8
0
  0
ENDSEC
  0
SECTION
  2
ENTITIES
  0
INSERT
  8
1
  6
CONTINUOUS
 62
     7
  2
D_FRAME_VIEW_1444
 10
0.0
 20
0.0
 30
0.0
  0
INSERT
  8
1
  6
CONTINUOUS
 62
     7
  2
D_FRAME_VIEW_3511
 10
0.0
 20
0.0
 30
0.0
  0
ARC
  8
1
  6
CONTINUOUS
 62
     7
 10
252.5
 20
205.6
 40
0.5000000000000004
 50
90.0
 51
180.0
  0
ARC
  8
1
  6
CONTINUOUS
 62
     7
 10
259.5
 20
205.6
 40
0.5000000000000004
 50
359.9999999999999
 51
90.0
  0
ARC
  8
1
  6
CONTINUOUS
 62
     7
 10
252.5
 20
204.4
 40
0.5000000000000001
 50
180.0
 51
270.0
  0
ARC
  8
1
  6
CONTINUOUS
 62
     7
 10
259.5
 20
204.4
 40
0.5000000000000004
 50
270.0
 51
0.0000000000000568
  0
LINE
  8
1
  6
CONTINUOUS
 62
     7
 10
259.5
 20
203.9
 11
252.5
 21
203.9
  0
ARC
  8
1
  6
CONTINUOUS
 62
     7
 10
192.5
 20
173.5
 40
2.500000000000002
 50
180.0
 51
269.9999999999997
  0
LINE
  8
1
  6
CONTINUOUS
 62
     7
 10
252.0
 20
204.4
 11
252.0
 21
205.6
  0
LINE
  8
1
  6
CONTINUOUS
 62
     7
 10
260.0
 20
205.6
 11
260.0
 21
204.4
  0
LINE
  8
1
  6
CONTINUOUS
 62
     7
 10
252.5
 20
206.1
 11
259.5
 21
206.1
  0
ARC
  8
1
  6
CONTINUOUS
 62
     7
 10
273.5
 20
173.5
 40
2.500000000000002
 50
270.0000000000003
 51
0.0
  0
ARC
  8
1
  6
CONTINUOUS
 62
     7
 10
273.5
 20
236.5
 40
2.500000000000002
 50
0.0
 51
89.99999999999966
  0
ARC
  8
1
  6
CONTINUOUS
 62
     7
 10
192.5
 20
236.5
 40
2.500000000000002
 50
90.00000000000034
 51
180.0
  0
ARC
  8
1
  6
CONTINUOUS
 62
     7
 10
206.5
 20
204.4
 40
0.5000000000000001
 50
180.0
 51
270.0
  0
LINE
  8
1
  6
CONTINUOUS
 62
     7
 10
213.5
 20
239.0
 11
227.5
 21
239.0
  0
LINE
  8
1
  6
CONTINUOUS
 62
     7
 10
213.5
 20
203.9
 11
206.5
 21
203.9
  0
LINE
  8
1
  6
CONTINUOUS
 62
     7
 10
206.5
 20
206.1
 11
213.5
 21
206.1
  0
ARC
  8
1
  6
CONTINUOUS
 62
     7
 10
206.5
 20
205.6
 40
0.5000000000000004
 50
90.0
 51
180.0
  0
LINE
  8
1
  6
CONTINUOUS
 62
     7
 10
206.0
 20
204.4
 11
206.0
 21
205.6
  0
ARC
  8
1
  6
CONTINUOUS
 62
     7
 10
213.5
 20
204.4
 40
0.5000000000000004
 50
270.0
 51
0.0000000000000568
  0
ARC
  8
1
  6
CONTINUOUS
 62
     7
 10
227.5
 20
236.5
 40
2.500000000000002
 50
0.0
 51
89.99999999999966
  0
ARC
  8
1
  6
CONTINUOUS
 62
     7
 10
238.5
 20
173.5
 40
2.500000000000002
 50
180.0
 51
269.9999999999997
  0
LINE
  8
1
  6
CONTINUOUS
 62
     7
 10
214.0
 20
205.6
 11
214.0
 21
204.4
  0
ARC
  8
1
  6
CONTINUOUS
 62
     7
 10
238.5
 20
173.5
 40
1.900000000000001
 50
179.9999999999996
 51
270.0000000000007
  0
ARC
  8
1
  6
CONTINUOUS
 62
     7
 10
213.5
 20
205.6
 40
0.5000000000000004
 50
359.9999999999999
 51
90.0
  0
LINE
  8
1
  6
CONTINUOUS
 62
     7
 10
252.5
 20
171.0
 11
238.5
 21
171.0
  0
LINE
  8
1
  6
CONTINUOUS
 62
     7
 10
175.0
 20
154.0
 11
175.0
 21
157.0
  0
LINE
  8
1
  6
CONTINUOUS
 62
     7
 10
175.0
 20
256.0
 11
176.0
 21
256.0
  0
ARC
  8
1
  6
CONTINUOUS
 62
     7
 10
210.0
 20
205.0
 40
8.300000000000002
 50
187.2677350929537
 51
222.470018266927
  0
ARC
  8
1
  6
CONTINUOUS
 62
     7
 10
256.0
 20
205.0
 40
8.300000000000002
 50
187.2677350929537
 51
222.470018266927
  0
LINE
  8
1
  6
CONTINUOUS
 62
     7
 10
176.0
 20
154.0
 11
175.0
 21
154.0
  0
LINE
  8
1
  6
CONTINUOUS
 62
     7
 10
291.0000000000001
 20
157.0000000000001
 11
291.0000000000001
 21
154.0
  0
LINE
  8
1
  6
CONTINUOUS
 62
     7
 10
190.0
 20
231.5
 11
190.0
 21
236.5
  0
LINE
  8
1
  6
CONTINUOUS
 62
     7
 10
175.0
 20
253.0
 11
175.0
 21
256.0
  0
LINE
  8
1
  6
CONTINUOUS
 62
     7
 10
236.0
 20
227.0
 11
236.0
 21
236.5
  0
ARC
  8
1
  6
CONTINUOUS
 62
     7
 10
210.0
 20
205.0
 40
8.3
 50
7.267735092953728
 51
42.47001826692701
  0
LINE
  8
1
  6
CONTINUOUS
 62
     7
 10
291.0000000000001
 20
256.0
 11
291.0000000000001
 21
253.0
  0
LINE
  8
1
  6
CONTINUOUS
 62
     7
 10
291.0000000000001
 20
154.0
 11
290.0000000000001
 21
154.0
  0
LINE
  8
1
  6
CONTINUOUS
 62
     7
 10
230.0
 20
183.0
 11
230.0
 21
173.5
  0
LINE
  8
1
  6
CONTINUOUS
 62
     7
 10
290.0000000000001
 20
256.0
 11
291.0000000000001
 21
256.0
  0
LINE
  8
1
  6
CONTINUOUS
 62
     7
 10
127.75
 20
157.25
 11
127.75
 21
169.25
  0
LINE
  8
1
  6
CONTINUOUS
 62
     7
 10
127.75
 20
240.75
 11
127.75
 21
252.75
  0
LINE
  8
1
  6
CONTINUOUS
 62
     7
 10
92.75000000000001
 20
175.7618060337228
 11
91.75000000000001
 21
175.7705329015135
  0
LINE
  8
1
  6
CONTINUOUS
 62
     7
 10
125.25
 20
253.0
 11
125.25
 21
245.0
  0
LINE
  8
1
  6
CONTINUOUS
 62
     7
 10
127.75
 20
253.0
 11
127.75
 21
252.75002
  0
LINE
  8
1
  6
CONTINUOUS
 62
     7
 10
127.75
 20
252.75
 11
127.75
 21
240.75
  0
LINE
  8
1
  6
CONTINUOUS
 62
     7
 10
127.75
 20
240.74998
 11
127.75
 21
205.0
  0
LINE
  8
1
  6
CONTINUOUS
 62
     7
 10
91.75000000000001
 20
234.2294670984865
 11
92.75000000000001
 21
234.2381939662772
  0
LINE
  8
1
  6
CONTINUOUS
 62
     7
 10
92.75000000000001
 20
232.253079165932
 11
91.75000000000001
 21
232.2618060337228
  0
LINE
  8
1
  6
CONTINUOUS
 62
     7
 10
91.75000000000001
 20
177.7381939662772
 11
91.75000000000001
 21
175.7705329015135
  0
LINE
  8
1
  6
CONTINUOUS
 62
     7
 10
91.75000000000001
 20
177.7381939662772
 11
92.75000000000001
 21
177.746920834068
  0
LINE
  8
1
  6
CONTINUOUS
 62
     7
 10
91.75000000000001
 20
232.2618060337228
 11
91.75000000000001
 21
234.2294670984865
  0
LINE
  8
1
  6
CONTINUOUS
 62
     7
 10
127.75
 20
157.0
 11
127.75
 21
152.0
  0
LINE
  8
1
  6
CONTINUOUS
 62
     7
 10
91.75000000000001
 20
227.7381939662773
 11
92.75000000000001
 21
227.746920834068
  0
LINE
  8
1
  6
CONTINUOUS
 62
     7
 10
127.75
 20
169.25
 11
127.75
 21
157.25
  0
LINE
  8
1
  6
CONTINUOUS
 62
     7
 10
122.75
 20
242.5
 11
92.75000000000001
 21
242.7618060337228
  0
ARC
  8
1
  6
CONTINUOUS
 62
     7
 10
119.75
 20
179.9826224211899
 40
2.000000000000002
 50
270.5000000000001
 51
0.0
  0
LINE
  8
1
  6
CONTINUOUS
 62
     7
 10
121.75
 20
180.0173775788101
 11
121.75
 21
179.9826224211899
  0
LINE
  8
1
  6
CONTINUOUS
 62
     7
 10
122.75
 20
225.5
 11
122.75
 21
184.5
  0
LINE
  8
1
  6
CONTINUOUS
 62
     7
 10
122.75
 20
242.5
 11
122.75
 21
234.5
  0
LINE
  8
1
  6
CONTINUOUS
 62
     7
 10
122.75
 20
184.5
 11
92.75000000000001
 21
184.2381939662772
  0
LINE
  8
1
  6
CONTINUOUS
 62
     7
 10
121.75
 20
230.0173775788101
 11
121.75
 21
229.98262242119
  0
ARC
  8
1
  6
CONTINUOUS
 62
     7
 10
119.75
 20
229.98262242119
 40
2.000000000000002
 50
270.5000000000001
 51
0.0
  0
LINE
  8
1
  6
CONTINUOUS
 62
     7
 10
122.75
 20
225.5
 11
92.75000000000001
 21
225.7618060337228
  0
LINE
  8
1
  6
CONTINUOUS
 62
     7
 10
127.75
 20
205.0
 11
127.75
 21
169.25002
  0
LINE
  8
1
  6
CONTINUOUS
 62
     7
 10
109.25
 20
245.0
 11
92.75000000000004
 21
245.0
  0
LINE
  8
1
  6
CONTINUOUS
 62
     7
 10
125.25
 20
157.0
 11
125.25
 21
165.0
  0
ARC
  8
1
  6
CONTINUOUS
 62
     7
 10
119.75
 20
230.0173775788101
 40
1.999999999999978
 50
0.0
 51
89.5
  0
LINE
  8
1
  6
CONTINUOUS
 62
     7
 10
122.75
 20
167.5
 11
92.75000000000001
 21
167.2381939662773
  0
LINE
  8
1
  6
CONTINUOUS
 62
     7
 10
92.75000000000001
 20
177.746920834068
 11
119.7674530709968
 21
177.9826985750616
  0
ARC
  8
1
  6
CONTINUOUS
 62
     7
 10
119.75
 20
180.0173775788101
 40
2.000000000000006
 50
0.0
 51
89.5
  0
LINE
  8
1
  6
CONTINUOUS
 62
     7
 10
92.75000000000001
 20
182.253079165932
 11
119.7674530709967
 21
182.0173014249384
  0
LINE
  8
1
  6
CONTINUOUS
 62
     7
 10
122.75
 20
175.5
 11
92.75000000000001
 21
175.7618060337228
  0
LINE
  8
1
  6
CONTINUOUS
 62
     7
 10
122.75
 20
234.5
 11
92.75000000000001
 21
234.2381939662772
  0
LINE
  8
1
  6
CONTINUOUS
 62
     7
 10
92.75000000000001
 20
232.253079165932
 11
119.7674530709968
 21
232.0173014249384
  0
LINE
  8
1
  6
CONTINUOUS
 62
     7
 10
127.75
 20
157.24998
 11
127.75
 21
157.0
  0
LINE
  8
1
  6
CONTINUOUS
 62
     7
 10
109.25
 20
165.0
 11
92.75000000000004
 21
165.0
  0
LINE
  8
1
  6
CONTINUOUS
 62
     7
 10
125.25
 20
258.0
 11
127.75
 21
258.0
  0
LINE
  8
1
  6
CONTINUOUS
 62
     7
 10
92.75000000000001
 20
227.746920834068
 11
119.7674530709967
 21
227.9826985750616
  0
LINE
  8
1
  6
CONTINUOUS
 62
     7
 10
127.75
 20
258.0
 11
127.75
 21
253.0
  0
LINE
  8
1
  6
CONTINUOUS
 62
     7
 10
125.25
 20
253.0
 11
125.25
 21
258.0
  0
LINE
  8
1
  6
CONTINUOUS
 62
     7
 10
122.75
 20
175.5
 11
122.75
 21
167.5
  0
LINE
  8
1
  6
CONTINUOUS
 62
     7
 10
92.75000000000001
 20
242.7618060337228
 11
91.75000000000001
 21
242.7705329015135
  0
LINE
  8
1
  6
CONTINUOUS
 62
     7
 10
91.75000000000001
 20
245.0
 11
92.75000000000004
 21
245.0
  0
LINE
  8
1
  6
CONTINUOUS
 62
     7
 10
91.75000000000001
 20
184.2294670984865
 11
92.75000000000001
 21
184.2381939662772
  0
LINE
  8
1
  6
CONTINUOUS
 62
     7
 10
92.75000000000001
 20
182.253079165932
 11
91.75000000000001
 21
182.2618060337228
  0
LINE
  8
1
  6
CONTINUOUS
 62
     7
 10
127.75
 20
152.0
 11
125.25
 21
152.0
  0
LINE
  8
1
  6
CONTINUOUS
 62
     7
 10
125.25
 20
152.0
 11
125.25
 21
157.0
  0
LINE
  8
1
  6
CONTINUOUS
 62
     7
 10
276.0
 20
186.5
 11
276.0
 21
223.5
  0
LINE
  8
1
  6
CONTINUOUS
 62
     7
 10
190.0
 20
186.5
 11
190.0
 21
223.5
  0
LINE
  8
1
  6
CONTINUOUS
 62
     7
 10
236.0
 20
192.0
 11
236.0
 21
210.0
  0
LINE
  8
1
  6
CONTINUOUS
 62
     7
 10
175.0
 20
79.24999999999999
 11
174.0
 21
79.24999999999999
  0
POLYLINE
  8
1
  6
CONTINUOUS
 62
     7
 66
     1
  0
VERTEX
  8
1
  6
CONTINUOUS
 62
     7
 10
182.3280305646896
 20
110.25
  0
VERTEX
  8
1
  6
CONTINUOUS
 62
     7
 10
181.9125689130767
 20
110.2209517647704
  0
VERTEX
  8
1
  6
CONTINUOUS
 62
     7
 10
181.5131984985104
 20
110.1349321257084
  0
VERTEX
  8
1
  6
CONTINUOUS
 62
     7
 10
181.145387328652
 20
109.9952727077603
  0
VERTEX
  8
1
  6
CONTINUOUS
 62
     7
 10
180.8233810906777
 20
109.8073826570922
  0
VERTEX
  8
1
  6
CONTINUOUS
 62
     7
 10
180.5596514018488
 20
109.5785391395564
  0
VERTEX
  8
1
  6
CONTINUOUS
 62
     7
 10
180.3644127715497
 20
109.3176054889235
  0
VERTEX
  8
1
  6
CONTINUOUS
 62
     7
 10
180.2452269833252
 20
109.0346879212776
  0
VERTEX
  8
1
  6
CONTINUOUS
 62
     7
 10
180.2067102195921
 20
108.7407441113592
  0
SEQEND
  8
1
  6
CONTINUOUS
 62
     7
  0
LINE
  8
1
  6
CONTINUOUS
 62
     7
 10
291.0000000000001
 20
112.75
 11
291.0000000000001
 21
106.25
  0
POLYLINE
  8
1
  6
CONTINUOUS
 62
     7
 66
     1
  0
VERTEX
  8
1
  6
CONTINUOUS
 62
     7
 10
283.4537977405415
 20
82.24999999999999
  0
VERTEX
  8
1
  6
CONTINUOUS
 62
     7
 10
283.8660497394084
 20
82.27859679883557
  0
VERTEX
  8
1
  6
CONTINUOUS
 62
     7
 10
284.2625829549671
 20
82.36329682613747
  0
VERTEX
  8
1
  6
CONTINUOUS
 62
     7
 10
284.6282779464217
 20
82.50087054904951
  0
VERTEX
  8
1
  6
CONTINUOUS
 62
     7
 10
284.949191105631
 20
82.68607241013281
  0
VERTEX
  8
1
  6
CONTINUOUS
 62
     7
 10
285.2130863138516
 20
82.91184083556686
  0
VERTEX
  8
1
  6
CONTINUOUS
 62
     7
 10
285.409901493506
 20
83.16956748635756
  0
VERTEX
  8
1
  6
CONTINUOUS
 62
     7
 10
285.5321322657936
 20
83.4494254862553
  0
VERTEX
  8
1
  6
CONTINUOUS
 62
     7
 10
285.5751180856389
 20
83.74074411135923
  0
SEQEND
  8
1
  6
CONTINUOUS
 62
     7
  0
ARC
  8
1
  6
CONTINUOUS
 62
     7
 10
176.0
 20
80.24999999999999
 40
1.000000000000001
 50
179.9999999999988
 51
270.0
  0
LINE
  8
1
  6
CONTINUOUS
 62
     7
 10
175.0
 20
80.24999999999999
 11
174.0
 21
79.24999999999999
  0
LINE
  8
1
  6
CONTINUOUS
 62
     7
 10
175.0
 20
96.74999999999999
 11
175.0
 21
80.25000000000001
  0
POLYLINE
  8
1
  6
CONTINUOUS
 62
     7
 66
     1
  0
VERTEX
  8
1
  6
CONTINUOUS
 62
     7
 10
285.793289780408
 20
108.7407441113592
  0
VERTEX
  8
1
  6
CONTINUOUS
 62
     7
 10
285.7547730166748
 20
109.0346879212776
  0
VERTEX
  8
1
  6
CONTINUOUS
 62
     7
 10
285.6355872284504
 20
109.3176054889235
  0
VERTEX
  8
1
  6
CONTINUOUS
 62
     7
 10
285.4403485981512
 20
109.5785391395564
  0
VERTEX
  8
1
  6
CONTINUOUS
 62
     7
 10
285.1766189093224
 20
109.8073826570922
  0
VERTEX
  8
1
  6
CONTINUOUS
 62
     7
 10
284.854612671348
 20
109.9952727077603
  0
VERTEX
  8
1
  6
CONTINUOUS
 62
     7
 10
284.4868015014897
 20
110.1349321257084
  0
VERTEX
  8
1
  6
CONTINUOUS
 62
     7
 10
284.0874310869233
 20
110.2209517647704
  0
VERTEX
  8
1
  6
CONTINUOUS
 62
     7
 10
283.6719694353105
 20
110.25
  0
SEQEND
  8
1
  6
CONTINUOUS
 62
     7
  0
LINE
  8
1
  6
CONTINUOUS
 62
     7
 10
180.424881914361
 20
83.74074411135925
 11
180.2067102195921
 21
108.7407441113592
  0
POLYLINE
  8
1
  6
CONTINUOUS
 62
     7
 66
     1
  0
VERTEX
  8
1
  6
CONTINUOUS
 62
     7
 10
180.424881914361
 20
83.74074411135923
  0
VERTEX
  8
1
  6
CONTINUOUS
 62
     7
 10
180.4678677342064
 20
83.4494254862553
  0
VERTEX
  8
1
  6
CONTINUOUS
 62
     7
 10
180.590098506494
 20
83.16956748635756
  0
VERTEX
  8
1
  6
CONTINUOUS
 62
     7
 10
180.7869136861483
 20
82.91184083556686
  0
VERTEX
  8
1
  6
CONTINUOUS
 62
     7
 10
181.0508088943689
 20
82.68607241013281
  0
VERTEX
  8
1
  6
CONTINUOUS
 62
     7
 10
181.3717220535783
 20
82.50087054904951
  0
VERTEX
  8
1
  6
CONTINUOUS
 62
     7
 10
181.7374170450328
 20
82.36329682613747
  0
VERTEX
  8
1
  6
CONTINUOUS
 62
     7
 10
182.1339502605916
 20
82.27859679883557
  0
VERTEX
  8
1
  6
CONTINUOUS
 62
     7
 10
182.5462022594585
 20
82.24999999999999
  0
SEQEND
  8
1
  6
CONTINUOUS
 62
     7
  0
ARC
  8
1
  6
CONTINUOUS
 62
     7
 10
290.0000000000001
 20
80.24999999999999
 40
1.000000000000001
 50
270.0
 51
0.0000000000011937
  0
LINE
  8
1
  6
CONTINUOUS
 62
     7
 10
285.793289780408
 20
108.7407441113592
 11
285.575118085639
 21
83.74074411135925
  0
LINE
  8
1
  6
CONTINUOUS
 62
     7
 10
175.0
 20
64.24999999999999
 11
175.0
 21
79.24999999999999
  0
LINE
  8
1
  6
CONTINUOUS
 62
     7
 10
291.0000000000001
 20
64.24999999999999
 11
175.0
 21
64.24999999999999
  0
LINE
  8
1
  6
CONTINUOUS
 62
     7
 10
291.0000000000001
 20
79.24999999999999
 11
175.0
 21
79.24999999999999
  0
LINE
  8
1
  6
CONTINUOUS
 62
     7
 10
291.0000000000001
 20
64.24999999999999
 11
291.0000000000001
 21
79.24999999999999
  0
LINE
  8
1
  6
CONTINUOUS
 62
     7
 10
92.75000000000001
 20
225.7618060337228
 11
91.75000000000001
 21
225.7705329015135
  0
LINE
  8
1
  6
CONTINUOUS
 62
     7
 10
92.75000000000001
 20
207.253079165932
 11
92.75000000000001
 21
209.2381939662772
  0
LINE
  8
1
  6
CONTINUOUS
 62
     7
 10
122.75
 20
245.0
 11
122.75
 21
253.5
  0
LINE
  8
1
  6
CONTINUOUS
 62
     7
 10
122.75
 20
154.5
 11
122.75
 21
156.5
  0
LINE
  8
1
  6
CONTINUOUS
 62
     7
 10
94.75000000000001
 20
165.0
 11
94.75000000000001
 21
156.5
  0
LINE
  8
1
  6
CONTINUOUS
 62
     7
 10
92.75000000000001
 20
187.75
 11
92.75000000000001
 21
200.7618060337228
  0
LINE
  8
1
  6
CONTINUOUS
 62
     7
 10
122.75
 20
209.5
 11
92.75000000000001
 21
209.2381939662772
  0
LINE
  8
1
  6
CONTINUOUS
 62
     7
 10
91.75000000000001
 20
167.2294670984865
 11
92.75000000000001
 21
167.2381939662773
  0
LINE
  8
1
  6
CONTINUOUS
 62
     7
 10
121.75
 20
205.0173775788101
 11
121.75
 21
204.98262242119
  0
ARC
  8
1
  6
CONTINUOUS
 62
     7
 10
94.25000000000001
 20
156.5
 40
2.500000000000002
 50
180.0
 51
269.9999999999998
  0
ARC
  8
1
  6
CONTINUOUS
 62
     7
 10
94.25000000000001
 20
253.5
 40
2.500000000000002
 50
90.0
 51
180.0
  0
LINE
  8
1
  6
CONTINUOUS
 62
     7
 10
94.75000000000001
 20
156.5
 11
94.75000000000001
 21
154.5
  0
LINE
  8
1
  6
CONTINUOUS
 62
     7
 10
92.75000000000001
 20
209.2381939662772
 11
92.75000000000001
 21
222.25
  0
LINE
  8
1
  6
CONTINUOUS
 62
     7
 10
122.75
 20
156.5
 11
122.75
 21
165.0
  0
LINE
  8
1
  6
CONTINUOUS
 62
     7
 10
92.08425041472813
 20
175.7236571898741
 11
92.08425041472813
 21
175.7676159423352
  0
LINE
  8
1
  6
CONTINUOUS
 62
     7
 10
91.75000000000001
 20
175.7207402306957
 11
92.08425041472813
 21
175.7236571898741
  0
LINE
  8
1
  6
CONTINUOUS
 62
     7
 10
91.75000000000001
 20
186.75
 11
92.75000000000001
 21
187.75
  0
ARC
  8
1
  6
CONTINUOUS
 62
     7
 10
119.75
 20
205.0173775788101
 40
2.000000000000006
 50
0.0
 51
89.49999999999976
  0
LINE
  8
1
  6
CONTINUOUS
 62
     7
 10
119.7674530709968
 20
202.9826985750616
 11
92.75000000000001
 21
202.746920834068
  0
ARC
  8
1
  6
CONTINUOUS
 62
     7
 10
119.75
 20
204.98262242119
 40
2.000000000000002
 50
270.5000000000002
 51
0.0
  0
ARC
  8
1
  6
CONTINUOUS
 62
     7
 10
94.25000000000001
 20
255.5
 40
0.5000000000000004
 50
0.0
 51
90.0
  0
LINE
  8
1
  6
CONTINUOUS
 62
     7
 10
94.75000000000001
 20
255.5
 11
94.75000000000001
 21
253.5
  0
LINE
  8
1
  6
CONTINUOUS
 62
     7
 10
94.75000000000001
 20
253.5
 11
94.75000000000001
 21
245.0
  0
ARC
  8
1
  6
CONTINUOUS
 62
     7
 10
94.25000000000001
 20
154.5
 40
0.5000000000000004
 50
270.0
 51
0.0
  0
LINE
  8
1
  6
CONTINUOUS
 62
     7
 10
92.75000000000001
 20
222.25
 11
91.75000000000001
 21
223.25
  0
LINE
  8
1
  6
CONTINUOUS
 62
     7
 10
92.08425041472813
 20
234.2323840576648
 11
92.08425041472813
 21
234.276342810126
  0
LINE
  8
1
  6
CONTINUOUS
 62
     7
 10
92.75000000000004
 20
200.7618060337228
 11
92.75000000000001
 21
202.746920834068
  0
LINE
  8
1
  6
CONTINUOUS
 62
     7
 10
122.75
 20
200.5
 11
92.75000000000004
 21
200.7618060337228
  0
LINE
  8
1
  6
CONTINUOUS
 62
     7
 10
92.75000000000001
 20
207.253079165932
 11
119.7674530709968
 21
207.0173014249384
  0
LINE
  8
1
  6
CONTINUOUS
 62
     7
 10
122.75
 20
253.5
 11
122.75
 21
255.5
  0
LINE
  8
1
  6
CONTINUOUS
 62
     7
 10
92.75000000000004
 20
165.0
 11
91.75000000000001
 21
165.0
  0
LINE
  8
1
  6
CONTINUOUS
 62
     7
 10
122.75
 20
258.0
 11
122.75
 21
255.5
  0
LINE
  8
1
  6
CONTINUOUS
 62
     7
 10
122.75
 20
258.0
 11
125.25
 21
258.0
  0
LINE
  8
1
  6
CONTINUOUS
 62
     7
 10
122.75
 20
152.0
 11
122.75
 21
154.5
  0
LINE
  8
1
  6
CONTINUOUS
 62
     7
 10
92.08425041472813
 20
234.276342810126
 11
91.75000000000001
 21
234.2792597693043
  0
LINE
  8
1
  6
CONTINUOUS
 62
     7
 10
92.75000000000001
 20
202.746920834068
 11
92.75000000000001
 21
207.253079165932
  0
LINE
  8
1
  6
CONTINUOUS
 62
     7
 10
76.75
 20
154.0
 11
76.75
 21
256.0
  0
LINE
  8
1
  6
CONTINUOUS
 62
     7
 10
91.75000000000001
 20
154.0
 11
91.75000000000001
 21
175.7705329015135
  0
LINE
  8
1
  6
CONTINUOUS
 62
     7
 10
76.75
 20
256.0
 11
91.75000000000001
 21
256.0
  0
LINE
  8
1
  6
CONTINUOUS
 62
     7
 10
93.00013334415424
 20
154.3348595097304
 11
93.00000000001906
 21
154.3349364905279
  0
LINE
  8
1
  6
CONTINUOUS
 62
     7
 10
91.75000000000001
 20
177.7381939662772
 11
91.75000000000001
 21
232.2618060337228
  0
LINE
  8
1
  6
CONTINUOUS
 62
     7
 10
122.75
 20
256.0
 11
94.25000000000001
 21
256.0
  0
LINE
  8
1
  6
CONTINUOUS
 62
     7
 10
122.75
 20
152.0
 11
125.25
 21
152.0
  0
LINE
  8
1
  6
CONTINUOUS
 62
     7
 10
94.25000000000001
 20
154.0
 11
122.75
 21
154.0
  0
LINE
  8
1
  6
CONTINUOUS
 62
     7
 10
93.00000015853678
 20
255.6650636009923
 11
93.10735089137532
 21
255.7235901183805
  0
LINE
  8
1
  6
CONTINUOUS
 62
     7
 10
91.75000000000001
 20
234.2294670984865
 11
91.75000000000001
 21
256.0
  0
LINE
  8
1
  6
CONTINUOUS
 62
     7
 10
76.75
 20
154.0
 11
91.75000000000001
 21
154.0
  0
LINE
  8
1
  6
CONTINUOUS
 62
     7
 10
189.008688789405
 20
115.25
 11
229.5
 21
115.25
  0
LINE
  8
1
  6
CONTINUOUS
 62
     7
 10
236.5
 20
115.25
 11
276.991311210595
 21
115.25
  0
LINE
  8
1
  6
CONTINUOUS
 62
     7
 10
230.4956556052975
 20
115.25
 11
235.5043443947025
 21
115.25
  0
LINE
  8
1
  6
CONTINUOUS
 62
     7
 10
286.0
 20
112.75
 11
278.5
 21
112.75
  0
LINE
  8
1
  6
CONTINUOUS
 62
     7
 10
180.0
 20
115.25
 11
189.008688789405
 21
115.25
  0
LINE
  8
1
  6
CONTINUOUS
 62
     7
 10
291.0000000000001
 20
112.75
 11
286.0
 21
112.75
  0
LINE
  8
1
  6
CONTINUOUS
 62
     7
 10
260.5
 20
110.25
 11
278.5
 21
110.25
  0
LINE
  8
1
  6
CONTINUOUS
 62
     7
 10
251.5
 20
111.25
 11
260.5
 21
111.25
  0
LINE
  8
1
  6
CONTINUOUS
 62
     7
 10
180.0
 20
112.75
 11
175.0
 21
112.75
  0
LINE
  8
1
  6
CONTINUOUS
 62
     7
 10
205.5
 20
110.25
 11
205.5
 21
111.25
  0
LINE
  8
1
  6
CONTINUOUS
 62
     7
 10
260.5
 20
111.25
 11
260.5
 21
110.25
  0
LINE
  8
1
  6
CONTINUOUS
 62
     7
 10
190.0086507124692
 20
114.2587265354984
 11
190.0261806033723
 21
112.25
  0
ARC
  8
1
  6
CONTINUOUS
 62
     7
 10
235.5043443947025
 20
114.75
 40
0.5000000000000016
 50
0.5000000000000353
 51
90.0
  0
ARC
  8
1
  6
CONTINUOUS
 62
     7
 10
271.0
 20
96.24999999999999
 40
14.0
 50
90.0
 51
270.0
  0
ARC
  8
1
  6
CONTINUOUS
 62
     7
 10
233.0
 20
96.24999999999999
 40
17.5
 50
99.9219867140655
 51
113.8955081861615
  0
ARC
  8
1
  6
CONTINUOUS
 62
     7
 10
233.0
 20
96.24999999999999
 40
17.5
 50
66.10449181383854
 51
80.07801328593456
  0
LINE
  8
1
  6
CONTINUOUS
 62
     7
 10
236.0043253562346
 20
114.7543632677492
 11
236.01537449514
 21
113.4882573554887
  0
ARC
  8
1
  6
CONTINUOUS
 62
     7
 10
195.0
 20
96.24999999999999
 40
14.0
 50
270.0
 51
90.0
  0
LINE
  8
1
  6
CONTINUOUS
 62
     7
 10
214.5
 20
111.25
 11
214.5
 21
110.25
  0
ARC
  8
1
  6
CONTINUOUS
 62
     7
 10
233.0
 20
96.24999999999999
 40
15.0
 50
50.05549481018514
 51
68.9605302186828
  0
ARC
  8
1
  6
CONTINUOUS
 62
     7
 10
189.008688789405
 20
114.25
 40
1.000000000000003
 50
0.4999999999999818
 51
90.0
  0
LINE
  8
1
  6
CONTINUOUS
 62
     7
 10
276.991311210595
 20
115.25
 11
286.0
 21
115.25
  0
LINE
  8
1
  6
CONTINUOUS
 62
     7
 10
286.0
 20
115.25
 11
291.0000000000001
 21
115.25
  0
LINE
  8
1
  6
CONTINUOUS
 62
     7
 10
187.5
 20
112.75
 11
180.0
 21
112.75
  0
LINE
  8
1
  6
CONTINUOUS
 62
     7
 10
251.5
 20
110.25
 11
251.5
 21
111.25
  0
LINE
  8
1
  6
CONTINUOUS
 62
     7
 10
275.9738193966277
 20
112.25
 11
275.9913492875309
 21
114.2587265354984
  0
LINE
  8
1
  6
CONTINUOUS
 62
     7
 10
214.5
 20
110.25
 11
227.6148351928655
 21
110.25
  0
LINE
  8
1
  6
CONTINUOUS
 62
     7
 10
238.3851648071345
 20
110.25
 11
251.5
 21
110.25
  0
ARC
  8
1
  6
CONTINUOUS
 62
     7
 10
233.0
 20
96.24999999999999
 40
15.0
 50
111.0394697813172
 51
129.9445051898149
  0
ARC
  8
1
  6
CONTINUOUS
 62
     7
 10
233.0
 20
96.25005825892407
 40
15.00005450029795
 50
249.3065374047724
 51
290.6934625952276
  0
ARC
  8
1
  6
CONTINUOUS
 62
     7
 10
230.4956556052975
 20
114.75
 40
0.5000000000000004
 50
89.99999999999986
 51
179.5
  0
LINE
  8
1
  6
CONTINUOUS
 62
     7
 10
175.0
 20
115.25
 11
180.0
 21
115.25
  0
LINE
  8
1
  6
CONTINUOUS
 62
     7
 10
240.0887234393789
 20
112.25
 11
275.9738193966277
 21
112.25
  0
LINE
  8
1
  6
CONTINUOUS
 62
     7
 10
278.5
 20
112.75
 11
278.5
 21
110.25
  0
ARC
  8
1
  6
CONTINUOUS
 62
     7
 10
276.991311210595
 20
114.25
 40
1.000000000000001
 50
90.0
 51
179.5
  0
ARC
  8
1
  6
CONTINUOUS
 62
     7
 10
233.0
 20
96.24999999999999
 40
15.0
 50
68.96053021868278
 51
111.0394697813173
  0
LINE
  8
1
  6
CONTINUOUS
 62
     7
 10
187.5
 20
110.25
 11
205.5
 21
110.25
  0
LINE
  8
1
  6
CONTINUOUS
 62
     7
 10
205.5
 20
111.25
 11
214.5
 21
111.25
  0
LINE
  8
1
  6
CONTINUOUS
 62
     7
 10
187.5
 20
110.25
 11
187.5
 21
112.75
  0
LINE
  8
1
  6
CONTINUOUS
 62
     7
 10
229.98462550486
 20
113.4882573554887
 11
229.9956746437654
 21
114.7543632677492
  0
LINE
  8
1
  6
CONTINUOUS
 62
     7
 10
190.0261806033723
 20
112.25
 11
225.9112765606211
 21
112.25
  0
ARC
  8
1
  6
CONTINUOUS
 62
     7
 10
180.5
 20
110.75
 40
0.5000000000000004
 50
180.0
 51
270.0
  0
ARC
  8
1
  6
CONTINUOUS
 62
     7
 10
285.5
 20
81.74999999999999
 40
0.5000000000000004
 50
359.9999999999993
 51
90.0
  0
ARC
  8
1
  6
CONTINUOUS
 62
     7
 10
233.0
 20
96.24999999999999
 40
15.0
 50
290.693541231186
 51
309.9445051898149
  0
LINE
  8
1
  6
CONTINUOUS
 62
     7
 10
283.5
 20
82.24999999999999
 11
285.5
 21
82.24999999999999
  0
LINE
  8
1
  6
CONTINUOUS
 62
     7
 10
223.3693198578709
 20
107.75
 11
222.0
 21
107.75
  0
LINE
  8
1
  6
CONTINUOUS
 62
     7
 10
182.5
 20
82.24999999999999
 11
195.0
 21
82.24999999999999
  0
ARC
  8
1
  6
CONTINUOUS
 62
     7
 10
222.0
 20
96.24999999999999
 40
11.5
 50
90.00000000000006
 51
270.0
  0
LINE
  8
1
  6
CONTINUOUS
 62
     7
 10
242.6306801421291
 20
84.74999999999999
 11
244.0
 21
84.74999999999999
  0
LINE
  8
1
  6
CONTINUOUS
 62
     7
 10
187.5
 20
110.25
 11
182.5
 21
110.25
  0
LINE
  8
1
  6
CONTINUOUS
 62
     7
 10
222.0
 20
84.74999999999999
 11
223.3693198578709
 21
84.74999999999999
  0
LINE
  8
1
  6
CONTINUOUS
 62
     7
 10
286.0
 20
112.75
 11
286.0
 21
110.75
  0
LINE
  8
1
  6
CONTINUOUS
 62
     7
 10
285.4999999999999
 20
110.25
 11
283.4999999999999
 21
110.25
  0
LINE
  8
1
  6
CONTINUOUS
 62
     7
 10
244.0
 20
107.75
 11
242.6306801421291
 21
107.75
  0
ARC
  8
1
  6
CONTINUOUS
 62
     7
 10
283.5
 20
81.74999999999999
 40
2.500000000000002
 50
270.0
 51
359.9999999999998
  0
ARC
  8
1
  6
CONTINUOUS
 62
     7
 10
182.5
 20
81.74999999999999
 40
2.500000000000002
 50
180.0
 51
270.0
  0
ARC
  8
1
  6
CONTINUOUS
 62
     7
 10
233.0
 20
96.24999999999999
 40
15.0
 50
230.0554948101851
 51
249.306458768814
  0
ARC
  8
1
  6
CONTINUOUS
 62
     7
 10
180.5
 20
81.74999999999999
 40
0.5000000000000004
 50
90.0
 51
180.0
  0
LINE
  8
1
  6
CONTINUOUS
 62
     7
 10
180.0
 20
110.75
 11
180.0
 21
112.75
  0
ARC
  8
1
  6
CONTINUOUS
 62
     7
 10
285.4999999999999
 20
110.75
 40
0.500000000000056
 50
270.0
 51
0.0
  0
LINE
  8
1
  6
CONTINUOUS
 62
     7
 10
283.4999999999999
 20
110.25
 11
278.5
 21
110.25
  0
LINE
  8
1
  6
CONTINUOUS
 62
     7
 10
182.5
 20
110.25
 11
180.5
 21
110.25
  0
LINE
  8
1
  6
CONTINUOUS
 62
     7
 10
180.5
 20
82.24999999999999
 11
182.5
 21
82.24999999999999
  0
ARC
  8
1
  6
CONTINUOUS
 62
     7
 10
244.0
 20
96.24999999999999
 40
11.5
 50
270.0
 51
90.0
  0
LINE
  8
1
  6
CONTINUOUS
 62
     7
 10
271.0
 20
82.24999999999999
 11
283.5
 21
82.24999999999999
  0
LINE
  8
1
  6
CONTINUOUS
 62
     7
 10
229.5
 20
113.3964281994822
 11
229.5
 21
115.25
  0
LINE
  8
1
  6
CONTINUOUS
 62
     7
 10
250.4738193966277
 20
112.25
 11
250.5
 21
115.25
  0
LINE
  8
1
  6
CONTINUOUS
 62
     7
 10
236.5
 20
115.25
 11
235.5043443947025
 21
115.25
  0
LINE
  8
1
  6
CONTINUOUS
 62
     7
 10
229.5
 20
115.25
 11
230.4956556052975
 21
115.25
  0
LINE
  8
1
  6
CONTINUOUS
 62
     7
 10
261.5
 20
115.25
 11
261.5261806033723
 21
112.25
  0
LINE
  8
1
  6
CONTINUOUS
 62
     7
 10
236.5
 20
113.3964281994822
 11
236.5
 21
115.25
  0
LINE
  8
1
  6
CONTINUOUS
 62
     7
 10
215.5
 20
115.25
 11
215.5261806033723
 21
112.25
  0
LINE
  8
1
  6
CONTINUOUS
 62
     7
 10
204.4738193966277
 20
112.25
 11
204.5
 21
115.25
  0
LINE
  8
1
  6
CONTINUOUS
 62
     7
 10
177.6761806033723
 20
240.75
 11
177.6761806033723
 21
169.25
  0
LINE
  8
1
  6
CONTINUOUS
 62
     7
 10
253.7087121525221
 20
241.75
 11
258.2912878474779
 21
241.75
  0
LINE
  8
1
  6
CONTINUOUS
 62
     7
 10
177.65
 20
169.25
 11
177.65
 21
240.75
  0
LINE
  8
1
  6
CONTINUOUS
 62
     7
 10
212.2912878474779
 20
241.75
 11
207.7087121525221
 21
241.75
  0
ARC
  8
1
  6
CONTINUOUS
 62
     7
 10
256.0
 20
163.25
 40
5.5
 50
0.0
 51
65.38002267134317
  0
LINE
  8
1
  6
CONTINUOUS
 62
     7
 10
212.2912878474779
 20
168.25
 11
207.7087121525221
 21
168.25
  0
CIRCLE
  8
1
  6
CONTINUOUS
 62
     7
 10
210.0
 20
246.75
 40
3.100000000000002
  0
CIRCLE
  8
1
  6
CONTINUOUS
 62
     7
 10
256.0
 20
246.75
 40
3.100000000000002
  0
ARC
  8
1
  6
CONTINUOUS
 62
     7
 10
210.0
 20
246.75
 40
5.500000000000001
 50
294.6199773286568
 51
0.0
  0
LINE
  8
1
  6
CONTINUOUS
 62
     7
 10
253.7087121525221
 20
168.25
 11
258.2912878474779
 21
168.25
  0
ARC
  8
1
  6
CONTINUOUS
 62
     7
 10
256.0
 20
246.75
 40
5.5
 50
294.6199773286568
 51
0.0
  0
POLYLINE
  8
1
  6
CONTINUOUS
 62
     7
 66
     1
  0
VERTEX
  8
1
  6
CONTINUOUS
 62
     7
 10
259.0000951923396
 20
159.75
  0
VERTEX
  8
1
  6
CONTINUOUS
 62
     7
 10
259.4878125685949
 20
159.7980339854024
  0
VERTEX
  8
1
  6
CONTINUOUS
 62
     7
 10
259.9567817351993
 20
159.9402902008893
  0
VERTEX
  8
1
  6
CONTINUOUS
 62
     7
 10
260.3889822118614
 20
160.1713023482262
  0
VERTEX
  8
1
  6
CONTINUOUS
 62
     7
 10
260.7678063818629
 20
160.4821936181372
  0
VERTEX
  8
1
  6
CONTINUOUS
 62
     7
 10
261.078697651774
 20
160.8610177881387
  0
VERTEX
  8
1
  6
CONTINUOUS
 62
     7
 10
261.3097097991107
 20
161.2932182648008
  0
VERTEX
  8
1
  6
CONTINUOUS
 62
     7
 10
261.4519660145977
 20
161.7621874314052
  0
VERTEX
  8
1
  6
CONTINUOUS
 62
     7
 10
261.5
 20
162.2499048076604
  0
SEQEND
  8
1
  6
CONTINUOUS
 62
     7
  0
ARC
  8
1
  6
CONTINUOUS
 62
     7
 10
210.0
 20
246.75
 40
5.5
 50
180.0
 51
245.3800226713431
  0
LINE
  8
1
  6
CONTINUOUS
 62
     7
 10
204.5
 20
163.25
 11
204.5
 21
162.2499048076604
  0
POLYLINE
  8
1
  6
CONTINUOUS
 62
     7
 66
     1
  0
VERTEX
  8
1
  6
CONTINUOUS
 62
     7
 10
206.9999048076604
 20
250.25
  0
VERTEX
  8
1
  6
CONTINUOUS
 62
     7
 10
206.5121874314052
 20
250.2019660145976
  0
VERTEX
  8
1
  6
CONTINUOUS
 62
     7
 10
206.0432182648007
 20
250.0597097991107
  0
VERTEX
  8
1
  6
CONTINUOUS
 62
     7
 10
205.6110177881386
 20
249.8286976517739
  0
VERTEX
  8
1
  6
CONTINUOUS
 62
     7
 10
205.2321936181371
 20
249.5178063818629
  0
VERTEX
  8
1
  6
CONTINUOUS
 62
     7
 10
204.9213023482261
 20
249.1389822118614
  0
VERTEX
  8
1
  6
CONTINUOUS
 62
     7
 10
204.6902902008893
 20
248.7067817351993
  0
VERTEX
  8
1
  6
CONTINUOUS
 62
     7
 10
204.5480339854024
 20
248.2378125685948
  0
VERTEX
  8
1
  6
CONTINUOUS
 62
     7
 10
204.5
 20
247.7500951923396
  0
SEQEND
  8
1
  6
CONTINUOUS
 62
     7
  0
LINE
  8
1
  6
CONTINUOUS
 62
     7
 10
288.3238193966278
 20
240.75
 11
288.3238193966278
 21
234.991311210595
  0
LINE
  8
1
  6
CONTINUOUS
 62
     7
 10
250.5
 20
162.2499048076604
 11
250.5
 21
163.25
  0
LINE
  8
1
  6
CONTINUOUS
 62
     7
 10
206.9999048076604
 20
250.25
 11
213.0000951923396
 21
250.25
  0
LINE
  8
1
  6
CONTINUOUS
 62
     7
 10
259.0000951923396
 20
159.75
 11
252.9999048076604
 21
159.75
  0
LINE
  8
1
  6
CONTINUOUS
 62
     7
 10
204.5
 20
246.75
 11
204.5
 21
247.7500951923396
  0
POLYLINE
  8
1
  6
CONTINUOUS
 62
     7
 66
     1
  0
VERTEX
  8
1
  6
CONTINUOUS
 62
     7
 10
250.5
 20
162.2499048076604
  0
VERTEX
  8
1
  6
CONTINUOUS
 62
     7
 10
250.5480339854023
 20
161.7621874314052
  0
VERTEX
  8
1
  6
CONTINUOUS
 62
     7
 10
250.6902902008893
 20
161.2932182648008
  0
VERTEX
  8
1
  6
CONTINUOUS
 62
     7
 10
250.9213023482261
 20
160.8610177881387
  0
VERTEX
  8
1
  6
CONTINUOUS
 62
     7
 10
251.2321936181371
 20
160.4821936181372
  0
VERTEX
  8
1
  6
CONTINUOUS
 62
     7
 10
251.6110177881386
 20
160.1713023482261
  0
VERTEX
  8
1
  6
CONTINUOUS
 62
     7
 10
252.0432182648007
 20
159.9402902008893
  0
VERTEX
  8
1
  6
CONTINUOUS
 62
     7
 10
252.5121874314052
 20
159.7980339854024
  0
VERTEX
  8
1
  6
CONTINUOUS
 62
     7
 10
252.9999048076604
 20
159.7500000000001
  0
SEQEND
  8
1
  6
CONTINUOUS
 62
     7
  0
LINE
  8
1
  6
CONTINUOUS
 62
     7
 10
235.5043443947025
 20
258.0
 11
230.4956556052975
 21
258.0
  0
LINE
  8
1
  6
CONTINUOUS
 62
     7
 10
206.9999048076604
 20
159.75
 11
213.0000951923396
 21
159.75
  0
LINE
  8
1
  6
CONTINUOUS
 62
     7
 10
250.5
 20
247.7500951923396
 11
250.5
 21
246.75
  0
LINE
  8
1
  6
CONTINUOUS
 62
     7
 10
261.5
 20
246.75
 11
261.5
 21
247.7500951923396
  0
LINE
  8
1
  6
CONTINUOUS
 62
     7
 10
236.0043253562346
 20
152.0
 11
235.5043443947025
 21
152.0
  0
POLYLINE
  8
1
  6
CONTINUOUS
 62
     7
 66
     1
  0
VERTEX
  8
1
  6
CONTINUOUS
 62
     7
 10
204.5
 20
162.2499048076604
  0
VERTEX
  8
1
  6
CONTINUOUS
 62
     7
 10
204.5480339854024
 20
161.7621874314052
  0
VERTEX
  8
1
  6
CONTINUOUS
 62
     7
 10
204.6902902008893
 20
161.2932182648008
  0
VERTEX
  8
1
  6
CONTINUOUS
 62
     7
 10
204.9213023482261
 20
160.8610177881387
  0
VERTEX
  8
1
  6
CONTINUOUS
 62
     7
 10
205.2321936181371
 20
160.4821936181372
  0
VERTEX
  8
1
  6
CONTINUOUS
 62
     7
 10
205.6110177881386
 20
160.1713023482262
  0
VERTEX
  8
1
  6
CONTINUOUS
 62
     7
 10
206.0432182648007
 20
159.9402902008893
  0
VERTEX
  8
1
  6
CONTINUOUS
 62
     7
 10
206.5121874314052
 20
159.7980339854024
  0
VERTEX
  8
1
  6
CONTINUOUS
 62
     7
 10
206.9999048076604
 20
159.75
  0
SEQEND
  8
1
  6
CONTINUOUS
 62
     7
  0
ARC
  8
1
  6
CONTINUOUS
 62
     7
 10
256.0
 20
246.75
 40
5.500000000000001
 50
180.0
 51
245.3800226713432
  0
LINE
  8
1
  6
CONTINUOUS
 62
     7
 10
189.008688789405
 20
258.0
 11
190.0086507124692
 21
258.0
  0
LINE
  8
1
  6
CONTINUOUS
 62
     7
 10
291.0000000000001
 20
205.0
 11
291.0000000000001
 21
240.74998
  0
LINE
  8
1
  6
CONTINUOUS
 62
     7
 10
291.0000000000001
 20
252.75002
 11
291.0000000000001
 21
253.0
  0
LINE
  8
1
  6
CONTINUOUS
 62
     7
 10
189.008688789405
 20
258.0
 11
180.0
 21
258.0
  0
LINE
  8
1
  6
CONTINUOUS
 62
     7
 10
180.0
 20
152.0
 11
189.008688789405
 21
152.0
  0
ARC
  8
1
  6
CONTINUOUS
 62
     7
 10
286.0
 20
253.0
 40
4.99999999999999
 50
0.0
 51
90.0
  0
CIRCLE
  8
1
  6
CONTINUOUS
 62
     7
 10
210.0
 20
163.25
 40
3.100000000000002
  0
POLYLINE
  8
1
  6
CONTINUOUS
 62
     7
 66
     1
  0
VERTEX
  8
1
  6
CONTINUOUS
 62
     7
 10
252.9999048076604
 20
250.25
  0
VERTEX
  8
1
  6
CONTINUOUS
 62
     7
 10
252.5121874314051
 20
250.2019660145976
  0
VERTEX
  8
1
  6
CONTINUOUS
 62
     7
 10
252.0432182648007
 20
250.0597097991107
  0
VERTEX
  8
1
  6
CONTINUOUS
 62
     7
 10
251.6110177881386
 20
249.8286976517739
  0
VERTEX
  8
1
  6
CONTINUOUS
 62
     7
 10
251.2321936181371
 20
249.5178063818629
  0
VERTEX
  8
1
  6
CONTINUOUS
 62
     7
 10
250.9213023482261
 20
249.1389822118614
  0
VERTEX
  8
1
  6
CONTINUOUS
 62
     7
 10
250.6902902008893
 20
248.7067817351993
  0
VERTEX
  8
1
  6
CONTINUOUS
 62
     7
 10
250.5480339854023
 20
248.2378125685948
  0
VERTEX
  8
1
  6
CONTINUOUS
 62
     7
 10
250.5
 20
247.7500951923396
  0
SEQEND
  8
1
  6
CONTINUOUS
 62
     7
  0
CIRCLE
  8
1
  6
CONTINUOUS
 62
     7
 10
233.0
 20
154.25
 40
1.25
  0
LINE
  8
1
  6
CONTINUOUS
 62
     7
 10
291.0000000000001
 20
157.25
 11
291.0000000000001
 21
169.25
  0
ARC
  8
1
  6
CONTINUOUS
 62
     7
 10
210.0
 20
163.25
 40
5.5
 50
114.6199773286568
 51
180.0
  0
LINE
  8
1
  6
CONTINUOUS
 62
     7
 10
259.0000951923396
 20
250.25
 11
252.9999048076604
 21
250.25
  0
LINE
  8
1
  6
CONTINUOUS
 62
     7
 10
291.0000000000001
 20
240.75
 11
291.0000000000001
 21
252.75
  0
ARC
  8
1
  6
CONTINUOUS
 62
     7
 10
286.0
 20
157.0
 40
4.999999999999997
 50
270.0
 51
0.0
  0
LINE
  8
1
  6
CONTINUOUS
 62
     7
 10
230.4956556052975
 20
152.0
 11
235.5043443947025
 21
152.0
  0
LINE
  8
1
  6
CONTINUOUS
 62
     7
 10
215.5
 20
247.7500951923396
 11
215.5
 21
246.75
  0
LINE
  8
1
  6
CONTINUOUS
 62
     7
 10
215.5
 20
162.2499048076604
 11
215.5
 21
163.25
  0
POLYLINE
  8
1
  6
CONTINUOUS
 62
     7
 66
     1
  0
VERTEX
  8
1
  6
CONTINUOUS
 62
     7
 10
261.5
 20
247.7500951923396
  0
VERTEX
  8
1
  6
CONTINUOUS
 62
     7
 10
261.4519660145977
 20
248.2378125685948
  0
VERTEX
  8
1
  6
CONTINUOUS
 62
     7
 10
261.3097097991107
 20
248.7067817351993
  0
VERTEX
  8
1
  6
CONTINUOUS
 62
     7
 10
261.078697651774
 20
249.1389822118614
  0
VERTEX
  8
1
  6
CONTINUOUS
 62
     7
 10
260.7678063818629
 20
249.5178063818629
  0
VERTEX
  8
1
  6
CONTINUOUS
 62
     7
 10
260.3889822118614
 20
249.8286976517739
  0
VERTEX
  8
1
  6
CONTINUOUS
 62
     7
 10
259.9567817351993
 20
250.0597097991107
  0
VERTEX
  8
1
  6
CONTINUOUS
 62
     7
 10
259.4878125685949
 20
250.2019660145977
  0
VERTEX
  8
1
  6
CONTINUOUS
 62
     7
 10
259.0000951923396
 20
250.25
  0
SEQEND
  8
1
  6
CONTINUOUS
 62
     7
  0
LINE
  8
1
  6
CONTINUOUS
 62
     7
 10
276.991311210595
 20
152.0
 11
286.0
 21
152.0
  0
POLYLINE
  8
1
  6
CONTINUOUS
 62
     7
 66
     1
  0
VERTEX
  8
1
  6
CONTINUOUS
 62
     7
 10
215.5
 20
247.7500951923396
  0
VERTEX
  8
1
  6
CONTINUOUS
 62
     7
 10
215.4519660145976
 20
248.2378125685948
  0
VERTEX
  8
1
  6
CONTINUOUS
 62
     7
 10
215.3097097991107
 20
248.7067817351993
  0
VERTEX
  8
1
  6
CONTINUOUS
 62
     7
 10
215.0786976517739
 20
249.1389822118614
  0
VERTEX
  8
1
  6
CONTINUOUS
 62
     7
 10
214.7678063818629
 20
249.5178063818629
  0
VERTEX
  8
1
  6
CONTINUOUS
 62
     7
 10
214.3889822118613
 20
249.8286976517739
  0
VERTEX
  8
1
  6
CONTINUOUS
 62
     7
 10
213.9567817351993
 20
250.0597097991107
  0
VERTEX
  8
1
  6
CONTINUOUS
 62
     7
 10
213.4878125685948
 20
250.2019660145977
  0
VERTEX
  8
1
  6
CONTINUOUS
 62
     7
 10
213.0000951923396
 20
250.25
  0
SEQEND
  8
1
  6
CONTINUOUS
 62
     7
  0
LINE
  8
1
  6
CONTINUOUS
 62
     7
 10
291.0000000000001
 20
157.0
 11
291.0000000000001
 21
157.24998
  0
LINE
  8
1
  6
CONTINUOUS
 62
     7
 10
235.5043443947025
 20
258.0
 11
236.0043253562346
 21
258.0
  0
CIRCLE
  8
1
  6
CONTINUOUS
 62
     7
 10
256.0
 20
163.25
 40
3.100000000000002
  0
CIRCLE
  8
1
  6
CONTINUOUS
 62
     7
 10
233.0
 20
255.75
 40
1.25
  0
LINE
  8
1
  6
CONTINUOUS
 62
     7
 10
276.991311210595
 20
152.0
 11
275.9913492875309
 21
152.0
  0
LINE
  8
1
  6
CONTINUOUS
 62
     7
 10
261.5
 20
163.25
 11
261.5
 21
162.2499048076604
  0
LINE
  8
1
  6
CONTINUOUS
 62
     7
 10
275.9913492875309
 20
258.0
 11
276.991311210595
 21
258.0
  0
LINE
  8
1
  6
CONTINUOUS
 62
     7
 10
229.9956746437654
 20
258.0
 11
230.4956556052975
 21
258.0
  0
LINE
  8
1
  6
CONTINUOUS
 62
     7
 10
286.0
 20
258.0
 11
276.991311210595
 21
258.0
  0
ARC
  8
1
  6
CONTINUOUS
 62
     7
 10
210.0
 20
163.25
 40
5.500000000000001
 50
0.0
 51
65.38002267134314
  0
ARC
  8
1
  6
CONTINUOUS
 62
     7
 10
256.0
 20
163.25
 40
5.500000000000001
 50
114.6199773286569
 51
180.0
  0
LINE
  8
1
  6
CONTINUOUS
 62
     7
 10
190.0086507124692
 20
152.0
 11
189.008688789405
 21
152.0
  0
POLYLINE
  8
1
  6
CONTINUOUS
 62
     7
 66
     1
  0
VERTEX
  8
1
  6
CONTINUOUS
 62
     7
 10
213.0000951923396
 20
159.75
  0
VERTEX
  8
1
  6
CONTINUOUS
 62
     7
 10
213.4878125685949
 20
159.7980339854024
  0
VERTEX
  8
1
  6
CONTINUOUS
 62
     7
 10
213.9567817351993
 20
159.9402902008893
  0
VERTEX
  8
1
  6
CONTINUOUS
 62
     7
 10
214.3889822118614
 20
160.1713023482262
  0
VERTEX
  8
1
  6
CONTINUOUS
 62
     7
 10
214.7678063818629
 20
160.4821936181372
  0
VERTEX
  8
1
  6
CONTINUOUS
 62
     7
 10
215.0786976517739
 20
160.8610177881387
  0
VERTEX
  8
1
  6
CONTINUOUS
 62
     7
 10
215.3097097991107
 20
161.2932182648008
  0
VERTEX
  8
1
  6
CONTINUOUS
 62
     7
 10
215.4519660145977
 20
161.7621874314052
  0
VERTEX
  8
1
  6
CONTINUOUS
 62
     7
 10
215.5
 20
162.2499048076604
  0
SEQEND
  8
1
  6
CONTINUOUS
 62
     7
  0
LINE
  8
1
  6
CONTINUOUS
 62
     7
 10
230.4956556052975
 20
152.0
 11
229.9956746437654
 21
152.0
  0
POLYLINE
  8
1
  6
CONTINUOUS
 62
     7
 66
     1
  0
VERTEX
  8
1
  6
CONTINUOUS
 62
     7
 10
275.9738193966277
 20
255.8237242042881
  0
VERTEX
  8
1
  6
CONTINUOUS
 62
     7
 10
276.02185338203
 20
255.3360068280329
  0
VERTEX
  8
1
  6
CONTINUOUS
 62
     7
 10
276.164109597517
 20
254.8670376614285
  0
VERTEX
  8
1
  6
CONTINUOUS
 62
     7
 10
276.3951217448538
 20
254.4348371847664
  0
VERTEX
  8
1
  6
CONTINUOUS
 62
     7
 10
276.7060130147648
 20
254.0560130147649
  0
VERTEX
  8
1
  6
CONTINUOUS
 62
     7
 10
277.0848371847663
 20
253.7451217448539
  0
VERTEX
  8
1
  6
CONTINUOUS
 62
     7
 10
277.5170376614284
 20
253.514109597517
  0
VERTEX
  8
1
  6
CONTINUOUS
 62
     7
 10
277.9860068280328
 20
253.3718533820301
  0
VERTEX
  8
1
  6
CONTINUOUS
 62
     7
 10
278.4737242042881
 20
253.3238193966277
  0
SEQEND
  8
1
  6
CONTINUOUS
 62
     7
  0
POLYLINE
  8
1
  6
CONTINUOUS
 62
     7
 66
     1
  0
VERTEX
  8
1
  6
CONTINUOUS
 62
     7
 10
278.4737242042881
 20
156.6761806033723
  0
VERTEX
  8
1
  6
CONTINUOUS
 62
     7
 10
277.9860068280328
 20
156.6281466179699
  0
VERTEX
  8
1
  6
CONTINUOUS
 62
     7
 10
277.5170376614284
 20
156.485890402483
  0
VERTEX
  8
1
  6
CONTINUOUS
 62
     7
 10
277.0848371847663
 20
156.2548782551462
  0
VERTEX
  8
1
  6
CONTINUOUS
 62
     7
 10
276.7060130147648
 20
155.9439869852352
  0
VERTEX
  8
1
  6
CONTINUOUS
 62
     7
 10
276.3951217448538
 20
155.5651628152337
  0
VERTEX
  8
1
  6
CONTINUOUS
 62
     7
 10
276.164109597517
 20
155.1329623385716
  0
VERTEX
  8
1
  6
CONTINUOUS
 62
     7
 10
276.02185338203
 20
154.6639931719671
  0
VERTEX
  8
1
  6
CONTINUOUS
 62
     7
 10
275.9738193966277
 20
154.1762757957119
  0
SEQEND
  8
1
  6
CONTINUOUS
 62
     7
  0
LINE
  8
1
  6
CONTINUOUS
 62
     7
 10
229.98462550486
 20
258.0
 11
229.98462550486
 21
253.35
  0
LINE
  8
1
  6
CONTINUOUS
 62
     7
 10
175.0
 20
205.0
 11
175.0
 21
169.25002
  0
LINE
  8
1
  6
CONTINUOUS
 62
     7
 10
236.0043253562346
 20
258.0
 11
236.01537449514
 21
258.0
  0
LINE
  8
1
  6
CONTINUOUS
 62
     7
 10
175.0
 20
169.25
 11
175.0
 21
157.25
  0
LINE
  8
1
  6
CONTINUOUS
 62
     7
 10
175.0
 20
253.0
 11
175.0
 21
252.75002
  0
ARC
  8
1
  6
CONTINUOUS
 62
     7
 10
180.0
 20
253.0
 40
4.999999999999997
 50
90.0
 51
180.0
  0
LINE
  8
1
  6
CONTINUOUS
 62
     7
 10
236.01537449514
 20
258.0
 11
236.01537449514
 21
253.35
  0
LINE
  8
1
  6
CONTINUOUS
 62
     7
 10
175.0
 20
240.74998
 11
175.0
 21
205.0
  0
ARC
  8
1
  6
CONTINUOUS
 62
     7
 10
180.0
 20
157.0
 40
5.000000000000004
 50
180.0
 51
270.0
  0
LINE
  8
1
  6
CONTINUOUS
 62
     7
 10
175.0
 20
252.75
 11
175.0
 21
240.75
  0
LINE
  8
1
  6
CONTINUOUS
 62
     7
 10
229.98462550486
 20
258.0
 11
229.9956746437654
 21
258.0
  0
LINE
  8
1
  6
CONTINUOUS
 62
     7
 10
236.01537449514
 20
152.0
 11
236.01537449514
 21
156.65
  0
LINE
  8
1
  6
CONTINUOUS
 62
     7
 10
175.0
 20
157.24998
 11
175.0
 21
157.0
  0
LINE
  8
1
  6
CONTINUOUS
 62
     7
 10
229.98462550486
 20
152.0
 11
229.98462550486
 21
156.65
  0
LINE
  8
1
  6
CONTINUOUS
 62
     7
 10
236.0043253562346
 20
152.0
 11
236.01537449514
 21
152.0
  0
POLYLINE
  8
1
  6
CONTINUOUS
 62
     7
 66
     1
  0
VERTEX
  8
1
  6
CONTINUOUS
 62
     7
 10
190.0261806033723
 20
154.1762757957119
  0
VERTEX
  8
1
  6
CONTINUOUS
 62
     7
 10
189.9781466179699
 20
154.6639931719671
  0
VERTEX
  8
1
  6
CONTINUOUS
 62
     7
 10
189.835890402483
 20
155.1329623385716
  0
VERTEX
  8
1
  6
CONTINUOUS
 62
     7
 10
189.6048782551462
 20
155.5651628152337
  0
VERTEX
  8
1
  6
CONTINUOUS
 62
     7
 10
189.2939869852352
 20
155.9439869852352
  0
VERTEX
  8
1
  6
CONTINUOUS
 62
     7
 10
188.9151628152337
 20
156.2548782551462
  0
VERTEX
  8
1
  6
CONTINUOUS
 62
     7
 10
188.4829623385716
 20
156.485890402483
  0
VERTEX
  8
1
  6
CONTINUOUS
 62
     7
 10
188.0139931719671
 20
156.6281466179699
  0
VERTEX
  8
1
  6
CONTINUOUS
 62
     7
 10
187.5262757957119
 20
156.6761806033723
  0
SEQEND
  8
1
  6
CONTINUOUS
 62
     7
  0
LINE
  8
1
  6
CONTINUOUS
 62
     7
 10
229.98462550486
 20
152.0
 11
229.9956746437654
 21
152.0
  0
POLYLINE
  8
1
  6
CONTINUOUS
 62
     7
 66
     1
  0
VERTEX
  8
1
  6
CONTINUOUS
 62
     7
 10
187.5262757957119
 20
253.3238193966277
  0
VERTEX
  8
1
  6
CONTINUOUS
 62
     7
 10
188.0139931719671
 20
253.3718533820301
  0
VERTEX
  8
1
  6
CONTINUOUS
 62
     7
 10
188.4829623385716
 20
253.514109597517
  0
VERTEX
  8
1
  6
CONTINUOUS
 62
     7
 10
188.9151628152337
 20
253.7451217448539
  0
VERTEX
  8
1
  6
CONTINUOUS
 62
     7
 10
189.2939869852352
 20
254.0560130147649
  0
VERTEX
  8
1
  6
CONTINUOUS
 62
     7
 10
189.6048782551462
 20
254.4348371847664
  0
VERTEX
  8
1
  6
CONTINUOUS
 62
     7
 10
189.835890402483
 20
254.8670376614285
  0
VERTEX
  8
1
  6
CONTINUOUS
 62
     7
 10
189.9781466179699
 20
255.3360068280329
  0
VERTEX
  8
1
  6
CONTINUOUS
 62
     7
 10
190.0261806033723
 20
255.8237242042881
  0
SEQEND
  8
1
  6
CONTINUOUS
 62
     7
  0
LINE
  8
1
  6
CONTINUOUS
 62
     7
 10
275.9738193966277
 20
258.0
 11
275.9913492875309
 21
258.0
  0
LINE
  8
1
  6
CONTINUOUS
 62
     7
 10
182.6848313158414
 20
240.75
 11
182.6848313158414
 21
169.25
  0
LINE
  8
1
  6
CONTINUOUS
 62
     7
 10
275.9738193966277
 20
258.0
 11
275.9738193966277
 21
255.8237242042882
  0
LINE
  8
1
  6
CONTINUOUS
 62
     7
 10
275.9738193966277
 20
152.0
 11
275.9738193966277
 21
154.1762757957119
  0
LINE
  8
1
  6
CONTINUOUS
 62
     7
 10
275.9738193966277
 20
152.0
 11
275.9913492875309
 21
152.0
  0
LINE
  8
1
  6
CONTINUOUS
 62
     7
 10
190.0261806033723
 20
258.0
 11
190.0261806033723
 21
255.8237242042882
  0
LINE
  8
1
  6
CONTINUOUS
 62
     7
 10
190.0086507124692
 20
258.0
 11
190.0261806033723
 21
258.0
  0
LINE
  8
1
  6
CONTINUOUS
 62
     7
 10
190.0086507124692
 20
152.0
 11
190.0261806033723
 21
152.0
  0
LINE
  8
1
  6
CONTINUOUS
 62
     7
 10
225.9112765606211
 20
258.0
 11
229.98462550486
 21
258.0
  0
LINE
  8
1
  6
CONTINUOUS
 62
     7
 10
190.0261806033723
 20
152.0
 11
190.0261806033723
 21
154.1762757957119
  0
LINE
  8
1
  6
CONTINUOUS
 62
     7
 10
236.01537449514
 20
258.0
 11
240.0887234393789
 21
258.0
  0
LINE
  8
1
  6
CONTINUOUS
 62
     7
 10
236.01537449514
 20
152.0
 11
240.0887234393789
 21
152.0
  0
LINE
  8
1
  6
CONTINUOUS
 62
     7
 10
225.9112765606211
 20
152.0
 11
229.98462550486
 21
152.0
  0
LINE
  8
1
  6
CONTINUOUS
 62
     7
 10
240.0887234393789
 20
152.0
 11
275.9738193966277
 21
152.0
  0
LINE
  8
1
  6
CONTINUOUS
 62
     7
 10
190.0261806033723
 20
258.0
 11
225.9112765606211
 21
258.0
  0
LINE
  8
1
  6
CONTINUOUS
 62
     7
 10
190.0261806033723
 20
152.0
 11
225.9112765606211
 21
152.0
  0
LINE
  8
1
  6
CONTINUOUS
 62
     7
 10
240.0887234393789
 20
258.0
 11
275.9738193966277
 21
258.0
  0
LINE
  8
1
  6
CONTINUOUS
 62
     7
 10
232.025
 20
169.25
 11
232.025
 21
240.75
  0
LINE
  8
1
  6
CONTINUOUS
 62
     7
 10
233.975
 20
170.5
 11
233.975
 21
239.5
  0
LINE
  8
1
  6
CONTINUOUS
 62
     7
 10
175.0
 20
240.75
 11
291.0
 21
240.75
  0
LINE
  8
1
  6
CONTINUOUS
 62
     7
 10
175.0
 20
157.25
 11
175.0
 21
169.25
  0
LINE
  8
1
  6
CONTINUOUS
 62
     7
 10
175.0
 20
240.75
 11
175.0
 21
252.75
  0
LINE
  8
1
  6
CONTINUOUS
 62
     7
 10
291.0000000000001
 20
157.25
 11
291.0000000000001
 21
169.25
  0
LINE
  8
1
  6
CONTINUOUS
 62
     7
 10
236.3
 20
157.25
 11
291.0000000000001
 21
157.25
  0
LINE
  8
1
  6
CONTINUOUS
 62
     7
 10
175.0
 20
169.25
 11
291.0
 21
169.25
  0
LINE
  8
1
  6
CONTINUOUS
 62
     7
 10
175.0
 20
252.75
 11
229.7
 21
252.75
  0
TEXT
  8
1
  6
CONTINUOUS
 62
     7
 10
21.74090283856448
 20
94.93181818181816
 40
10.0
  1
ＳＢＧ－ＷＯＭ－ＤＢＦ
  0
LINE
  8
1
  6
CONTINUOUS
 62
     7
 10
190.0
 20
173.5
 11
190.0
 21
236.5
  0
LINE
  8
1
  6
CONTINUOUS
 62
     7
 10
175.0
 20
157.25
 11
291.0000000000001
 21
157.25
  0
LINE
  8
1
  6
CONTINUOUS
 62
     7
 10
238.5
 20
239.0
 11
273.5
 21
239.0
  0
ARC
  8
1
  6
CONTINUOUS
 62
     7
 10
256.0
 20
205.0
 40
8.299999999999997
 50
180.0
 51
0.0
  0
LINE
  8
1
  6
CONTINUOUS
 62
     7
 10
273.5
 20
171.0
 11
238.5
 21
171.0
  0
LINE
  8
1
  6
CENTER
 62
     1
 10
204.5
 20
246.75
 11
261.5
 21
246.75
  0
LINE
  8
1
  6
CONTINUOUS
 62
     7
 10
192.5
 20
239.0
 11
227.5
 21
239.0
  0
ARC
  8
1
  6
CONTINUOUS
 62
     7
 10
210.0
 20
205.0
 40
8.3
 50
180.0
 51
0.0
  0
LINE
  8
1
  6
CONTINUOUS
 62
     7
 10
276.0
 20
236.5
 11
276.0
 21
173.5
  0
LINE
  8
1
  6
CENTER
 62
     1
 10
210.0
 20
152.0
 11
210.0
 21
258.0
  0
ARC
  8
1
  6
CONTINUOUS
 62
     7
 10
210.0
 20
205.0
 40
8.3
 50
359.9999999999999
 51
180.0
  0
LINE
  8
1
  6
CENTER
 62
     1
 10
175.0
 20
205.0
 11
291.0000000000001
 21
205.0
  0
LINE
  8
1
  6
CENTER
 62
     1
 10
256.0
 20
115.25
 11
256.0
 21
79.24999999999999
  0
LINE
  8
1
  6
CONTINUOUS
 62
     7
 10
288.35
 20
240.75
 11
288.35
 21
169.25
  0
LINE
  8
1
  6
CONTINUOUS
 62
     7
 10
125.25
 20
245.0
 11
91.75000000000003
 21
245.0000000000001
  0
LINE
  8
1
  6
CONTINUOUS
 62
     7
 10
291.0000000000001
 20
169.25
 11
291.0000000000001
 21
252.75
  0
LINE
  8
1
  6
CENTER
 62
     1
 10
204.5
 20
163.25
 11
261.5
 21
163.25
  0
ARC
  8
1
  6
CONTINUOUS
 62
     7
 10
238.5
 20
236.5
 40
2.500000000000001
 50
90.0
 51
180.0
  0
LINE
  8
1
  6
CONTINUOUS
 62
     7
 10
227.5
 20
171.0
 11
192.5
 21
171.0
  0
ARC
  8
1
  6
CONTINUOUS
 62
     7
 10
227.5
 20
173.5
 40
2.500000000000001
 50
270.0
 51
0.0
  0
LINE
  8
1
  6
CENTER
 62
     1
 10
233.0
 20
64.24999999999999
 11
233.0
 21
115.25
  0
ARC
  8
1
  6
CONTINUOUS
 62
     7
 10
256.0
 20
205.0
 40
8.299999999999999
 50
0.0
 51
180.0
  0
LINE
  8
1
  6
CONTINUOUS
 62
     7
 10
291.0000000000001
 20
115.25
 11
291.0000000000001
 21
80.24999999999999
  0
LINE
  8
1
  6
CENTER
 62
     1
 10
233.0
 20
152.0
 11
233.0
 21
258.0
  0
LINE
  8
1
  6
CENTER
 62
     1
 10
175.0
 20
96.24999999999999
 11
291.0000000000001
 21
96.24999999999999
  0
LINE
  8
1
  6
CENTER
 62
     1
 10
127.75
 20
205.0
 11
76.75
 21
205.0
  0
LINE
  8
1
  6
CONTINUOUS
 62
     7
 10
175.0
 20
80.24999999999999
 11
175.0
 21
115.25
  0
LINE
  8
1
  6
CENTER
 62
     1
 10
91.75000000000001
 20
230.0
 11
127.75
 21
230.0
  0
LINE
  8
1
  6
CONTINUOUS
 62
     7
 10
236.0
 20
173.5
 11
236.0000000000001
 21
236.5
  0
LINE
  8
1
  6
CENTER
 62
     1
 10
91.75000000000001
 20
180.0
 11
127.75
 21
180.0
  0
LINE
  8
1
  6
CONTINUOUS
 62
     7
 10
125.25
 20
165.0
 11
91.75000000000003
 21
164.9999999999999
  0
LINE
  8
1
  6
CENTER
 62
     1
 10
256.0
 20
152.0
 11
256.0
 21
258.0
  0
LINE
  8
1
  6
CONTINUOUS
 62
     7
 10
230.0
 20
236.5
 11
230.0
 21
173.5
  0
LINE
  8
1
  6
CENTER
 62
     1
 10
210.0
 20
115.25
 11
210.0
 21
79.24999999999999
  0
LINE
  8
1
  6
CONTINUOUS
 62
     7
 10
175.0
 20
252.75
 11
291.0000000000001
 21
252.75
  0
LINE
  8
1
  6
CONTINUOUS
 62
     7
 10
283.067685826969
 20
240.75
 11
283.067685826969
 21
169.25
  0
INSERT
  8
1
  6
CONTINUOUS
 62
     7
  2
D_FRAME_VIEW_4158
 10
0.0
 20
0.0
 30
0.0
  0
LINE
  8
1
  6
CENTER
 62
     1
 10
216.0
 20
96.24999999999999
 11
250.0
 21
96.24999999999999
  0
LINE
  8
1
  6
CENTER
 62
     1
 10
255.0
 20
96.24999999999999
 11
287.0
 21
96.24999999999999
  0
LINE
  8
1
  6
CENTER
 62
     1
 10
256.0
 20
195.2
 11
256.0
 21
214.8
  0
LINE
  8
1
  6
CENTER
 62
     1
 10
195.0
 20
80.24999999999999
 11
195.0
 21
112.25
  0
LINE
  8
1
  6
CENTER
 62
     1
 10
271.0
 20
80.24999999999999
 11
271.0
 21
112.25
  0
INSERT
  8
0
 62
     7
  2
D_FRAME_DRAWING_17
 10
0.0
 20
0.0
 30
0.0
  0
ENDSEC
  0
EOF
