  0
SECTION
  2
HEADER
  9
$ACADVER
  1
AC1004
  9
$INSBASE
 10
0.0
 20
0.0
  9
$EXTMIN
 10
0.0
 20
0.0
  9
$EXTMAX
 10
280.0681818181818
 20
193.9
  9
$LIMMIN
 10
0.0
 20
0.0
  9
$LIMMAX
 10
12.0
 20
9.0
  9
$ORTHOMODE
 70
     0
  9
$REGENMODE
 70
     1
  9
$FILLMODE
 70
     1
  9
$QTEXTMODE
 70
     0
  9
$DRAGMODE
 70
     2
  9
$LTSCALE
 40
1.0
  9
$OSMODE
 70
    37
  9
$ATTMODE
 70
     1
  9
$TEXTSIZE
 40
0.2
  9
$TRACEWID
 40
0.05
  9
$TEXTSTYLE
  7
STANDARD
  9
$CLAYER
  8
0
  9
$CELTYPE
  6
BYLAYER
  9
$CECOLOR
 62
   256
  9
$DIMSCALE
 40
1.0
  9
$DIMASZ
 40
3.0
  9
$DIMEXO
 40
0.0625
  9
$DIMDLI
 40
0.38
  9
$DIMRND
 40
0.0
  9
$DIMDLE
 40
0.0
  9
$DIMEXE
 40
1.5
  9
$DIMTP
 40
0.0
  9
$DIMTM
 40
0.0
  9
$DIMTXT
 40
3.0
  9
$DIMCEN
 40
0.09
  9
$DIMTSZ
 40
0.0
  9
$DIMTOL
 70
     0
  9
$DIMLIM
 70
     0
  9
$DIMTIH
 70
     1
  9
$DIMTOH
 70
     1
  9
$DIMSE1
 70
     0
  9
$DIMSE2
 70
     0
  9
$DIMTAD
 70
     1
  9
$DIMZIN
 70
     0
  9
$DIMBLK
  1

  9
$DIMASO
 70
     1
  9
$DIMSHO
 70
     1
  9
$DIMPOST
  1

  9
$DIMAPOST
  1

  9
$DIMALT
 70
     0
  9
$DIMALTD
 70
     2
  9
$DIMALTF
 40
25.4
  9
$DIMLFAC
 40
1.0
  9
$DIMTOFL
 70
     0
  9
$DIMTVP
 40
0.0
  9
$DIMTIX
 70
     0
  9
$DIMSOXD
 70
     0
  9
$DIMSAH
 70
     0
  9
$DIMBLK1
  1

  9
$DIMBLK2
  1

  9
$LUNITS
 70
     2
  9
$LUPREC
 70
     4
  9
$SKETCHINC
 40
0.1
  9
$FILLETRAD
 40
0.5
  9
$AUNITS
 70
     0
  9
$AUPREC
 70
     0
  9
$MENU
  1
.
  9
$ELEVATION
 40
0.0
  9
$THICKNESS
 40
0.0
  9
$LIMCHECK
 70
     0
  9
$CHAMFERA
 40
0.0
  9
$CHAMFERB
 40
0.0
  9
$SKPOLY
 70
     0
  9
$TDCREATE
 40
2460293.466643171
  9
$TDUPDATE
 40
2460293.466647963
  9
$TDINDWG
 40
0.0000000116
  9
$TDUSRTIMER
 40
0.0000000116
  9
$USRTIMER
 70
     1
  9
$ANGBASE
 50
0.0
  9
$ANGDIR
 70
     0
  9
$PDMODE
 70
     0
  9
$PDSIZE
 40
0.0
  9
$PLINEWID
 40
0.0
  9
$COORDS
 70
     1
  9
$SPLFRAME
 70
     0
  9
$SPLINETYPE
 70
     6
  9
$SPLINESEGS
 70
     8
  9
$ATTDIA
 70
     0
  9
$ATTREQ
 70
     1
  9
$SURFTAB1
 70
     6
  9
$SURFTAB2
 70
     6
  9
$SURFTYPE
 70
     6
  9
$SURFU
 70
     6
  9
$SURFV
 70
     6
  9
$UCSNAME
  2

  9
$UCSORG
 10
0.0
 20
0.0
 30
0.0
  9
$UCSXDIR
 10
1.0
 20
0.0
 30
0.0
  9
$UCSYDIR
 10
0.0
 20
1.0
 30
0.0
  9
$USERI1
 70
     0
  9
$USERI2
 70
     0
  9
$USERI3
 70
     0
  9
$USERI4
 70
     0
  9
$USERI5
 70
     0
  9
$USERR1
 40
0.0
  9
$USERR2
 40
0.0
  9
$USERR3
 40
0.0
  9
$USERR4
 40
0.0
  9
$USERR5
 40
0.0
  9
$WORLDVIEW
 70
     1
  0
ENDSEC
  0
SECTION
  2
TABLES
  0
TABLE
  2
LTYPE
 70
     1
  0
LTYPE
  2
CONTINUOUS
 70
     0
  3
Solid line
 72
    65
 73
     0
 40
0.0
  0
ENDTAB
  0
TABLE
  2
LAYER
 70
     3
  0
LAYER
  2
0
 70
     0
 62
     7
  6
CONTINUOUS
  0
LAYER
  2
図面枠
 70
     0
 62
     7
  6
CONTINUOUS
  0
LAYER
  2
1
 70
     0
 62
     7
  6
CONTINUOUS
  0
ENDTAB
  0
TABLE
  2
STYLE
 70
     2
  0
STYLE
  2
STANDARD
 70
     0
 40
0.0
 41
1.0
 50
0.0
 71
     0
 42
0.2
  3
txt
  4

  0
STYLE
  2
ＭＳ_ゴシック
 70
     0
 40
0.0
 41
1.0
 50
0.0
 71
     0
 42
0.2
  3
ＭＳ ゴシック.shx
  4

  0
ENDTAB
  0
TABLE
  2
VIEW
 70
     0
  0
ENDTAB
  0
ENDSEC
  0
SECTION
  2
BLOCKS
  0
BLOCK
  8
0
  2
D_FRAME_VIEW_3836
 70
     0
 10
0.0
 20
0.0
  0
LINE
  8
1
  6
CONTINUOUS
 62
     7
 10
206.1968057179102
 20
60.63180667547154
 11
210.8499999999999
 21
60.63180667547154
  0
LINE
  8
1
  6
CONTINUOUS
 62
     7
 10
210.8499999999999
 20
59.03180667547153
 11
210.8499999999999
 21
60.63180667547154
  0
LINE
  8
1
  6
CONTINUOUS
 62
     7
 10
206.1968057179102
 20
59.03180667547154
 11
210.8499999999999
 21
59.03180667547154
  0
LINE
  8
1
  6
CONTINUOUS
 62
     7
 10
178.8500000000001
 20
59.03180667547154
 11
180.4999999999999
 21
59.03180667547154
  0
LINE
  8
1
  6
CONTINUOUS
 62
     7
 10
178.8500000000001
 20
60.63180667547154
 11
178.8500000000001
 21
59.03180667547153
  0
LINE
  8
1
  6
CONTINUOUS
 62
     7
 10
178.8500000000001
 20
60.63180667547154
 11
183.5031942820898
 21
60.63180667547154
  0
LINE
  8
1
  6
CONTINUOUS
 62
     7
 10
137.5031942820898
 20
60.63180667547154
 11
160.1968057179102
 21
60.63180667547154
  0
LINE
  8
1
  6
CONTINUOUS
 62
     7
 10
183.5031942820898
 20
60.63180667547154
 11
206.1968057179102
 21
60.63180667547154
  0
LINE
  8
1
  6
CONTINUOUS
 62
     7
 10
164.8499999999999
 20
59.03180667547153
 11
164.8499999999999
 21
60.63180667547154
  0
LINE
  8
1
  6
CONTINUOUS
 62
     7
 10
164.8499999999999
 20
59.03180667547154
 11
160.1968057179102
 21
59.03180667547154
  0
LINE
  8
1
  6
CONTINUOUS
 62
     7
 10
164.8499999999999
 20
60.63180667547154
 11
160.1968057179102
 21
60.63180667547154
  0
LINE
  8
1
  6
CONTINUOUS
 62
     7
 10
132.8500000000001
 20
60.63180667547154
 11
132.8500000000002
 21
59.03180667547153
  0
LINE
  8
1
  6
CONTINUOUS
 62
     7
 10
137.5031942820899
 20
60.63180667547154
 11
132.8500000000001
 21
60.63180667547154
  0
LINE
  8
1
  6
CONTINUOUS
 62
     7
 10
178.8500000000001
 20
59.03180667547154
 11
178.8500000000001
 21
58.03180667547154
  0
LINE
  8
1
  6
CONTINUOUS
 62
     7
 10
210.8499999999999
 20
58.03180667547154
 11
210.8499999999999
 21
59.03180667547154
  0
LINE
  8
1
  6
CONTINUOUS
 62
     7
 10
164.8499999999999
 20
58.03180667547154
 11
164.8499999999999
 21
59.03180667547154
  0
LINE
  8
1
  6
CONTINUOUS
 62
     7
 10
132.8500000000001
 20
59.03180667547154
 11
132.8500000000001
 21
58.03180667547154
  0
LINE
  8
1
  6
CONTINUOUS
 62
     7
 10
213.9182327445413
 20
54.13180667547153
 11
220.0873668677754
 21
54.13180667547153
  0
LINE
  8
1
  6
CONTINUOUS
 62
     7
 10
178.8500000000001
 20
58.03180667547154
 11
164.8499999999999
 21
58.03180667547154
  0
LINE
  8
1
  6
CONTINUOUS
 62
     7
 10
210.8499999999999
 20
54.13180667547156
 11
213.9182327445413
 21
54.13180667547156
  0
LINE
  8
1
  6
CONTINUOUS
 62
     7
 10
129.7817672554586
 20
54.13180667547156
 11
132.8500000000001
 21
54.13180667547156
  0
LINE
  8
1
  6
CONTINUOUS
 62
     7
 10
132.8500000000001
 20
54.13180667547156
 11
132.8500000000001
 21
58.03180667547154
  0
LINE
  8
1
  6
CONTINUOUS
 62
     7
 10
210.8499999999999
 20
58.03180667547154
 11
210.8499999999999
 21
54.13180667547156
  0
LINE
  8
1
  6
CONTINUOUS
 62
     7
 10
129.7817672554586
 20
54.13180667547153
 11
123.6126331322246
 21
54.13180667547153
  0
LINE
  8
1
  6
CONTINUOUS
 62
     7
 10
118.85
 20
64.23180667547153
 11
118.85
 21
62.63180667547154
  0
LINE
  8
1
  6
CONTINUOUS
 62
     7
 10
120.85
 20
64.23180667547153
 11
118.85
 21
64.23180667547153
  0
LINE
  8
1
  6
CONTINUOUS
 62
     7
 10
120.85
 20
62.63180667547154
 11
118.85
 21
62.63180667547154
  0
LINE
  8
1
  6
CONTINUOUS
 62
     7
 10
222.85
 20
64.23180667547153
 11
224.85
 21
64.23180667547153
  0
LINE
  8
1
  6
CONTINUOUS
 62
     7
 10
224.85
 20
64.23180667547153
 11
224.85
 21
62.63180667547154
  0
LINE
  8
1
  6
CONTINUOUS
 62
     7
 10
222.85
 20
62.63180667547154
 11
224.85
 21
62.63180667547154
  0
LINE
  8
1
  6
CONTINUOUS
 62
     7
 10
123.35
 20
64.23180667547153
 11
123.35
 21
62.63180667547154
  0
LINE
  8
1
  6
CONTINUOUS
 62
     7
 10
123.35
 20
62.63180667547154
 11
120.85
 21
62.63180667547154
  0
LINE
  8
1
  6
CONTINUOUS
 62
     7
 10
123.35
 20
64.23180667547153
 11
120.85
 21
64.23180667547153
  0
LINE
  8
1
  6
CONTINUOUS
 62
     7
 10
220.35
 20
62.63180667547154
 11
222.85
 21
62.63180667547154
  0
LINE
  8
1
  6
CONTINUOUS
 62
     7
 10
220.35
 20
64.23180667547153
 11
222.85
 21
64.23180667547153
  0
LINE
  8
1
  6
CONTINUOUS
 62
     7
 10
220.35
 20
64.23180667547153
 11
220.35
 21
62.63180667547154
  0
ARC
  8
1
  6
CONTINUOUS
 62
     7
 10
121.4814356925541
 20
62.13158558185543
 40
2.091895234774326
 50
0.0060556240548605
 51
26.71676106979102
  0
ARC
  8
1
  6
CONTINUOUS
 62
     7
 10
222.2183898135714
 20
62.13162702797925
 40
2.091720736930638
 50
153.2821041557498
 51
179.9950791504148
  0
LINE
  8
1
  6
CONTINUOUS
 62
     7
 10
220.9268096208106
 20
59.03180667547153
 11
220.9268096208106
 21
54.13180667547153
  0
POLYLINE
  8
1
  6
CONTINUOUS
 62
     7
 66
     1
  0
VERTEX
  8
1
  6
CONTINUOUS
 62
     7
 10
221.3044892220582
 20
60.63180667547154
  0
VERTEX
  8
1
  6
CONTINUOUS
 62
     7
 10
221.2181469723995
 20
60.57917602573897
  0
VERTEX
  8
1
  6
CONTINUOUS
 62
     7
 10
221.1597442261801
 20
60.48656078327409
  0
SEQEND
  8
1
  6
CONTINUOUS
 62
     7
  0
ARC
  8
1
  6
CONTINUOUS
 62
     7
 10
224.8352699496703
 20
59.15201142830946
 40
3.910308341406731
 50
160.0445092164787
 51
181.7615772432132
  0
LINE
  8
1
  6
CONTINUOUS
 62
     7
 10
221.3044892220582
 20
60.63180667547154
 11
221.73401011754
 21
60.63180667547154
  0
LINE
  8
1
  6
CONTINUOUS
 62
     7
 10
221.73401011754
 20
60.63180667547154
 11
221.73401011754
 21
62.13180667547149
  0
LINE
  8
1
  6
CONTINUOUS
 62
     7
 10
221.85
 20
38.63180667547153
 11
221.8499999999999
 21
62.13180667547149
  0
LINE
  8
1
  6
CONTINUOUS
 62
     7
 10
220.0873668677754
 20
54.13180667547153
 11
220.9268096208106
 21
54.13180667547153
  0
LINE
  8
1
  6
CONTINUOUS
 62
     7
 10
121.9659898824598
 20
60.63180667547152
 11
122.3955107779416
 21
60.63180667547152
  0
ARC
  8
1
  6
CONTINUOUS
 62
     7
 10
118.780013322545
 20
59.14586637710305
 40
3.994805705068456
 50
358.363868420543
 51
19.27964389098133
  0
POLYLINE
  8
1
  6
CONTINUOUS
 62
     7
 66
     1
  0
VERTEX
  8
1
  6
CONTINUOUS
 62
     7
 10
122.550783602575
 20
60.46486755848628
  0
VERTEX
  8
1
  6
CONTINUOUS
 62
     7
 10
122.4933600868071
 20
60.5645596167866
  0
VERTEX
  8
1
  6
CONTINUOUS
 62
     7
 10
122.4118368230945
 20
60.62981957000767
  0
VERTEX
  8
1
  6
CONTINUOUS
 62
     7
 10
122.3955107779416
 20
60.63180667547154
  0
SEQEND
  8
1
  6
CONTINUOUS
 62
     7
  0
LINE
  8
1
  6
CONTINUOUS
 62
     7
 10
122.7731903791894
 20
59.03180667547153
 11
122.7731903791894
 21
54.13180667547153
  0
LINE
  8
1
  6
CONTINUOUS
 62
     7
 10
121.8499999999999
 20
38.63180667547152
 11
121.8499999999999
 21
62.13180667547149
  0
LINE
  8
1
  6
CONTINUOUS
 62
     7
 10
121.9659898824598
 20
62.13180667547149
 11
121.9659898824598
 21
60.63180667547152
  0
LINE
  8
1
  6
CONTINUOUS
 62
     7
 10
123.6126331322246
 20
54.13180667547153
 11
122.7731903791894
 21
54.13180667547153
  0
LINE
  8
1
  6
CONTINUOUS
 62
     7
 10
124.433612060749
 20
54.13180667547153
 11
124.4336120607491
 21
59.03180667547151
  0
POLYLINE
  8
1
  6
CONTINUOUS
 62
     7
 66
     1
  0
VERTEX
  8
1
  6
CONTINUOUS
 62
     7
 10
124.0306527080182
 20
60.63180667547154
  0
VERTEX
  8
1
  6
CONTINUOUS
 62
     7
 10
124.1229694189171
 20
60.57887825703767
  0
VERTEX
  8
1
  6
CONTINUOUS
 62
     7
 10
124.1854238278526
 20
60.48575493432373
  0
SEQEND
  8
1
  6
CONTINUOUS
 62
     7
  0
ARC
  8
1
  6
CONTINUOUS
 62
     7
 10
120.7382171333503
 20
59.14916156156131
 40
3.697257881015895
 50
358.181065680933
 51
21.19292066167958
  0
LINE
  8
1
  6
CONTINUOUS
 62
     7
 10
123.5733309156447
 20
62.13180667547154
 11
123.5733309156447
 21
60.63180667547154
  0
ARC
  8
1
  6
CONTINUOUS
 62
     7
 10
223.0429591280008
 20
59.14318147535501
 40
3.778213108037317
 50
159.5650312180096
 51
181.6892193061412
  0
POLYLINE
  8
1
  6
CONTINUOUS
 62
     7
 66
     1
  0
VERTEX
  8
1
  6
CONTINUOUS
 62
     7
 10
219.5025124682845
 20
60.46232200594628
  0
VERTEX
  8
1
  6
CONTINUOUS
 62
     7
 10
219.5637232846807
 20
60.56290537917352
  0
VERTEX
  8
1
  6
CONTINUOUS
 62
     7
 10
219.6516896488738
 20
60.62976099978023
  0
VERTEX
  8
1
  6
CONTINUOUS
 62
     7
 10
219.6693472919818
 20
60.63180667547154
  0
SEQEND
  8
1
  6
CONTINUOUS
 62
     7
  0
LINE
  8
1
  6
CONTINUOUS
 62
     7
 10
219.266387939251
 20
54.13180667547153
 11
219.2663879392509
 21
59.03180667547151
  0
LINE
  8
1
  6
CONTINUOUS
 62
     7
 10
220.1266690843553
 20
62.13180667547154
 11
220.1266690843553
 21
60.63180667547154
  0
LINE
  8
1
  6
CONTINUOUS
 62
     7
 10
122.3955107779416
 20
60.63180667547154
 11
124.0306527080182
 21
60.63180667547154
  0
LINE
  8
1
  6
CONTINUOUS
 62
     7
 10
219.6693472919818
 20
60.63180667547154
 11
221.3044892220582
 21
60.63180667547154
  0
ARC
  8
1
  6
CONTINUOUS
 62
     7
 10
222.3499999999999
 20
62.13180667547154
 40
0.5000000000000004
 50
90.0
 51
180.0000000000043
  0
POLYLINE
  8
1
  6
CONTINUOUS
 62
     7
 66
     1
  0
VERTEX
  8
1
  6
CONTINUOUS
 62
     7
 10
221.73401011754
 20
62.13180667547149
  0
VERTEX
  8
1
  6
CONTINUOUS
 62
     7
 10
221.7344383040037
 20
62.15244597053915
  0
VERTEX
  8
1
  6
CONTINUOUS
 62
     7
 10
221.7357213667134
 20
62.17304979582887
  0
VERTEX
  8
1
  6
CONTINUOUS
 62
     7
 10
221.7378756401343
 20
62.19372529128557
  0
VERTEX
  8
1
  6
CONTINUOUS
 62
     7
 10
221.7408905829081
 20
62.21429291618621
  0
VERTEX
  8
1
  6
CONTINUOUS
 62
     7
 10
221.7448554216406
 20
62.23516001582401
  0
VERTEX
  8
1
  6
CONTINUOUS
 62
     7
 10
221.7497058226044
 20
62.25583922102226
  0
VERTEX
  8
1
  6
CONTINUOUS
 62
     7
 10
221.7554789727123
 20
62.27644250845498
  0
VERTEX
  8
1
  6
CONTINUOUS
 62
     7
 10
221.7621307108473
 20
62.29677915690089
  0
VERTEX
  8
1
  6
CONTINUOUS
 62
     7
 10
221.7693700212164
 20
62.31611185140283
  0
VERTEX
  8
1
  6
CONTINUOUS
 62
     7
 10
221.7774028262566
 20
62.33512855234537
  0
VERTEX
  8
1
  6
CONTINUOUS
 62
     7
 10
221.7862795320621
 20
62.35392466374612
  0
VERTEX
  8
1
  6
CONTINUOUS
 62
     7
 10
221.7959307979975
 20
62.37233506817024
  0
VERTEX
  8
1
  6
CONTINUOUS
 62
     7
 10
221.806574174597
 20
62.39071290941343
  0
VERTEX
  8
1
  6
CONTINUOUS
 62
     7
 10
221.8179886276728
 20
62.40862204228878
  0
VERTEX
  8
1
  6
CONTINUOUS
 62
     7
 10
221.8302455651294
 20
62.42615534942531
  0
VERTEX
  8
1
  6
CONTINUOUS
 62
     7
 10
221.8432407889322
 20
62.44314869595861
  0
VERTEX
  8
1
  6
CONTINUOUS
 62
     7
 10
221.8564860803502
 20
62.45903697456583
  0
VERTEX
  8
1
  6
CONTINUOUS
 62
     7
 10
221.870376121325
 20
62.47436479760114
  0
VERTEX
  8
1
  6
CONTINUOUS
 62
     7
 10
221.8849897435821
 20
62.48920553047457
  0
VERTEX
  8
1
  6
CONTINUOUS
 62
     7
 10
221.9002071244701
 20
62.50342653223892
  0
VERTEX
  8
1
  6
CONTINUOUS
 62
     7
 10
221.9163493459463
 20
62.51728884234004
  0
VERTEX
  8
1
  6
CONTINUOUS
 62
     7
 10
221.9330645842765
 20
62.53045455725575
  0
VERTEX
  8
1
  6
CONTINUOUS
 62
     7
 10
221.9504505867165
 20
62.54298766398428
  0
VERTEX
  8
1
  6
CONTINUOUS
 62
     7
 10
221.9683552703405
 20
62.55476791987774
  0
VERTEX
  8
1
  6
CONTINUOUS
 62
     7
 10
221.9861700193412
 20
62.56544472676577
  0
VERTEX
  8
1
  6
CONTINUOUS
 62
     7
 10
222.0044104194263
 20
62.57537687203256
  0
VERTEX
  8
1
  6
CONTINUOUS
 62
     7
 10
222.0231755310414
 20
62.58460774421538
  0
VERTEX
  8
1
  6
CONTINUOUS
 62
     7
 10
222.0423078950047
 20
62.59305115950713
  0
VERTEX
  8
1
  6
CONTINUOUS
 62
     7
 10
222.0621985764123
 20
62.6008482436561
  0
VERTEX
  8
1
  6
CONTINUOUS
 62
     7
 10
222.0824020025175
 20
62.60779486040322
  0
VERTEX
  8
1
  6
CONTINUOUS
 62
     7
 10
222.10303224326
 20
62.61391916661475
  0
VERTEX
  8
1
  6
CONTINUOUS
 62
     7
 10
222.1239051164762
 20
62.6191572262335
  0
VERTEX
  8
1
  6
CONTINUOUS
 62
     7
 10
222.1422486940217
 20
62.62298821762875
  0
VERTEX
  8
1
  6
CONTINUOUS
 62
     7
 10
222.1607283458683
 20
62.62613606580886
  0
VERTEX
  8
1
  6
CONTINUOUS
 62
     7
 10
222.1793057612979
 20
62.62859434268127
  0
VERTEX
  8
1
  6
CONTINUOUS
 62
     7
 10
222.1981994621023
 20
62.63037747171002
  0
VERTEX
  8
1
  6
CONTINUOUS
 62
     7
 10
222.2171535876577
 20
62.63144899945635
  0
VERTEX
  8
1
  6
CONTINUOUS
 62
     7
 10
222.2361278752582
 20
62.63180667547154
  0
SEQEND
  8
1
  6
CONTINUOUS
 62
     7
  0
POLYLINE
  8
1
  6
CONTINUOUS
 62
     7
 66
     1
  0
VERTEX
  8
1
  6
CONTINUOUS
 62
     7
 10
121.4638721247416
 20
62.63180667547154
  0
VERTEX
  8
1
  6
CONTINUOUS
 62
     7
 10
121.4822147559286
 20
62.63147245575495
  0
VERTEX
  8
1
  6
CONTINUOUS
 62
     7
 10
121.5005391727407
 20
62.63047110710613
  0
VERTEX
  8
1
  6
CONTINUOUS
 62
     7
 10
121.51880899829
 20
62.62880459527643
  0
VERTEX
  8
1
  6
CONTINUOUS
 62
     7
 10
121.5431054906554
 20
62.62554117605342
  0
VERTEX
  8
1
  6
CONTINUOUS
 62
     7
 10
121.5672146974377
 20
62.62110096942193
  0
VERTEX
  8
1
  6
CONTINUOUS
 62
     7
 10
121.5887666341382
 20
62.61609030017795
  0
VERTEX
  8
1
  6
CONTINUOUS
 62
     7
 10
121.6100779082809
 20
62.61013864326934
  0
VERTEX
  8
1
  6
CONTINUOUS
 62
     7
 10
121.6305990180455
 20
62.60343499616176
  0
VERTEX
  8
1
  6
CONTINUOUS
 62
     7
 10
121.6477985121049
 20
62.59705079980854
  0
VERTEX
  8
1
  6
CONTINUOUS
 62
     7
 10
121.664759713441
 20
62.59004209395479
  0
VERTEX
  8
1
  6
CONTINUOUS
 62
     7
 10
121.6814487584978
 20
62.58242264474312
  0
VERTEX
  8
1
  6
CONTINUOUS
 62
     7
 10
121.7032964883275
 20
62.5712990152605
  0
VERTEX
  8
1
  6
CONTINUOUS
 62
     7
 10
121.7245763886027
 20
62.55912429580304
  0
VERTEX
  8
1
  6
CONTINUOUS
 62
     7
 10
121.7432537842474
 20
62.54725501310292
  0
VERTEX
  8
1
  6
CONTINUOUS
 62
     7
 10
121.7613905310299
 20
62.53457498657812
  0
VERTEX
  8
1
  6
CONTINUOUS
 62
     7
 10
121.7785310557931
 20
62.5214442696179
  0
VERTEX
  8
1
  6
CONTINUOUS
 62
     7
 10
121.7926131214405
 20
62.5097389694993
  0
VERTEX
  8
1
  6
CONTINUOUS
 62
     7
 10
121.806263286765
 20
62.49752359906611
  0
VERTEX
  8
1
  6
CONTINUOUS
 62
     7
 10
121.8194540568963
 20
62.48482235006919
  0
VERTEX
  8
1
  6
CONTINUOUS
 62
     7
 10
121.8363408771443
 20
62.46711086819111
  0
VERTEX
  8
1
  6
CONTINUOUS
 62
     7
 10
121.8523428141014
 20
62.44859604416899
  0
VERTEX
  8
1
  6
CONTINUOUS
 62
     7
 10
121.865994372775
 20
62.43122876895518
  0
VERTEX
  8
1
  6
CONTINUOUS
 62
     7
 10
121.8788661804886
 20
62.41327595518202
  0
VERTEX
  8
1
  6
CONTINUOUS
 62
     7
 10
121.8906489447615
 20
62.3952273479032
  0
VERTEX
  8
1
  6
CONTINUOUS
 62
     7
 10
121.9013373406743
 20
62.37722370876102
  0
VERTEX
  8
1
  6
CONTINUOUS
 62
     7
 10
121.9112704947016
 20
62.35877165699586
  0
VERTEX
  8
1
  6
CONTINUOUS
 62
     7
 10
121.9204229065882
 20
62.33992018821227
  0
VERTEX
  8
1
  6
CONTINUOUS
 62
     7
 10
121.9287690760786
 20
62.32071829801473
  0
VERTEX
  8
1
  6
CONTINUOUS
 62
     7
 10
121.936414569494
 20
62.30086087124478
  0
VERTEX
  8
1
  6
CONTINUOUS
 62
     7
 10
121.9432120575461
 20
62.28067690884738
  0
VERTEX
  8
1
  6
CONTINUOUS
 62
     7
 10
121.9491438840763
 20
62.26022182005257
  0
VERTEX
  8
1
  6
CONTINUOUS
 62
     7
 10
121.9541923929257
 20
62.23955101409042
  0
VERTEX
  8
1
  6
CONTINUOUS
 62
     7
 10
121.9569354019585
 20
62.22632800336208
  0
VERTEX
  8
1
  6
CONTINUOUS
 62
     7
 10
121.9593189903439
 20
62.21303550149541
  0
VERTEX
  8
1
  6
CONTINUOUS
 62
     7
 10
121.9619460297141
 20
62.19512992877253
  0
VERTEX
  8
1
  6
CONTINUOUS
 62
     7
 10
121.9639216812946
 20
62.1771348118798
  0
VERTEX
  8
1
  6
CONTINUOUS
 62
     7
 10
121.9652419655251
 20
62.15908577822407
  0
VERTEX
  8
1
  6
CONTINUOUS
 62
     7
 10
121.9658028317652
 20
62.14545135130417
  0
VERTEX
  8
1
  6
CONTINUOUS
 62
     7
 10
121.9659898824598
 20
62.13180667547149
  0
SEQEND
  8
1
  6
CONTINUOUS
 62
     7
  0
ARC
  8
1
  6
CONTINUOUS
 62
     7
 10
121.35
 20
62.13180667547154
 40
0.5000000000000004
 50
359.9999999999953
 51
90.0
  0
ARC
  8
1
  6
CONTINUOUS
 62
     7
 10
215.2499999999998
 20
30.23180667547171
 40
6.600000000000154
 50
270.0000000000005
 51
359.9999999999987
  0
ARC
  8
1
  6
CONTINUOUS
 62
     7
 10
128.4499999999999
 20
30.23180667547146
 40
6.599999999999898
 50
179.9999999999995
 51
270.0000000000005
  0
LINE
  8
1
  6
CONTINUOUS
 62
     7
 10
221.85
 20
30.23180667547157
 11
221.85
 21
38.63180667547154
  0
LINE
  8
1
  6
CONTINUOUS
 62
     7
 10
121.85
 20
30.2318066754715
 11
121.85
 21
38.63180667547154
  0
ENDBLK
  8
0
  0
BLOCK
  8
0
  2
D_FRAME_VIEW_3426
 70
     0
 10
0.0
 20
0.0
  0
LINE
  8
1
  6
CONTINUOUS
 62
     7
 10
82.48180667547153
 20
96.85
 11
82.48180667547153
 21
97.52911239151399
  0
LINE
  8
1
  6
CONTINUOUS
 62
     7
 10
48.28180667547154
 20
97.65
 11
75.48180667547157
 21
97.65
  0
LINE
  8
1
  6
CONTINUOUS
 62
     7
 10
47.08180667547153
 20
97.65
 11
47.08180667547153
 21
106.55
  0
LINE
  8
1
  6
CONTINUOUS
 62
     7
 10
48.28180667547154
 20
97.65
 11
47.08180667547153
 21
97.65
  0
LINE
  8
1
  6
CONTINUOUS
 62
     7
 10
82.48180667547153
 20
95.95000000000002
 11
75.48180667547155
 21
97.65
  0
LINE
  8
1
  6
CONTINUOUS
 62
     7
 10
82.48180667547153
 20
193.85
 11
75.48180667547155
 21
192.15
  0
LINE
  8
1
  6
CONTINUOUS
 62
     7
 10
47.08180667547153
 20
183.25
 11
47.08180667547153
 21
192.15
  0
LINE
  8
1
  6
CONTINUOUS
 62
     7
 10
86.08180667547153
 20
178.9
 11
86.08180667547153
 21
168.3999999999999
  0
LINE
  8
1
  6
CONTINUOUS
 62
     7
 10
87.68180667547152
 20
178.9
 11
87.68180667547153
 21
168.3999999999999
  0
LINE
  8
1
  6
CONTINUOUS
 62
     7
 10
86.08180667547153
 20
110.9
 11
86.08180667547153
 21
121.4000000000001
  0
LINE
  8
1
  6
CONTINUOUS
 62
     7
 10
87.68180667547152
 20
110.9
 11
87.68180667547153
 21
121.4000000000001
  0
LINE
  8
1
  6
CONTINUOUS
 62
     7
 10
87.68180667547152
 20
180.9
 11
86.08180667547154
 21
180.9
  0
LINE
  8
1
  6
CONTINUOUS
 62
     7
 10
86.08180667547153
 20
180.9
 11
86.08180667547153
 21
178.9
  0
LINE
  8
1
  6
CONTINUOUS
 62
     7
 10
87.68180667547152
 20
180.9
 11
87.68180667547152
 21
178.9
  0
LINE
  8
1
  6
CONTINUOUS
 62
     7
 10
87.68180667547152
 20
108.9
 11
86.08180667547154
 21
108.9
  0
LINE
  8
1
  6
CONTINUOUS
 62
     7
 10
86.08180667547153
 20
108.9
 11
86.08180667547153
 21
110.9
  0
LINE
  8
1
  6
CONTINUOUS
 62
     7
 10
87.68180667547152
 20
108.9
 11
87.68180667547152
 21
110.9
  0
LINE
  8
1
  6
CONTINUOUS
 62
     7
 10
86.08180667547153
 20
165.3999999999999
 11
86.08180667547153
 21
150.8999999999999
  0
LINE
  8
1
  6
CONTINUOUS
 62
     7
 10
87.68180667547153
 20
165.3999999999999
 11
87.68180667547153
 21
150.8999999999999
  0
LINE
  8
1
  6
CONTINUOUS
 62
     7
 10
86.08180667547153
 20
124.4000000000001
 11
86.08180667547153
 21
138.9000000000001
  0
LINE
  8
1
  6
CONTINUOUS
 62
     7
 10
87.68180667547153
 20
124.4000000000001
 11
87.68180667547153
 21
138.9000000000001
  0
LINE
  8
1
  6
CONTINUOUS
 62
     7
 10
86.08180667547153
 20
139.9000000000001
 11
87.68180667547152
 21
139.9000000000001
  0
LINE
  8
1
  6
CONTINUOUS
 62
     7
 10
86.08180667547153
 20
138.9000000000001
 11
86.08180667547153
 21
139.9000000000001
  0
LINE
  8
1
  6
CONTINUOUS
 62
     7
 10
87.68180667547153
 20
138.9000000000001
 11
87.68180667547153
 21
139.9000000000001
  0
LINE
  8
1
  6
CONTINUOUS
 62
     7
 10
86.08180667547153
 20
149.8999999999999
 11
87.68180667547152
 21
149.8999999999999
  0
LINE
  8
1
  6
CONTINUOUS
 62
     7
 10
86.08180667547153
 20
150.8999999999999
 11
86.08180667547153
 21
149.8999999999999
  0
LINE
  8
1
  6
CONTINUOUS
 62
     7
 10
87.68180667547153
 20
150.8999999999999
 11
87.68180667547153
 21
149.8999999999999
  0
LINE
  8
1
  6
CONTINUOUS
 62
     7
 10
86.08180667547153
 20
122.4000000000001
 11
86.08180667547153
 21
121.4000000000001
  0
LINE
  8
1
  6
CONTINUOUS
 62
     7
 10
87.68180667547153
 20
122.4000000000001
 11
87.68180667547153
 21
121.4000000000001
  0
LINE
  8
1
  6
CONTINUOUS
 62
     7
 10
86.08180667547153
 20
167.3999999999999
 11
86.08180667547153
 21
168.3999999999999
  0
LINE
  8
1
  6
CONTINUOUS
 62
     7
 10
87.68180667547153
 20
167.3999999999999
 11
87.68180667547153
 21
168.3999999999999
  0
LINE
  8
1
  6
CONTINUOUS
 62
     7
 10
86.08180667547153
 20
124.4000000000001
 11
86.08180667547153
 21
123.4000000000001
  0
LINE
  8
1
  6
CONTINUOUS
 62
     7
 10
87.68180667547153
 20
124.4000000000001
 11
87.68180667547153
 21
123.4000000000001
  0
LINE
  8
1
  6
CONTINUOUS
 62
     7
 10
86.08180667547153
 20
165.3999999999999
 11
86.08180667547153
 21
166.3999999999999
  0
LINE
  8
1
  6
CONTINUOUS
 62
     7
 10
87.68180667547153
 20
165.3999999999999
 11
87.68180667547153
 21
166.3999999999999
  0
LINE
  8
1
  6
CONTINUOUS
 62
     7
 10
86.08180667547153
 20
167.3999999999999
 11
86.08180667547153
 21
166.3999999999999
  0
LINE
  8
1
  6
CONTINUOUS
 62
     7
 10
87.68180667547153
 20
167.3999999999999
 11
87.68180667547153
 21
166.3999999999999
  0
LINE
  8
1
  6
CONTINUOUS
 62
     7
 10
86.08180667547153
 20
122.4000000000001
 11
86.08180667547153
 21
123.4000000000001
  0
LINE
  8
1
  6
CONTINUOUS
 62
     7
 10
87.68180667547153
 20
122.4000000000001
 11
87.68180667547153
 21
123.4000000000001
  0
LINE
  8
1
  6
CONTINUOUS
 62
     7
 10
85.58180667547153
 20
149.8999999999999
 11
86.08180667547153
 21
149.8999999999999
  0
LINE
  8
1
  6
CONTINUOUS
 62
     7
 10
86.08180667547153
 20
139.9000000000001
 11
85.58180667547153
 21
139.9000000000001
  0
LINE
  8
1
  6
CONTINUOUS
 62
     7
 10
86.08180667547153
 20
117.9
 11
86.08052519518523
 21
117.9
  0
LINE
  8
1
  6
CONTINUOUS
 62
     7
 10
86.08052519518525
 20
117.9
 11
85.5818066754715
 21
117.9
  0
LINE
  8
1
  6
CONTINUOUS
 62
     7
 10
85.5818066754715
 20
171.9
 11
86.0805486521306
 21
171.9
  0
LINE
  8
1
  6
CONTINUOUS
 62
     7
 10
86.0805486521306
 20
171.9
 11
86.08180667547153
 21
171.9
  0
LINE
  8
1
  6
CONTINUOUS
 62
     7
 10
84.08180667547154
 20
117.9
 11
84.08180667547154
 21
115.0
  0
ARC
  8
1
  6
CONTINUOUS
 62
     7
 10
82.48178613910025
 20
115.0000205363714
 40
1.600020536503095
 50
270.0007353951867
 51
359.9992646048123
  0
LINE
  8
1
  6
CONTINUOUS
 62
     7
 10
82.48180667547153
 20
113.4000000000001
 11
77.58180667547153
 21
113.4000000000001
  0
LINE
  8
1
  6
CONTINUOUS
 62
     7
 10
77.58180667547153
 20
110.804411764706
 11
77.58180667547153
 21
113.4
  0
LINE
  8
1
  6
CONTINUOUS
 62
     7
 10
85.5818066754715
 20
117.9
 11
84.08180667547153
 21
117.9
  0
LINE
  8
1
  6
CONTINUOUS
 62
     7
 10
77.58180667547153
 20
178.995588235294
 11
77.58180667547153
 21
176.3999999999999
  0
LINE
  8
1
  6
CONTINUOUS
 62
     7
 10
82.48180667547153
 20
176.3999999999999
 11
77.58180667547153
 21
176.3999999999999
  0
ARC
  8
1
  6
CONTINUOUS
 62
     7
 10
82.48178267560311
 20
174.7999760001315
 40
1.600024000048418
 50
0.0008594190897671
 51
89.99914058091072
  0
LINE
  8
1
  6
CONTINUOUS
 62
     7
 10
84.08180667547154
 20
174.7999999999999
 11
84.08180667547154
 21
171.9000000000001
  0
LINE
  8
1
  6
CONTINUOUS
 62
     7
 10
84.08180667547153
 20
171.9
 11
85.5818066754715
 21
171.9
  0
LINE
  8
1
  6
CONTINUOUS
 62
     7
 10
47.08180667547155
 20
120.8529577566922
 11
47.08180667547155
 21
127.7875203592885
  0
LINE
  8
1
  6
CONTINUOUS
 62
     7
 10
47.08180667547155
 20
162.0124796407115
 11
47.08180667547155
 21
168.9470422433077
  0
ARC
  8
1
  6
CONTINUOUS
 62
     7
 10
84.58180667547153
 20
149.3999999999999
 40
0.5000000000000004
 50
90.00000000000045
 51
180.0
  0
LINE
  8
1
  6
CONTINUOUS
 62
     7
 10
84.08180667547153
 20
149.3999999999999
 11
84.08180667547153
 21
140.4000000000001
  0
ARC
  8
1
  6
CONTINUOUS
 62
     7
 10
84.58180667547153
 20
140.4000000000001
 40
0.5000000000000004
 50
180.0
 51
269.9999999999995
  0
LINE
  8
1
  6
CONTINUOUS
 62
     7
 10
85.58180667547153
 20
139.9000000000001
 11
84.58180667547153
 21
139.9000000000001
  0
LINE
  8
1
  6
CONTINUOUS
 62
     7
 10
85.58180667547153
 20
149.8999999999999
 11
84.58180667547153
 21
149.8999999999999
  0
LINE
  8
1
  6
CONTINUOUS
 62
     7
 10
47.08180667547155
 20
127.7875203592885
 11
47.08180667547155
 21
162.0124796407115
  0
LINE
  8
1
  6
CONTINUOUS
 62
     7
 10
47.08180667547155
 20
113.5635357323677
 11
47.08180667547155
 21
120.8529577566922
  0
LINE
  8
1
  6
CONTINUOUS
 62
     7
 10
47.08180667547155
 20
168.9470422433077
 11
47.08180667547155
 21
176.2364642676323
  0
LINE
  8
1
  6
CONTINUOUS
 62
     7
 10
77.58180667547157
 20
183.2499999999999
 11
77.58180667547154
 21
178.995588235294
  0
LINE
  8
1
  6
CONTINUOUS
 62
     7
 10
62.08180667547151
 20
106.55
 11
77.58180667547157
 21
106.55
  0
LINE
  8
1
  6
CONTINUOUS
 62
     7
 10
77.58180667547157
 20
106.5500000000001
 11
77.58180667547154
 21
110.804411764706
  0
LINE
  8
1
  6
CONTINUOUS
 62
     7
 10
53.68180667547154
 20
183.25
 11
62.08180667547151
 21
183.25
  0
LINE
  8
1
  6
CONTINUOUS
 62
     7
 10
47.08180667547155
 20
176.2364642676324
 11
47.08180667547153
 21
176.6499999999999
  0
ARC
  8
1
  6
CONTINUOUS
 62
     7
 10
53.68180667547148
 20
176.65
 40
6.599999999999967
 50
89.99999999999949
 51
180.000000000001
  0
ARC
  8
1
  6
CONTINUOUS
 62
     7
 10
53.68180667547158
 20
113.15
 40
6.600000000000043
 50
180.0000000000005
 51
269.9999999999997
  0
LINE
  8
1
  6
CONTINUOUS
 62
     7
 10
47.08180667547153
 20
113.15
 11
47.08180667547155
 21
113.5635357323677
  0
LINE
  8
1
  6
CONTINUOUS
 62
     7
 10
82.48180667547153
 20
95.89999999999999
 11
84.08180667547153
 21
95.89999999999998
  0
LINE
  8
1
  6
CONTINUOUS
 62
     7
 10
82.48180667547153
 20
95.89999999999995
 11
82.48180667547153
 21
96.8499999999999
  0
LINE
  8
1
  6
CONTINUOUS
 62
     7
 10
82.48180667547153
 20
97.52911239151396
 11
82.48180667547153
 21
98.65143682906833
  0
LINE
  8
1
  6
CONTINUOUS
 62
     7
 10
84.08180667547154
 20
95.89999999999998
 11
84.08180667547154
 21
98.65143682906837
  0
LINE
  8
1
  6
CONTINUOUS
 62
     7
 10
82.48180667547153
 20
191.1485631709317
 11
82.48180667547153
 21
184.25
  0
LINE
  8
1
  6
CONTINUOUS
 62
     7
 10
84.08180667547153
 20
191.1485631709317
 11
84.08180667547153
 21
184.25
  0
ARC
  8
1
  6
CONTINUOUS
 62
     7
 10
81.48180667547153
 20
184.25
 40
2.599999999999998
 50
270.0000000000002
 51
0.0
  0
ARC
  8
1
  6
CONTINUOUS
 62
     7
 10
81.48180667547153
 20
184.25
 40
1.000000000000001
 50
270.0000000000005
 51
0.0
  0
LINE
  8
1
  6
CONTINUOUS
 62
     7
 10
81.48180667547155
 20
181.6499999999999
 11
77.58180667547155
 21
181.6499999999999
  0
LINE
  8
1
  6
CONTINUOUS
 62
     7
 10
81.48180667547155
 20
183.25
 11
77.58180667547155
 21
183.25
  0
LINE
  8
1
  6
CONTINUOUS
 62
     7
 10
84.08180667547153
 20
193.9
 11
82.48180667547155
 21
193.9
  0
LINE
  8
1
  6
CONTINUOUS
 62
     7
 10
82.48180667547153
 20
193.9
 11
82.48180667547153
 21
191.1485631709317
  0
LINE
  8
1
  6
CONTINUOUS
 62
     7
 10
84.08180667547154
 20
193.9
 11
84.08180667547154
 21
191.1485631709316
  0
ARC
  8
1
  6
CONTINUOUS
 62
     7
 10
81.48180667547153
 20
105.55
 40
2.599999999999991
 50
0.0
 51
89.99999999999972
  0
LINE
  8
1
  6
CONTINUOUS
 62
     7
 10
82.48180667547153
 20
105.55
 11
82.48180667547153
 21
98.65143682906834
  0
ARC
  8
1
  6
CONTINUOUS
 62
     7
 10
81.48180667547155
 20
105.55
 40
1.000000000000001
 50
0.0
 51
89.99999999999972
  0
LINE
  8
1
  6
CONTINUOUS
 62
     7
 10
84.08180667547153
 20
105.55
 11
84.08180667547153
 21
98.65143682906836
  0
LINE
  8
1
  6
CONTINUOUS
 62
     7
 10
77.58180667547155
 20
108.15
 11
81.48180667547155
 21
108.15
  0
LINE
  8
1
  6
CONTINUOUS
 62
     7
 10
77.58180667547155
 20
106.55
 11
81.48180667547155
 21
106.55
  0
LINE
  8
1
  6
CONTINUOUS
 62
     7
 10
84.08180667547153
 20
105.55
 11
84.08180667547153
 21
106.6845235059858
  0
LINE
  8
1
  6
CONTINUOUS
 62
     7
 10
84.08180667547154
 20
183.1154764940142
 11
84.08180667547154
 21
184.25
  0
ARC
  8
1
  6
CONTINUOUS
 62
     7
 10
81.742392985171
 20
105.55
 40
2.600000000000001
 50
25.87155840830077
 51
90.0
  0
ARC
  8
1
  6
CONTINUOUS
 62
     7
 10
81.74239298517095
 20
184.25
 40
2.600000000000019
 50
270.0
 51
334.1284415917011
  0
ENDBLK
  8
0
  0
BLOCK
  8
0
  2
D_FRAME_DRAWING_17
 70
     0
 10
0.0
 20
0.0
  0
LINE
  8
図面枠
  6
CONTINUOUS
 62
     7
 10
0.0
 20
0.0
 11
297.0
 21
0.0
  0
LINE
  8
図面枠
  6
CONTINUOUS
 62
     7
 10
297.0
 20
0.0
 11
297.0
 21
210.0
  0
LINE
  8
図面枠
  6
CONTINUOUS
 62
     7
 10
297.0
 20
210.0
 11
0.0
 21
210.0
  0
LINE
  8
図面枠
  6
CONTINUOUS
 62
     7
 10
0.0
 20
210.0
 11
0.0
 21
0.0
  0
ENDBLK
  8
0
  0
BLOCK
  8
0
  2
D_FRAME_VIEW_2751
 70
     0
 10
0.0
 20
0.0
  0
LINE
  8
1
  6
CONTINUOUS
 62
     7
 10
172.85
 20
180.9
 11
172.85
 21
108.9
  0
LINE
  8
1
  6
CONTINUOUS
 62
     7
 10
170.85
 20
108.9
 11
170.85
 21
180.9
  0
LINE
  8
1
  6
CONTINUOUS
 62
     7
 10
170.85
 20
180.9
 11
172.85
 21
180.9
  0
LINE
  8
1
  6
CONTINUOUS
 62
     7
 10
172.85
 20
108.9
 11
170.85
 21
108.9
  0
LINE
  8
1
  6
CONTINUOUS
 62
     7
 10
172.85
 20
114.9
 11
173.35
 21
114.9
  0
LINE
  8
1
  6
CONTINUOUS
 62
     7
 10
173.35
 20
174.9
 11
172.85
 21
174.9
  0
LINE
  8
1
  6
CONTINUOUS
 62
     7
 10
170.35
 20
114.9
 11
170.85
 21
114.9
  0
LINE
  8
1
  6
CONTINUOUS
 62
     7
 10
170.85
 20
174.9
 11
170.35
 21
174.9
  0
LINE
  8
1
  6
CONTINUOUS
 62
     7
 10
170.35
 20
114.9
 11
166.85
 21
114.9
  0
LINE
  8
1
  6
CONTINUOUS
 62
     7
 10
166.85
 20
174.9
 11
170.35
 21
174.9
  0
LINE
  8
1
  6
CONTINUOUS
 62
     7
 10
166.35
 20
114.9
 11
166.35
 21
174.9
  0
LINE
  8
1
  6
CONTINUOUS
 62
     7
 10
166.85
 20
114.9
 11
166.35
 21
114.9
  0
LINE
  8
1
  6
CONTINUOUS
 62
     7
 10
166.35
 20
174.9
 11
166.85
 21
174.9
  0
LINE
  8
1
  6
CONTINUOUS
 62
     7
 10
177.35
 20
174.9
 11
177.35
 21
114.9
  0
LINE
  8
1
  6
CONTINUOUS
 62
     7
 10
177.35
 20
114.9
 11
176.85
 21
114.9
  0
LINE
  8
1
  6
CONTINUOUS
 62
     7
 10
176.85
 20
174.9
 11
177.35
 21
174.9
  0
LINE
  8
1
  6
CONTINUOUS
 62
     7
 10
176.85
 20
114.9
 11
173.35
 21
114.9
  0
LINE
  8
1
  6
CONTINUOUS
 62
     7
 10
173.35
 20
174.9
 11
176.85
 21
174.9
  0
ARC
  8
1
  6
CONTINUOUS
 62
     7
 10
148.85
 20
103.15
 40
2.250000000000003
 50
256.7683351757007
 51
283.2316648242992
  0
LINE
  8
1
  6
CONTINUOUS
 62
     7
 10
149.365
 20
100.9597317515884
 11
149.365
 21
102.635
  0
LINE
  8
1
  6
CONTINUOUS
 62
     7
 10
149.365
 20
102.635
 11
151.0402682484116
 21
102.635
  0
ARC
  8
1
  6
CONTINUOUS
 62
     7
 10
148.85
 20
103.15
 40
2.25
 50
346.7683351757007
 51
13.23166482429929
  0
LINE
  8
1
  6
CONTINUOUS
 62
     7
 10
151.0402682484116
 20
103.665
 11
149.365
 21
103.665
  0
LINE
  8
1
  6
CONTINUOUS
 62
     7
 10
149.365
 20
103.665
 11
149.365
 21
105.3402682484116
  0
ARC
  8
1
  6
CONTINUOUS
 62
     7
 10
148.85
 20
103.15
 40
2.250000000000003
 50
76.76833517570074
 51
103.2316648242992
  0
LINE
  8
1
  6
CONTINUOUS
 62
     7
 10
148.335
 20
105.3402682484116
 11
148.335
 21
103.665
  0
LINE
  8
1
  6
CONTINUOUS
 62
     7
 10
148.335
 20
103.665
 11
146.6597317515884
 21
103.665
  0
ARC
  8
1
  6
CONTINUOUS
 62
     7
 10
148.85
 20
103.15
 40
2.25
 50
166.7683351757007
 51
193.2316648242993
  0
LINE
  8
1
  6
CONTINUOUS
 62
     7
 10
146.6597317515884
 20
102.635
 11
148.335
 21
102.635
  0
LINE
  8
1
  6
CONTINUOUS
 62
     7
 10
148.335
 20
102.635
 11
148.335
 21
100.9597317515884
  0
CIRCLE
  8
1
  6
CONTINUOUS
 62
     7
 10
148.85
 20
103.15
 40
4.200000000000002
  0
ARC
  8
1
  6
CONTINUOUS
 62
     7
 10
148.85
 20
103.15
 40
1.030668528585347
 50
150.0214543835138
 51
209.9785456164862
  0
ARC
  8
1
  6
CONTINUOUS
 62
     7
 10
148.85
 20
103.15
 40
1.030668528585347
 50
240.0214543835138
 51
299.9785456164861
  0
ARC
  8
1
  6
CONTINUOUS
 62
     7
 10
148.85
 20
103.15
 40
1.030668528585347
 50
330.0214543835138
 51
29.97854561648614
  0
ARC
  8
1
  6
CONTINUOUS
 62
     7
 10
148.85
 20
103.15
 40
1.030668528585347
 50
60.02145438351382
 51
119.9785456164862
  0
ARC
  8
1
  6
CONTINUOUS
 62
     7
 10
194.85
 20
103.15
 40
2.250000000000003
 50
256.7683351757007
 51
283.2316648242992
  0
LINE
  8
1
  6
CONTINUOUS
 62
     7
 10
195.365
 20
100.9597317515884
 11
195.365
 21
102.635
  0
LINE
  8
1
  6
CONTINUOUS
 62
     7
 10
195.365
 20
102.635
 11
197.0402682484116
 21
102.635
  0
ARC
  8
1
  6
CONTINUOUS
 62
     7
 10
194.85
 20
103.15
 40
2.25
 50
346.7683351757007
 51
13.23166482429929
  0
LINE
  8
1
  6
CONTINUOUS
 62
     7
 10
197.0402682484116
 20
103.665
 11
195.365
 21
103.665
  0
LINE
  8
1
  6
CONTINUOUS
 62
     7
 10
195.365
 20
103.665
 11
195.365
 21
105.3402682484116
  0
ARC
  8
1
  6
CONTINUOUS
 62
     7
 10
194.85
 20
103.15
 40
2.250000000000003
 50
76.76833517570074
 51
103.2316648242992
  0
LINE
  8
1
  6
CONTINUOUS
 62
     7
 10
194.335
 20
105.3402682484116
 11
194.335
 21
103.665
  0
LINE
  8
1
  6
CONTINUOUS
 62
     7
 10
194.335
 20
103.665
 11
192.6597317515884
 21
103.665
  0
ARC
  8
1
  6
CONTINUOUS
 62
     7
 10
194.85
 20
103.15
 40
2.25
 50
166.7683351757007
 51
193.2316648242993
  0
LINE
  8
1
  6
CONTINUOUS
 62
     7
 10
192.6597317515884
 20
102.635
 11
194.335
 21
102.635
  0
LINE
  8
1
  6
CONTINUOUS
 62
     7
 10
194.335
 20
102.635
 11
194.335
 21
100.9597317515884
  0
CIRCLE
  8
1
  6
CONTINUOUS
 62
     7
 10
194.85
 20
103.15
 40
4.200000000000002
  0
ARC
  8
1
  6
CONTINUOUS
 62
     7
 10
194.85
 20
103.15
 40
1.030668528585347
 50
150.0214543835138
 51
209.9785456164862
  0
ARC
  8
1
  6
CONTINUOUS
 62
     7
 10
194.85
 20
103.15
 40
1.030668528585347
 50
240.0214543835138
 51
299.9785456164861
  0
ARC
  8
1
  6
CONTINUOUS
 62
     7
 10
194.85
 20
103.15
 40
1.030668528585347
 50
330.0214543835138
 51
29.97854561648614
  0
ARC
  8
1
  6
CONTINUOUS
 62
     7
 10
194.85
 20
103.15
 40
1.030668528585347
 50
60.02145438351382
 51
119.9785456164862
  0
ARC
  8
1
  6
CONTINUOUS
 62
     7
 10
194.85
 20
186.65
 40
2.250000000000003
 50
76.76833517570074
 51
103.2316648242993
  0
LINE
  8
1
  6
CONTINUOUS
 62
     7
 10
194.335
 20
188.8402682484116
 11
194.335
 21
187.165
  0
LINE
  8
1
  6
CONTINUOUS
 62
     7
 10
194.335
 20
187.165
 11
192.6597317515884
 21
187.165
  0
ARC
  8
1
  6
CONTINUOUS
 62
     7
 10
194.85
 20
186.65
 40
2.25
 50
166.7683351757007
 51
193.2316648242993
  0
LINE
  8
1
  6
CONTINUOUS
 62
     7
 10
192.6597317515884
 20
186.135
 11
194.335
 21
186.135
  0
LINE
  8
1
  6
CONTINUOUS
 62
     7
 10
194.335
 20
186.135
 11
194.335
 21
184.4597317515884
  0
ARC
  8
1
  6
CONTINUOUS
 62
     7
 10
194.85
 20
186.65
 40
2.250000000000003
 50
256.7683351757007
 51
283.2316648242992
  0
LINE
  8
1
  6
CONTINUOUS
 62
     7
 10
195.365
 20
184.4597317515884
 11
195.365
 21
186.135
  0
LINE
  8
1
  6
CONTINUOUS
 62
     7
 10
195.365
 20
186.135
 11
197.0402682484116
 21
186.135
  0
ARC
  8
1
  6
CONTINUOUS
 62
     7
 10
194.85
 20
186.65
 40
2.25
 50
346.7683351757007
 51
13.23166482429929
  0
LINE
  8
1
  6
CONTINUOUS
 62
     7
 10
197.0402682484116
 20
187.165
 11
195.365
 21
187.165
  0
LINE
  8
1
  6
CONTINUOUS
 62
     7
 10
195.365
 20
187.165
 11
195.365
 21
188.8402682484116
  0
CIRCLE
  8
1
  6
CONTINUOUS
 62
     7
 10
194.85
 20
186.65
 40
4.199999999999998
  0
ARC
  8
1
  6
CONTINUOUS
 62
     7
 10
194.85
 20
186.65
 40
1.030668528585347
 50
330.0214543835138
 51
29.97854561648614
  0
ARC
  8
1
  6
CONTINUOUS
 62
     7
 10
194.85
 20
186.65
 40
1.030668528585347
 50
150.0214543835138
 51
209.9785456164862
  0
ARC
  8
1
  6
CONTINUOUS
 62
     7
 10
194.85
 20
186.65
 40
1.030668528585347
 50
60.02145438351382
 51
119.9785456164862
  0
ARC
  8
1
  6
CONTINUOUS
 62
     7
 10
194.85
 20
186.65
 40
1.030668528585347
 50
240.0214543835138
 51
299.9785456164861
  0
ARC
  8
1
  6
CONTINUOUS
 62
     7
 10
148.85
 20
186.65
 40
2.250000000000003
 50
76.76833517570074
 51
103.2316648242993
  0
LINE
  8
1
  6
CONTINUOUS
 62
     7
 10
148.335
 20
188.8402682484116
 11
148.335
 21
187.165
  0
LINE
  8
1
  6
CONTINUOUS
 62
     7
 10
148.335
 20
187.165
 11
146.6597317515884
 21
187.165
  0
ARC
  8
1
  6
CONTINUOUS
 62
     7
 10
148.85
 20
186.65
 40
2.25
 50
166.7683351757007
 51
193.2316648242993
  0
LINE
  8
1
  6
CONTINUOUS
 62
     7
 10
146.6597317515884
 20
186.135
 11
148.335
 21
186.135
  0
LINE
  8
1
  6
CONTINUOUS
 62
     7
 10
148.335
 20
186.135
 11
148.335
 21
184.4597317515884
  0
ARC
  8
1
  6
CONTINUOUS
 62
     7
 10
148.85
 20
186.65
 40
2.250000000000003
 50
256.7683351757007
 51
283.2316648242992
  0
LINE
  8
1
  6
CONTINUOUS
 62
     7
 10
149.365
 20
184.4597317515884
 11
149.365
 21
186.135
  0
LINE
  8
1
  6
CONTINUOUS
 62
     7
 10
149.365
 20
186.135
 11
151.0402682484116
 21
186.135
  0
ARC
  8
1
  6
CONTINUOUS
 62
     7
 10
148.85
 20
186.65
 40
2.25
 50
346.7683351757007
 51
13.23166482429929
  0
LINE
  8
1
  6
CONTINUOUS
 62
     7
 10
151.0402682484116
 20
187.165
 11
149.365
 21
187.165
  0
LINE
  8
1
  6
CONTINUOUS
 62
     7
 10
149.365
 20
187.165
 11
149.365
 21
188.8402682484116
  0
CIRCLE
  8
1
  6
CONTINUOUS
 62
     7
 10
148.85
 20
186.65
 40
4.199999999999998
  0
ARC
  8
1
  6
CONTINUOUS
 62
     7
 10
148.85
 20
186.65
 40
1.030668528585347
 50
330.0214543835138
 51
29.97854561648614
  0
ARC
  8
1
  6
CONTINUOUS
 62
     7
 10
148.85
 20
186.65
 40
1.030668528585347
 50
60.02145438351382
 51
119.9785456164862
  0
ARC
  8
1
  6
CONTINUOUS
 62
     7
 10
148.85
 20
186.65
 40
1.030668528585347
 50
150.0214543835138
 51
209.9785456164862
  0
ARC
  8
1
  6
CONTINUOUS
 62
     7
 10
148.85
 20
186.65
 40
1.030668528585347
 50
240.0214543835138
 51
299.9785456164861
  0
CIRCLE
  8
1
  6
CONTINUOUS
 62
     7
 10
139.85
 20
102.05
 40
4.200000000000002
  0
ARC
  8
1
  6
CONTINUOUS
 62
     7
 10
139.85
 20
102.05
 40
2.250000000000003
 50
256.7683351757007
 51
283.2316648242992
  0
LINE
  8
1
  6
CONTINUOUS
 62
     7
 10
140.365
 20
99.85973175158844
 11
140.365
 21
101.535
  0
LINE
  8
1
  6
CONTINUOUS
 62
     7
 10
140.365
 20
101.535
 11
142.0402682484116
 21
101.535
  0
ARC
  8
1
  6
CONTINUOUS
 62
     7
 10
139.85
 20
102.05
 40
2.25
 50
346.7683351757007
 51
13.23166482429929
  0
LINE
  8
1
  6
CONTINUOUS
 62
     7
 10
142.0402682484116
 20
102.565
 11
140.365
 21
102.565
  0
LINE
  8
1
  6
CONTINUOUS
 62
     7
 10
140.365
 20
102.565
 11
140.365
 21
104.2402682484117
  0
ARC
  8
1
  6
CONTINUOUS
 62
     7
 10
139.85
 20
102.05
 40
2.250000000000003
 50
76.76833517570074
 51
103.2316648242993
  0
LINE
  8
1
  6
CONTINUOUS
 62
     7
 10
139.335
 20
104.2402682484116
 11
139.335
 21
102.565
  0
LINE
  8
1
  6
CONTINUOUS
 62
     7
 10
139.335
 20
102.565
 11
137.6597317515883
 21
102.565
  0
ARC
  8
1
  6
CONTINUOUS
 62
     7
 10
139.85
 20
102.05
 40
2.250000000000003
 50
166.7683351757008
 51
193.2316648242993
  0
LINE
  8
1
  6
CONTINUOUS
 62
     7
 10
137.6597317515883
 20
101.535
 11
139.335
 21
101.535
  0
LINE
  8
1
  6
CONTINUOUS
 62
     7
 10
139.335
 20
101.535
 11
139.335
 21
99.85973175158844
  0
ARC
  8
1
  6
CONTINUOUS
 62
     7
 10
139.85
 20
102.05
 40
1.030668528585347
 50
150.0214543835138
 51
209.9785456164862
  0
ARC
  8
1
  6
CONTINUOUS
 62
     7
 10
139.85
 20
102.05
 40
1.030668528585347
 50
330.0214543835138
 51
29.97854561648614
  0
ARC
  8
1
  6
CONTINUOUS
 62
     7
 10
139.85
 20
102.05
 40
1.030668528585347
 50
240.0214543835138
 51
299.9785456164861
  0
ARC
  8
1
  6
CONTINUOUS
 62
     7
 10
139.85
 20
102.05
 40
1.030668528585347
 50
60.02145438351382
 51
119.9785456164862
  0
CIRCLE
  8
1
  6
CONTINUOUS
 62
     7
 10
185.85
 20
102.05
 40
4.200000000000002
  0
ARC
  8
1
  6
CONTINUOUS
 62
     7
 10
185.85
 20
102.05
 40
2.250000000000003
 50
256.7683351757008
 51
283.2316648242992
  0
LINE
  8
1
  6
CONTINUOUS
 62
     7
 10
186.365
 20
99.85973175158844
 11
186.365
 21
101.535
  0
LINE
  8
1
  6
CONTINUOUS
 62
     7
 10
186.365
 20
101.535
 11
188.0402682484116
 21
101.535
  0
ARC
  8
1
  6
CONTINUOUS
 62
     7
 10
185.85
 20
102.05
 40
2.25
 50
346.7683351757007
 51
13.23166482429929
  0
LINE
  8
1
  6
CONTINUOUS
 62
     7
 10
188.0402682484115
 20
102.565
 11
186.365
 21
102.565
  0
LINE
  8
1
  6
CONTINUOUS
 62
     7
 10
186.365
 20
102.565
 11
186.365
 21
104.2402682484116
  0
ARC
  8
1
  6
CONTINUOUS
 62
     7
 10
185.85
 20
102.05
 40
2.250000000000003
 50
76.76833517570076
 51
103.2316648242992
  0
LINE
  8
1
  6
CONTINUOUS
 62
     7
 10
185.335
 20
104.2402682484116
 11
185.335
 21
102.565
  0
LINE
  8
1
  6
CONTINUOUS
 62
     7
 10
185.335
 20
102.565
 11
183.6597317515884
 21
102.565
  0
ARC
  8
1
  6
CONTINUOUS
 62
     7
 10
185.85
 20
102.05
 40
2.25
 50
166.7683351757007
 51
193.2316648242993
  0
LINE
  8
1
  6
CONTINUOUS
 62
     7
 10
183.6597317515884
 20
101.535
 11
185.335
 21
101.535
  0
LINE
  8
1
  6
CONTINUOUS
 62
     7
 10
185.335
 20
101.535
 11
185.335
 21
99.85973175158844
  0
ARC
  8
1
  6
CONTINUOUS
 62
     7
 10
185.85
 20
102.05
 40
1.030668528585347
 50
150.0214543835138
 51
209.9785456164862
  0
ARC
  8
1
  6
CONTINUOUS
 62
     7
 10
185.85
 20
102.05
 40
1.030668528585347
 50
330.0214543835138
 51
29.97854561648614
  0
ARC
  8
1
  6
CONTINUOUS
 62
     7
 10
185.85
 20
102.05
 40
1.030668528585346
 50
240.0214543835139
 51
299.9785456164861
  0
ARC
  8
1
  6
CONTINUOUS
 62
     7
 10
185.85
 20
102.05
 40
1.030668528585346
 50
60.02145438351391
 51
119.9785456164861
  0
CIRCLE
  8
1
  6
CONTINUOUS
 62
     7
 10
203.85
 20
187.75
 40
4.200000000000002
  0
ARC
  8
1
  6
CONTINUOUS
 62
     7
 10
203.85
 20
187.75
 40
2.250000000000003
 50
76.76833517570074
 51
103.2316648242993
  0
LINE
  8
1
  6
CONTINUOUS
 62
     7
 10
203.335
 20
189.9402682484116
 11
203.335
 21
188.265
  0
LINE
  8
1
  6
CONTINUOUS
 62
     7
 10
203.335
 20
188.265
 11
201.6597317515884
 21
188.265
  0
ARC
  8
1
  6
CONTINUOUS
 62
     7
 10
203.85
 20
187.75
 40
2.25
 50
166.7683351757007
 51
193.2316648242993
  0
LINE
  8
1
  6
CONTINUOUS
 62
     7
 10
201.6597317515884
 20
187.235
 11
203.335
 21
187.235
  0
LINE
  8
1
  6
CONTINUOUS
 62
     7
 10
203.335
 20
187.235
 11
203.335
 21
185.5597317515884
  0
ARC
  8
1
  6
CONTINUOUS
 62
     7
 10
203.85
 20
187.75
 40
2.250000000000003
 50
256.7683351757007
 51
283.2316648242992
  0
LINE
  8
1
  6
CONTINUOUS
 62
     7
 10
204.365
 20
185.5597317515884
 11
204.365
 21
187.235
  0
LINE
  8
1
  6
CONTINUOUS
 62
     7
 10
204.365
 20
187.235
 11
206.0402682484116
 21
187.235
  0
ARC
  8
1
  6
CONTINUOUS
 62
     7
 10
203.85
 20
187.75
 40
2.250000000000003
 50
346.7683351757008
 51
13.23166482429929
  0
LINE
  8
1
  6
CONTINUOUS
 62
     7
 10
206.0402682484116
 20
188.265
 11
204.365
 21
188.265
  0
LINE
  8
1
  6
CONTINUOUS
 62
     7
 10
204.365
 20
188.265
 11
204.365
 21
189.9402682484116
  0
ARC
  8
1
  6
CONTINUOUS
 62
     7
 10
203.85
 20
187.75
 40
1.030668528585347
 50
330.0214543835138
 51
29.97854561648614
  0
ARC
  8
1
  6
CONTINUOUS
 62
     7
 10
203.85
 20
187.75
 40
1.030668528585347
 50
150.0214543835138
 51
209.9785456164862
  0
ARC
  8
1
  6
CONTINUOUS
 62
     7
 10
203.85
 20
187.75
 40
1.030668528585347
 50
240.0214543835138
 51
299.9785456164861
  0
ARC
  8
1
  6
CONTINUOUS
 62
     7
 10
203.85
 20
187.75
 40
1.030668528585347
 50
60.02145438351382
 51
119.9785456164862
  0
CIRCLE
  8
1
  6
CONTINUOUS
 62
     7
 10
157.8500000000001
 20
187.75
 40
4.2
  0
ARC
  8
1
  6
CONTINUOUS
 62
     7
 10
157.8500000000001
 20
187.75
 40
2.250000000000003
 50
76.76833517570076
 51
103.2316648242992
  0
LINE
  8
1
  6
CONTINUOUS
 62
     7
 10
157.335
 20
189.9402682484116
 11
157.335
 21
188.265
  0
LINE
  8
1
  6
CONTINUOUS
 62
     7
 10
157.335
 20
188.265
 11
155.6597317515884
 21
188.265
  0
ARC
  8
1
  6
CONTINUOUS
 62
     7
 10
157.8500000000001
 20
187.75
 40
2.250000000000001
 50
166.7683351757007
 51
193.2316648242993
  0
LINE
  8
1
  6
CONTINUOUS
 62
     7
 10
155.6597317515884
 20
187.235
 11
157.335
 21
187.235
  0
LINE
  8
1
  6
CONTINUOUS
 62
     7
 10
157.335
 20
187.235
 11
157.335
 21
185.5597317515884
  0
ARC
  8
1
  6
CONTINUOUS
 62
     7
 10
157.8500000000001
 20
187.75
 40
2.250000000000003
 50
256.7683351757008
 51
283.2316648242992
  0
LINE
  8
1
  6
CONTINUOUS
 62
     7
 10
158.365
 20
185.5597317515884
 11
158.365
 21
187.235
  0
LINE
  8
1
  6
CONTINUOUS
 62
     7
 10
158.365
 20
187.235
 11
160.0402682484116
 21
187.235
  0
ARC
  8
1
  6
CONTINUOUS
 62
     7
 10
157.8500000000001
 20
187.75
 40
2.25
 50
346.7683351757007
 51
13.23166482429929
  0
LINE
  8
1
  6
CONTINUOUS
 62
     7
 10
160.0402682484116
 20
188.265
 11
158.365
 21
188.265
  0
LINE
  8
1
  6
CONTINUOUS
 62
     7
 10
158.365
 20
188.265
 11
158.365
 21
189.9402682484116
  0
ARC
  8
1
  6
CONTINUOUS
 62
     7
 10
157.8500000000001
 20
187.75
 40
1.030668528585347
 50
330.0214543835138
 51
29.97854561648614
  0
ARC
  8
1
  6
CONTINUOUS
 62
     7
 10
157.8500000000001
 20
187.75
 40
1.030668528585346
 50
60.02145438351391
 51
119.9785456164861
  0
ARC
  8
1
  6
CONTINUOUS
 62
     7
 10
157.8500000000001
 20
187.75
 40
1.030668528585347
 50
150.0214543835138
 51
209.9785456164862
  0
ARC
  8
1
  6
CONTINUOUS
 62
     7
 10
157.8500000000001
 20
187.75
 40
1.030668528585346
 50
240.0214543835139
 51
299.9785456164861
  0
LINE
  8
1
  6
CONTINUOUS
 62
     7
 10
123.35
 20
171.9
 11
123.5733309156447
 21
171.9
  0
ARC
  8
1
  6
CONTINUOUS
 62
     7
 10
148.8499999999999
 20
169.4
 40
25.39999999999997
 50
174.3515064830804
 51
180.0
  0
LINE
  8
1
  6
CONTINUOUS
 62
     7
 10
123.35
 20
179.6956301409869
 11
123.35
 21
171.9
  0
LINE
  8
1
  6
CONTINUOUS
 62
     7
 10
220.3500000000001
 20
117.9
 11
220.2782489688609
 21
117.9
  0
LINE
  8
1
  6
CONTINUOUS
 62
     7
 10
220.2782489688609
 20
117.9
 11
220.1266690843551
 21
117.9
  0
ARC
  8
1
  6
CONTINUOUS
 62
     7
 10
194.8499999999999
 20
120.4
 40
25.39999999999997
 50
354.3515064830804
 51
0.0
  0
LINE
  8
1
  6
CONTINUOUS
 62
     7
 10
220.3500000000001
 20
110.1043698590134
 11
220.3500000000001
 21
117.9
  0
LINE
  8
1
  6
CONTINUOUS
 62
     7
 10
123.35
 20
117.9
 11
123.35
 21
110.1043698590129
  0
ARC
  8
1
  6
CONTINUOUS
 62
     7
 10
148.8499999999999
 20
120.4
 40
25.39999999999998
 50
180.0
 51
185.6484935169196
  0
LINE
  8
1
  6
CONTINUOUS
 62
     7
 10
123.5733309156447
 20
117.9
 11
123.4104882072687
 21
117.9
  0
LINE
  8
1
  6
CONTINUOUS
 62
     7
 10
123.4104882072687
 20
117.9
 11
123.35
 21
117.9
  0
ARC
  8
1
  6
CONTINUOUS
 62
     7
 10
194.8499999999999
 20
169.4
 40
25.39999999999998
 50
0.0
 51
5.648493516919716
  0
LINE
  8
1
  6
CONTINUOUS
 62
     7
 10
220.1266690843553
 20
171.9
 11
220.3500000000001
 21
171.9
  0
LINE
  8
1
  6
CONTINUOUS
 62
     7
 10
220.3500000000001
 20
171.9
 11
220.3500000000001
 21
179.6956301409865
  0
LINE
  8
1
  6
CONTINUOUS
 62
     7
 10
222.8499999999999
 20
122.4000000000001
 11
222.8499999999999
 21
123.4000000000001
  0
LINE
  8
1
  6
CONTINUOUS
 62
     7
 10
224.8499999999999
 20
121.4000000000001
 11
223.8499999999999
 21
121.4000000000001
  0
ARC
  8
1
  6
CONTINUOUS
 62
     7
 10
222.85
 20
110.9
 40
2.000000000000002
 50
270.0
 51
0.0
  0
LINE
  8
1
  6
CONTINUOUS
 62
     7
 10
220.35
 20
108.9
 11
222.85
 21
108.9
  0
LINE
  8
1
  6
CONTINUOUS
 62
     7
 10
223.8499999999999
 20
139.9000000000001
 11
222.3499999999999
 21
139.9000000000001
  0
ARC
  8
1
  6
CONTINUOUS
 62
     7
 10
223.8499999999999
 20
138.9000000000001
 40
1.000000000000001
 50
359.9999999999994
 51
90.0
  0
LINE
  8
1
  6
CONTINUOUS
 62
     7
 10
224.8499999999999
 20
124.4000000000001
 11
224.8499999999999
 21
138.9000000000001
  0
ARC
  8
1
  6
CONTINUOUS
 62
     7
 10
223.8499999999999
 20
123.4000000000001
 40
1.000000000000001
 50
90.0
 51
180.0000000000011
  0
ARC
  8
1
  6
CONTINUOUS
 62
     7
 10
223.8499999999999
 20
122.4000000000001
 40
1.000000000000004
 50
180.0
 51
270.0000000000005
  0
LINE
  8
1
  6
CONTINUOUS
 62
     7
 10
224.85
 20
110.9
 11
224.8499999999999
 21
121.4000000000001
  0
LINE
  8
1
  6
CONTINUOUS
 62
     7
 10
223.8499999999999
 20
124.4000000000001
 11
224.8499999999999
 21
124.4000000000001
  0
LINE
  8
1
  6
CONTINUOUS
 62
     7
 10
220.35
 20
108.9
 11
220.35
 21
110.1043698590134
  0
LINE
  8
1
  6
CONTINUOUS
 62
     7
 10
123.45
 20
169.4
 11
123.45
 21
149.8999999999999
  0
LINE
  8
1
  6
CONTINUOUS
 62
     7
 10
123.4499999999999
 20
149.8999999999999
 11
121.35
 21
149.8999999999999
  0
LINE
  8
1
  6
CONTINUOUS
 62
     7
 10
123.35
 20
108.9
 11
120.85
 21
108.9
  0
ARC
  8
1
  6
CONTINUOUS
 62
     7
 10
120.85
 20
110.9
 40
2.000000000000002
 50
180.0
 51
270.0
  0
LINE
  8
1
  6
CONTINUOUS
 62
     7
 10
118.8500000000001
 20
124.4000000000001
 11
118.8500000000001
 21
138.9000000000001
  0
ARC
  8
1
  6
CONTINUOUS
 62
     7
 10
119.8500000000001
 20
122.4000000000001
 40
1.000000000000004
 50
269.9999999999996
 51
0.0
  0
LINE
  8
1
  6
CONTINUOUS
 62
     7
 10
118.8500000000001
 20
121.4000000000001
 11
119.8500000000001
 21
121.4000000000001
  0
ARC
  8
1
  6
CONTINUOUS
 62
     7
 10
119.8500000000001
 20
138.9000000000001
 40
1.000000000000001
 50
90.0
 51
180.0000000000006
  0
LINE
  8
1
  6
CONTINUOUS
 62
     7
 10
119.8500000000001
 20
124.4000000000001
 11
118.8500000000001
 21
124.4000000000001
  0
LINE
  8
1
  6
CONTINUOUS
 62
     7
 10
119.8500000000001
 20
139.9000000000001
 11
121.3499999999999
 21
139.9000000000001
  0
LINE
  8
1
  6
CONTINUOUS
 62
     7
 10
120.8500000000001
 20
122.4000000000001
 11
120.8500000000001
 21
123.4000000000001
  0
ARC
  8
1
  6
CONTINUOUS
 62
     7
 10
119.8500000000001
 20
123.4000000000001
 40
1.000000000000001
 50
359.9999999999987
 51
90.0
  0
LINE
  8
1
  6
CONTINUOUS
 62
     7
 10
118.85
 20
110.9
 11
118.8500000000001
 21
121.4000000000001
  0
LINE
  8
1
  6
CONTINUOUS
 62
     7
 10
123.35
 20
110.1043698590129
 11
123.35
 21
108.9
  0
LINE
  8
1
  6
CONTINUOUS
 62
     7
 10
220.2499999999999
 20
120.4
 11
220.25
 21
139.9000000000001
  0
LINE
  8
1
  6
CONTINUOUS
 62
     7
 10
220.2499999999999
 20
139.9000000000001
 11
222.3499999999999
 21
139.9000000000001
  0
LINE
  8
1
  6
CONTINUOUS
 62
     7
 10
220.35
 20
180.9
 11
222.85
 21
180.9
  0
ARC
  8
1
  6
CONTINUOUS
 62
     7
 10
222.85
 20
178.9
 40
2.000000000000002
 50
0.0
 51
90.0
  0
ARC
  8
1
  6
CONTINUOUS
 62
     7
 10
223.8499999999999
 20
167.3999999999999
 40
1.000000000000004
 50
89.99999999999962
 51
180.0
  0
LINE
  8
1
  6
CONTINUOUS
 62
     7
 10
224.8499999999999
 20
168.3999999999999
 11
223.8499999999999
 21
168.3999999999999
  0
LINE
  8
1
  6
CONTINUOUS
 62
     7
 10
224.85
 20
178.9
 11
224.8499999999999
 21
168.3999999999999
  0
ARC
  8
1
  6
CONTINUOUS
 62
     7
 10
223.8499999999999
 20
150.8999999999999
 40
1.000000000000001
 50
270.0
 51
0.0000000000005684
  0
LINE
  8
1
  6
CONTINUOUS
 62
     7
 10
223.8499999999999
 20
165.3999999999999
 11
224.8499999999999
 21
165.3999999999999
  0
LINE
  8
1
  6
CONTINUOUS
 62
     7
 10
222.8499999999999
 20
167.3999999999999
 11
222.8499999999999
 21
166.3999999999999
  0
LINE
  8
1
  6
CONTINUOUS
 62
     7
 10
223.8499999999999
 20
149.8999999999999
 11
222.3499999999999
 21
149.8999999999999
  0
ARC
  8
1
  6
CONTINUOUS
 62
     7
 10
223.8499999999999
 20
166.3999999999999
 40
1.000000000000001
 50
179.9999999999988
 51
270.0
  0
LINE
  8
1
  6
CONTINUOUS
 62
     7
 10
224.8499999999999
 20
165.3999999999999
 11
224.8499999999999
 21
150.8999999999999
  0
LINE
  8
1
  6
CONTINUOUS
 62
     7
 10
220.3500000000001
 20
179.6956301409865
 11
220.35
 21
180.9
  0
LINE
  8
1
  6
CONTINUOUS
 62
     7
 10
123.45
 20
139.9000000000001
 11
123.4499999999999
 21
120.4
  0
LINE
  8
1
  6
CONTINUOUS
 62
     7
 10
121.3499999999999
 20
139.9000000000001
 11
123.4499999999999
 21
139.9000000000001
  0
ARC
  8
1
  6
CONTINUOUS
 62
     7
 10
120.85
 20
178.9
 40
2.000000000000002
 50
90.0
 51
180.0
  0
LINE
  8
1
  6
CONTINUOUS
 62
     7
 10
123.35
 20
180.9
 11
120.85
 21
180.9
  0
LINE
  8
1
  6
CONTINUOUS
 62
     7
 10
118.8500000000001
 20
165.3999999999999
 11
118.8500000000001
 21
150.8999999999999
  0
LINE
  8
1
  6
CONTINUOUS
 62
     7
 10
118.8500000000001
 20
168.3999999999999
 11
119.8500000000001
 21
168.3999999999999
  0
LINE
  8
1
  6
CONTINUOUS
 62
     7
 10
119.8500000000001
 20
165.3999999999999
 11
118.8500000000001
 21
165.3999999999999
  0
ARC
  8
1
  6
CONTINUOUS
 62
     7
 10
119.8500000000001
 20
166.3999999999999
 40
1.000000000000001
 50
270.0
 51
0.0000000000011937
  0
ARC
  8
1
  6
CONTINUOUS
 62
     7
 10
119.8500000000001
 20
167.3999999999999
 40
1.000000000000004
 50
0.0
 51
90.0000000000004
  0
LINE
  8
1
  6
CONTINUOUS
 62
     7
 10
118.85
 20
178.9
 11
118.8500000000001
 21
168.3999999999999
  0
LINE
  8
1
  6
CONTINUOUS
 62
     7
 10
119.8500000000001
 20
149.8999999999999
 11
121.3499999999999
 21
149.8999999999999
  0
ARC
  8
1
  6
CONTINUOUS
 62
     7
 10
119.8500000000001
 20
150.8999999999999
 40
1.000000000000001
 50
179.9999999999994
 51
270.0
  0
LINE
  8
1
  6
CONTINUOUS
 62
     7
 10
120.8500000000001
 20
167.3999999999999
 11
120.8500000000001
 21
166.3999999999999
  0
LINE
  8
1
  6
CONTINUOUS
 62
     7
 10
123.35
 20
180.9
 11
123.35
 21
179.6956301409869
  0
LINE
  8
1
  6
CONTINUOUS
 62
     7
 10
220.2499999999999
 20
149.8999999999999
 11
220.2499999999999
 21
169.4
  0
LINE
  8
1
  6
CONTINUOUS
 62
     7
 10
222.3499999999999
 20
149.8999999999999
 11
220.2499999999999
 21
149.8999999999999
  0
LINE
  8
1
  6
CONTINUOUS
 62
     7
 10
121.8499999999999
 20
149.8999999999999
 11
121.8499999999999
 21
149.3999999999999
  0
LINE
  8
1
  6
CONTINUOUS
 62
     7
 10
123.4499999999999
 20
149.3999999999999
 11
123.4500000000001
 21
149.8999999999999
  0
LINE
  8
1
  6
CONTINUOUS
 62
     7
 10
221.8499999999999
 20
149.3999999999999
 11
221.8500000000001
 21
149.8999999999999
  0
LINE
  8
1
  6
CONTINUOUS
 62
     7
 10
220.2499999999999
 20
149.8999999999999
 11
220.2499999999999
 21
149.3999999999999
  0
LINE
  8
1
  6
CONTINUOUS
 62
     7
 10
121.8499999999999
 20
140.4000000000001
 11
121.85
 21
139.9000000000001
  0
LINE
  8
1
  6
CONTINUOUS
 62
     7
 10
123.4499999999999
 20
139.9000000000001
 11
123.4499999999999
 21
140.4000000000001
  0
LINE
  8
1
  6
CONTINUOUS
 62
     7
 10
221.8499999999999
 20
139.9000000000001
 11
221.8499999999999
 21
140.4000000000001
  0
LINE
  8
1
  6
CONTINUOUS
 62
     7
 10
220.2499999999999
 20
140.4000000000001
 11
220.25
 21
139.9000000000001
  0
LINE
  8
1
  6
CONTINUOUS
 62
     7
 10
124.4336120607491
 20
176.3999999999999
 11
124.0306527080182
 21
174.8
  0
LINE
  8
1
  6
CONTINUOUS
 62
     7
 10
124.0306527080182
 20
115.0000000000001
 11
124.4336120607491
 21
113.4000000000001
  0
ARC
  8
1
  6
CONTINUOUS
 62
     7
 10
148.85
 20
169.4
 40
25.39999999999999
 50
167.725329785414
 51
174.3515064830805
  0
ARC
  8
1
  6
CONTINUOUS
 62
     7
 10
148.85
 20
120.4
 40
25.39999999999999
 50
185.6484935169196
 51
192.274670214586
  0
LINE
  8
1
  6
CONTINUOUS
 62
     7
 10
219.2663879392509
 20
113.4000000000001
 11
219.6693472919818
 21
115.0000000000001
  0
LINE
  8
1
  6
CONTINUOUS
 62
     7
 10
219.6693472919818
 20
174.7999999999999
 11
219.2663879392509
 21
176.3999999999999
  0
ARC
  8
1
  6
CONTINUOUS
 62
     7
 10
194.85
 20
169.4
 40
25.39999999999999
 50
5.648493516919522
 51
12.27467021458603
  0
ARC
  8
1
  6
CONTINUOUS
 62
     7
 10
194.85
 20
120.4
 40
25.39999999999999
 50
347.725329785414
 51
354.3515064830804
  0
LINE
  8
1
  6
CONTINUOUS
 62
     7
 10
142.8878953450596
 20
108.15
 11
164.8499999999999
 21
108.15
  0
LINE
  8
1
  6
CONTINUOUS
 62
     7
 10
164.8499999999999
 20
105.55
 11
164.8499999999999
 21
108.15
  0
LINE
  8
1
  6
CONTINUOUS
 62
     7
 10
182.8121046549403
 20
108.15
 11
188.8878953450596
 21
108.15
  0
LINE
  8
1
  6
CONTINUOUS
 62
     7
 10
188.8878953450596
 20
108.15
 11
210.8499999999999
 21
108.15
  0
LINE
  8
1
  6
CONTINUOUS
 62
     7
 10
210.8499999999999
 20
105.55
 11
210.8499999999999
 21
108.15
  0
LINE
  8
1
  6
CONTINUOUS
 62
     7
 10
136.8121046549403
 20
108.15
 11
142.8878953450596
 21
108.15
  0
LINE
  8
1
  6
CONTINUOUS
 62
     7
 10
164.8499999999999
 20
181.6499999999999
 11
164.8499999999999
 21
184.2499999999999
  0
LINE
  8
1
  6
CONTINUOUS
 62
     7
 10
164.8499999999999
 20
181.6499999999999
 11
160.8878953450596
 21
181.6499999999999
  0
LINE
  8
1
  6
CONTINUOUS
 62
     7
 10
160.8878953450596
 20
181.6499999999999
 11
154.8121046549405
 21
181.6499999999999
  0
ARC
  8
1
  6
CONTINUOUS
 62
     7
 10
157.8500000000001
 20
187.75
 40
4.634523505985769
 50
229.0429964185116
 51
310.9570035814884
  0
LINE
  8
1
  6
CONTINUOUS
 62
     7
 10
206.8878953450596
 20
181.6499999999999
 11
200.8121046549405
 21
181.6499999999999
  0
ARC
  8
1
  6
CONTINUOUS
 62
     7
 10
203.85
 20
187.75
 40
4.63452350598577
 50
229.0429964185116
 51
310.9570035814884
  0
LINE
  8
1
  6
CONTINUOUS
 62
     7
 10
164.8499999999999
 20
98.65143682906837
 11
164.8499999999999
 21
105.55
  0
LINE
  8
1
  6
CONTINUOUS
 62
     7
 10
132.8500000000001
 20
105.55
 11
132.8500000000001
 21
98.65143682906836
  0
LINE
  8
1
  6
CONTINUOUS
 62
     7
 10
137.5031942820898
 20
95.89999999999998
 11
160.1968057179102
 21
95.89999999999998
  0
ARC
  8
1
  6
CONTINUOUS
 62
     7
 10
148.85
 20
120.4
 40
27.0
 50
233.6587969062154
 51
245.1494976597717
  0
ARC
  8
1
  6
CONTINUOUS
 62
     7
 10
148.85
 20
120.4
 40
27.0
 50
294.8505023402283
 51
306.3412030937846
  0
LINE
  8
1
  6
CONTINUOUS
 62
     7
 10
178.8500000000001
 20
108.15
 11
178.8500000000001
 21
105.55
  0
LINE
  8
1
  6
CONTINUOUS
 62
     7
 10
178.8500000000001
 20
108.15
 11
182.8121046549403
 21
108.15
  0
LINE
  8
1
  6
CONTINUOUS
 62
     7
 10
132.8500000000001
 20
108.15
 11
132.8500000000001
 21
105.55
  0
LINE
  8
1
  6
CONTINUOUS
 62
     7
 10
132.8500000000001
 20
108.15
 11
136.8121046549403
 21
108.15
  0
LINE
  8
1
  6
CONTINUOUS
 62
     7
 10
132.8500000000001
 20
191.1485631709317
 11
132.8500000000001
 21
184.25
  0
ARC
  8
1
  6
CONTINUOUS
 62
     7
 10
148.85
 20
169.4
 40
27.0
 50
53.65879690621542
 51
65.14949765977167
  0
LINE
  8
1
  6
CONTINUOUS
 62
     7
 10
164.8499999999999
 20
184.25
 11
164.8499999999999
 21
191.1485631709317
  0
ARC
  8
1
  6
CONTINUOUS
 62
     7
 10
148.85
 20
169.4
 40
27.0
 50
114.8505023402283
 51
126.3412030937846
  0
LINE
  8
1
  6
CONTINUOUS
 62
     7
 10
160.1968057179102
 20
193.9
 11
137.5031942820899
 21
193.9
  0
LINE
  8
1
  6
CONTINUOUS
 62
     7
 10
206.1968057179102
 20
193.9
 11
183.5031942820898
 21
193.9
  0
LINE
  8
1
  6
CONTINUOUS
 62
     7
 10
210.8499999999999
 20
184.25
 11
210.8499999999999
 21
191.1485631709317
  0
LINE
  8
1
  6
CONTINUOUS
 62
     7
 10
178.8500000000001
 20
191.1485631709316
 11
178.8500000000001
 21
184.2499999999999
  0
ARC
  8
1
  6
CONTINUOUS
 62
     7
 10
194.85
 20
169.4
 40
27.0
 50
114.8505023402283
 51
126.3412030937846
  0
ARC
  8
1
  6
CONTINUOUS
 62
     7
 10
194.85
 20
169.4
 40
27.0
 50
53.6587969062154
 51
65.14949765977167
  0
LINE
  8
1
  6
CONTINUOUS
 62
     7
 10
210.8499999999999
 20
181.6499999999999
 11
210.8499999999999
 21
184.2499999999999
  0
LINE
  8
1
  6
CONTINUOUS
 62
     7
 10
210.8499999999999
 20
181.6499999999999
 11
206.8878953450596
 21
181.6499999999999
  0
LINE
  8
1
  6
CONTINUOUS
 62
     7
 10
200.8121046549405
 20
181.6499999999999
 11
178.8500000000001
 21
181.6499999999999
  0
LINE
  8
1
  6
CONTINUOUS
 62
     7
 10
178.8500000000001
 20
184.25
 11
178.8500000000001
 21
181.65
  0
LINE
  8
1
  6
CONTINUOUS
 62
     7
 10
154.8121046549405
 20
181.6499999999999
 11
132.8500000000001
 21
181.6499999999999
  0
LINE
  8
1
  6
CONTINUOUS
 62
     7
 10
132.8500000000001
 20
184.25
 11
132.8500000000001
 21
181.65
  0
LINE
  8
1
  6
CONTINUOUS
 62
     7
 10
178.8500000000001
 20
105.55
 11
178.8500000000001
 21
98.65143682906837
  0
ARC
  8
1
  6
CONTINUOUS
 62
     7
 10
194.85
 20
120.4
 40
27.0
 50
233.6587969062154
 51
245.1494976597717
  0
ARC
  8
1
  6
CONTINUOUS
 62
     7
 10
194.85
 20
120.4
 40
27.0
 50
294.8505023402283
 51
306.3412030937846
  0
LINE
  8
1
  6
CONTINUOUS
 62
     7
 10
210.8499999999999
 20
98.65143682906836
 11
210.8499999999999
 21
105.55
  0
LINE
  8
1
  6
CONTINUOUS
 62
     7
 10
183.5031942820898
 20
95.89999999999998
 11
206.1968057179102
 21
95.89999999999998
  0
LINE
  8
1
  6
CONTINUOUS
 62
     7
 10
121.85
 20
149.3999999999999
 11
121.85
 21
140.4000000000001
  0
LINE
  8
1
  6
CONTINUOUS
 62
     7
 10
123.45
 20
140.4000000000001
 11
123.45
 21
149.3999999999999
  0
LINE
  8
1
  6
CONTINUOUS
 62
     7
 10
221.8500000000001
 20
149.3999999999999
 11
221.8500000000001
 21
140.4000000000001
  0
LINE
  8
1
  6
CONTINUOUS
 62
     7
 10
220.2500000000001
 20
140.4000000000001
 11
220.2500000000001
 21
149.3999999999999
  0
LINE
  8
1
  6
CONTINUOUS
 62
     7
 10
178.8500000000001
 20
106.55
 11
164.8499999999999
 21
106.55
  0
LINE
  8
1
  6
CONTINUOUS
 62
     7
 10
164.8499999999999
 20
108.15
 11
178.8500000000001
 21
108.15
  0
LINE
  8
1
  6
CONTINUOUS
 62
     7
 10
164.8499999999999
 20
183.25
 11
178.8500000000001
 21
183.25
  0
LINE
  8
1
  6
CONTINUOUS
 62
     7
 10
178.8500000000001
 20
181.6499999999999
 11
164.8499999999999
 21
181.6499999999999
  0
ARC
  8
1
  6
CONTINUOUS
 62
     7
 10
213.9182327445414
 20
113.15
 40
6.599999999999988
 50
269.9999999999987
 51
339.1825193229103
  0
ARC
  8
1
  6
CONTINUOUS
 62
     7
 10
213.9182327445414
 20
113.15
 40
4.999999999999992
 50
269.9999999999984
 51
339.1825193229104
  0
LINE
  8
1
  6
CONTINUOUS
 62
     7
 10
210.8499999999999
 20
106.55
 11
213.9182327445413
 21
106.55
  0
LINE
  8
1
  6
CONTINUOUS
 62
     7
 10
210.8499999999999
 20
108.15
 11
213.9182327445413
 21
108.15
  0
ARC
  8
1
  6
CONTINUOUS
 62
     7
 10
194.85
 20
120.4000000000001
 40
26.99999999999998
 50
339.1825193229101
 51
340.8674787094376
  0
ARC
  8
1
  6
CONTINUOUS
 62
     7
 10
194.85
 20
120.4000000000001
 40
25.4
 50
339.1825193229103
 51
344.0027897599482
  0
ARC
  8
1
  6
CONTINUOUS
 62
     7
 10
213.9182327445414
 20
176.6499999999999
 40
4.999999999999992
 50
20.81748067708966
 51
90.00000000000183
  0
ARC
  8
1
  6
CONTINUOUS
 62
     7
 10
213.9182327445414
 20
176.6499999999999
 40
6.599999999999988
 50
20.81748067708975
 51
90.00000000000136
  0
LINE
  8
1
  6
CONTINUOUS
 62
     7
 10
213.9182327445413
 20
183.25
 11
210.8499999999999
 21
183.25
  0
LINE
  8
1
  6
CONTINUOUS
 62
     7
 10
213.9182327445413
 20
181.6499999999999
 11
210.8499999999999
 21
181.6499999999999
  0
ARC
  8
1
  6
CONTINUOUS
 62
     7
 10
194.85
 20
169.3999999999999
 40
26.99999999999998
 50
19.13252129056241
 51
20.81748067708986
  0
ARC
  8
1
  6
CONTINUOUS
 62
     7
 10
194.85
 20
169.3999999999999
 40
25.4
 50
15.99721024005178
 51
20.81748067708972
  0
ARC
  8
1
  6
CONTINUOUS
 62
     7
 10
129.7817672554586
 20
176.6499999999999
 40
6.599999999999988
 50
90.00000000000018
 51
159.1825193229103
  0
ARC
  8
1
  6
CONTINUOUS
 62
     7
 10
129.7817672554586
 20
176.6499999999999
 40
4.999999999999992
 50
90.00000000000021
 51
159.1825193229103
  0
LINE
  8
1
  6
CONTINUOUS
 62
     7
 10
132.8500000000001
 20
183.25
 11
129.7817672554586
 21
183.25
  0
LINE
  8
1
  6
CONTINUOUS
 62
     7
 10
132.8500000000001
 20
181.6499999999999
 11
129.7817672554586
 21
181.6499999999999
  0
ARC
  8
1
  6
CONTINUOUS
 62
     7
 10
148.85
 20
169.3999999999999
 40
26.99999999999998
 50
159.1825193229101
 51
160.8674787094376
  0
ARC
  8
1
  6
CONTINUOUS
 62
     7
 10
148.85
 20
169.3999999999999
 40
25.4
 50
159.1825193229103
 51
164.0027897599482
  0
ARC
  8
1
  6
CONTINUOUS
 62
     7
 10
129.7817672554586
 20
113.15
 40
6.599999999999988
 50
200.8174806770897
 51
269.9999999999998
  0
ARC
  8
1
  6
CONTINUOUS
 62
     7
 10
129.7817672554586
 20
113.15
 40
4.999999999999992
 50
200.8174806770897
 51
269.9999999999996
  0
LINE
  8
1
  6
CONTINUOUS
 62
     7
 10
129.7817672554586
 20
106.55
 11
132.8500000000001
 21
106.55
  0
LINE
  8
1
  6
CONTINUOUS
 62
     7
 10
129.7817672554586
 20
108.15
 11
132.8500000000001
 21
108.15
  0
ARC
  8
1
  6
CONTINUOUS
 62
     7
 10
148.85
 20
120.4000000000001
 40
26.99999999999998
 50
199.1325212905624
 51
200.8174806770899
  0
ARC
  8
1
  6
CONTINUOUS
 62
     7
 10
148.85
 20
120.4000000000001
 40
25.4
 50
195.9972102400518
 51
200.8174806770897
  0
LINE
  8
1
  6
CONTINUOUS
 62
     7
 10
124.387243645405
 20
169.4
 11
124.3878074972164
 21
169.3999796416155
  0
LINE
  8
1
  6
CONTINUOUS
 62
     7
 10
124.3878074972164
 20
120.4000203583845
 11
124.3872436454049
 21
120.4
  0
LINE
  8
1
  6
CONTINUOUS
 62
     7
 10
219.3121925027836
 20
169.3999796416155
 11
219.3127563545951
 21
169.4
  0
LINE
  8
1
  6
CONTINUOUS
 62
     7
 10
123.5404390790016
 20
126.6715161076449
 11
123.45
 21
127.3500000000001
  0
CIRCLE
  8
1
  6
CONTINUOUS
 62
     7
 10
194.85
 20
159.9
 40
10.65000000000001
  0
CIRCLE
  8
1
  6
CONTINUOUS
 62
     7
 10
194.85
 20
129.9
 40
10.65000000000001
  0
CIRCLE
  8
1
  6
CONTINUOUS
 62
     7
 10
148.85
 20
159.9
 40
10.65000000000001
  0
CIRCLE
  8
1
  6
CONTINUOUS
 62
     7
 10
148.85
 20
129.9
 40
10.65000000000001
  0
ENDBLK
  8
0
  0
ENDSEC
  0
SECTION
  2
ENTITIES
  0
TEXT
  8
1
  6
CONTINUOUS
 62
     7
 10
55.18024884331624
 20
39.88400025009378
 40
6.0
  1
SBP-2FG(M)
  0
INSERT
  8
1
  6
CONTINUOUS
 62
     7
  2
D_FRAME_VIEW_3836
 10
0.0
 20
0.0
 30
0.0
  0
INSERT
  8
1
  6
CONTINUOUS
 62
     7
  2
D_FRAME_VIEW_3426
 10
0.0
 20
0.0
 30
0.0
  0
INSERT
  8
図面枠
 62
     7
  2
D_FRAME_DRAWING_17
 10
0.0
 20
0.0
 30
0.0
  0
LINE
  8
1
  6
CONTINUOUS
 62
     7
 10
132.8500000000001
 20
59.03180667547153
 11
164.8499999999999
 21
59.03180667547153
  0
LINE
  8
1
  6
CONTINUOUS
 62
     7
 10
178.8500000000001
 20
59.03180667547153
 11
210.8499999999999
 21
59.03180667547153
  0
LINE
  8
1
  6
CONTINUOUS
 62
     7
 10
128.4499999999999
 20
23.63180667547116
 11
215.2499999999999
 21
23.63180667547159
  0
LINE
  8
1
  6
CONTINUOUS
 62
     7
 10
47.08180667547153
 20
183.25
 11
77.58180667547157
 21
183.25
  0
LINE
  8
1
  6
CONTINUOUS
 62
     7
 10
47.08180667547153
 20
106.55
 11
77.58180667547157
 21
106.55
  0
LINE
  8
1
  6
CONTINUOUS
 62
     7
 10
47.08180667547153
 20
192.15
 11
75.48180667547155
 21
192.15
  0
INSERT
  8
1
  6
CONTINUOUS
 62
     7
  2
D_FRAME_VIEW_2751
 10
0.0
 20
0.0
 30
0.0
  0
ENDSEC
  0
EOF
