  0
SECTION
  2
HEADER
  9
$ACADVER
  1
AC1006
  9
$DWGCODEPAGE
  3
ansi_932
  9
$INSBASE
 10
0.0
 20
0.0
 30
0.0
  9
$EXTMIN
 10
54.50000000000003
 20
38.35194701887458
  9
$EXTMAX
 10
283.0807177691635
 20
239.0
  9
$LIMMIN
 10
0.0
 20
0.0
  9
$LIMMAX
 10
12.0
 20
9.0
  9
$ORTHOMODE
 70
     0
  9
$REGENMODE
 70
     1
  9
$FILLMODE
 70
     1
  9
$QTEXTMODE
 70
     0
  9
$MIRRTEXT
 70
     1
  9
$DRAGMODE
 70
     2
  9
$LTSCALE
 40
1.0
  9
$OSMODE
 70
    37
  9
$ATTMODE
 70
     1
  9
$TEXTSIZE
 40
0.2
  9
$TRACEWID
 40
0.05
  9
$TEXTSTYLE
  7
STANDARD
  9
$CLAYER
  8
0
  9
$CELTYPE
  6
BYLAYER
  9
$CECOLOR
 62
   256
  9
$DIMSCALE
 40
1.0
  9
$DIMASZ
 40
3.0
  9
$DIMEXO
 40
0.0625
  9
$DIMDLI
 40
0.38
  9
$DIMRND
 40
0.0
  9
$DIMDLE
 40
0.0
  9
$DIMEXE
 40
1.5
  9
$DIMTP
 40
0.0
  9
$DIMTM
 40
0.0
  9
$DIMTXT
 40
3.0
  9
$DIMCEN
 40
0.09
  9
$DIMTSZ
 40
0.0
  9
$DIMTOL
 70
     0
  9
$DIMLIM
 70
     0
  9
$DIMTIH
 70
     1
  9
$DIMTOH
 70
     1
  9
$DIMSE1
 70
     0
  9
$DIMSE2
 70
     0
  9
$DIMTAD
 70
     1
  9
$DIMZIN
 70
     0
  9
$DIMBLK
  1

  9
$DIMASO
 70
     1
  9
$DIMSHO
 70
     1
  9
$DIMPOST
  1

  9
$DIMAPOST
  1

  9
$DIMALT
 70
     0
  9
$DIMALTD
 70
     2
  9
$DIMALTF
 40
25.4
  9
$DIMLFAC
 40
1.0
  9
$DIMTOFL
 70
     0
  9
$DIMTVP
 40
0.0
  9
$DIMTIX
 70
     0
  9
$DIMSOXD
 70
     0
  9
$DIMSAH
 70
     0
  9
$DIMBLK1
  1

  9
$DIMBLK2
  1

  9
$LUNITS
 70
     2
  9
$LUPREC
 70
     4
  9
$SKETCHINC
 40
0.1
  9
$FILLETRAD
 40
0.5
  9
$AUNITS
 70
     0
  9
$AUPREC
 70
     0
  9
$MENU
  1
.
  9
$ELEVATION
 40
0.0
  9
$THICKNESS
 40
0.0
  9
$LIMCHECK
 70
     0
  9
$CHAMFERA
 40
0.0
  9
$CHAMFERB
 40
0.0
  9
$SKPOLY
 70
     0
  9
$TDCREATE
 40
2460627.608255717
  9
$TDUPDATE
 40
2460627.608255984
  9
$TDINDWG
 40
0.0000000116
  9
$TDUSRTIMER
 40
0.0000000116
  9
$USRTIMER
 70
     1
  9
$ANGBASE
 50
0.0
  9
$ANGDIR
 70
     0
  9
$PDMODE
 70
     0
  9
$PDSIZE
 40
0.0
  9
$PLINEWID
 40
0.0
  9
$COORDS
 70
     1
  9
$SPLFRAME
 70
     0
  9
$SPLINETYPE
 70
     6
  9
$SPLINESEGS
 70
     8
  9
$ATTDIA
 70
     0
  9
$ATTREQ
 70
     1
  9
$HANDLING
 70
     1
  9
$HANDSEED
  5
2F4
  9
$SURFTAB1
 70
     6
  9
$SURFTAB2
 70
     6
  9
$SURFTYPE
 70
     6
  9
$SURFU
 70
     6
  9
$SURFV
 70
     6
  9
$UCSNAME
  2

  9
$UCSORG
 10
0.0
 20
0.0
 30
0.0
  9
$UCSXDIR
 10
1.0
 20
0.0
 30
0.0
  9
$UCSYDIR
 10
0.0
 20
1.0
 30
0.0
  9
$USERI1
 70
     0
  9
$USERI2
 70
     0
  9
$USERI3
 70
     0
  9
$USERI4
 70
     0
  9
$USERI5
 70
     0
  9
$USERR1
 40
0.0
  9
$USERR2
 40
0.0
  9
$USERR3
 40
0.0
  9
$USERR4
 40
0.0
  9
$USERR5
 40
0.0
  9
$WORLDVIEW
 70
     1
  0
ENDSEC
  0
SECTION
  2
TABLES
  0
TABLE
  2
VPORT
 70
     1
  0
VPORT
  2
*ACTIVE
 70
     0
 10
0.0
 20
0.0
 11
1.0
 21
1.0
 12
168.7903588845817
 22
138.6759735094373
 13
0.0
 23
0.0
 14
0.5
 24
0.5
 15
0.5
 25
0.5
 16
0.0
 26
0.0
 36
1.0
 17
0.0
 27
0.0
 37
0.0
 40
200.6480529811254
 41
1.6
 42
50.0
 43
0.0
 44
0.0
 50
0.0
 51
0.0
 71
     0
 72
   100
 73
     1
 74
     3
 75
     0
 76
     0
 77
     0
 78
     0
  0
ENDTAB
  0
TABLE
  2
LTYPE
 70
     2
  0
LTYPE
  2
CONTINUOUS
 70
     0
  3
Solid line
 72
    65
 73
     0
 40
0.0
  0
LTYPE
  2
CENTER
 70
     0
  3

 72
    65
 73
     0
 40
0.0
  0
ENDTAB
  0
TABLE
  2
LAYER
 70
     2
  0
LAYER
  2
0
 70
     0
 62
     7
  6
CONTINUOUS
  0
LAYER
  2
1
 70
     0
 62
     7
  6
CONTINUOUS
  0
ENDTAB
  0
TABLE
  2
STYLE
 70
     2
  0
STYLE
  2
STANDARD
 70
     0
 40
0.0
 41
1.0
 50
0.0
 71
     0
 42
0.2
  3
txt
  4

  0
STYLE
  2
ＭＳ_ゴシック
 70
     0
 40
0.0
 41
1.0
 50
0.0
 71
     0
 42
0.2
  3
ＭＳ ゴシック.shx
  4

  0
ENDTAB
  0
TABLE
  2
VIEW
 70
     0
  0
ENDTAB
  0
TABLE
  2
UCS
 70
     0
  0
ENDTAB
  0
ENDSEC
  0
SECTION
  2
BLOCKS
  0
ENDSEC
  0
SECTION
  2
ENTITIES
  0
LINE
  5
70
  8
1
  6
CONTINUOUS
 62
     7
 10
139.7
 20
98.05194701887456
 30
0.0
 11
131.3
 21
98.05194701887456
 31
0.0
  0
LINE
  5
71
  8
1
  6
CONTINUOUS
 62
     7
 10
137.15
 20
86.05194701887454
 30
0.0
 11
133.85
 21
86.05194701887454
 31
0.0
  0
LINE
  5
72
  8
1
  6
CONTINUOUS
 62
     7
 10
85.30000000000001
 20
98.05194701887456
 30
0.0
 11
93.7
 21
98.05194701887456
 31
0.0
  0
LINE
  5
73
  8
1
  6
CONTINUOUS
 62
     7
 10
87.85000000000001
 20
86.05194701887454
 30
0.0
 11
91.15
 21
86.05194701887454
 31
0.0
  0
LINE
  5
74
  8
1
  6
CONTINUOUS
 62
     7
 10
78.49999999999999
 20
45.75194701887455
 30
0.0
 11
82.49999999999999
 21
45.75194701887455
 31
0.0
  0
LINE
  5
75
  8
1
  6
CONTINUOUS
 62
     7
 10
124.5
 20
45.75194701887455
 30
0.0
 11
128.5
 21
45.75194701887455
 31
0.0
  0
LINE
  5
76
  8
1
  6
CONTINUOUS
 62
     7
 10
85.85000000000001
 20
86.75194701887452
 30
0.0
 11
85.85000000000001
 21
93.75194701887453
 31
0.0
  0
LINE
  5
77
  8
1
  6
CONTINUOUS
 62
     7
 10
84.65
 20
86.75194701887452
 30
0.0
 11
84.65
 21
93.75194701887453
 31
0.0
  0
LINE
  5
78
  8
1
  6
CONTINUOUS
 62
     7
 10
75.14999999999999
 20
93.75194701887455
 30
0.0
 11
76.29403543848463
 21
93.75194701887455
 31
0.0
  0
LINE
  5
79
  8
1
  6
CONTINUOUS
 62
     7
 10
75.14999999999999
 20
93.75194701887455
 30
0.0
 11
75.14999999999999
 21
86.75194701887456
 31
0.0
  0
LINE
  5
7A
  8
1
  6
CONTINUOUS
 62
     7
 10
76.34999999999998
 20
93.75194701887455
 30
0.0
 11
76.34999999999998
 21
86.75194701887456
 31
0.0
  0
LINE
  5
7B
  8
1
  6
CONTINUOUS
 62
     7
 10
76.35
 20
49.55194701887454
 30
0.0
 11
84.65
 21
49.55194701887454
 31
0.0
  0
LINE
  5
7C
  8
1
  6
CONTINUOUS
 62
     7
 10
84.65
 20
49.55194701887454
 30
0.0
 11
84.64999999999999
 21
48.35194701887455
 31
0.0
  0
LINE
  5
7D
  8
1
  6
CONTINUOUS
 62
     7
 10
76.34999999999998
 20
48.35194701887455
 30
0.0
 11
84.64999999999999
 21
48.35194701887455
 31
0.0
  0
ARC
  5
7E
  8
1
  6
CONTINUOUS
 62
     7
 10
76.34999999999998
 20
49.55194701887454
 30
0.0
 40
1.199999999999993
 50
180.0
 51
270.0
  0
LINE
  5
7F
  8
1
  6
CONTINUOUS
 62
     7
 10
75.14999999999999
 20
49.55194701887454
 30
0.0
 11
75.14999999999999
 21
86.75194701887456
 31
0.0
  0
LINE
  5
80
  8
1
  6
CONTINUOUS
 62
     7
 10
76.35
 20
49.55194701887454
 30
0.0
 11
76.35
 21
86.75194701887456
 31
0.0
  0
LINE
  5
81
  8
1
  6
CONTINUOUS
 62
     7
 10
85.85000000000001
 20
52.65548691935397
 30
0.0
 11
84.64999999999999
 21
52.65548691935397
 31
0.0
  0
LINE
  5
82
  8
1
  6
CONTINUOUS
 62
     7
 10
85.85000000000001
 20
52.65548691935397
 30
0.0
 11
85.85000000000001
 21
86.75194701887452
 31
0.0
  0
LINE
  5
83
  8
1
  6
CONTINUOUS
 62
     7
 10
84.65
 20
52.65548691935397
 30
0.0
 11
84.65
 21
86.75194701887452
 31
0.0
  0
LINE
  5
84
  8
1
  6
CONTINUOUS
 62
     7
 10
121.15
 20
93.75194701887455
 30
0.0
 11
121.15
 21
86.75194701887456
 31
0.0
  0
LINE
  5
85
  8
1
  6
CONTINUOUS
 62
     7
 10
131.85
 20
52.65548691935397
 30
0.0
 11
130.65
 21
52.65548691935397
 31
0.0
  0
LINE
  5
86
  8
1
  6
CONTINUOUS
 62
     7
 10
122.35
 20
49.55194701887454
 30
0.0
 11
130.65
 21
49.55194701887454
 31
0.0
  0
LINE
  5
87
  8
1
  6
CONTINUOUS
 62
     7
 10
130.65
 20
49.55194701887454
 30
0.0
 11
130.65
 21
48.35194701887455
 31
0.0
  0
LINE
  5
88
  8
1
  6
CONTINUOUS
 62
     7
 10
122.35
 20
48.35194701887455
 30
0.0
 11
130.65
 21
48.35194701887455
 31
0.0
  0
ARC
  5
89
  8
1
  6
CONTINUOUS
 62
     7
 10
122.35
 20
49.55194701887454
 30
0.0
 40
1.199999999999993
 50
180.0
 51
270.0
  0
LINE
  5
8A
  8
1
  6
CONTINUOUS
 62
     7
 10
121.15
 20
49.55194701887454
 30
0.0
 11
121.15
 21
86.75194701887456
 31
0.0
  0
LINE
  5
8B
  8
1
  6
CONTINUOUS
 62
     7
 10
78.15319428208979
 20
93.75194701887455
 30
0.0
 11
100.8468057179102
 21
93.75194701887455
 31
0.0
  0
LINE
  5
8C
  8
1
  6
CONTINUOUS
 62
     7
 10
78.15319428208979
 20
95.35194701887454
 30
0.0
 11
100.8468057179102
 21
95.35194701887454
 31
0.0
  0
LINE
  5
8D
  8
1
  6
CONTINUOUS
 62
     7
 10
124.1531942820898
 20
95.35194701887454
 30
0.0
 11
119.5
 21
95.35194701887454
 31
0.0
  0
LINE
  5
8E
  8
1
  6
CONTINUOUS
 62
     7
 10
119.5
 20
93.75194701887455
 30
0.0
 11
119.5
 21
95.35194701887454
 31
0.0
  0
LINE
  5
8F
  8
1
  6
CONTINUOUS
 62
     7
 10
73.5
 20
93.75194701887455
 30
0.0
 11
75.14999999999993
 21
93.75194701887455
 31
0.0
  0
LINE
  5
90
  8
1
  6
CONTINUOUS
 62
     7
 10
76.29403543848463
 20
93.75194701887455
 30
0.0
 11
78.15319428208979
 21
93.75194701887455
 31
0.0
  0
LINE
  5
91
  8
1
  6
CONTINUOUS
 62
     7
 10
73.50000000000001
 20
93.75194701887455
 30
0.0
 11
73.50000000000001
 21
95.35194701887454
 31
0.0
  0
LINE
  5
92
  8
1
  6
CONTINUOUS
 62
     7
 10
73.5
 20
95.35194701887454
 30
0.0
 11
78.15319428208977
 21
95.35194701887454
 31
0.0
  0
LINE
  5
93
  8
1
  6
CONTINUOUS
 62
     7
 10
100.8468057179102
 20
93.75194701887455
 30
0.0
 11
105.5
 21
93.75194701887455
 31
0.0
  0
LINE
  5
94
  8
1
  6
CONTINUOUS
 62
     7
 10
105.5
 20
95.35194701887454
 30
0.0
 11
105.5
 21
93.75194701887455
 31
0.0
  0
LINE
  5
95
  8
1
  6
CONTINUOUS
 62
     7
 10
100.8468057179102
 20
95.35194701887454
 30
0.0
 11
105.5
 21
95.35194701887454
 31
0.0
  0
LINE
  5
96
  8
1
  6
CONTINUOUS
 62
     7
 10
146.8468057179102
 20
95.35194701887454
 30
0.0
 11
124.1531942820898
 21
95.35194701887454
 31
0.0
  0
LINE
  5
97
  8
1
  6
CONTINUOUS
 62
     7
 10
151.5
 20
95.35194701887454
 30
0.0
 11
151.5
 21
93.75194701887455
 31
0.0
  0
LINE
  5
98
  8
1
  6
CONTINUOUS
 62
     7
 10
151.5
 20
95.35194701887454
 30
0.0
 11
146.8468057179102
 21
95.35194701887454
 31
0.0
  0
LINE
  5
99
  8
1
  6
CONTINUOUS
 62
     7
 10
151.5
 20
93.75194701887455
 30
0.0
 11
151.5
 21
92.75194701887455
 31
0.0
  0
LINE
  5
9A
  8
1
  6
CONTINUOUS
 62
     7
 10
119.5
 20
92.75194701887455
 30
0.0
 11
119.5
 21
93.75194701887455
 31
0.0
  0
LINE
  5
9B
  8
1
  6
CONTINUOUS
 62
     7
 10
73.50000000000001
 20
92.75194701887455
 30
0.0
 11
73.50000000000001
 21
93.75194701887455
 31
0.0
  0
LINE
  5
9C
  8
1
  6
CONTINUOUS
 62
     7
 10
105.5
 20
93.75194701887455
 30
0.0
 11
105.5
 21
92.75194701887455
 31
0.0
  0
LINE
  5
9D
  8
1
  6
CONTINUOUS
 62
     7
 10
76.34999999999998
 20
48.35194701887458
 30
0.0
 11
72.54867261834633
 21
48.35194701887458
 31
0.0
  0
LINE
  5
9E
  8
1
  6
CONTINUOUS
 62
     7
 10
152.876061118677
 20
88.85194701887454
 30
0.0
 11
151.5
 21
88.85194701887455
 31
0.0
  0
LINE
  5
9F
  8
1
  6
CONTINUOUS
 62
     7
 10
73.50000000000001
 20
88.85194701887455
 30
0.0
 11
72.12393888132297
 21
88.85194701887454
 31
0.0
  0
LINE
  5
A0
  8
1
  6
CONTINUOUS
 62
     7
 10
119.5
 20
92.75194701887455
 30
0.0
 11
105.5
 21
92.75194701887455
 31
0.0
  0
LINE
  5
A1
  8
1
  6
CONTINUOUS
 62
     7
 10
73.50000000000001
 20
92.75194701887455
 30
0.0
 11
73.50000000000001
 21
88.85194701887455
 31
0.0
  0
LINE
  5
A2
  8
1
  6
CONTINUOUS
 62
     7
 10
151.5
 20
88.85194701887455
 30
0.0
 11
151.5
 21
92.75194701887455
 31
0.0
  0
LINE
  5
A3
  8
1
  6
CONTINUOUS
 62
     7
 10
72.12393888132297
 20
88.85194701887454
 30
0.0
 11
64.60996650567884
 21
88.85194701887454
 31
0.0
  0
LINE
  5
A4
  8
1
  6
CONTINUOUS
 62
     7
 10
152.876061118677
 20
88.85194701887454
 30
0.0
 11
160.3900334943212
 21
88.85194701887454
 31
0.0
  0
LINE
  5
A5
  8
1
  6
CONTINUOUS
 62
     7
 10
152.4513273816537
 20
48.35194701887458
 30
0.0
 11
143.7352685865243
 21
48.35194701887458
 31
0.0
  0
LINE
  5
A6
  8
1
  6
CONTINUOUS
 62
     7
 10
122.35
 20
48.35194701887458
 30
0.0
 11
97.73526858652424
 21
48.35194701887458
 31
0.0
  0
LINE
  5
A7
  8
1
  6
CONTINUOUS
 62
     7
 10
142.0408516531128
 20
54.35194701887457
 30
0.0
 11
131.85
 21
54.35194701887457
 31
0.0
  0
LINE
  5
A8
  8
1
  6
CONTINUOUS
 62
     7
 10
161.0
 20
97.35194701887454
 30
0.0
 11
163.4999999999999
 21
97.35194701887454
 31
0.0
  0
LINE
  5
A9
  8
1
  6
CONTINUOUS
 62
     7
 10
161.0
 20
98.95194701887455
 30
0.0
 11
163.4999999999999
 21
98.95194701887455
 31
0.0
  0
LINE
  5
AA
  8
1
  6
CONTINUOUS
 62
     7
 10
161.0
 20
97.35194701887454
 30
0.0
 11
161.0
 21
98.95194701887455
 31
0.0
  0
LINE
  5
AB
  8
1
  6
CONTINUOUS
 62
     7
 10
64.00000000000001
 20
98.95194701887455
 30
0.0
 11
61.50000000000005
 21
98.95194701887455
 31
0.0
  0
LINE
  5
AC
  8
1
  6
CONTINUOUS
 62
     7
 10
64.00000000000001
 20
97.35194701887454
 30
0.0
 11
64.00000000000001
 21
98.95194701887455
 31
0.0
  0
LINE
  5
AD
  8
1
  6
CONTINUOUS
 62
     7
 10
64.00000000000001
 20
97.35194701887454
 30
0.0
 11
61.50000000000005
 21
97.35194701887454
 31
0.0
  0
LINE
  5
AE
  8
1
  6
CONTINUOUS
 62
     7
 10
165.4999999999999
 20
97.35194701887454
 30
0.0
 11
165.4999999999999
 21
98.95194701887455
 31
0.0
  0
LINE
  5
AF
  8
1
  6
CONTINUOUS
 62
     7
 10
163.4999999999999
 20
98.95194701887455
 30
0.0
 11
165.4999999999999
 21
98.95194701887455
 31
0.0
  0
LINE
  5
B0
  8
1
  6
CONTINUOUS
 62
     7
 10
163.4999999999999
 20
97.35194701887454
 30
0.0
 11
165.4999999999999
 21
97.35194701887454
 31
0.0
  0
LINE
  5
B1
  8
1
  6
CONTINUOUS
 62
     7
 10
59.50000000000004
 20
97.35194701887454
 30
0.0
 11
59.50000000000004
 21
98.95194701887455
 31
0.0
  0
LINE
  5
B2
  8
1
  6
CONTINUOUS
 62
     7
 10
61.50000000000005
 20
98.95194701887455
 30
0.0
 11
59.50000000000004
 21
98.95194701887455
 31
0.0
  0
LINE
  5
B3
  8
1
  6
CONTINUOUS
 62
     7
 10
61.50000000000005
 20
97.35194701887454
 30
0.0
 11
59.50000000000004
 21
97.35194701887454
 31
0.0
  0
ARC
  5
B4
  8
1
  6
CONTINUOUS
 62
     7
 10
95.9
 20
53.35194701887457
 30
0.0
 40
1.000000000000001
 50
0.0
 51
90.0
  0
ARC
  5
B5
  8
1
  6
CONTINUOUS
 62
     7
 10
141.9
 20
53.35194701887457
 30
0.0
 40
1.000000000000001
 50
0.0
 51
89.9999999999994
  0
ARC
  5
B6
  8
1
  6
CONTINUOUS
 62
     7
 10
153.4
 20
56.95194701887455
 30
0.0
 40
8.599999999999996
 50
270.0
 51
0.0
  0
LINE
  5
B7
  8
1
  6
CONTINUOUS
 62
     7
 10
153.4
 20
48.35194701887458
 30
0.0
 11
152.4513273816536
 21
48.35194701887458
 31
0.0
  0
LINE
  5
B8
  8
1
  6
CONTINUOUS
 62
     7
 10
72.54867261834636
 20
48.35194701887458
 30
0.0
 11
71.60000000000001
 21
48.35194701887458
 31
0.0
  0
ARC
  5
B9
  8
1
  6
CONTINUOUS
 62
     7
 10
71.59999999999997
 20
56.95194701887457
 30
0.0
 40
8.599999999999996
 50
180.0000000000002
 51
270.0
  0
LINE
  5
BA
  8
1
  6
CONTINUOUS
 62
     7
 10
160.9165300542776
 20
93.75194701887455
 30
0.0
 11
160.9165300542776
 21
88.85194701887455
 31
0.0
  0
LINE
  5
BB
  8
1
  6
CONTINUOUS
 62
     7
 10
161.3348601699332
 20
95.35194701887454
 30
0.0
 11
161.2380648562923
 21
95.29880995948868
 31
0.0
  0
LINE
  5
BC
  8
1
  6
CONTINUOUS
 62
     7
 10
161.2380648562923
 20
95.29880995948868
 30
0.0
 11
161.1728752087545
 21
95.20530157058728
 31
0.0
  0
ARC
  5
BD
  8
1
  6
CONTINUOUS
 62
     7
 10
164.4991533200685
 20
93.86932239083815
 30
0.0
 40
3.584545500133847
 50
158.117441537157
 51
181.8764766182019
  0
LINE
  5
BE
  8
1
  6
CONTINUOUS
 62
     7
 10
161.3348601699332
 20
95.35194701887454
 30
0.0
 11
161.8296410913632
 21
95.35194701887454
 31
0.0
  0
LINE
  5
BF
  8
1
  6
CONTINUOUS
 62
     7
 10
161.8296410913632
 20
96.85194701887454
 30
0.0
 11
161.8296410913632
 21
95.35194701887454
 31
0.0
  0
LINE
  5
C0
  8
1
  6
CONTINUOUS
 62
     7
 10
162.0
 20
56.95194701887454
 30
0.0
 11
162.0
 21
96.8519470188745
 31
0.0
  0
LINE
  5
C1
  8
1
  6
CONTINUOUS
 62
     7
 10
160.3900334943212
 20
88.85194701887455
 30
0.0
 11
160.9165300542777
 21
88.85194701887455
 31
0.0
  0
LINE
  5
C2
  8
1
  6
CONTINUOUS
 62
     7
 10
63.66513983006677
 20
95.35194701887454
 30
0.0
 11
63.1703589086368
 21
95.35194701887454
 31
0.0
  0
ARC
  5
C3
  8
1
  6
CONTINUOUS
 62
     7
 10
60.42197333304139
 20
93.86360075293416
 30
0.0
 40
3.663198602451676
 50
358.2533628740702
 51
21.07779260068822
  0
LINE
  5
C4
  8
1
  6
CONTINUOUS
 62
     7
 10
63.84007829455483
 20
95.18101582536998
 30
0.0
 11
63.77643419418927
 21
95.2820454555114
 31
0.0
  0
LINE
  5
C5
  8
1
  6
CONTINUOUS
 62
     7
 10
63.77643419418927
 20
95.2820454555114
 30
0.0
 11
63.68382336357046
 21
95.34986572251877
 31
0.0
  0
LINE
  5
C6
  8
1
  6
CONTINUOUS
 62
     7
 10
63.68382336357046
 20
95.34986572251877
 30
0.0
 11
63.66513983006679
 21
95.35194701887454
 31
0.0
  0
LINE
  5
C7
  8
1
  6
CONTINUOUS
 62
     7
 10
64.08346994572238
 20
93.75194701887455
 30
0.0
 11
64.08346994572238
 21
88.85194701887455
 31
0.0
  0
LINE
  5
C8
  8
1
  6
CONTINUOUS
 62
     7
 10
62.99999999999996
 20
56.95194701887454
 30
0.0
 11
62.99999999999996
 21
96.8519470188745
 31
0.0
  0
LINE
  5
C9
  8
1
  6
CONTINUOUS
 62
     7
 10
63.17035890863684
 20
96.85194701887454
 30
0.0
 11
63.17035890863684
 21
95.35194701887454
 31
0.0
  0
LINE
  5
CA
  8
1
  6
CONTINUOUS
 62
     7
 10
64.60996650567887
 20
88.85194701887454
 30
0.0
 11
64.08346994572237
 21
88.85194701887454
 31
0.0
  0
ARC
  5
CB
  8
1
  6
CONTINUOUS
 62
     7
 10
62.68711968656386
 20
96.85022237604926
 30
0.0
 40
2.094264557427106
 50
0.0471835164635964
 51
51.17871776595413
  0
ARC
  5
CC
  8
1
  6
CONTINUOUS
 62
     7
 10
162.3125877931197
 20
96.85036260960727
 30
0.0
 40
2.093971926406068
 50
128.8174517212941
 51
179.9566469962884
  0
LINE
  5
CD
  8
1
  6
CONTINUOUS
 62
     7
 10
65.75636927510881
 20
93.75194701887455
 30
0.0
 11
65.75636927510881
 21
88.85194701887455
 31
0.0
  0
LINE
  5
CE
  8
1
  6
CONTINUOUS
 62
     7
 10
65.30909261726627
 20
95.35194701887454
 30
0.0
 11
65.4128701202273
 21
95.29842899109748
 31
0.0
  0
LINE
  5
CF
  8
1
  6
CONTINUOUS
 62
     7
 10
65.4128701202273
 20
95.29842899109748
 30
0.0
 11
65.4827759541384
 21
95.2042669867432
 31
0.0
  0
LINE
  5
D0
  8
1
  6
CONTINUOUS
 62
     7
 10
65.4827759541384
 20
95.2042669867432
 30
0.0
 11
65.53343210086672
 21
95.10510384607609
 31
0.0
  0
ARC
  5
D1
  8
1
  6
CONTINUOUS
 62
     7
 10
62.10694922519848
 20
93.84563593595547
 30
0.0
 40
3.650622455674004
 50
358.529409976155
 51
20.18184865537756
  0
LINE
  5
D2
  8
1
  6
CONTINUOUS
 62
     7
 10
64.7813835338626
 20
96.85194701887453
 30
0.0
 11
64.7813835338626
 21
95.35194701887454
 31
0.0
  0
ARC
  5
D3
  8
1
  6
CONTINUOUS
 62
     7
 10
162.7061102672604
 20
93.86032527612177
 30
0.0
 40
3.464175288285648
 50
157.6463484121545
 51
181.7928163659432
  0
LINE
  5
D4
  8
1
  6
CONTINUOUS
 62
     7
 10
159.5022539254906
 20
95.1778285851388
 30
0.0
 11
159.5702085347752
 21
95.27994417936597
 31
0.0
  0
LINE
  5
D5
  8
1
  6
CONTINUOUS
 62
     7
 10
159.5702085347752
 20
95.27994417936597
 30
0.0
 11
159.6500165694443
 21
95.34335283645719
 31
0.0
  0
LINE
  5
D6
  8
1
  6
CONTINUOUS
 62
     7
 10
159.6500165694443
 20
95.34335283645719
 30
0.0
 11
159.6909073827337
 21
95.35194701887454
 31
0.0
  0
LINE
  5
D7
  8
1
  6
CONTINUOUS
 62
     7
 10
159.2436307248912
 20
93.75194701887455
 30
0.0
 11
159.2436307248912
 21
88.85194701887455
 31
0.0
  0
LINE
  5
D8
  8
1
  6
CONTINUOUS
 62
     7
 10
160.2186164661374
 20
96.85194701887453
 30
0.0
 11
160.2186164661374
 21
95.35194701887454
 31
0.0
  0
LINE
  5
D9
  8
1
  6
CONTINUOUS
 62
     7
 10
130.65
 20
48.35194701887458
 30
0.0
 11
133.5
 21
48.35194701887458
 31
0.0
  0
LINE
  5
DA
  8
1
  6
CONTINUOUS
 62
     7
 10
84.65
 20
48.35194701887458
 30
0.0
 11
87.49999999999999
 21
48.35194701887458
 31
0.0
  0
LINE
  5
DB
  8
1
  6
CONTINUOUS
 62
     7
 10
139.5
 20
48.35194701887458
 30
0.0
 11
143.7352685865243
 21
48.35194701887458
 31
0.0
  0
LINE
  5
DC
  8
1
  6
CONTINUOUS
 62
     7
 10
93.50000000000001
 20
48.35194701887458
 30
0.0
 11
97.73526858652424
 21
48.35194701887458
 31
0.0
  0
LINE
  5
DD
  8
1
  6
CONTINUOUS
 62
     7
 10
63.66513983006679
 20
95.35194701887454
 30
0.0
 11
65.30909261726627
 21
95.35194701887454
 31
0.0
  0
LINE
  5
DE
  8
1
  6
CONTINUOUS
 62
     7
 10
159.6909073827337
 20
95.35194701887454
 30
0.0
 11
161.3348601699332
 21
95.35194701887454
 31
0.0
  0
LINE
  5
DF
  8
1
  6
CONTINUOUS
 62
     7
 10
93.5
 20
48.35194701887458
 30
0.0
 11
87.49999999999999
 21
48.35194701887458
 31
0.0
  0
LINE
  5
E0
  8
1
  6
CONTINUOUS
 62
     7
 10
139.5
 20
48.35194701887458
 30
0.0
 11
133.5
 21
48.35194701887458
 31
0.0
  0
ARC
  5
E1
  8
1
  6
CONTINUOUS
 62
     7
 10
162.5
 20
96.85194701887454
 30
0.0
 40
0.5000000000000004
 50
90.0
 51
180.0000000000063
  0
LINE
  5
E2
  8
1
  6
CONTINUOUS
 62
     7
 10
161.8296410913632
 20
96.85194701887454
 30
0.0
 11
161.8300679090521
 21
96.87253570600754
 31
0.0
  0
LINE
  5
E3
  8
1
  6
CONTINUOUS
 62
     7
 10
161.8300679090521
 20
96.87253570600754
 30
0.0
 11
161.8313505410106
 21
96.89312439314054
 31
0.0
  0
LINE
  5
E4
  8
1
  6
CONTINUOUS
 62
     7
 10
161.8313505410106
 20
96.89312439314054
 30
0.0
 11
161.8335000858747
 21
96.91374903356476
 31
0.0
  0
LINE
  5
E5
  8
1
  6
CONTINUOUS
 62
     7
 10
161.8335000858747
 20
96.91374903356476
 30
0.0
 11
161.8365142037085
 21
96.93430176740652
 31
0.0
  0
LINE
  5
E6
  8
1
  6
CONTINUOUS
 62
     7
 10
161.8365142037085
 20
96.93430176740652
 30
0.0
 11
161.8404704869184
 21
96.95511693803904
 31
0.0
  0
LINE
  5
E7
  8
1
  6
CONTINUOUS
 62
     7
 10
161.8404704869184
 20
96.95511693803904
 30
0.0
 11
161.8453196056057
 21
96.97578204969426
 31
0.0
  0
LINE
  5
E8
  8
1
  6
CONTINUOUS
 62
     7
 10
161.8453196056057
 20
96.97578204969426
 30
0.0
 11
161.8510800471658
 21
96.9963336546531
 31
0.0
  0
LINE
  5
E9
  8
1
  6
CONTINUOUS
 62
     7
 10
161.8510800471658
 20
96.9963336546531
 30
0.0
 11
161.8577295506373
 21
97.01665651593852
 31
0.0
  0
LINE
  5
EA
  8
1
  6
CONTINUOUS
 62
     7
 10
161.8577295506373
 20
97.01665651593852
 30
0.0
 11
161.8649526324704
 21
97.03594128865262
 31
0.0
  0
LINE
  5
EB
  8
1
  6
CONTINUOUS
 62
     7
 10
161.8649526324704
 20
97.03594128865262
 30
0.0
 11
161.8729810514651
 21
97.05494327086447
 31
0.0
  0
LINE
  5
EC
  8
1
  6
CONTINUOUS
 62
     7
 10
161.8729810514651
 20
97.05494327086447
 30
0.0
 11
161.8819118482136
 21
97.07384318658366
 31
0.0
  0
LINE
  5
ED
  8
1
  6
CONTINUOUS
 62
     7
 10
161.8819118482136
 20
97.07384318658366
 30
0.0
 11
161.8916264715833
 21
97.09235243751827
 31
0.0
  0
LINE
  5
EE
  8
1
  6
CONTINUOUS
 62
     7
 10
161.8916264715833
 20
97.09235243751827
 30
0.0
 11
161.9021852410186
 21
97.11056540704965
 31
0.0
  0
LINE
  5
EF
  8
1
  6
CONTINUOUS
 62
     7
 10
161.9021852410186
 20
97.11056540704965
 30
0.0
 11
161.9135018880162
 21
97.12831741404419
 31
0.0
  0
LINE
  5
F0
  8
1
  6
CONTINUOUS
 62
     7
 10
161.9135018880162
 20
97.12831741404419
 30
0.0
 11
161.9257246906685
 21
97.14580748207136
 31
0.0
  0
LINE
  5
F1
  8
1
  6
CONTINUOUS
 62
     7
 10
161.9257246906685
 20
97.14580748207136
 30
0.0
 11
161.9387066782987
 21
97.16279076564336
 31
0.0
  0
LINE
  5
F2
  8
1
  6
CONTINUOUS
 62
     7
 10
161.9387066782987
 20
97.16279076564336
 30
0.0
 11
161.9519281333971
 21
97.17865967296162
 31
0.0
  0
LINE
  5
F3
  8
1
  6
CONTINUOUS
 62
     7
 10
161.9519281333971
 20
97.17865967296162
 30
0.0
 11
161.9658166944308
 21
97.19399569217904
 31
0.0
  0
LINE
  5
F4
  8
1
  6
CONTINUOUS
 62
     7
 10
161.9658166944308
 20
97.19399569217904
 30
0.0
 11
161.9804026852635
 21
97.20882019848898
 31
0.0
  0
LINE
  5
F5
  8
1
  6
CONTINUOUS
 62
     7
 10
161.9804026852635
 20
97.20882019848898
 30
0.0
 11
161.9956171685826
 21
97.22305146520158
 31
0.0
  0
LINE
  5
F6
  8
1
  6
CONTINUOUS
 62
     7
 10
161.9956171685826
 20
97.22305146520158
 30
0.0
 11
162.0117257352142
 21
97.23690060318758
 31
0.0
  0
LINE
  5
F7
  8
1
  6
CONTINUOUS
 62
     7
 10
162.0117257352142
 20
97.23690060318758
 30
0.0
 11
162.0284356160957
 21
97.25007953296144
 31
0.0
  0
LINE
  5
F8
  8
1
  6
CONTINUOUS
 62
     7
 10
162.0284356160957
 20
97.25007953296144
 30
0.0
 11
162.0457832022575
 21
97.26260541724827
 31
0.0
  0
LINE
  5
F9
  8
1
  6
CONTINUOUS
 62
     7
 10
162.0457832022575
 20
97.26260541724827
 30
0.0
 11
162.0636803464322
 21
97.27440333307106
 31
0.0
  0
LINE
  5
FA
  8
1
  6
CONTINUOUS
 62
     7
 10
162.0636803464322
 20
97.27440333307106
 30
0.0
 11
162.0814943333558
 21
97.28510359498284
 31
0.0
  0
LINE
  5
FB
  8
1
  6
CONTINUOUS
 62
     7
 10
162.0814943333558
 20
97.28510359498284
 30
0.0
 11
162.0997657005875
 21
97.29507680526626
 31
0.0
  0
LINE
  5
FC
  8
1
  6
CONTINUOUS
 62
     7
 10
162.0997657005875
 20
97.29507680526626
 30
0.0
 11
162.1185304049444
 21
97.30433313441796
 31
0.0
  0
LINE
  5
FD
  8
1
  6
CONTINUOUS
 62
     7
 10
162.1185304049444
 20
97.30433313441796
 30
0.0
 11
162.1376959660095
 21
97.31281760695369
 31
0.0
  0
LINE
  5
FE
  8
1
  6
CONTINUOUS
 62
     7
 10
162.1376959660095
 20
97.31281760695369
 30
0.0
 11
162.1575849747007
 21
97.32064279165374
 31
0.0
  0
LINE
  5
FF
  8
1
  6
CONTINUOUS
 62
     7
 10
162.1575849747007
 20
97.32064279165374
 30
0.0
 11
162.1778236958023
 21
97.32763152082251
 31
0.0
  0
LINE
  5
100
  8
1
  6
CONTINUOUS
 62
     7
 10
162.1778236958023
 20
97.32763152082251
 30
0.0
 11
162.1984525867198
 21
97.33378779716854
 31
0.0
  0
LINE
  5
101
  8
1
  6
CONTINUOUS
 62
     7
 10
162.1984525867198
 20
97.33378779716854
 30
0.0
 11
162.2193629784017
 21
97.33906922865002
 31
0.0
  0
LINE
  5
102
  8
1
  6
CONTINUOUS
 62
     7
 10
162.2193629784017
 20
97.33906922865002
 30
0.0
 11
162.2332336907386
 21
97.34205543152494
 31
0.0
  0
LINE
  5
103
  8
1
  6
CONTINUOUS
 62
     7
 10
162.2332336907386
 20
97.34205543152494
 30
0.0
 11
162.2471826705625
 21
97.3446515921263
 31
0.0
  0
LINE
  5
104
  8
1
  6
CONTINUOUS
 62
     7
 10
162.2471826705625
 20
97.3446515921263
 30
0.0
 11
162.2612433878449
 21
97.34686193052771
 31
0.0
  0
LINE
  5
105
  8
1
  6
CONTINUOUS
 62
     7
 10
162.2612433878449
 20
97.34686193052771
 30
0.0
 11
162.2753606909274
 21
97.34867607877196
 31
0.0
  0
LINE
  5
106
  8
1
  6
CONTINUOUS
 62
     7
 10
162.2753606909274
 20
97.34867607877196
 30
0.0
 11
162.2896605461188
 21
97.35010424136296
 31
0.0
  0
LINE
  5
107
  8
1
  6
CONTINUOUS
 62
     7
 10
162.2896605461188
 20
97.35010424136296
 30
0.0
 11
162.3039951738781
 21
97.35112598583697
 31
0.0
  0
LINE
  5
108
  8
1
  6
CONTINUOUS
 62
     7
 10
162.3039951738781
 20
97.35112598583697
 30
0.0
 11
162.3183996069203
 21
97.35174167809664
 31
0.0
  0
LINE
  5
109
  8
1
  6
CONTINUOUS
 62
     7
 10
162.3183996069203
 20
97.35174167809664
 30
0.0
 11
162.3328157299975
 21
97.35194701887454
 31
0.0
  0
ARC
  5
10A
  8
1
  6
CONTINUOUS
 62
     7
 10
62.49999999999996
 20
96.85194701887454
 30
0.0
 40
0.5000000000000073
 50
359.9999999999937
 51
90.0
  0
LINE
  5
10B
  8
1
  6
CONTINUOUS
 62
     7
 10
62.66718427000251
 20
97.35194701887454
 30
0.0
 11
62.68288907674427
 21
97.35170330733527
 31
0.0
  0
LINE
  5
10C
  8
1
  6
CONTINUOUS
 62
     7
 10
62.68288907674427
 20
97.35170330733527
 30
0.0
 11
62.69857876981578
 21
97.35097263699484
 31
0.0
  0
LINE
  5
10D
  8
1
  6
CONTINUOUS
 62
     7
 10
62.69857876981578
 20
97.35097263699484
 30
0.0
 11
62.71429886948229
 21
97.34974979915992
 31
0.0
  0
LINE
  5
10E
  8
1
  6
CONTINUOUS
 62
     7
 10
62.71429886948229
 20
97.34974979915992
 30
0.0
 11
62.72997326962906
 21
97.34803806555854
 31
0.0
  0
LINE
  5
10F
  8
1
  6
CONTINUOUS
 62
     7
 10
62.72997326962906
 20
97.34803806555854
 30
0.0
 11
62.75104297149903
 21
97.34495290654914
 31
0.0
  0
LINE
  5
110
  8
1
  6
CONTINUOUS
 62
     7
 10
62.75104297149903
 20
97.34495290654914
 30
0.0
 11
62.77200123375193
 21
97.34097622701474
 31
0.0
  0
LINE
  5
111
  8
1
  6
CONTINUOUS
 62
     7
 10
62.77200123375193
 20
97.34097622701474
 30
0.0
 11
62.79303459894739
 21
97.33605252318873
 31
0.0
  0
LINE
  5
112
  8
1
  6
CONTINUOUS
 62
     7
 10
62.79303459894739
 20
97.33605252318873
 30
0.0
 11
62.81387636168689
 21
97.33022364778967
 31
0.0
  0
LINE
  5
113
  8
1
  6
CONTINUOUS
 62
     7
 10
62.81387636168689
 20
97.33022364778967
 30
0.0
 11
62.834524736481
 21
97.32348177348226
 31
0.0
  0
LINE
  5
114
  8
1
  6
CONTINUOUS
 62
     7
 10
62.834524736481
 20
97.32348177348226
 30
0.0
 11
62.84926502612155
 21
97.31805709459725
 31
0.0
  0
LINE
  5
115
  8
1
  6
CONTINUOUS
 62
     7
 10
62.84926502612155
 20
97.31805709459725
 30
0.0
 11
62.86382957341199
 21
97.31217685809025
 31
0.0
  0
LINE
  5
116
  8
1
  6
CONTINUOUS
 62
     7
 10
62.86382957341199
 20
97.31217685809025
 30
0.0
 11
62.87825975580774
 21
97.30582081388768
 31
0.0
  0
LINE
  5
117
  8
1
  6
CONTINUOUS
 62
     7
 10
62.87825975580774
 20
97.30582081388768
 30
0.0
 11
62.89248439795528
 21
97.29901721579728
 31
0.0
  0
LINE
  5
118
  8
1
  6
CONTINUOUS
 62
     7
 10
62.89248439795528
 20
97.29901721579728
 30
0.0
 11
62.91134615360669
 21
97.28912848772521
 31
0.0
  0
LINE
  5
119
  8
1
  6
CONTINUOUS
 62
     7
 10
62.91134615360669
 20
97.28912848772521
 30
0.0
 11
62.92980602729871
 21
97.27843219721657
 31
0.0
  0
LINE
  5
11A
  8
1
  6
CONTINUOUS
 62
     7
 10
62.92980602729871
 20
97.27843219721657
 30
0.0
 11
62.94802262698253
 21
97.2668128926425
 31
0.0
  0
LINE
  5
11B
  8
1
  6
CONTINUOUS
 62
     7
 10
62.94802262698253
 20
97.2668128926425
 30
0.0
 11
62.96575610139478
 21
97.25439906269251
 31
0.0
  0
LINE
  5
11C
  8
1
  6
CONTINUOUS
 62
     7
 10
62.96575610139478
 20
97.25439906269251
 30
0.0
 11
62.98300191538392
 21
97.24118353367935
 31
0.0
  0
LINE
  5
11D
  8
1
  6
CONTINUOUS
 62
     7
 10
62.98300191538392
 20
97.24118353367935
 30
0.0
 11
62.99507070868285
 21
97.23120144001318
 31
0.0
  0
LINE
  5
11E
  8
1
  6
CONTINUOUS
 62
     7
 10
62.99507070868285
 20
97.23120144001318
 30
0.0
 11
63.00682255041934
 21
97.22084807880053
 31
0.0
  0
LINE
  5
11F
  8
1
  6
CONTINUOUS
 62
     7
 10
63.00682255041934
 20
97.22084807880053
 30
0.0
 11
63.01828976528145
 21
97.21009044038107
 31
0.0
  0
LINE
  5
120
  8
1
  6
CONTINUOUS
 62
     7
 10
63.01828976528145
 20
97.21009044038107
 30
0.0
 11
63.02941438294593
 21
97.19897888846162
 31
0.0
  0
LINE
  5
121
  8
1
  6
CONTINUOUS
 62
     7
 10
63.02941438294593
 20
97.19897888846162
 30
0.0
 11
63.04387758273627
 21
97.18342643501575
 31
0.0
  0
LINE
  5
122
  8
1
  6
CONTINUOUS
 62
     7
 10
63.04387758273627
 20
97.18342643501575
 30
0.0
 11
63.05769297010213
 21
97.16724543182575
 31
0.0
  0
LINE
  5
123
  8
1
  6
CONTINUOUS
 62
     7
 10
63.05769297010213
 20
97.16724543182575
 30
0.0
 11
63.07097204714816
 21
97.15027350696971
 31
0.0
  0
LINE
  5
124
  8
1
  6
CONTINUOUS
 62
     7
 10
63.07097204714816
 20
97.15027350696971
 30
0.0
 11
63.08353051795139
 21
97.13271232686216
 31
0.0
  0
LINE
  5
125
  8
1
  6
CONTINUOUS
 62
     7
 10
63.08353051795139
 20
97.13271232686216
 30
0.0
 11
63.09536164580692
 21
97.11455658026266
 31
0.0
  0
LINE
  5
126
  8
1
  6
CONTINUOUS
 62
     7
 10
63.09536164580692
 20
97.11455658026266
 30
0.0
 11
63.1059816358698
 21
97.09663616554806
 31
0.0
  0
LINE
  5
127
  8
1
  6
CONTINUOUS
 62
     7
 10
63.1059816358698
 20
97.09663616554806
 30
0.0
 11
63.11584498248212
 21
97.07828842734878
 31
0.0
  0
LINE
  5
128
  8
1
  6
CONTINUOUS
 62
     7
 10
63.11584498248212
 20
97.07828842734878
 30
0.0
 11
63.12499468997149
 21
97.05941100681073
 31
0.0
  0
LINE
  5
129
  8
1
  6
CONTINUOUS
 62
     7
 10
63.12499468997149
 20
97.05941100681073
 30
0.0
 11
63.13334239255644
 21
97.04016549583882
 31
0.0
  0
LINE
  5
12A
  8
1
  6
CONTINUOUS
 62
     7
 10
63.13334239255644
 20
97.04016549583882
 30
0.0
 11
63.14097586619
 21
97.02029736437842
 31
0.0
  0
LINE
  5
12B
  8
1
  6
CONTINUOUS
 62
     7
 10
63.14097586619
 20
97.02029736437842
 30
0.0
 11
63.14775364207574
 21
97.00012128872956
 31
0.0
  0
LINE
  5
12C
  8
1
  6
CONTINUOUS
 62
     7
 10
63.14775364207574
 20
97.00012128872956
 30
0.0
 11
63.15370261280423
 21
96.97952127554395
 31
0.0
  0
LINE
  5
12D
  8
1
  6
CONTINUOUS
 62
     7
 10
63.15370261280423
 20
96.97952127554395
 30
0.0
 11
63.15875871489776
 21
96.95868413586828
 31
0.0
  0
LINE
  5
12E
  8
1
  6
CONTINUOUS
 62
     7
 10
63.15875871489776
 20
96.95868413586828
 30
0.0
 11
63.16144962357462
 21
96.94561489624479
 31
0.0
  0
LINE
  5
12F
  8
1
  6
CONTINUOUS
 62
     7
 10
63.16144962357462
 20
96.94561489624479
 30
0.0
 11
63.16379036678339
 21
96.932468646908
 31
0.0
  0
LINE
  5
130
  8
1
  6
CONTINUOUS
 62
     7
 10
63.16379036678339
 20
96.932468646908
 30
0.0
 11
63.16578703944137
 21
96.91919146773024
 31
0.0
  0
LINE
  5
131
  8
1
  6
CONTINUOUS
 62
     7
 10
63.16578703944137
 20
96.91919146773024
 30
0.0
 11
63.16742437385676
 21
96.90586520373026
 31
0.0
  0
LINE
  5
132
  8
1
  6
CONTINUOUS
 62
     7
 10
63.16742437385676
 20
96.90586520373026
 30
0.0
 11
63.16870421094006
 21
96.89246027900087
 31
0.0
  0
LINE
  5
133
  8
1
  6
CONTINUOUS
 62
     7
 10
63.16870421094006
 20
96.89246027900087
 30
0.0
 11
63.16962037304952
 21
96.87902559890449
 31
0.0
  0
LINE
  5
134
  8
1
  6
CONTINUOUS
 62
     7
 10
63.16962037304952
 20
96.87902559890449
 30
0.0
 11
63.17017410173495
 21
96.86549637817822
 31
0.0
  0
LINE
  5
135
  8
1
  6
CONTINUOUS
 62
     7
 10
63.17017410173495
 20
96.86549637817822
 30
0.0
 11
63.17035890863684
 21
96.85194701887454
 31
0.0
  0
LINE
  5
136
  8
1
  6
CONTINUOUS
 62
     7
 10
131.3
 20
97.55194701887456
 30
0.0
 11
133.5
 21
95.35194701887454
 31
0.0
  0
LINE
  5
137
  8
1
  6
CONTINUOUS
 62
     7
 10
137.5
 20
95.35194701887454
 30
0.0
 11
139.7
 21
97.55194701887456
 31
0.0
  0
LINE
  5
138
  8
1
  6
CONTINUOUS
 62
     7
 10
139.7
 20
97.55194701887456
 30
0.0
 11
139.7
 21
98.05194701887456
 31
0.0
  0
LINE
  5
139
  8
1
  6
CONTINUOUS
 62
     7
 10
131.3
 20
98.05194701887456
 30
0.0
 11
131.3
 21
97.55194701887456
 31
0.0
  0
LINE
  5
13A
  8
1
  6
CONTINUOUS
 62
     7
 10
137.5
 20
86.40194701887455
 30
0.0
 11
137.5
 21
93.75194701887455
 31
0.0
  0
LINE
  5
13B
  8
1
  6
CONTINUOUS
 62
     7
 10
133.5
 20
93.75194701887455
 30
0.0
 11
133.5
 21
86.40194701887455
 31
0.0
  0
LINE
  5
13C
  8
1
  6
CONTINUOUS
 62
     7
 10
133.5
 20
86.40194701887455
 30
0.0
 11
133.85
 21
86.05194701887454
 31
0.0
  0
LINE
  5
13D
  8
1
  6
CONTINUOUS
 62
     7
 10
137.15
 20
86.05194701887454
 30
0.0
 11
137.5
 21
86.40194701887455
 31
0.0
  0
LINE
  5
13E
  8
1
  6
CONTINUOUS
 62
     7
 10
93.7
 20
97.55194701887456
 30
0.0
 11
93.7
 21
98.05194701887456
 31
0.0
  0
LINE
  5
13F
  8
1
  6
CONTINUOUS
 62
     7
 10
85.3
 20
98.05194701887456
 30
0.0
 11
85.3
 21
97.55194701887456
 31
0.0
  0
LINE
  5
140
  8
1
  6
CONTINUOUS
 62
     7
 10
85.3
 20
97.55194701887456
 30
0.0
 11
87.5
 21
95.35194701887454
 31
0.0
  0
LINE
  5
141
  8
1
  6
CONTINUOUS
 62
     7
 10
91.5
 20
95.35194701887454
 30
0.0
 11
93.7
 21
97.55194701887456
 31
0.0
  0
LINE
  5
142
  8
1
  6
CONTINUOUS
 62
     7
 10
91.5
 20
86.40194701887455
 30
0.0
 11
91.5
 21
93.75194701887455
 31
0.0
  0
LINE
  5
143
  8
1
  6
CONTINUOUS
 62
     7
 10
87.5
 20
93.75194701887455
 30
0.0
 11
87.5
 21
86.40194701887455
 31
0.0
  0
LINE
  5
144
  8
1
  6
CONTINUOUS
 62
     7
 10
87.5
 20
86.40194701887455
 30
0.0
 11
87.85000000000001
 21
86.05194701887454
 31
0.0
  0
LINE
  5
145
  8
1
  6
CONTINUOUS
 62
     7
 10
91.15
 20
86.05194701887454
 30
0.0
 11
91.5
 21
86.40194701887455
 31
0.0
  0
LINE
  5
146
  8
1
  6
CONTINUOUS
 62
     7
 10
82.49999999999999
 20
45.75194701887455
 30
0.0
 11
82.49999999999999
 21
48.35194701887458
 31
0.0
  0
LINE
  5
147
  8
1
  6
CONTINUOUS
 62
     7
 10
78.49999999999999
 20
48.35194701887458
 30
0.0
 11
78.49999999999999
 21
45.75194701887455
 31
0.0
  0
LINE
  5
148
  8
1
  6
CONTINUOUS
 62
     7
 10
128.5
 20
45.75194701887455
 30
0.0
 11
128.5
 21
48.35194701887458
 31
0.0
  0
LINE
  5
149
  8
1
  6
CONTINUOUS
 62
     7
 10
124.5
 20
48.35194701887458
 30
0.0
 11
124.5
 21
45.75194701887455
 31
0.0
  0
ARC
  5
14A
  8
1
  6
CONTINUOUS
 62
     7
 10
135.5
 20
148.25
 30
0.0
 40
2.250000000000003
 50
256.7683351757007
 51
283.2316648242992
  0
LINE
  5
14B
  8
1
  6
CONTINUOUS
 62
     7
 10
136.015
 20
146.0597317515884
 30
0.0
 11
136.015
 21
147.735
 31
0.0
  0
LINE
  5
14C
  8
1
  6
CONTINUOUS
 62
     7
 10
136.015
 20
147.735
 30
0.0
 11
137.6902682484116
 21
147.735
 31
0.0
  0
ARC
  5
14D
  8
1
  6
CONTINUOUS
 62
     7
 10
135.5
 20
148.25
 30
0.0
 40
2.25
 50
346.7683351757007
 51
13.23166482429929
  0
LINE
  5
14E
  8
1
  6
CONTINUOUS
 62
     7
 10
137.6902682484116
 20
148.765
 30
0.0
 11
136.015
 21
148.765
 31
0.0
  0
LINE
  5
14F
  8
1
  6
CONTINUOUS
 62
     7
 10
136.015
 20
148.765
 30
0.0
 11
136.015
 21
150.4402682484116
 31
0.0
  0
ARC
  5
150
  8
1
  6
CONTINUOUS
 62
     7
 10
135.5
 20
148.25
 30
0.0
 40
2.250000000000003
 50
76.76833517570074
 51
103.2316648242993
  0
LINE
  5
151
  8
1
  6
CONTINUOUS
 62
     7
 10
134.985
 20
150.4402682484116
 30
0.0
 11
134.985
 21
148.765
 31
0.0
  0
LINE
  5
152
  8
1
  6
CONTINUOUS
 62
     7
 10
134.985
 20
148.765
 30
0.0
 11
133.3097317515884
 21
148.765
 31
0.0
  0
ARC
  5
153
  8
1
  6
CONTINUOUS
 62
     7
 10
135.5
 20
148.25
 30
0.0
 40
2.25
 50
166.7683351757007
 51
193.2316648242993
  0
LINE
  5
154
  8
1
  6
CONTINUOUS
 62
     7
 10
133.3097317515884
 20
147.735
 30
0.0
 11
134.985
 21
147.735
 31
0.0
  0
LINE
  5
155
  8
1
  6
CONTINUOUS
 62
     7
 10
134.985
 20
147.735
 30
0.0
 11
134.985
 21
146.0597317515884
 31
0.0
  0
CIRCLE
  5
156
  8
1
  6
CONTINUOUS
 62
     7
 10
135.5
 20
148.25
 30
0.0
 40
4.199999999999998
  0
LINE
  5
157
  8
1
  6
CONTINUOUS
 62
     7
 10
91.6902682484116
 20
147.735
 30
0.0
 11
90.01500000000001
 21
147.735
 31
0.0
  0
ARC
  5
158
  8
1
  6
CONTINUOUS
 62
     7
 10
89.50000000000001
 20
148.25
 30
0.0
 40
2.25
 50
346.7683351757007
 51
13.23166482429929
  0
LINE
  5
159
  8
1
  6
CONTINUOUS
 62
     7
 10
90.01500000000001
 20
148.765
 30
0.0
 11
91.6902682484116
 21
148.765
 31
0.0
  0
LINE
  5
15A
  8
1
  6
CONTINUOUS
 62
     7
 10
90.01500000000001
 20
150.4402682484116
 30
0.0
 11
90.01500000000001
 21
148.765
 31
0.0
  0
ARC
  5
15B
  8
1
  6
CONTINUOUS
 62
     7
 10
89.50000000000001
 20
148.25
 30
0.0
 40
2.250000000000003
 50
76.76833517570076
 51
103.2316648242993
  0
LINE
  5
15C
  8
1
  6
CONTINUOUS
 62
     7
 10
88.98500000000001
 20
148.765
 30
0.0
 11
88.98500000000001
 21
150.4402682484116
 31
0.0
  0
LINE
  5
15D
  8
1
  6
CONTINUOUS
 62
     7
 10
87.3097317515884
 20
148.765
 30
0.0
 11
88.985
 21
148.765
 31
0.0
  0
ARC
  5
15E
  8
1
  6
CONTINUOUS
 62
     7
 10
89.50000000000001
 20
148.25
 30
0.0
 40
2.25
 50
166.7683351757007
 51
193.2316648242993
  0
LINE
  5
15F
  8
1
  6
CONTINUOUS
 62
     7
 10
88.98500000000001
 20
147.735
 30
0.0
 11
87.30973175158842
 21
147.735
 31
0.0
  0
LINE
  5
160
  8
1
  6
CONTINUOUS
 62
     7
 10
88.98500000000001
 20
146.0597317515884
 30
0.0
 11
88.98500000000001
 21
147.735
 31
0.0
  0
ARC
  5
161
  8
1
  6
CONTINUOUS
 62
     7
 10
89.50000000000001
 20
148.25
 30
0.0
 40
2.250000000000003
 50
256.7683351757007
 51
283.2316648242993
  0
LINE
  5
162
  8
1
  6
CONTINUOUS
 62
     7
 10
90.01500000000001
 20
147.735
 30
0.0
 11
90.01500000000001
 21
146.0597317515884
 31
0.0
  0
CIRCLE
  5
163
  8
1
  6
CONTINUOUS
 62
     7
 10
89.50000000000001
 20
148.25
 30
0.0
 40
4.199999999999998
  0
LINE
  5
164
  8
1
  6
CONTINUOUS
 62
     7
 10
133.3097317515884
 20
232.265
 30
0.0
 11
134.985
 21
232.265
 31
0.0
  0
ARC
  5
165
  8
1
  6
CONTINUOUS
 62
     7
 10
135.5
 20
231.75
 30
0.0
 40
2.25
 50
166.7683351757007
 51
193.2316648242993
  0
LINE
  5
166
  8
1
  6
CONTINUOUS
 62
     7
 10
134.985
 20
231.235
 30
0.0
 11
133.3097317515884
 21
231.235
 31
0.0
  0
LINE
  5
167
  8
1
  6
CONTINUOUS
 62
     7
 10
134.985
 20
229.5597317515884
 30
0.0
 11
134.985
 21
231.235
 31
0.0
  0
ARC
  5
168
  8
1
  6
CONTINUOUS
 62
     7
 10
135.5
 20
231.75
 30
0.0
 40
2.250000000000003
 50
256.7683351757007
 51
283.2316648242993
  0
LINE
  5
169
  8
1
  6
CONTINUOUS
 62
     7
 10
136.015
 20
231.235
 30
0.0
 11
136.015
 21
229.5597317515884
 31
0.0
  0
LINE
  5
16A
  8
1
  6
CONTINUOUS
 62
     7
 10
137.6902682484116
 20
231.235
 30
0.0
 11
136.015
 21
231.235
 31
0.0
  0
ARC
  5
16B
  8
1
  6
CONTINUOUS
 62
     7
 10
135.5
 20
231.75
 30
0.0
 40
2.25
 50
346.7683351757007
 51
13.23166482429929
  0
LINE
  5
16C
  8
1
  6
CONTINUOUS
 62
     7
 10
136.015
 20
232.265
 30
0.0
 11
137.6902682484116
 21
232.265
 31
0.0
  0
LINE
  5
16D
  8
1
  6
CONTINUOUS
 62
     7
 10
136.015
 20
233.9402682484116
 30
0.0
 11
136.015
 21
232.265
 31
0.0
  0
ARC
  5
16E
  8
1
  6
CONTINUOUS
 62
     7
 10
135.5
 20
231.75
 30
0.0
 40
2.250000000000003
 50
76.76833517570076
 51
103.2316648242993
  0
LINE
  5
16F
  8
1
  6
CONTINUOUS
 62
     7
 10
134.985
 20
232.265
 30
0.0
 11
134.985
 21
233.9402682484116
 31
0.0
  0
CIRCLE
  5
170
  8
1
  6
CONTINUOUS
 62
     7
 10
135.5
 20
231.75
 30
0.0
 40
4.199999999999998
  0
CIRCLE
  5
171
  8
1
  6
CONTINUOUS
 62
     7
 10
89.50000000000001
 20
231.75
 30
0.0
 40
4.199999999999998
  0
ARC
  5
172
  8
1
  6
CONTINUOUS
 62
     7
 10
89.50000000000001
 20
231.75
 30
0.0
 40
2.250000000000003
 50
76.76833517570074
 51
103.2316648242993
  0
LINE
  5
173
  8
1
  6
CONTINUOUS
 62
     7
 10
88.98500000000001
 20
233.9402682484116
 30
0.0
 11
88.98500000000001
 21
232.265
 31
0.0
  0
LINE
  5
174
  8
1
  6
CONTINUOUS
 62
     7
 10
88.98500000000001
 20
232.265
 30
0.0
 11
87.30973175158842
 21
232.265
 31
0.0
  0
ARC
  5
175
  8
1
  6
CONTINUOUS
 62
     7
 10
89.50000000000001
 20
231.75
 30
0.0
 40
2.25
 50
166.7683351757007
 51
193.2316648242993
  0
LINE
  5
176
  8
1
  6
CONTINUOUS
 62
     7
 10
87.3097317515884
 20
231.235
 30
0.0
 11
88.985
 21
231.235
 31
0.0
  0
LINE
  5
177
  8
1
  6
CONTINUOUS
 62
     7
 10
88.98500000000001
 20
231.235
 30
0.0
 11
88.98500000000001
 21
229.5597317515884
 31
0.0
  0
ARC
  5
178
  8
1
  6
CONTINUOUS
 62
     7
 10
89.50000000000001
 20
231.75
 30
0.0
 40
2.250000000000003
 50
256.7683351757007
 51
283.2316648242992
  0
LINE
  5
179
  8
1
  6
CONTINUOUS
 62
     7
 10
90.01500000000001
 20
229.5597317515884
 30
0.0
 11
90.01500000000001
 21
231.235
 31
0.0
  0
LINE
  5
17A
  8
1
  6
CONTINUOUS
 62
     7
 10
90.01500000000001
 20
231.235
 30
0.0
 11
91.6902682484116
 21
231.235
 31
0.0
  0
ARC
  5
17B
  8
1
  6
CONTINUOUS
 62
     7
 10
89.50000000000001
 20
231.75
 30
0.0
 40
2.25
 50
346.7683351757007
 51
13.23166482429929
  0
LINE
  5
17C
  8
1
  6
CONTINUOUS
 62
     7
 10
91.6902682484116
 20
232.265
 30
0.0
 11
90.01500000000001
 21
232.265
 31
0.0
  0
LINE
  5
17D
  8
1
  6
CONTINUOUS
 62
     7
 10
90.01500000000001
 20
232.265
 30
0.0
 11
90.01500000000001
 21
233.9402682484116
 31
0.0
  0
LINE
  5
17E
  8
1
  6
CONTINUOUS
 62
     7
 10
111.5
 20
154.0
 30
0.0
 11
111.5
 21
226.0
 31
0.0
  0
LINE
  5
17F
  8
1
  6
CONTINUOUS
 62
     7
 10
111.5
 20
226.0
 30
0.0
 11
113.5
 21
226.0
 31
0.0
  0
LINE
  5
180
  8
1
  6
CONTINUOUS
 62
     7
 10
113.5
 20
226.0
 30
0.0
 11
113.5
 21
154.0
 31
0.0
  0
LINE
  5
181
  8
1
  6
CONTINUOUS
 62
     7
 10
113.5
 20
154.0
 30
0.0
 11
111.5
 21
154.0
 31
0.0
  0
LINE
  5
182
  8
1
  6
CONTINUOUS
 62
     7
 10
111.5
 20
218.5
 30
0.0
 11
111.0
 21
218.5
 31
0.0
  0
LINE
  5
183
  8
1
  6
CONTINUOUS
 62
     7
 10
111.0
 20
161.5
 30
0.0
 11
111.5
 21
161.5
 31
0.0
  0
LINE
  5
184
  8
1
  6
CONTINUOUS
 62
     7
 10
113.5
 20
161.5
 30
0.0
 11
114.0
 21
161.5
 31
0.0
  0
LINE
  5
185
  8
1
  6
CONTINUOUS
 62
     7
 10
114.0
 20
218.5
 30
0.0
 11
113.5
 21
218.5
 31
0.0
  0
LINE
  5
186
  8
1
  6
CONTINUOUS
 62
     7
 10
114.0
 20
161.5
 30
0.0
 11
117.5
 21
161.5
 31
0.0
  0
LINE
  5
187
  8
1
  6
CONTINUOUS
 62
     7
 10
117.5
 20
218.5
 30
0.0
 11
114.0
 21
218.5
 31
0.0
  0
LINE
  5
188
  8
1
  6
CONTINUOUS
 62
     7
 10
107.5
 20
161.5
 30
0.0
 11
111.0
 21
161.5
 31
0.0
  0
LINE
  5
189
  8
1
  6
CONTINUOUS
 62
     7
 10
111.0
 20
218.5
 30
0.0
 11
107.5
 21
218.5
 31
0.0
  0
LINE
  5
18A
  8
1
  6
CONTINUOUS
 62
     7
 10
118.0
 20
218.5
 30
0.0
 11
118.0
 21
161.5
 31
0.0
  0
LINE
  5
18B
  8
1
  6
CONTINUOUS
 62
     7
 10
118.0
 20
161.5
 30
0.0
 11
117.5
 21
161.5
 31
0.0
  0
LINE
  5
18C
  8
1
  6
CONTINUOUS
 62
     7
 10
117.5
 20
218.5
 30
0.0
 11
118.0
 21
218.5
 31
0.0
  0
LINE
  5
18D
  8
1
  6
CONTINUOUS
 62
     7
 10
107.0
 20
161.5
 30
0.0
 11
107.0
 21
218.5
 31
0.0
  0
LINE
  5
18E
  8
1
  6
CONTINUOUS
 62
     7
 10
107.5
 20
161.5
 30
0.0
 11
107.0
 21
161.5
 31
0.0
  0
LINE
  5
18F
  8
1
  6
CONTINUOUS
 62
     7
 10
107.0
 20
218.5
 30
0.0
 11
107.5
 21
218.5
 31
0.0
  0
LINE
  5
190
  8
1
  6
CONTINUOUS
 62
     7
 10
83.24999999999999
 20
147.65
 30
0.0
 11
81.79999999999998
 21
147.65
 31
0.0
  0
ARC
  5
191
  8
1
  6
CONTINUOUS
 62
     7
 10
81.8
 20
148.45
 30
0.0
 40
0.800000000000002
 50
180.0
 51
269.9999999999995
  0
LINE
  5
192
  8
1
  6
CONTINUOUS
 62
     7
 10
80.99999999999999
 20
148.45
 30
0.0
 11
80.99999999999999
 21
149.343741096848
 31
0.0
  0
ARC
  5
193
  8
1
  6
CONTINUOUS
 62
     7
 10
80.49999999999999
 20
147.15
 30
0.0
 40
2.250000000000005
 50
77.16041159309587
 51
102.8395884069042
  0
LINE
  5
194
  8
1
  6
CONTINUOUS
 62
     7
 10
79.99999999999999
 20
149.343741096848
 30
0.0
 11
79.99999999999999
 21
148.45
 31
0.0
  0
ARC
  5
195
  8
1
  6
CONTINUOUS
 62
     7
 10
79.19999999999999
 20
148.45
 30
0.0
 40
0.800000000000002
 50
270.0
 51
359.9999999999996
  0
LINE
  5
196
  8
1
  6
CONTINUOUS
 62
     7
 10
79.19999999999999
 20
147.65
 30
0.0
 11
77.74999999999999
 21
147.65
 31
0.0
  0
LINE
  5
197
  8
1
  6
CONTINUOUS
 62
     7
 10
77.75
 20
147.65
 30
0.0
 11
77.75
 21
146.65
 31
0.0
  0
LINE
  5
198
  8
1
  6
CONTINUOUS
 62
     7
 10
77.75
 20
146.65
 30
0.0
 11
79.19999999999999
 21
146.65
 31
0.0
  0
ARC
  5
199
  8
1
  6
CONTINUOUS
 62
     7
 10
79.19999999999999
 20
145.85
 30
0.0
 40
0.800000000000002
 50
0.0
 51
89.99999999999949
  0
LINE
  5
19A
  8
1
  6
CONTINUOUS
 62
     7
 10
79.99999999999999
 20
145.85
 30
0.0
 11
79.99999999999999
 21
144.956258903152
 31
0.0
  0
ARC
  5
19B
  8
1
  6
CONTINUOUS
 62
     7
 10
80.49999999999999
 20
147.15
 30
0.0
 40
2.250000000000005
 50
257.1604115930959
 51
282.8395884069041
  0
LINE
  5
19C
  8
1
  6
CONTINUOUS
 62
     7
 10
80.99999999999999
 20
144.956258903152
 30
0.0
 11
80.99999999999999
 21
145.85
 31
0.0
  0
ARC
  5
19D
  8
1
  6
CONTINUOUS
 62
     7
 10
81.79999999999998
 20
145.85
 30
0.0
 40
0.800000000000002
 50
90.0
 51
180.0
  0
LINE
  5
19E
  8
1
  6
CONTINUOUS
 62
     7
 10
81.79999999999998
 20
146.65
 30
0.0
 11
83.24999999999999
 21
146.65
 31
0.0
  0
LINE
  5
19F
  8
1
  6
CONTINUOUS
 62
     7
 10
83.24999999999999
 20
146.65
 30
0.0
 11
83.24999999999999
 21
147.65
 31
0.0
  0
CIRCLE
  5
1A0
  8
1
  6
CONTINUOUS
 62
     7
 10
80.49999999999999
 20
147.15
 30
0.0
 40
4.0
  0
LINE
  5
1A1
  8
1
  6
CONTINUOUS
 62
     7
 10
129.25
 20
147.65
 30
0.0
 11
127.8
 21
147.65
 31
0.0
  0
ARC
  5
1A2
  8
1
  6
CONTINUOUS
 62
     7
 10
127.8
 20
148.45
 30
0.0
 40
0.800000000000002
 50
180.0
 51
269.9999999999995
  0
LINE
  5
1A3
  8
1
  6
CONTINUOUS
 62
     7
 10
127.0
 20
148.45
 30
0.0
 11
127.0
 21
149.343741096848
 31
0.0
  0
ARC
  5
1A4
  8
1
  6
CONTINUOUS
 62
     7
 10
126.5
 20
147.15
 30
0.0
 40
2.249999999999999
 50
77.16041159309584
 51
102.8395884069042
  0
LINE
  5
1A5
  8
1
  6
CONTINUOUS
 62
     7
 10
126.0
 20
149.343741096848
 30
0.0
 11
126.0
 21
148.45
 31
0.0
  0
ARC
  5
1A6
  8
1
  6
CONTINUOUS
 62
     7
 10
125.2
 20
148.45
 30
0.0
 40
0.800000000000002
 50
270.0
 51
359.9999999999996
  0
LINE
  5
1A7
  8
1
  6
CONTINUOUS
 62
     7
 10
125.2
 20
147.65
 30
0.0
 11
123.75
 21
147.65
 31
0.0
  0
LINE
  5
1A8
  8
1
  6
CONTINUOUS
 62
     7
 10
123.75
 20
147.65
 30
0.0
 11
123.75
 21
146.65
 31
0.0
  0
LINE
  5
1A9
  8
1
  6
CONTINUOUS
 62
     7
 10
123.75
 20
146.65
 30
0.0
 11
125.2
 21
146.65
 31
0.0
  0
ARC
  5
1AA
  8
1
  6
CONTINUOUS
 62
     7
 10
125.2
 20
145.85
 30
0.0
 40
0.800000000000002
 50
0.0
 51
89.99999999999949
  0
LINE
  5
1AB
  8
1
  6
CONTINUOUS
 62
     7
 10
126.0
 20
145.85
 30
0.0
 11
126.0
 21
144.956258903152
 31
0.0
  0
ARC
  5
1AC
  8
1
  6
CONTINUOUS
 62
     7
 10
126.5
 20
147.15
 30
0.0
 40
2.250000000000005
 50
257.1604115930959
 51
282.8395884069041
  0
LINE
  5
1AD
  8
1
  6
CONTINUOUS
 62
     7
 10
127.0
 20
144.956258903152
 30
0.0
 11
127.0
 21
145.85
 31
0.0
  0
ARC
  5
1AE
  8
1
  6
CONTINUOUS
 62
     7
 10
127.8
 20
145.85
 30
0.0
 40
0.800000000000002
 50
90.0
 51
180.0
  0
LINE
  5
1AF
  8
1
  6
CONTINUOUS
 62
     7
 10
127.8
 20
146.65
 30
0.0
 11
129.25
 21
146.65
 31
0.0
  0
LINE
  5
1B0
  8
1
  6
CONTINUOUS
 62
     7
 10
129.25
 20
146.65
 30
0.0
 11
129.25
 21
147.65
 31
0.0
  0
CIRCLE
  5
1B1
  8
1
  6
CONTINUOUS
 62
     7
 10
126.5
 20
147.15
 30
0.0
 40
3.999999999999997
  0
LINE
  5
1B2
  8
1
  6
CONTINUOUS
 62
     7
 10
141.75
 20
232.35
 30
0.0
 11
143.2
 21
232.35
 31
0.0
  0
ARC
  5
1B3
  8
1
  6
CONTINUOUS
 62
     7
 10
143.2
 20
231.55
 30
0.0
 40
0.800000000000002
 50
0.0
 51
89.99999999999949
  0
LINE
  5
1B4
  8
1
  6
CONTINUOUS
 62
     7
 10
144.0
 20
231.55
 30
0.0
 11
144.0
 21
230.656258903152
 31
0.0
  0
ARC
  5
1B5
  8
1
  6
CONTINUOUS
 62
     7
 10
144.5
 20
232.85
 30
0.0
 40
2.249999999999998
 50
257.1604115930959
 51
282.8395884069041
  0
LINE
  5
1B6
  8
1
  6
CONTINUOUS
 62
     7
 10
145.0
 20
230.656258903152
 30
0.0
 11
145.0
 21
231.55
 31
0.0
  0
ARC
  5
1B7
  8
1
  6
CONTINUOUS
 62
     7
 10
145.8
 20
231.55
 30
0.0
 40
0.800000000000002
 50
90.0
 51
179.9999999999995
  0
LINE
  5
1B8
  8
1
  6
CONTINUOUS
 62
     7
 10
145.8
 20
232.35
 30
0.0
 11
147.25
 21
232.35
 31
0.0
  0
LINE
  5
1B9
  8
1
  6
CONTINUOUS
 62
     7
 10
147.25
 20
232.35
 30
0.0
 11
147.25
 21
233.35
 31
0.0
  0
LINE
  5
1BA
  8
1
  6
CONTINUOUS
 62
     7
 10
147.25
 20
233.35
 30
0.0
 11
145.8
 21
233.35
 31
0.0
  0
ARC
  5
1BB
  8
1
  6
CONTINUOUS
 62
     7
 10
145.8
 20
234.15
 30
0.0
 40
0.800000000000002
 50
180.0
 51
269.9999999999995
  0
LINE
  5
1BC
  8
1
  6
CONTINUOUS
 62
     7
 10
145.0
 20
234.15
 30
0.0
 11
145.0
 21
235.043741096848
 31
0.0
  0
ARC
  5
1BD
  8
1
  6
CONTINUOUS
 62
     7
 10
144.5
 20
232.85
 30
0.0
 40
2.250000000000005
 50
77.16041159309587
 51
102.8395884069042
  0
LINE
  5
1BE
  8
1
  6
CONTINUOUS
 62
     7
 10
144.0
 20
235.043741096848
 30
0.0
 11
144.0
 21
234.15
 31
0.0
  0
ARC
  5
1BF
  8
1
  6
CONTINUOUS
 62
     7
 10
143.2
 20
234.15
 30
0.0
 40
0.7999999999999986
 50
270.0000000000002
 51
0.0
  0
LINE
  5
1C0
  8
1
  6
CONTINUOUS
 62
     7
 10
143.2
 20
233.35
 30
0.0
 11
141.75
 21
233.35
 31
0.0
  0
LINE
  5
1C1
  8
1
  6
CONTINUOUS
 62
     7
 10
141.75
 20
233.35
 30
0.0
 11
141.75
 21
232.35
 31
0.0
  0
CIRCLE
  5
1C2
  8
1
  6
CONTINUOUS
 62
     7
 10
144.5
 20
232.85
 30
0.0
 40
4.000000000000004
  0
LINE
  5
1C3
  8
1
  6
CONTINUOUS
 62
     7
 10
95.75
 20
232.35
 30
0.0
 11
97.2
 21
232.35
 31
0.0
  0
ARC
  5
1C4
  8
1
  6
CONTINUOUS
 62
     7
 10
97.2
 20
231.55
 30
0.0
 40
0.800000000000002
 50
0.0
 51
89.99999999999949
  0
LINE
  5
1C5
  8
1
  6
CONTINUOUS
 62
     7
 10
98.0
 20
231.55
 30
0.0
 11
98.0
 21
230.656258903152
 31
0.0
  0
ARC
  5
1C6
  8
1
  6
CONTINUOUS
 62
     7
 10
98.5
 20
232.85
 30
0.0
 40
2.249999999999998
 50
257.1604115930959
 51
282.8395884069041
  0
LINE
  5
1C7
  8
1
  6
CONTINUOUS
 62
     7
 10
99.0
 20
230.656258903152
 30
0.0
 11
99.0
 21
231.55
 31
0.0
  0
ARC
  5
1C8
  8
1
  6
CONTINUOUS
 62
     7
 10
99.8
 20
231.55
 30
0.0
 40
0.800000000000002
 50
90.0
 51
179.9999999999995
  0
LINE
  5
1C9
  8
1
  6
CONTINUOUS
 62
     7
 10
99.8
 20
232.35
 30
0.0
 11
101.25
 21
232.35
 31
0.0
  0
LINE
  5
1CA
  8
1
  6
CONTINUOUS
 62
     7
 10
101.25
 20
232.35
 30
0.0
 11
101.25
 21
233.35
 31
0.0
  0
LINE
  5
1CB
  8
1
  6
CONTINUOUS
 62
     7
 10
101.25
 20
233.35
 30
0.0
 11
99.8
 21
233.35
 31
0.0
  0
ARC
  5
1CC
  8
1
  6
CONTINUOUS
 62
     7
 10
99.80000000000001
 20
234.15
 30
0.0
 40
0.800000000000002
 50
180.0
 51
269.9999999999995
  0
LINE
  5
1CD
  8
1
  6
CONTINUOUS
 62
     7
 10
99.0
 20
234.15
 30
0.0
 11
99.0
 21
235.043741096848
 31
0.0
  0
ARC
  5
1CE
  8
1
  6
CONTINUOUS
 62
     7
 10
98.5
 20
232.85
 30
0.0
 40
2.250000000000005
 50
77.16041159309587
 51
102.8395884069042
  0
LINE
  5
1CF
  8
1
  6
CONTINUOUS
 62
     7
 10
98.0
 20
235.043741096848
 30
0.0
 11
98.0
 21
234.15
 31
0.0
  0
ARC
  5
1D0
  8
1
  6
CONTINUOUS
 62
     7
 10
97.2
 20
234.15
 30
0.0
 40
0.800000000000002
 50
270.0
 51
0.0
  0
LINE
  5
1D1
  8
1
  6
CONTINUOUS
 62
     7
 10
97.2
 20
233.35
 30
0.0
 11
95.75
 21
233.35
 31
0.0
  0
LINE
  5
1D2
  8
1
  6
CONTINUOUS
 62
     7
 10
95.75
 20
233.35
 30
0.0
 11
95.75
 21
232.35
 31
0.0
  0
CIRCLE
  5
1D3
  8
1
  6
CONTINUOUS
 62
     7
 10
98.5
 20
232.85
 30
0.0
 40
4.0
  0
LINE
  5
1D4
  8
1
  6
CONTINUOUS
 62
     7
 10
161.0
 20
163.0
 30
0.0
 11
160.2186164661374
 21
163.0
 31
0.0
  0
ARC
  5
1D5
  8
1
  6
CONTINUOUS
 62
     7
 10
135.5000000000001
 20
166.0000000000001
 30
0.0
 40
24.89999999999997
 50
353.0800831969694
 51
0.0000000000000568
  0
LINE
  5
1D6
  8
1
  6
CONTINUOUS
 62
     7
 10
161.0
 20
157.1258803253506
 30
0.0
 11
161.0
 21
163.0
 31
0.0
  0
LINE
  5
1D7
  8
1
  6
CONTINUOUS
 62
     7
 10
64.0
 20
217.0
 30
0.0
 11
64.7813835338626
 21
217.0
 31
0.0
  0
ARC
  5
1D8
  8
1
  6
CONTINUOUS
 62
     7
 10
89.49999999999994
 20
214.0000000000001
 30
0.0
 40
24.89999999999998
 50
173.0800831969698
 51
180.0
  0
LINE
  5
1D9
  8
1
  6
CONTINUOUS
 62
     7
 10
64.0
 20
222.8741196746496
 30
0.0
 11
64.0
 21
217.0
 31
0.0
  0
ARC
  5
1DA
  8
1
  6
CONTINUOUS
 62
     7
 10
89.49999999999994
 20
166.0000000000001
 30
0.0
 40
24.89999999999998
 50
180.0
 51
186.9199168030306
  0
LINE
  5
1DB
  8
1
  6
CONTINUOUS
 62
     7
 10
64.7813835338626
 20
163.0
 30
0.0
 11
64.0
 21
163.0
 31
0.0
  0
LINE
  5
1DC
  8
1
  6
CONTINUOUS
 62
     7
 10
64.0
 20
163.0
 30
0.0
 11
64.0
 21
157.1258803253506
 31
0.0
  0
LINE
  5
1DD
  8
1
  6
CONTINUOUS
 62
     7
 10
161.0
 20
217.0
 30
0.0
 11
161.0
 21
222.8741196746496
 31
0.0
  0
ARC
  5
1DE
  8
1
  6
CONTINUOUS
 62
     7
 10
135.5000000000001
 20
214.0000000000001
 30
0.0
 40
24.89999999999998
 50
0.0000000000000639
 51
6.919916803030201
  0
LINE
  5
1DF
  8
1
  6
CONTINUOUS
 62
     7
 10
160.2186164661374
 20
217.0
 30
0.0
 11
161.0
 21
217.0
 31
0.0
  0
ARC
  5
1E0
  8
1
  6
CONTINUOUS
 62
     7
 10
60.50000000000004
 20
196.0
 30
0.0
 40
1.000000000000001
 50
180.0
 51
270.0
  0
LINE
  5
1E1
  8
1
  6
CONTINUOUS
 62
     7
 10
59.50000000000006
 20
210.5
 30
0.0
 11
59.50000000000004
 21
195.9999999999999
 31
0.0
  0
LINE
  5
1E2
  8
1
  6
CONTINUOUS
 62
     7
 10
60.50000000000004
 20
210.5
 30
0.0
 11
59.50000000000006
 21
210.5
 31
0.0
  0
ARC
  5
1E3
  8
1
  6
CONTINUOUS
 62
     7
 10
60.50000000000004
 20
211.5
 30
0.0
 40
1.000000000000001
 50
270.0
 51
0.0
  0
LINE
  5
1E4
  8
1
  6
CONTINUOUS
 62
     7
 10
61.50000000000003
 20
212.5
 30
0.0
 11
61.50000000000004
 21
211.5
 31
0.0
  0
ARC
  5
1E5
  8
1
  6
CONTINUOUS
 62
     7
 10
60.50000000000002
 20
212.5
 30
0.0
 40
1.000000000000004
 50
0.0
 51
90.0
  0
LINE
  5
1E6
  8
1
  6
CONTINUOUS
 62
     7
 10
59.50000000000004
 20
213.5
 30
0.0
 11
60.50000000000002
 21
213.5
 31
0.0
  0
LINE
  5
1E7
  8
1
  6
CONTINUOUS
 62
     7
 10
59.50000000000004
 20
224.0
 30
0.0
 11
59.50000000000004
 21
213.5
 31
0.0
  0
ARC
  5
1E8
  8
1
  6
CONTINUOUS
 62
     7
 10
61.50000000000005
 20
224.0
 30
0.0
 40
2.000000000000002
 50
90.0
 51
180.0
  0
LINE
  5
1E9
  8
1
  6
CONTINUOUS
 62
     7
 10
64.00000000000001
 20
226.0
 30
0.0
 11
61.50000000000005
 21
226.0
 31
0.0
  0
LINE
  5
1EA
  8
1
  6
CONTINUOUS
 62
     7
 10
60.50000000000004
 20
195.0
 30
0.0
 11
62.49999999999996
 21
195.0
 31
0.0
  0
LINE
  5
1EB
  8
1
  6
CONTINUOUS
 62
     7
 10
64.00000000000001
 20
226.0
 30
0.0
 11
64.0
 21
222.8741196746496
 31
0.0
  0
ARC
  5
1EC
  8
1
  6
CONTINUOUS
 62
     7
 10
164.5
 20
184.0
 30
0.0
 40
1.000000000000001
 50
0.0
 51
90.0
  0
LINE
  5
1ED
  8
1
  6
CONTINUOUS
 62
     7
 10
165.4999999999999
 20
169.5
 30
0.0
 11
165.5
 21
184.0000000000001
 31
0.0
  0
LINE
  5
1EE
  8
1
  6
CONTINUOUS
 62
     7
 10
164.5
 20
169.5
 30
0.0
 11
165.4999999999999
 21
169.5
 31
0.0
  0
ARC
  5
1EF
  8
1
  6
CONTINUOUS
 62
     7
 10
164.5
 20
168.5
 30
0.0
 40
1.000000000000001
 50
90.0
 51
180.0
  0
LINE
  5
1F0
  8
1
  6
CONTINUOUS
 62
     7
 10
163.5
 20
167.5
 30
0.0
 11
163.5
 21
168.5
 31
0.0
  0
ARC
  5
1F1
  8
1
  6
CONTINUOUS
 62
     7
 10
164.5
 20
167.5
 30
0.0
 40
1.000000000000004
 50
180.0
 51
270.0
  0
LINE
  5
1F2
  8
1
  6
CONTINUOUS
 62
     7
 10
165.5
 20
166.5
 30
0.0
 11
164.5
 21
166.5
 31
0.0
  0
LINE
  5
1F3
  8
1
  6
CONTINUOUS
 62
     7
 10
165.4999999999999
 20
156.0
 30
0.0
 11
165.4999999999999
 21
166.5
 31
0.0
  0
ARC
  5
1F4
  8
1
  6
CONTINUOUS
 62
     7
 10
163.4999999999999
 20
156.0
 30
0.0
 40
2.000000000000002
 50
270.0
 51
0.0
  0
LINE
  5
1F5
  8
1
  6
CONTINUOUS
 62
     7
 10
161.0
 20
154.0
 30
0.0
 11
163.4999999999999
 21
154.0
 31
0.0
  0
LINE
  5
1F6
  8
1
  6
CONTINUOUS
 62
     7
 10
164.5
 20
185.0
 30
0.0
 11
162.5000000000001
 21
185.0
 31
0.0
  0
LINE
  5
1F7
  8
1
  6
CONTINUOUS
 62
     7
 10
161.0
 20
154.0
 30
0.0
 11
161.0
 21
157.1258803253506
 31
0.0
  0
LINE
  5
1F8
  8
1
  6
CONTINUOUS
 62
     7
 10
161.0
 20
226.0
 30
0.0
 11
163.4999999999999
 21
226.0
 31
0.0
  0
ARC
  5
1F9
  8
1
  6
CONTINUOUS
 62
     7
 10
163.4999999999999
 20
224.0
 30
0.0
 40
2.000000000000002
 50
0.0
 51
90.0
  0
LINE
  5
1FA
  8
1
  6
CONTINUOUS
 62
     7
 10
165.4999999999999
 20
224.0
 30
0.0
 11
165.4999999999999
 21
213.5
 31
0.0
  0
LINE
  5
1FB
  8
1
  6
CONTINUOUS
 62
     7
 10
165.5
 20
213.5
 30
0.0
 11
164.5
 21
213.5
 31
0.0
  0
ARC
  5
1FC
  8
1
  6
CONTINUOUS
 62
     7
 10
164.5
 20
212.5
 30
0.0
 40
1.000000000000004
 50
90.0
 51
180.0
  0
LINE
  5
1FD
  8
1
  6
CONTINUOUS
 62
     7
 10
163.5
 20
212.5
 30
0.0
 11
163.5
 21
211.5
 31
0.0
  0
ARC
  5
1FE
  8
1
  6
CONTINUOUS
 62
     7
 10
164.5
 20
211.5
 30
0.0
 40
1.000000000000001
 50
180.0
 51
270.0
  0
LINE
  5
1FF
  8
1
  6
CONTINUOUS
 62
     7
 10
164.5
 20
210.5
 30
0.0
 11
165.4999999999999
 21
210.5
 31
0.0
  0
LINE
  5
200
  8
1
  6
CONTINUOUS
 62
     7
 10
165.4999999999999
 20
210.5
 30
0.0
 11
165.5
 21
195.9999999999999
 31
0.0
  0
ARC
  5
201
  8
1
  6
CONTINUOUS
 62
     7
 10
164.5
 20
196.0
 30
0.0
 40
1.000000000000001
 50
270.0
 51
0.0
  0
LINE
  5
202
  8
1
  6
CONTINUOUS
 62
     7
 10
164.5
 20
195.0
 30
0.0
 11
162.5000000000001
 21
195.0
 31
0.0
  0
LINE
  5
203
  8
1
  6
CONTINUOUS
 62
     7
 10
161.0
 20
226.0
 30
0.0
 11
161.0
 21
222.8741196746496
 31
0.0
  0
LINE
  5
204
  8
1
  6
CONTINUOUS
 62
     7
 10
64.00000000000001
 20
154.0
 30
0.0
 11
61.50000000000005
 21
154.0
 31
0.0
  0
ARC
  5
205
  8
1
  6
CONTINUOUS
 62
     7
 10
61.50000000000005
 20
156.0
 30
0.0
 40
2.000000000000002
 50
180.0
 51
270.0
  0
LINE
  5
206
  8
1
  6
CONTINUOUS
 62
     7
 10
59.50000000000004
 20
156.0
 30
0.0
 11
59.50000000000004
 21
166.5
 31
0.0
  0
LINE
  5
207
  8
1
  6
CONTINUOUS
 62
     7
 10
59.50000000000004
 20
166.5
 30
0.0
 11
60.50000000000002
 21
166.5
 31
0.0
  0
ARC
  5
208
  8
1
  6
CONTINUOUS
 62
     7
 10
60.50000000000002
 20
167.5
 30
0.0
 40
1.000000000000004
 50
270.0
 51
0.0
  0
LINE
  5
209
  8
1
  6
CONTINUOUS
 62
     7
 10
61.50000000000003
 20
167.5
 30
0.0
 11
61.50000000000004
 21
168.5
 31
0.0
  0
ARC
  5
20A
  8
1
  6
CONTINUOUS
 62
     7
 10
60.50000000000004
 20
168.5
 30
0.0
 40
1.000000000000001
 50
0.0
 51
90.0
  0
LINE
  5
20B
  8
1
  6
CONTINUOUS
 62
     7
 10
60.50000000000004
 20
169.5
 30
0.0
 11
59.50000000000006
 21
169.5
 31
0.0
  0
LINE
  5
20C
  8
1
  6
CONTINUOUS
 62
     7
 10
59.50000000000006
 20
169.5
 30
0.0
 11
59.50000000000004
 21
184.0000000000001
 31
0.0
  0
ARC
  5
20D
  8
1
  6
CONTINUOUS
 62
     7
 10
60.50000000000004
 20
184.0
 30
0.0
 40
1.000000000000001
 50
90.0
 51
180.0
  0
LINE
  5
20E
  8
1
  6
CONTINUOUS
 62
     7
 10
60.50000000000004
 20
185.0
 30
0.0
 11
62.49999999999996
 21
185.0
 31
0.0
  0
LINE
  5
20F
  8
1
  6
CONTINUOUS
 62
     7
 10
64.00000000000001
 20
154.0
 30
0.0
 11
64.0
 21
157.1258803253506
 31
0.0
  0
LINE
  5
210
  8
1
  6
CONTINUOUS
 62
     7
 10
160.4
 20
194.9999999999999
 30
0.0
 11
160.4
 21
214.0000000000001
 31
0.0
  0
LINE
  5
211
  8
1
  6
CONTINUOUS
 62
     7
 10
162.5
 20
194.9999999999999
 30
0.0
 11
160.4
 21
194.9999999999999
 31
0.0
  0
LINE
  5
212
  8
1
  6
CONTINUOUS
 62
     7
 10
64.60000000000002
 20
185.0000000000001
 30
0.0
 11
64.59999999999998
 21
166.0000000000001
 31
0.0
  0
LINE
  5
213
  8
1
  6
CONTINUOUS
 62
     7
 10
62.49999999999996
 20
185.0000000000001
 30
0.0
 11
64.59999999999997
 21
185.0000000000001
 31
0.0
  0
LINE
  5
214
  8
1
  6
CONTINUOUS
 62
     7
 10
64.59999999999998
 20
214.0000000000001
 30
0.0
 11
64.60000000000002
 21
194.9999999999999
 31
0.0
  0
LINE
  5
215
  8
1
  6
CONTINUOUS
 62
     7
 10
64.59999999999997
 20
194.9999999999999
 30
0.0
 11
62.49999999999996
 21
194.9999999999999
 31
0.0
  0
LINE
  5
216
  8
1
  6
CONTINUOUS
 62
     7
 10
160.4
 20
166.0000000000001
 30
0.0
 11
160.4
 21
185.0
 31
0.0
  0
LINE
  5
217
  8
1
  6
CONTINUOUS
 62
     7
 10
160.4
 20
185.0000000000001
 30
0.0
 11
162.5
 21
185.0000000000001
 31
0.0
  0
LINE
  5
218
  8
1
  6
CONTINUOUS
 62
     7
 10
62.99999999999996
 20
186.6000000000001
 30
0.0
 11
62.99999999999996
 21
185.0000000000001
 31
0.0
  0
LINE
  5
219
  8
1
  6
CONTINUOUS
 62
     7
 10
64.59999999999997
 20
185.0
 30
0.0
 11
64.59999999999997
 21
186.6
 31
0.0
  0
LINE
  5
21A
  8
1
  6
CONTINUOUS
 62
     7
 10
162.0
 20
185.0
 30
0.0
 11
162.0
 21
186.6
 31
0.0
  0
LINE
  5
21B
  8
1
  6
CONTINUOUS
 62
     7
 10
160.4
 20
186.6000000000001
 30
0.0
 11
160.4
 21
185.0000000000001
 31
0.0
  0
LINE
  5
21C
  8
1
  6
CONTINUOUS
 62
     7
 10
162.0
 20
193.3999999999999
 30
0.0
 11
162.0
 21
194.9999999999999
 31
0.0
  0
LINE
  5
21D
  8
1
  6
CONTINUOUS
 62
     7
 10
160.4
 20
195.0
 30
0.0
 11
160.4
 21
193.4
 31
0.0
  0
LINE
  5
21E
  8
1
  6
CONTINUOUS
 62
     7
 10
62.99999999999996
 20
195.0
 30
0.0
 11
62.99999999999996
 21
193.4
 31
0.0
  0
LINE
  5
21F
  8
1
  6
CONTINUOUS
 62
     7
 10
64.59999999999997
 20
193.3999999999999
 30
0.0
 11
64.60000000000001
 21
194.9999999999999
 31
0.0
  0
LINE
  5
220
  8
1
  6
CONTINUOUS
 62
     7
 10
101.5378953450596
 20
226.75
 30
0.0
 11
95.46210465494042
 21
226.75
 31
0.0
  0
LINE
  5
221
  8
1
  6
CONTINUOUS
 62
     7
 10
123.4621046549406
 20
153.2500000000001
 30
0.0
 11
129.5378953450594
 21
153.2500000000001
 31
0.0
  0
LINE
  5
222
  8
1
  6
CONTINUOUS
 62
     7
 10
73.50000000000001
 20
153.2500000000001
 30
0.0
 11
77.4621046549406
 21
153.2500000000001
 31
0.0
  0
LINE
  5
223
  8
1
  6
CONTINUOUS
 62
     7
 10
73.50000000000001
 20
150.6500000000001
 30
0.0
 11
73.50000000000001
 21
153.2500000000001
 31
0.0
  0
LINE
  5
224
  8
1
  6
CONTINUOUS
 62
     7
 10
141.4621046549404
 20
226.75
 30
0.0
 11
119.5
 21
226.75
 31
0.0
  0
LINE
  5
225
  8
1
  6
CONTINUOUS
 62
     7
 10
119.5
 20
226.75
 30
0.0
 11
119.5
 21
229.35
 31
0.0
  0
LINE
  5
226
  8
1
  6
CONTINUOUS
 62
     7
 10
95.46210465494042
 20
226.75
 30
0.0
 11
73.5
 21
226.75
 31
0.0
  0
LINE
  5
227
  8
1
  6
CONTINUOUS
 62
     7
 10
73.50000000000001
 20
226.75
 30
0.0
 11
73.50000000000001
 21
229.35
 31
0.0
  0
ARC
  5
228
  8
1
  6
CONTINUOUS
 62
     7
 10
135.5
 20
214.5
 30
0.0
 40
27.0
 50
114.8505023402284
 51
126.3412030937849
  0
LINE
  5
229
  8
1
  6
CONTINUOUS
 62
     7
 10
146.8468057179102
 20
239.0
 30
0.0
 11
124.1531942820898
 21
239.0
 31
0.0
  0
ARC
  5
22A
  8
1
  6
CONTINUOUS
 62
     7
 10
135.5
 20
214.5
 30
0.0
 40
27.0
 50
53.65879690621507
 51
65.14949765977153
  0
LINE
  5
22B
  8
1
  6
CONTINUOUS
 62
     7
 10
151.5
 20
236.2485631709315
 30
0.0
 11
151.5
 21
229.3500000000001
 31
0.0
  0
LINE
  5
22C
  8
1
  6
CONTINUOUS
 62
     7
 10
119.5
 20
229.3500000000001
 30
0.0
 11
119.5
 21
236.2485631709316
 31
0.0
  0
LINE
  5
22D
  8
1
  6
CONTINUOUS
 62
     7
 10
129.5378953450594
 20
153.2500000000001
 30
0.0
 11
151.5
 21
153.2500000000001
 31
0.0
  0
LINE
  5
22E
  8
1
  6
CONTINUOUS
 62
     7
 10
151.5
 20
153.2500000000001
 30
0.0
 11
151.5
 21
150.6500000000001
 31
0.0
  0
ARC
  5
22F
  8
1
  6
CONTINUOUS
 62
     7
 10
89.50000000000001
 20
165.5
 30
0.0
 40
27.0
 50
294.8505023402284
 51
306.341203093785
  0
LINE
  5
230
  8
1
  6
CONTINUOUS
 62
     7
 10
78.15319428208979
 20
141.0
 30
0.0
 11
100.8468057179102
 21
141.0
 31
0.0
  0
ARC
  5
231
  8
1
  6
CONTINUOUS
 62
     7
 10
89.50000000000001
 20
165.5
 30
0.0
 40
27.0
 50
233.6587969062151
 51
245.1494976597715
  0
LINE
  5
232
  8
1
  6
CONTINUOUS
 62
     7
 10
73.50000000000001
 20
143.7514368290685
 30
0.0
 11
73.50000000000001
 21
150.6500000000001
 31
0.0
  0
LINE
  5
233
  8
1
  6
CONTINUOUS
 62
     7
 10
105.5
 20
150.6500000000001
 30
0.0
 11
105.5
 21
143.7514368290684
 31
0.0
  0
LINE
  5
234
  8
1
  6
CONTINUOUS
 62
     7
 10
83.5378953450594
 20
153.2500000000001
 30
0.0
 11
105.5
 21
153.2500000000001
 31
0.0
  0
LINE
  5
235
  8
1
  6
CONTINUOUS
 62
     7
 10
105.5
 20
153.2500000000001
 30
0.0
 11
105.5
 21
150.6500000000001
 31
0.0
  0
LINE
  5
236
  8
1
  6
CONTINUOUS
 62
     7
 10
105.5
 20
226.75
 30
0.0
 11
101.5378953450596
 21
226.75
 31
0.0
  0
LINE
  5
237
  8
1
  6
CONTINUOUS
 62
     7
 10
105.5
 20
229.3500000000001
 30
0.0
 11
105.5
 21
226.7500000000001
 31
0.0
  0
LINE
  5
238
  8
1
  6
CONTINUOUS
 62
     7
 10
151.5
 20
226.75
 30
0.0
 11
147.5378953450596
 21
226.75
 31
0.0
  0
LINE
  5
239
  8
1
  6
CONTINUOUS
 62
     7
 10
151.5
 20
229.3500000000001
 30
0.0
 11
151.5
 21
226.7500000000001
 31
0.0
  0
LINE
  5
23A
  8
1
  6
CONTINUOUS
 62
     7
 10
147.5378953450596
 20
226.75
 30
0.0
 11
141.4621046549404
 21
226.75
 31
0.0
  0
LINE
  5
23B
  8
1
  6
CONTINUOUS
 62
     7
 10
77.46210465494059
 20
153.2500000000001
 30
0.0
 11
83.5378953450594
 21
153.2500000000001
 31
0.0
  0
LINE
  5
23C
  8
1
  6
CONTINUOUS
 62
     7
 10
119.5
 20
153.2500000000001
 30
0.0
 11
123.4621046549406
 21
153.2500000000001
 31
0.0
  0
LINE
  5
23D
  8
1
  6
CONTINUOUS
 62
     7
 10
119.5
 20
150.6500000000001
 30
0.0
 11
119.5
 21
153.2500000000001
 31
0.0
  0
LINE
  5
23E
  8
1
  6
CONTINUOUS
 62
     7
 10
151.5
 20
150.6500000000001
 30
0.0
 11
151.5
 21
143.7514368290685
 31
0.0
  0
ARC
  5
23F
  8
1
  6
CONTINUOUS
 62
     7
 10
135.5
 20
165.5
 30
0.0
 40
27.0
 50
294.8505023402286
 51
306.341203093785
  0
LINE
  5
240
  8
1
  6
CONTINUOUS
 62
     7
 10
119.5
 20
143.7514368290684
 30
0.0
 11
119.5
 21
150.6500000000001
 31
0.0
  0
ARC
  5
241
  8
1
  6
CONTINUOUS
 62
     7
 10
135.5
 20
165.5
 30
0.0
 40
27.0
 50
233.658796906215
 51
245.1494976597715
  0
LINE
  5
242
  8
1
  6
CONTINUOUS
 62
     7
 10
146.8468057179102
 20
141.0
 30
0.0
 11
124.1531942820898
 21
141.0
 31
0.0
  0
LINE
  5
243
  8
1
  6
CONTINUOUS
 62
     7
 10
73.50000000000001
 20
229.35
 30
0.0
 11
73.50000000000001
 21
236.2485631709315
 31
0.0
  0
ARC
  5
244
  8
1
  6
CONTINUOUS
 62
     7
 10
89.50000000000001
 20
214.5
 30
0.0
 40
27.0
 50
114.8505023402284
 51
126.3412030937849
  0
LINE
  5
245
  8
1
  6
CONTINUOUS
 62
     7
 10
78.15319428208979
 20
239.0
 30
0.0
 11
100.8468057179102
 21
239.0
 31
0.0
  0
ARC
  5
246
  8
1
  6
CONTINUOUS
 62
     7
 10
89.50000000000001
 20
214.5
 30
0.0
 40
27.0
 50
53.65879690621505
 51
65.14949765977155
  0
LINE
  5
247
  8
1
  6
CONTINUOUS
 62
     7
 10
105.5
 20
236.2485631709316
 30
0.0
 11
105.5
 21
229.3500000000001
 31
0.0
  0
ARC
  5
248
  8
1
  6
CONTINUOUS
 62
     7
 10
135.5
 20
166.0
 30
0.0
 40
24.9
 50
346.2935337414019
 51
353.0800831969698
  0
LINE
  5
249
  8
1
  6
CONTINUOUS
 62
     7
 10
65.30909261726627
 20
160.1
 30
0.0
 11
65.75636927510882
 21
158.5
 31
0.0
  0
LINE
  5
24A
  8
1
  6
CONTINUOUS
 62
     7
 10
159.6909073827337
 20
219.9
 30
0.0
 11
159.2436307248912
 21
221.5
 31
0.0
  0
ARC
  5
24B
  8
1
  6
CONTINUOUS
 62
     7
 10
135.5
 20
214.0
 30
0.0
 40
24.9
 50
6.919916803030242
 51
13.70646625859799
  0
LINE
  5
24C
  8
1
  6
CONTINUOUS
 62
     7
 10
65.75636927510881
 20
221.5
 30
0.0
 11
65.30909261726626
 21
219.9
 31
0.0
  0
LINE
  5
24D
  8
1
  6
CONTINUOUS
 62
     7
 10
159.2436307248912
 20
158.5
 30
0.0
 11
159.6909073827337
 21
160.1
 31
0.0
  0
ARC
  5
24E
  8
1
  6
CONTINUOUS
 62
     7
 10
89.49999999999999
 20
166.0
 30
0.0
 40
24.9
 50
186.9199168030302
 51
193.706466258598
  0
ARC
  5
24F
  8
1
  6
CONTINUOUS
 62
     7
 10
89.49999999999999
 20
214.0
 30
0.0
 40
24.9
 50
166.293533741402
 51
173.0800831969698
  0
LINE
  5
250
  8
1
  6
CONTINUOUS
 62
     7
 10
162.0
 20
193.3999999999999
 30
0.0
 11
162.0
 21
186.6000000000001
 31
0.0
  0
LINE
  5
251
  8
1
  6
CONTINUOUS
 62
     7
 10
160.4
 20
186.6000000000001
 30
0.0
 11
160.4
 21
193.3999999999999
 31
0.0
  0
LINE
  5
252
  8
1
  6
CONTINUOUS
 62
     7
 10
62.99999999999996
 20
193.3999999999999
 30
0.0
 11
62.99999999999996
 21
186.6000000000001
 31
0.0
  0
LINE
  5
253
  8
1
  6
CONTINUOUS
 62
     7
 10
64.59999999999997
 20
186.6000000000001
 30
0.0
 11
64.59999999999997
 21
193.3999999999999
 31
0.0
  0
LINE
  5
254
  8
1
  6
CONTINUOUS
 62
     7
 10
119.5
 20
151.6500000000001
 30
0.0
 11
105.5
 21
151.6500000000001
 31
0.0
  0
LINE
  5
255
  8
1
  6
CONTINUOUS
 62
     7
 10
119.5
 20
153.2500000000001
 30
0.0
 11
105.5
 21
153.2500000000001
 31
0.0
  0
LINE
  5
256
  8
1
  6
CONTINUOUS
 62
     7
 10
105.5
 20
228.3500000000001
 30
0.0
 11
119.5
 21
228.3500000000001
 31
0.0
  0
LINE
  5
257
  8
1
  6
CONTINUOUS
 62
     7
 10
119.5
 20
226.75
 30
0.0
 11
105.5
 21
226.75
 31
0.0
  0
ARC
  5
258
  8
1
  6
CONTINUOUS
 62
     7
 10
72.12393888132297
 20
220.35
 30
0.0
 40
8.0
 50
90.0
 51
159.9254063627982
  0
ARC
  5
259
  8
1
  6
CONTINUOUS
 62
     7
 10
72.123938881323
 20
220.35
 30
0.0
 40
6.399999999999996
 50
90.00000000000018
 51
159.925406362798
  0
LINE
  5
25A
  8
1
  6
CONTINUOUS
 62
     7
 10
72.12393888132297
 20
228.35
 30
0.0
 11
73.50000000000001
 21
228.3500000000001
 31
0.0
  0
LINE
  5
25B
  8
1
  6
CONTINUOUS
 62
     7
 10
72.12393888132299
 20
226.75
 30
0.0
 11
73.50000000000001
 21
226.7500000000001
 31
0.0
  0
ARC
  5
25C
  8
1
  6
CONTINUOUS
 62
     7
 10
89.50000000000004
 20
214.0
 30
0.0
 40
24.90000000000001
 50
159.9254063627981
 51
162.470018266927
  0
ARC
  5
25D
  8
1
  6
CONTINUOUS
 62
     7
 10
89.50000000000004
 20
214.0
 30
0.0
 40
26.50000000000001
 50
159.9254063627981
 51
163.5595368833613
  0
ARC
  5
25E
  8
1
  6
CONTINUOUS
 62
     7
 10
72.123938881323
 20
159.65
 30
0.0
 40
6.399999999999996
 50
200.074593637202
 51
269.9999999999998
  0
ARC
  5
25F
  8
1
  6
CONTINUOUS
 62
     7
 10
72.12393888132297
 20
159.65
 30
0.0
 40
8.0
 50
200.0745936372019
 51
270.0
  0
LINE
  5
260
  8
1
  6
CONTINUOUS
 62
     7
 10
73.50000000000001
 20
151.6500000000001
 30
0.0
 11
72.12393888132299
 21
151.65
 31
0.0
  0
LINE
  5
261
  8
1
  6
CONTINUOUS
 62
     7
 10
73.50000000000001
 20
153.2500000000001
 30
0.0
 11
72.12393888132299
 21
153.25
 31
0.0
  0
ARC
  5
262
  8
1
  6
CONTINUOUS
 62
     7
 10
89.50000000000004
 20
166.0
 30
0.0
 40
26.50000000000001
 50
196.4404631166386
 51
200.0745936372019
  0
ARC
  5
263
  8
1
  6
CONTINUOUS
 62
     7
 10
89.50000000000004
 20
166.0
 30
0.0
 40
24.90000000000001
 50
197.529981733073
 51
200.0745936372019
  0
ARC
  5
264
  8
1
  6
CONTINUOUS
 62
     7
 10
152.876061118677
 20
159.65
 30
0.0
 40
6.399999999999996
 50
270.0000000000002
 51
339.925406362798
  0
ARC
  5
265
  8
1
  6
CONTINUOUS
 62
     7
 10
152.876061118677
 20
159.65
 30
0.0
 40
8.0
 50
270.0
 51
339.9254063627981
  0
LINE
  5
266
  8
1
  6
CONTINUOUS
 62
     7
 10
152.876061118677
 20
151.65
 30
0.0
 11
151.5
 21
151.6500000000001
 31
0.0
  0
LINE
  5
267
  8
1
  6
CONTINUOUS
 62
     7
 10
152.876061118677
 20
153.25
 30
0.0
 11
151.5
 21
153.2500000000001
 31
0.0
  0
ARC
  5
268
  8
1
  6
CONTINUOUS
 62
     7
 10
135.4999999999999
 20
166.0
 30
0.0
 40
24.90000000000001
 50
339.925406362798
 51
342.4700182669269
  0
ARC
  5
269
  8
1
  6
CONTINUOUS
 62
     7
 10
135.4999999999999
 20
166.0
 30
0.0
 40
26.50000000000001
 50
339.9254063627981
 51
343.5595368833614
  0
ARC
  5
26A
  8
1
  6
CONTINUOUS
 62
     7
 10
152.876061118677
 20
220.35
 30
0.0
 40
6.399999999999996
 50
20.07459363720199
 51
89.99999999999982
  0
ARC
  5
26B
  8
1
  6
CONTINUOUS
 62
     7
 10
152.876061118677
 20
220.35
 30
0.0
 40
8.0
 50
20.07459363720193
 51
90.0
  0
LINE
  5
26C
  8
1
  6
CONTINUOUS
 62
     7
 10
151.5
 20
228.3500000000001
 30
0.0
 11
152.876061118677
 21
228.35
 31
0.0
  0
LINE
  5
26D
  8
1
  6
CONTINUOUS
 62
     7
 10
151.5
 20
226.75
 30
0.0
 11
152.876061118677
 21
226.75
 31
0.0
  0
ARC
  5
26E
  8
1
  6
CONTINUOUS
 62
     7
 10
135.4999999999999
 20
214.0
 30
0.0
 40
26.50000000000001
 50
16.44046311663868
 51
20.07459363720199
  0
ARC
  5
26F
  8
1
  6
CONTINUOUS
 62
     7
 10
135.4999999999999
 20
214.0
 30
0.0
 40
24.90000000000001
 50
17.52998173307301
 51
20.07459363720195
  0
CIRCLE
  5
270
  8
1
  6
CONTINUOUS
 62
     7
 10
135.5
 20
205.0
 30
0.0
 40
10.65000000000002
  0
CIRCLE
  5
271
  8
1
  6
CONTINUOUS
 62
     7
 10
135.5
 20
175.0
 30
0.0
 40
10.65000000000002
  0
CIRCLE
  5
272
  8
1
  6
CONTINUOUS
 62
     7
 10
89.5
 20
205.0
 30
0.0
 40
10.65000000000002
  0
CIRCLE
  5
273
  8
1
  6
CONTINUOUS
 62
     7
 10
89.5
 20
175.0
 30
0.0
 40
10.65000000000002
  0
CIRCLE
  5
274
  8
1
  6
CONTINUOUS
 62
     7
 10
74.50000000000001
 20
190.0
 30
0.0
 40
1.750000000000002
  0
LINE
  5
275
  8
1
  6
CONTINUOUS
 62
     7
 10
271.7480529811255
 20
145.15
 30
0.0
 11
271.7480529811255
 21
149.15
 31
0.0
  0
LINE
  5
276
  8
1
  6
CONTINUOUS
 62
     7
 10
271.7480529811255
 20
230.85
 30
0.0
 11
271.7480529811255
 21
232.85
 31
0.0
  0
LINE
  5
277
  8
1
  6
CONTINUOUS
 62
     7
 10
271.7480529811255
 20
232.85
 30
0.0
 11
271.7480529811255
 21
234.85
 31
0.0
  0
LINE
  5
278
  8
1
  6
CONTINUOUS
 62
     7
 10
230.7480529811255
 20
142.75
 30
0.0
 11
223.7480529811255
 21
141.05
 31
0.0
  0
LINE
  5
279
  8
1
  6
CONTINUOUS
 62
     7
 10
269.1480529811254
 20
151.65
 30
0.0
 11
269.1480529811254
 21
142.75
 31
0.0
  0
LINE
  5
27A
  8
1
  6
CONTINUOUS
 62
     7
 10
257.5480529811254
 20
228.35
 30
0.0
 11
258.0791767603629
 21
228.35
 31
0.0
  0
LINE
  5
27B
  8
1
  6
CONTINUOUS
 62
     7
 10
239.4169292018879
 20
228.35
 30
0.0
 11
239.9480529811254
 21
228.35
 31
0.0
  0
LINE
  5
27C
  8
1
  6
CONTINUOUS
 62
     7
 10
223.7480529811254
 20
237.370887608486
 30
0.0
 11
223.7480529811254
 21
238.05
 31
0.0
  0
LINE
  5
27D
  8
1
  6
CONTINUOUS
 62
     7
 10
267.9480529811254
 20
237.25
 30
0.0
 11
230.7480529811254
 21
237.25
 31
0.0
  0
LINE
  5
27E
  8
1
  6
CONTINUOUS
 62
     7
 10
269.1480529811254
 20
237.25
 30
0.0
 11
269.1480529811254
 21
228.35
 31
0.0
  0
LINE
  5
27F
  8
1
  6
CONTINUOUS
 62
     7
 10
267.9480529811254
 20
237.25
 30
0.0
 11
269.1480529811254
 21
237.25
 31
0.0
  0
LINE
  5
280
  8
1
  6
CONTINUOUS
 62
     7
 10
230.7480529811255
 20
237.25
 30
0.0
 11
223.7480529811255
 21
238.95
 31
0.0
  0
LINE
  5
281
  8
1
  6
CONTINUOUS
 62
     7
 10
220.1480529811254
 20
185.0
 30
0.0
 11
218.5480529811254
 21
185.0
 31
0.0
  0
LINE
  5
282
  8
1
  6
CONTINUOUS
 62
     7
 10
220.1480529811254
 20
184.0
 30
0.0
 11
220.1480529811254
 21
185.0
 31
0.0
  0
LINE
  5
283
  8
1
  6
CONTINUOUS
 62
     7
 10
218.5480529811254
 20
184.0
 30
0.0
 11
218.5480529811254
 21
185.0
 31
0.0
  0
LINE
  5
284
  8
1
  6
CONTINUOUS
 62
     7
 10
220.1480529811254
 20
196.0
 30
0.0
 11
220.1480529811254
 21
195.0
 31
0.0
  0
LINE
  5
285
  8
1
  6
CONTINUOUS
 62
     7
 10
220.1480529811254
 20
195.0
 30
0.0
 11
218.5480529811254
 21
195.0
 31
0.0
  0
LINE
  5
286
  8
1
  6
CONTINUOUS
 62
     7
 10
218.5480529811254
 20
196.0
 30
0.0
 11
218.5480529811254
 21
195.0
 31
0.0
  0
LINE
  5
287
  8
1
  6
CONTINUOUS
 62
     7
 10
220.1480529811254
 20
224.0
 30
0.0
 11
220.1480529811254
 21
213.5
 31
0.0
  0
LINE
  5
288
  8
1
  6
CONTINUOUS
 62
     7
 10
218.5480529811254
 20
224.0
 30
0.0
 11
218.5480529811254
 21
213.5
 31
0.0
  0
LINE
  5
289
  8
1
  6
CONTINUOUS
 62
     7
 10
220.1480529811254
 20
156.0
 30
0.0
 11
220.1480529811254
 21
166.5
 31
0.0
  0
LINE
  5
28A
  8
1
  6
CONTINUOUS
 62
     7
 10
218.5480529811254
 20
156.0
 30
0.0
 11
218.5480529811254
 21
166.5
 31
0.0
  0
LINE
  5
28B
  8
1
  6
CONTINUOUS
 62
     7
 10
220.1480529811254
 20
210.5
 30
0.0
 11
220.1480529811254
 21
196.0
 31
0.0
  0
LINE
  5
28C
  8
1
  6
CONTINUOUS
 62
     7
 10
218.5480529811254
 20
210.5
 30
0.0
 11
218.5480529811254
 21
196.0
 31
0.0
  0
LINE
  5
28D
  8
1
  6
CONTINUOUS
 62
     7
 10
220.1480529811254
 20
169.5
 30
0.0
 11
220.1480529811254
 21
184.0
 31
0.0
  0
LINE
  5
28E
  8
1
  6
CONTINUOUS
 62
     7
 10
218.5480529811254
 20
169.5
 30
0.0
 11
218.5480529811254
 21
184.0
 31
0.0
  0
LINE
  5
28F
  8
1
  6
CONTINUOUS
 62
     7
 10
220.1480529811254
 20
154.0
 30
0.0
 11
218.5480529811254
 21
154.0
 31
0.0
  0
LINE
  5
290
  8
1
  6
CONTINUOUS
 62
     7
 10
220.1480529811254
 20
154.0
 30
0.0
 11
220.1480529811254
 21
156.0
 31
0.0
  0
LINE
  5
291
  8
1
  6
CONTINUOUS
 62
     7
 10
218.5480529811254
 20
154.0
 30
0.0
 11
218.5480529811254
 21
156.0
 31
0.0
  0
LINE
  5
292
  8
1
  6
CONTINUOUS
 62
     7
 10
220.1480529811254
 20
226.0
 30
0.0
 11
218.5480529811254
 21
226.0
 31
0.0
  0
LINE
  5
293
  8
1
  6
CONTINUOUS
 62
     7
 10
220.1480529811254
 20
226.0
 30
0.0
 11
220.1480529811254
 21
224.0
 31
0.0
  0
LINE
  5
294
  8
1
  6
CONTINUOUS
 62
     7
 10
218.5480529811254
 20
226.0
 30
0.0
 11
218.5480529811254
 21
224.0
 31
0.0
  0
LINE
  5
295
  8
1
  6
CONTINUOUS
 62
     7
 10
220.1480529811254
 20
212.5
 30
0.0
 11
220.1480529811254
 21
213.5
 31
0.0
  0
LINE
  5
296
  8
1
  6
CONTINUOUS
 62
     7
 10
218.5480529811254
 20
212.5
 30
0.0
 11
218.5480529811254
 21
213.5
 31
0.0
  0
LINE
  5
297
  8
1
  6
CONTINUOUS
 62
     7
 10
220.1480529811254
 20
167.5
 30
0.0
 11
220.1480529811254
 21
166.5
 31
0.0
  0
LINE
  5
298
  8
1
  6
CONTINUOUS
 62
     7
 10
218.5480529811254
 20
167.5
 30
0.0
 11
218.5480529811254
 21
166.5
 31
0.0
  0
LINE
  5
299
  8
1
  6
CONTINUOUS
 62
     7
 10
220.1480529811254
 20
169.5
 30
0.0
 11
220.1480529811254
 21
168.5
 31
0.0
  0
LINE
  5
29A
  8
1
  6
CONTINUOUS
 62
     7
 10
218.5480529811254
 20
169.5
 30
0.0
 11
218.5480529811254
 21
168.5
 31
0.0
  0
LINE
  5
29B
  8
1
  6
CONTINUOUS
 62
     7
 10
220.1480529811254
 20
210.5
 30
0.0
 11
220.1480529811254
 21
211.5
 31
0.0
  0
LINE
  5
29C
  8
1
  6
CONTINUOUS
 62
     7
 10
218.5480529811254
 20
210.5
 30
0.0
 11
218.5480529811254
 21
211.5
 31
0.0
  0
LINE
  5
29D
  8
1
  6
CONTINUOUS
 62
     7
 10
220.1480529811254
 20
212.5
 30
0.0
 11
220.1480529811254
 21
211.5
 31
0.0
  0
LINE
  5
29E
  8
1
  6
CONTINUOUS
 62
     7
 10
218.5480529811254
 20
212.5
 30
0.0
 11
218.5480529811254
 21
211.5
 31
0.0
  0
LINE
  5
29F
  8
1
  6
CONTINUOUS
 62
     7
 10
220.1480529811254
 20
167.5
 30
0.0
 11
220.1480529811254
 21
168.5
 31
0.0
  0
LINE
  5
2A0
  8
1
  6
CONTINUOUS
 62
     7
 10
218.5480529811254
 20
167.5
 30
0.0
 11
218.5480529811254
 21
168.5
 31
0.0
  0
LINE
  5
2A1
  8
1
  6
CONTINUOUS
 62
     7
 10
220.6480529811254
 20
185.0000000000001
 30
0.0
 11
220.1480529811254
 21
185.0000000000001
 31
0.0
  0
LINE
  5
2A2
  8
1
  6
CONTINUOUS
 62
     7
 10
220.1480529811254
 20
194.9999999999999
 30
0.0
 11
220.6480529811254
 21
194.9999999999999
 31
0.0
  0
LINE
  5
2A3
  8
1
  6
CONTINUOUS
 62
     7
 10
220.1480529811254
 20
217.0
 30
0.0
 11
220.1507651502301
 21
217.0
 31
0.0
  0
LINE
  5
2A4
  8
1
  6
CONTINUOUS
 62
     7
 10
220.1507651502301
 20
217.0
 30
0.0
 11
220.6480529811254
 21
217.0
 31
0.0
  0
LINE
  5
2A5
  8
1
  6
CONTINUOUS
 62
     7
 10
220.6480529811254
 20
163.0
 30
0.0
 11
220.1503253073191
 21
163.0
 31
0.0
  0
LINE
  5
2A6
  8
1
  6
CONTINUOUS
 62
     7
 10
220.1503253073191
 20
163.0
 30
0.0
 11
220.1480529811254
 21
163.0
 31
0.0
  0
ARC
  5
2A7
  8
1
  6
CONTINUOUS
 62
     7
 10
221.5480529811254
 20
186.6000000000001
 30
0.0
 40
1.59999999999999
 50
270.0
 51
359.9999999999998
  0
LINE
  5
2A8
  8
1
  6
CONTINUOUS
 62
     7
 10
223.1480529811254
 20
193.3999999999999
 30
0.0
 11
223.1480529811254
 21
186.6000000000001
 31
0.0
  0
ARC
  5
2A9
  8
1
  6
CONTINUOUS
 62
     7
 10
221.5480529811254
 20
193.3999999999999
 30
0.0
 40
1.59999999999999
 50
0.0
 51
90.0
  0
LINE
  5
2AA
  8
1
  6
CONTINUOUS
 62
     7
 10
220.6480529811254
 20
185.0
 30
0.0
 11
221.5480529811254
 21
185.0
 31
0.0
  0
LINE
  5
2AB
  8
1
  6
CONTINUOUS
 62
     7
 10
220.6480529811254
 20
194.9999999999999
 30
0.0
 11
221.5480529811254
 21
194.9999999999999
 31
0.0
  0
LINE
  5
2AC
  8
1
  6
CONTINUOUS
 62
     7
 10
269.1480529811254
 20
219.75
 30
0.0
 11
269.1480529811254
 21
214.0000000000001
 31
0.0
  0
LINE
  5
2AD
  8
1
  6
CONTINUOUS
 62
     7
 10
269.1480529811254
 20
214.0000000000001
 30
0.0
 11
269.1480529811254
 21
166.0000000000001
 31
0.0
  0
LINE
  5
2AE
  8
1
  6
CONTINUOUS
 62
     7
 10
228.6480529811254
 20
156.9040540540541
 30
0.0
 11
228.6480529811254
 21
158.5
 31
0.0
  0
LINE
  5
2AF
  8
1
  6
CONTINUOUS
 62
     7
 10
223.7480529811255
 20
158.5
 30
0.0
 11
228.6480529811254
 21
158.5
 31
0.0
  0
ARC
  5
2B0
  8
1
  6
CONTINUOUS
 62
     7
 10
223.748077262863
 20
160.1000242817375
 30
0.0
 40
1.600024281921776
 50
180.0008695124792
 51
269.9991304875219
  0
LINE
  5
2B1
  8
1
  6
CONTINUOUS
 62
     7
 10
222.1480529811254
 20
160.1
 30
0.0
 11
222.1480529811254
 21
163.0
 31
0.0
  0
LINE
  5
2B2
  8
1
  6
CONTINUOUS
 62
     7
 10
220.6480529811254
 20
163.0
 30
0.0
 11
222.1480529811254
 21
163.0
 31
0.0
  0
LINE
  5
2B3
  8
1
  6
CONTINUOUS
 62
     7
 10
269.1480529811254
 20
166.0000000000001
 30
0.0
 11
269.1480529811254
 21
160.2500000000001
 31
0.0
  0
LINE
  5
2B4
  8
1
  6
CONTINUOUS
 62
     7
 10
222.1480529811254
 20
219.9
 30
0.0
 11
222.1480529811254
 21
217.0
 31
0.0
  0
ARC
  5
2B5
  8
1
  6
CONTINUOUS
 62
     7
 10
223.7480730617475
 20
219.8999799193779
 30
0.0
 40
1.60002008074808
 50
90.00071907528385
 51
179.9992809247152
  0
LINE
  5
2B6
  8
1
  6
CONTINUOUS
 62
     7
 10
223.7480529811255
 20
221.5
 30
0.0
 11
228.6480529811254
 21
221.5
 31
0.0
  0
LINE
  5
2B7
  8
1
  6
CONTINUOUS
 62
     7
 10
228.6480529811254
 20
223.0959459459459
 30
0.0
 11
228.6480529811254
 21
221.5
 31
0.0
  0
LINE
  5
2B8
  8
1
  6
CONTINUOUS
 62
     7
 10
220.6480529811254
 20
217.0
 30
0.0
 11
222.1480529811254
 21
217.0
 31
0.0
  0
LINE
  5
2B9
  8
1
  6
CONTINUOUS
 62
     7
 10
260.5480529811254
 20
228.35
 30
0.0
 11
258.0791767603629
 21
228.35
 31
0.0
  0
LINE
  5
2BA
  8
1
  6
CONTINUOUS
 62
     7
 10
239.4169292018879
 20
228.35
 30
0.0
 11
228.6480529811254
 21
228.35
 31
0.0
  0
LINE
  5
2BB
  8
1
  6
CONTINUOUS
 62
     7
 10
228.6480529811254
 20
228.35
 30
0.0
 11
228.6480529811254
 21
223.0959459459459
 31
0.0
  0
LINE
  5
2BC
  8
1
  6
CONTINUOUS
 62
     7
 10
228.6480529811254
 20
151.65
 30
0.0
 11
228.6480529811254
 21
156.9040540540541
 31
0.0
  0
LINE
  5
2BD
  8
1
  6
CONTINUOUS
 62
     7
 10
223.7480529811254
 20
143.7514368290685
 30
0.0
 11
223.7480529811254
 21
141.0
 31
0.0
  0
LINE
  5
2BE
  8
1
  6
CONTINUOUS
 62
     7
 10
223.7480529811254
 20
141.0
 30
0.0
 11
222.1480529811254
 21
141.0
 31
0.0
  0
LINE
  5
2BF
  8
1
  6
CONTINUOUS
 62
     7
 10
222.1480529811254
 20
143.7514368290685
 30
0.0
 11
222.1480529811254
 21
141.0
 31
0.0
  0
LINE
  5
2C0
  8
1
  6
CONTINUOUS
 62
     7
 10
223.7480529811254
 20
150.6500000000001
 30
0.0
 11
223.7480529811254
 21
143.7514368290685
 31
0.0
  0
LINE
  5
2C1
  8
1
  6
CONTINUOUS
 62
     7
 10
222.1480529811254
 20
150.6500000000001
 30
0.0
 11
222.1480529811254
 21
143.7514368290685
 31
0.0
  0
ARC
  5
2C2
  8
1
  6
CONTINUOUS
 62
     7
 10
224.7480529811254
 20
150.6500000000001
 30
0.0
 40
1.000000000000001
 50
89.99999999999994
 51
180.0000000000032
  0
LINE
  5
2C3
  8
1
  6
CONTINUOUS
 62
     7
 10
228.6480529811254
 20
153.2500000000001
 30
0.0
 11
224.7480529811254
 21
153.2500000000001
 31
0.0
  0
LINE
  5
2C4
  8
1
  6
CONTINUOUS
 62
     7
 10
228.6480529811254
 20
151.6500000000001
 30
0.0
 11
224.7480529811254
 21
151.6500000000001
 31
0.0
  0
LINE
  5
2C5
  8
1
  6
CONTINUOUS
 62
     7
 10
223.7480529811254
 20
236.2485631709315
 30
0.0
 11
223.7480529811254
 21
229.35
 31
0.0
  0
LINE
  5
2C6
  8
1
  6
CONTINUOUS
 62
     7
 10
222.1480529811254
 20
236.2485631709315
 30
0.0
 11
222.1480529811254
 21
229.3500000000001
 31
0.0
  0
ARC
  5
2C7
  8
1
  6
CONTINUOUS
 62
     7
 10
224.7480529811254
 20
229.3500000000001
 30
0.0
 40
1.000000000000001
 50
180.0000000000012
 51
270.0
  0
LINE
  5
2C8
  8
1
  6
CONTINUOUS
 62
     7
 10
224.7480529811254
 20
226.75
 30
0.0
 11
228.6480529811254
 21
226.75
 31
0.0
  0
LINE
  5
2C9
  8
1
  6
CONTINUOUS
 62
     7
 10
224.7480529811254
 20
228.3500000000001
 30
0.0
 11
228.6480529811254
 21
228.3500000000001
 31
0.0
  0
LINE
  5
2CA
  8
1
  6
CONTINUOUS
 62
     7
 10
223.7480529811254
 20
239.0
 30
0.0
 11
222.1480529811254
 21
239.0
 31
0.0
  0
LINE
  5
2CB
  8
1
  6
CONTINUOUS
 62
     7
 10
223.7480529811254
 20
236.2485631709315
 30
0.0
 11
223.7480529811254
 21
237.370887608486
 31
0.0
  0
LINE
  5
2CC
  8
1
  6
CONTINUOUS
 62
     7
 10
223.7480529811254
 20
238.05
 30
0.0
 11
223.7480529811254
 21
239.0
 31
0.0
  0
LINE
  5
2CD
  8
1
  6
CONTINUOUS
 62
     7
 10
222.1480529811254
 20
236.2485631709315
 30
0.0
 11
222.1480529811254
 21
239.0
 31
0.0
  0
LINE
  5
2CE
  8
1
  6
CONTINUOUS
 62
     7
 10
222.1480529811254
 20
229.3500000000001
 30
0.0
 11
222.1480529811254
 21
228.2154764940142
 31
0.0
  0
LINE
  5
2CF
  8
1
  6
CONTINUOUS
 62
     7
 10
260.5480529811254
 20
228.3500000000001
 30
0.0
 11
261.2040478536018
 21
228.2658836871536
 31
0.0
  0
LINE
  5
2D0
  8
1
  6
CONTINUOUS
 62
     7
 10
222.1480529811254
 20
151.7845235059858
 30
0.0
 11
222.1480529811254
 21
150.6500000000001
 31
0.0
  0
LINE
  5
2D1
  8
1
  6
CONTINUOUS
 62
     7
 10
271.7480529811255
 20
149.15
 30
0.0
 11
269.1480529811254
 21
149.15
 31
0.0
  0
LINE
  5
2D2
  8
1
  6
CONTINUOUS
 62
     7
 10
269.1480529811254
 20
145.15
 30
0.0
 11
271.7480529811255
 21
145.15
 31
0.0
  0
LINE
  5
2D3
  8
1
  6
CONTINUOUS
 62
     7
 10
271.7480529811255
 20
234.85
 30
0.0
 11
269.1480529811254
 21
234.85
 31
0.0
  0
LINE
  5
2D4
  8
1
  6
CONTINUOUS
 62
     7
 10
269.1480529811254
 20
230.85
 30
0.0
 11
271.7480529811255
 21
230.85
 31
0.0
  0
ARC
  5
2D5
  8
1
  6
CONTINUOUS
 62
     7
 10
260.5886257219342
 20
160.268855792286
 30
0.0
 40
8.559448028131769
 50
269.7284105809927
 51
359.8737817920485
  0
ARC
  5
2D6
  8
1
  6
CONTINUOUS
 62
     7
 10
260.5894749911915
 20
219.7319993940579
 30
0.0
 40
8.558596919565451
 50
0.1205056762493361
 51
90.27730195070963
  0
ARC
  5
2D7
  8
1
  6
CONTINUOUS
 62
     7
 10
224.487466671426
 20
229.3500000000001
 30
0.0
 40
2.600000000000019
 50
205.8715584082996
 51
270.0
  0
ARC
  5
2D8
  8
1
  6
CONTINUOUS
 62
     7
 10
224.4874666714261
 20
150.6500000000001
 30
0.0
 40
2.599999999999991
 50
90.0
 51
154.1284415917041
  0
TEXT
  5
2D9
  8
1
  6
CONTINUOUS
 62
     7
 10
221.9796173565087
 20
76.12848568213079
 30
0.0
 40
10.0
  1
SBP-2FGY(M)
  0
LINE
  5
2DA
  8
0
  6
CENTER
 62
     1
 10
210.0
 20
190.0
 30
0.0
 11
279.9999999999999
 21
190.0
 31
0.0
  0
LINE
  5
2DC
  8
0
  6
CENTER
 62
     1
 10
112.5
 20
38.35194701887458
 30
0.0
 11
112.5
 21
105.3519470188746
 31
0.0
  0
LINE
  5
2DD
  8
0
  6
CENTER
 62
     1
 10
54.50000000000003
 20
190.0
 30
0.0
 11
170.5
 21
190.0
 31
0.0
  0
LINE
  5
2DE
  8
0
  6
CENTER
 62
     1
 10
112.5
 20
140.0
 30
0.0
 11
112.5
 21
237.0
 31
0.0
  0
LINE
  5
2DF
  8
1
  6
CONTINUOUS
 62
     7
 10
130.65
 20
52.65548691935397
 30
0.0
 11
130.65
 21
93.75194701887455
 31
0.0
  0
LINE
  5
2E0
  8
1
  6
CONTINUOUS
 62
     7
 10
131.85
 20
52.65548691935397
 30
0.0
 11
131.85
 21
93.75194701887455
 31
0.0
  0
LINE
  5
2E1
  8
1
  6
CONTINUOUS
 62
     7
 10
269.1480529811254
 20
142.75
 30
0.0
 11
230.7480529811255
 21
142.75
 31
0.0
  0
LINE
  5
2E2
  8
1
  6
CONTINUOUS
 62
     7
 10
151.5
 20
93.75194701887455
 30
0.0
 11
119.5
 21
93.75194701887455
 31
0.0
  0
LINE
  5
2E3
  8
1
  6
CONTINUOUS
 62
     7
 10
128.5
 20
49.55194701887454
 30
0.0
 11
128.5
 21
93.75194701887455
 31
0.0
  0
LINE
  5
2E4
  8
1
  6
CONTINUOUS
 62
     7
 10
95.9
 20
54.35194701887457
 30
0.0
 11
85.85000000000001
 21
54.35194701887457
 31
0.0
  0
LINE
  5
2E5
  8
1
  6
CONTINUOUS
 62
     7
 10
124.5
 20
93.75194701887455
 30
0.0
 11
124.5
 21
49.55194701887454
 31
0.0
  0
LINE
  5
2E6
  8
1
  6
CONTINUOUS
 62
     7
 10
142.9
 20
48.35194701887458
 30
0.0
 11
142.9
 21
53.35194701887457
 31
0.0
  0
LINE
  5
2E7
  8
1
  6
CONTINUOUS
 62
     7
 10
224.7480529811254
 20
151.65
 30
0.0
 11
269.1480529811254
 21
151.65
 31
0.0
  0
LINE
  5
2E8
  8
1
  6
CONTINUOUS
 62
     7
 10
224.7480529811254
 20
228.35
 30
0.0
 11
269.1480529811254
 21
228.35
 31
0.0
  0
LINE
  5
2E9
  8
1
  6
CONTINUOUS
 62
     7
 10
78.49999999999999
 20
93.75194701887455
 30
0.0
 11
78.49999999999999
 21
49.55194701887454
 31
0.0
  0
LINE
  5
2EA
  8
1
  6
CONTINUOUS
 62
     7
 10
82.49999999999999
 20
49.55194701887454
 30
0.0
 11
82.49999999999999
 21
93.75194701887455
 31
0.0
  0
LINE
  5
2EB
  8
1
  6
CONTINUOUS
 62
     7
 10
122.35
 20
49.55194701887454
 30
0.0
 11
122.35
 21
93.75194701887455
 31
0.0
  0
LINE
  5
2EC
  8
1
  6
CONTINUOUS
 62
     7
 10
96.9
 20
48.35194701887458
 30
0.0
 11
96.9
 21
53.35194701887457
 31
0.0
  0
ENDSEC
  0
EOF
