  0
SECTION
  2
HEADER
  9
$ACADVER
  1
AC1014
  9
$ACADMAINTVER
 70
     9
  9
$DWGCODEPAGE
  3
ANSI_932
  9
$INSBASE
 10
0.0
 20
0.0
 30
0.0
  9
$EXTMIN
 10
47.43180667547158
 20
23.63180667547153
 30
0.0
  9
$EXTMAX
 10
236.8500000000001
 20
195.05
 30
0.0
  9
$LIMMIN
 10
0.0
 20
0.0
  9
$LIMMAX
 10
12.0
 20
9.0
  9
$ORTHOMODE
 70
     0
  9
$REGENMODE
 70
     1
  9
$FILLMODE
 70
     1
  9
$QTEXTMODE
 70
     0
  9
$MIRRTEXT
 70
     1
  9
$DRAGMODE
 70
     2
  9
$LTSCALE
 40
1.0
  9
$OSMODE
 70
    37
  9
$ATTMODE
 70
     1
  9
$TEXTSIZE
 40
0.2
  9
$TRACEWID
 40
0.05
  9
$TEXTSTYLE
  7
STANDARD
  9
$CLAYER
  8
0
  9
$CELTYPE
  6
BYLAYER
  9
$CECOLOR
 62
   256
  9
$CELTSCALE
 40
1.0
  9
$DELOBJ
 70
     1
  9
$DISPSILH
 70
     0
  9
$DIMSCALE
 40
1.0
  9
$DIMASZ
 40
3.0
  9
$DIMEXO
 40
0.0625
  9
$DIMDLI
 40
0.38
  9
$DIMRND
 40
0.0
  9
$DIMDLE
 40
0.0
  9
$DIMEXE
 40
1.5
  9
$DIMTP
 40
0.0
  9
$DIMTM
 40
0.0
  9
$DIMTXT
 40
3.0
  9
$DIMCEN
 40
0.09
  9
$DIMTSZ
 40
0.0
  9
$DIMTOL
 70
     0
  9
$DIMLIM
 70
     0
  9
$DIMTIH
 70
     1
  9
$DIMTOH
 70
     1
  9
$DIMSE1
 70
     0
  9
$DIMSE2
 70
     0
  9
$DIMTAD
 70
     1
  9
$DIMZIN
 70
     0
  9
$DIMBLK
  1

  9
$DIMASO
 70
     1
  9
$DIMSHO
 70
     1
  9
$DIMPOST
  1

  9
$DIMAPOST
  1

  9
$DIMALT
 70
     0
  9
$DIMALTD
 70
     2
  9
$DIMALTF
 40
25.4
  9
$DIMLFAC
 40
1.0
  9
$DIMTOFL
 70
     0
  9
$DIMTVP
 40
0.0
  9
$DIMTIX
 70
     0
  9
$DIMSOXD
 70
     0
  9
$DIMSAH
 70
     0
  9
$DIMBLK1
  1

  9
$DIMBLK2
  1

  9
$DIMSTYLE
  2
STANDARD
  9
$DIMCLRD
 70
     0
  9
$DIMCLRE
 70
     0
  9
$DIMCLRT
 70
     0
  9
$DIMTFAC
 40
1.0
  9
$DIMGAP
 40
1.5
  9
$DIMJUST
 70
     0
  9
$DIMSD1
 70
     0
  9
$DIMSD2
 70
     0
  9
$DIMTOLJ
 70
     1
  9
$DIMTZIN
 70
     0
  9
$DIMALTZ
 70
     0
  9
$DIMALTTZ
 70
     0
  9
$DIMFIT
 70
     3
  9
$DIMUPT
 70
     0
  9
$DIMUNIT
 70
     2
  9
$DIMDEC
 70
     2
  9
$DIMTDEC
 70
     4
  9
$DIMALTU
 70
     2
  9
$DIMALTTD
 70
     2
  9
$DIMTXSTY
  7
ＭＳ_ゴシック
  9
$DIMAUNIT
 70
     0
  9
$LUNITS
 70
     2
  9
$LUPREC
 70
     4
  9
$SKETCHINC
 40
0.1
  9
$FILLETRAD
 40
0.5
  9
$AUNITS
 70
     0
  9
$AUPREC
 70
     0
  9
$MENU
  1
.
  9
$ELEVATION
 40
0.0
  9
$PELEVATION
 40
0.0
  9
$THICKNESS
 40
0.0
  9
$LIMCHECK
 70
     0
  9
$CHAMFERA
 40
0.0
  9
$CHAMFERB
 40
0.0
  9
$CHAMFERC
 40
0.0
  9
$CHAMFERD
 40
0.0
  9
$SKPOLY
 70
     0
  9
$TDCREATE
 40
2460297.705285208
  9
$TDUPDATE
 40
2460297.705285475
  9
$TDINDWG
 40
0.0000000116
  9
$TDUSRTIMER
 40
0.0000000116
  9
$USRTIMER
 70
     1
  9
$ANGBASE
 50
0.0
  9
$ANGDIR
 70
     0
  9
$PDMODE
 70
     0
  9
$PDSIZE
 40
0.0
  9
$PLINEWID
 40
0.0
  9
$COORDS
 70
     1
  9
$SPLFRAME
 70
     0
  9
$SPLINETYPE
 70
     6
  9
$SPLINESEGS
 70
     8
  9
$ATTDIA
 70
     0
  9
$ATTREQ
 70
     1
  9
$HANDLING
 70
     1
  9
$HANDSEED
  5
244
  9
$SURFTAB1
 70
     6
  9
$SURFTAB2
 70
     6
  9
$SURFTYPE
 70
     6
  9
$SURFU
 70
     6
  9
$SURFV
 70
     6
  9
$UCSNAME
  2

  9
$UCSORG
 10
0.0
 20
0.0
 30
0.0
  9
$UCSXDIR
 10
1.0
 20
0.0
 30
0.0
  9
$UCSYDIR
 10
0.0
 20
1.0
 30
0.0
  9
$PUCSNAME
  2

  9
$PUCSORG
 10
0.0
 20
0.0
 30
0.0
  9
$PUCSXDIR
 10
1.0
 20
0.0
 30
0.0
  9
$PUCSYDIR
 10
0.0
 20
1.0
 30
0.0
  9
$USERI1
 70
     0
  9
$USERI2
 70
     0
  9
$USERI3
 70
     0
  9
$USERI4
 70
     0
  9
$USERI5
 70
     0
  9
$USERR1
 40
0.0
  9
$USERR2
 40
0.0
  9
$USERR3
 40
0.0
  9
$USERR4
 40
0.0
  9
$USERR5
 40
0.0
  9
$WORLDVIEW
 70
     1
  9
$SHADEDGE
 70
     3
  9
$SHADEDIF
 70
    70
  9
$TILEMODE
 70
     1
  9
$MAXACTVP
 70
    64
  9
$PINSBASE
 10
0.0
 20
0.0
 30
0.0
  9
$PLIMCHECK
 70
     0
  9
$PEXTMIN
 10
1.000000000000000E+20
 20
1.000000000000000E+20
 30
1.000000000000000E+20
  9
$PEXTMAX
 10
-1.000000000000000E+20
 20
-1.000000000000000E+20
 30
-1.000000000000000E+20
  9
$PLIMMIN
 10
0.0
 20
0.0
  9
$PLIMMAX
 10
12.0
 20
9.0
  9
$UNITMODE
 70
     0
  9
$VISRETAIN
 70
     1
  9
$PLINEGEN
 70
     0
  9
$PSLTSCALE
 70
     1
  9
$TREEDEPTH
 70
  3020
  9
$PICKSTYLE
 70
     1
  9
$CMLSTYLE
  2
STANDARD
  9
$CMLJUST
 70
     0
  9
$CMLSCALE
 40
1.0
  9
$PROXYGRAPHICS
 70
     1
  9
$MEASUREMENT
 70
     1
  0
ENDSEC
  0
SECTION
  2
CLASSES
  0
CLASS
  1
ACDBDICTIONARYWDFLT
  2
AcDbDictionaryWithDefault
  3
ObjectDBX Classes
 90
        0
280
     0
281
     0
  0
CLASS
  1
VISUALSTYLE
  2
AcDbVisualStyle
  3
ObjectDBX Classes
 90
     4095
280
     0
281
     0
  0
CLASS
  1
MATERIAL
  2
AcDbMaterial
  3
ObjectDBX Classes
 90
     1153
280
     0
281
     0
  0
CLASS
  1
SCALE
  2
AcDbScale
  3
ObjectDBX Classes
 90
     1153
280
     0
281
     0
  0
CLASS
  1
TABLESTYLE
  2
AcDbTableStyle
  3
ObjectDBX Classes
 90
     4095
280
     0
281
     0
  0
CLASS
  1
MLEADERSTYLE
  2
AcDbMLeaderStyle
  3
ACDB_MLEADERSTYLE_CLASS
 90
     4095
280
     0
281
     0
  0
CLASS
  1
SUN
  2
AcDbSun
  3
SCENEOE
 90
     1153
280
     0
281
     0
  0
CLASS
  1
DICTIONARYVAR
  2
AcDbDictionaryVar
  3
ObjectDBX Classes
 90
        0
280
     0
281
     0
  0
CLASS
  1
XRECORD
  2
AcDbXrecord
  3
ObjectDBX Classes
 90
        0
280
     0
281
     0
  0
CLASS
  1
LWPOLYLINE
  2
AcDbPolyline
  3
ObjectDBX Classes
 90
        0
280
     0
281
     1
  0
CLASS
  1
HATCH
  2
AcDbHatch
  3
ObjectDBX Classes
 90
        0
280
     0
281
     1
  0
CLASS
  1
ACDBPLACEHOLDER
  2
AcDbPlaceHolder
  3
ObjectDBX Classes
 90
        0
280
     0
281
     0
  0
CLASS
  1
LAYOUT
  2
AcDbLayout
  3
ObjectDBX Classes
 90
        0
280
     0
281
     0
  0
ENDSEC
  0
SECTION
  2
TABLES
  0
TABLE
  2
VPORT
  5
8
102
{ACAD_XDICTIONARY
360
239
102
}
330
0
100
AcDbSymbolTable
 70
     1
  0
VPORT
  5
29
330
8
100
AcDbSymbolTableRecord
100
AcDbViewportTableRecord
  2
*ACTIVE
 70
     0
 10
0.0
 20
0.0
 11
1.0
 21
1.0
 12
142.1409033377358
 22
109.3409033377358
 13
0.0
 23
0.0
 14
0.5
 24
0.5
 15
0.5
 25
0.5
 16
0.0
 26
0.0
 36
1.0
 17
0.0
 27
0.0
 37
0.0
 40
171.4181933245285
 41
1.6
 42
50.0
 43
0.0
 44
0.0
 50
0.0
 51
0.0
 71
     0
 72
   100
 73
     1
 74
     3
 75
     0
 76
     0
 77
     0
 78
     0
  0
ENDTAB
  0
TABLE
  2
LTYPE
  5
5
330
0
100
AcDbSymbolTable
 70
     1
  0
LTYPE
  5
14
330
5
100
AcDbSymbolTableRecord
100
AcDbLinetypeTableRecord
  2
BYBLOCK
 70
     0
  3

 72
    65
 73
     0
 40
0.0
  0
LTYPE
  5
15
330
5
100
AcDbSymbolTableRecord
100
AcDbLinetypeTableRecord
  2
BYLAYER
 70
     0
  3

 72
    65
 73
     0
 40
0.0
  0
LTYPE
  5
16
330
5
100
AcDbSymbolTableRecord
100
AcDbLinetypeTableRecord
  2
CONTINUOUS
 70
     0
  3
Solid line
 72
    65
 73
     0
 40
0.0
  0
ENDTAB
  0
TABLE
  2
LAYER
  5
2
330
0
100
AcDbSymbolTable
 70
     2
  0
LAYER
  5
10
330
2
100
AcDbSymbolTableRecord
100
AcDbLayerTableRecord
  2
0
 70
     0
 62
     7
  6
CONTINUOUS
  0
LAYER
  5
6E
330
2
100
AcDbSymbolTableRecord
100
AcDbLayerTableRecord
  2
1
 70
     0
 62
     7
  6
CONTINUOUS
  0
ENDTAB
  0
TABLE
  2
STYLE
  5
3
330
0
100
AcDbSymbolTable
 70
     2
  0
STYLE
  5
11
330
3
100
AcDbSymbolTableRecord
100
AcDbTextStyleTableRecord
  2
STANDARD
 70
     0
 40
0.0
 41
1.0
 50
0.0
 71
     0
 42
0.2
  3
txt
  4

  0
STYLE
  5
6F
330
3
100
AcDbSymbolTableRecord
100
AcDbTextStyleTableRecord
  2
ＭＳ_ゴシック
 70
     0
 40
0.0
 41
1.0
 50
0.0
 71
     0
 42
0.2
  3
ＭＳ ゴシック.shx
  4

  0
ENDTAB
  0
TABLE
  2
VIEW
  5
6
330
0
100
AcDbSymbolTable
 70
     0
  0
ENDTAB
  0
TABLE
  2
UCS
  5
7
330
0
100
AcDbSymbolTable
 70
     0
  0
ENDTAB
  0
TABLE
  2
APPID
  5
9
330
0
100
AcDbSymbolTable
 70
     2
  0
APPID
  5
12
330
9
100
AcDbSymbolTableRecord
100
AcDbRegAppTableRecord
  2
ACAD
 70
     0
  0
APPID
  5
243
330
9
100
AcDbSymbolTableRecord
100
AcDbRegAppTableRecord
  2
ACAD_MLEADERVER
 70
     0
  0
ENDTAB
  0
TABLE
  2
DIMSTYLE
  5
A
330
0
100
AcDbSymbolTable
 70
     1
  0
DIMSTYLE
105
27
330
A
100
AcDbSymbolTableRecord
100
AcDbDimStyleTableRecord
  2
STANDARD
 70
     0
  3

  4

  5

  6

  7

 40
1.0
 41
0.18
 42
0.0625
 43
0.38
 44
0.18
 45
0.0
 46
0.0
 47
0.0
 48
0.0
140
0.18
141
0.09
142
0.0
143
25.4
144
1.0
145
0.0
146
1.0
147
0.09
 71
     0
 72
     0
 73
     1
 74
     1
 75
     0
 76
     0
 77
     0
 78
     0
170
     0
171
     2
172
     0
173
     0
174
     0
175
     0
176
     0
177
     0
178
     0
270
     2
271
     4
272
     4
273
     2
274
     2
340
11
275
     0
280
     0
281
     0
282
     0
283
     1
284
     0
285
     0
286
     0
287
     3
288
     0
  0
ENDTAB
  0
TABLE
  2
BLOCK_RECORD
  5
1
330
0
100
AcDbSymbolTable
 70
     0
  0
BLOCK_RECORD
  5
1F
330
1
100
AcDbSymbolTableRecord
100
AcDbBlockTableRecord
  2
*MODEL_SPACE
  0
BLOCK_RECORD
  5
1B
330
1
100
AcDbSymbolTableRecord
100
AcDbBlockTableRecord
  2
*PAPER_SPACE
  0
ENDTAB
  0
ENDSEC
  0
SECTION
  2
BLOCKS
  0
BLOCK
  5
20
330
1F
100
AcDbEntity
  8
0
100
AcDbBlockBegin
  2
*MODEL_SPACE
 70
     0
 10
0.0
 20
0.0
 30
0.0
  3
*MODEL_SPACE
  1

  0
ENDBLK
  5
21
330
1F
100
AcDbEntity
  8
0
100
AcDbBlockEnd
  0
BLOCK
  5
1C
330
1B
100
AcDbEntity
 67
     1
  8
0
100
AcDbBlockBegin
  2
*PAPER_SPACE
 70
     0
 10
0.0
 20
0.0
 30
0.0
  3
*PAPER_SPACE
  1

  0
ENDBLK
  5
1D
330
1B
100
AcDbEntity
 67
     1
  8
0
100
AcDbBlockEnd
  0
ENDSEC
  0
SECTION
  2
ENTITIES
  0
LINE
  5
70
330
1F
100
AcDbEntity
  8
1
  6
CONTINUOUS
 62
     7
100
AcDbLine
 10
88.07180667547154
 20
162.55
 30
0.0
 11
88.07180667547154
 21
145.55
 31
0.0
  0
LINE
  5
71
330
1F
100
AcDbEntity
  8
1
  6
CONTINUOUS
 62
     7
100
AcDbLine
 10
88.03180667547156
 20
162.55
 30
0.0
 11
88.03180667547156
 21
161.5499999999999
 31
0.0
  0
LINE
  5
72
330
1F
100
AcDbEntity
  8
1
  6
CONTINUOUS
 62
     7
100
AcDbLine
 10
88.03180667547156
 20
161.5499999999999
 30
0.0
 11
88.03180667547156
 21
158.5499999999999
 31
0.0
  0
LINE
  5
73
330
1F
100
AcDbEntity
  8
1
  6
CONTINUOUS
 62
     7
100
AcDbLine
 10
88.03180667547156
 20
158.5499999999999
 30
0.0
 11
88.03180667547156
 21
145.55
 31
0.0
  0
LINE
  5
74
330
1F
100
AcDbEntity
  8
1
  6
CONTINUOUS
 62
     7
100
AcDbLine
 10
88.03180667547156
 20
145.55
 30
0.0
 11
88.03180667547156
 21
130.55
 31
0.0
  0
LINE
  5
75
330
1F
100
AcDbEntity
  8
1
  6
CONTINUOUS
 62
     7
100
AcDbLine
 10
88.07180667547154
 20
145.55
 30
0.0
 11
88.07180667547154
 21
130.55
 31
0.0
  0
LINE
  5
76
330
1F
100
AcDbEntity
  8
1
  6
CONTINUOUS
 62
     7
100
AcDbLine
 10
88.03180667547156
 20
130.55
 30
0.0
 11
88.03180667547156
 21
117.5500000000001
 31
0.0
  0
LINE
  5
77
330
1F
100
AcDbEntity
  8
1
  6
CONTINUOUS
 62
     7
100
AcDbLine
 10
88.03180667547156
 20
117.5500000000001
 30
0.0
 11
88.03180667547156
 21
114.5500000000001
 31
0.0
  0
LINE
  5
78
330
1F
100
AcDbEntity
  8
1
  6
CONTINUOUS
 62
     7
100
AcDbLine
 10
88.03180667547156
 20
114.5500000000001
 30
0.0
 11
88.03180667547156
 21
113.55
 31
0.0
  0
LINE
  5
79
330
1F
100
AcDbEntity
  8
1
  6
CONTINUOUS
 62
     7
100
AcDbLine
 10
88.07180667547154
 20
130.55
 30
0.0
 11
88.07180667547154
 21
113.55
 31
0.0
  0
LINE
  5
7A
330
1F
100
AcDbEntity
  8
1
  6
CONTINUOUS
 62
     7
100
AcDbLine
 10
88.03180667547156
 20
97.19257524394226
 30
0.0
 11
88.07180667547154
 21
97.19257524394226
 31
0.0
  0
LINE
  5
7B
330
1F
100
AcDbEntity
  8
1
  6
CONTINUOUS
 62
     7
100
AcDbLine
 10
88.03180667547156
 20
113.55
 30
0.0
 11
88.07180667547154
 21
113.55
 31
0.0
  0
LINE
  5
7C
330
1F
100
AcDbEntity
  8
1
  6
CONTINUOUS
 62
     7
100
AcDbLine
 10
88.03180667547156
 20
97.19257524394226
 30
0.0
 11
88.03180667547156
 21
113.55
 31
0.0
  0
LINE
  5
7D
330
1F
100
AcDbEntity
  8
1
  6
CONTINUOUS
 62
     7
100
AcDbLine
 10
88.07180667547154
 20
97.19257524394226
 30
0.0
 11
88.07180667547154
 21
113.55
 31
0.0
  0
LINE
  5
7E
330
1F
100
AcDbEntity
  8
1
  6
CONTINUOUS
 62
     7
100
AcDbLine
 10
88.03180667547156
 20
162.55
 30
0.0
 11
88.07180667547154
 21
162.55
 31
0.0
  0
LINE
  5
7F
330
1F
100
AcDbEntity
  8
1
  6
CONTINUOUS
 62
     7
100
AcDbLine
 10
88.03180667547156
 20
178.9074247560577
 30
0.0
 11
88.07180667547154
 21
178.9074247560577
 31
0.0
  0
LINE
  5
80
330
1F
100
AcDbEntity
  8
1
  6
CONTINUOUS
 62
     7
100
AcDbLine
 10
88.03180667547156
 20
178.9074247560577
 30
0.0
 11
88.03180667547156
 21
162.55
 31
0.0
  0
LINE
  5
81
330
1F
100
AcDbEntity
  8
1
  6
CONTINUOUS
 62
     7
100
AcDbLine
 10
88.07180667547154
 20
178.9074247560577
 30
0.0
 11
88.07180667547154
 21
162.55
 31
0.0
  0
LINE
  5
82
330
1F
100
AcDbEntity
  8
1
  6
CONTINUOUS
 62
     7
100
AcDbLine
 10
86.6318066754716
 20
175.5999999999999
 30
0.0
 11
86.6318066754716
 21
179.8
 31
0.0
  0
LINE
  5
83
330
1F
100
AcDbEntity
  8
1
  6
CONTINUOUS
 62
     7
100
AcDbLine
 10
86.6318066754716
 20
179.8
 30
0.0
 11
86.6318066754716
 21
184.0
 31
0.0
  0
LINE
  5
84
330
1F
100
AcDbEntity
  8
1
  6
CONTINUOUS
 62
     7
100
AcDbLine
 10
87.13180667547154
 20
175.5999999999999
 30
0.0
 11
87.13180667547154
 21
179.8
 31
0.0
  0
LINE
  5
85
330
1F
100
AcDbEntity
  8
1
  6
CONTINUOUS
 62
     7
100
AcDbLine
 10
87.13180667547154
 20
179.8
 30
0.0
 11
87.13180667547154
 21
184.0
 31
0.0
  0
LINE
  5
86
330
1F
100
AcDbEntity
  8
1
  6
CONTINUOUS
 62
     7
100
AcDbLine
 10
82.83180667547157
 20
89.99999999999997
 30
0.0
 11
82.83180667547157
 21
90.67911239151397
 31
0.0
  0
LINE
  5
87
330
1F
100
AcDbEntity
  8
1
  6
CONTINUOUS
 62
     7
100
AcDbLine
 10
48.63180667547157
 20
90.79999999999998
 30
0.0
 11
75.83180667547163
 21
90.79999999999998
 31
0.0
  0
LINE
  5
88
330
1F
100
AcDbEntity
  8
1
  6
CONTINUOUS
 62
     7
100
AcDbLine
 10
47.43180667547158
 20
90.79999999999998
 30
0.0
 11
47.43180667547158
 21
99.69999999999997
 31
0.0
  0
LINE
  5
89
330
1F
100
AcDbEntity
  8
1
  6
CONTINUOUS
 62
     7
100
AcDbLine
 10
48.63180667547157
 20
90.79999999999998
 30
0.0
 11
47.43180667547158
 21
90.79999999999998
 31
0.0
  0
LINE
  5
8A
330
1F
100
AcDbEntity
  8
1
  6
CONTINUOUS
 62
     7
100
AcDbLine
 10
82.83180667547157
 20
89.1
 30
0.0
 11
75.83180667547157
 21
90.79999999999998
 31
0.0
  0
LINE
  5
8B
330
1F
100
AcDbEntity
  8
1
  6
CONTINUOUS
 62
     7
100
AcDbLine
 10
82.83180667547157
 20
187.0
 30
0.0
 11
75.83180667547157
 21
185.3
 31
0.0
  0
LINE
  5
8C
330
1F
100
AcDbEntity
  8
1
  6
CONTINUOUS
 62
     7
100
AcDbLine
 10
47.43180667547158
 20
176.4
 30
0.0
 11
47.43180667547158
 21
185.3
 31
0.0
  0
LINE
  5
8D
330
1F
100
AcDbEntity
  8
1
  6
CONTINUOUS
 62
     7
100
AcDbLine
 10
88.03180667547156
 20
113.5499999999999
 30
0.0
 11
88.03180667547156
 21
114.5500000000001
 31
0.0
  0
LINE
  5
8E
330
1F
100
AcDbEntity
  8
1
  6
CONTINUOUS
 62
     7
100
AcDbLine
 10
88.03180667547156
 20
162.55
 30
0.0
 11
88.03180667547156
 21
161.5499999999999
 31
0.0
  0
LINE
  5
8F
330
1F
100
AcDbEntity
  8
1
  6
CONTINUOUS
 62
     7
100
AcDbLine
 10
88.03180667547156
 20
174.05
 30
0.0
 11
86.43180667547156
 21
174.05
 31
0.0
  0
LINE
  5
90
330
1F
100
AcDbEntity
  8
1
  6
CONTINUOUS
 62
     7
100
AcDbLine
 10
88.03180667547156
 20
102.05
 30
0.0
 11
86.43180667547156
 21
102.05
 31
0.0
  0
LINE
  5
91
330
1F
100
AcDbEntity
  8
1
  6
CONTINUOUS
 62
     7
100
AcDbLine
 10
88.03180667547156
 20
117.5500000000001
 30
0.0
 11
88.03180667547156
 21
130.49999
 31
0.0
  0
LINE
  5
92
330
1F
100
AcDbEntity
  8
1
  6
CONTINUOUS
 62
     7
100
AcDbLine
 10
88.03180667547156
 20
130.49999
 30
0.0
 11
88.03180667547156
 21
130.55
 31
0.0
  0
LINE
  5
93
330
1F
100
AcDbEntity
  8
1
  6
CONTINUOUS
 62
     7
100
AcDbLine
 10
88.03180667547156
 20
130.55
 30
0.0
 11
88.03180667547156
 21
130.60001
 31
0.0
  0
LINE
  5
94
330
1F
100
AcDbEntity
  8
1
  6
CONTINUOUS
 62
     7
100
AcDbLine
 10
88.03180667547156
 20
130.60001
 30
0.0
 11
88.03180667547156
 21
132.0500000000001
 31
0.0
  0
LINE
  5
95
330
1F
100
AcDbEntity
  8
1
  6
CONTINUOUS
 62
     7
100
AcDbLine
 10
88.03180667547156
 20
158.5499999999999
 30
0.0
 11
88.03180667547156
 21
145.6000099999999
 31
0.0
  0
LINE
  5
96
330
1F
100
AcDbEntity
  8
1
  6
CONTINUOUS
 62
     7
100
AcDbLine
 10
88.03180667547156
 20
145.6000099999999
 30
0.0
 11
88.03180667547156
 21
145.5499999999999
 31
0.0
  0
LINE
  5
97
330
1F
100
AcDbEntity
  8
1
  6
CONTINUOUS
 62
     7
100
AcDbLine
 10
88.03180667547156
 20
145.5499999999999
 30
0.0
 11
88.03180667547156
 21
145.4999899999999
 31
0.0
  0
LINE
  5
98
330
1F
100
AcDbEntity
  8
1
  6
CONTINUOUS
 62
     7
100
AcDbLine
 10
88.03180667547156
 20
145.4999899999999
 30
0.0
 11
88.03180667547156
 21
144.0499999999999
 31
0.0
  0
LINE
  5
99
330
1F
100
AcDbEntity
  8
1
  6
CONTINUOUS
 62
     7
100
AcDbLine
 10
86.38186606552844
 20
111.05
 30
0.0
 11
85.9318066754715
 21
111.05
 31
0.0
  0
LINE
  5
9A
330
1F
100
AcDbEntity
  8
1
  6
CONTINUOUS
 62
     7
100
AcDbLine
 10
85.9318066754715
 20
165.05
 30
0.0
 11
86.38183637501734
 21
165.05
 31
0.0
  0
LINE
  5
9B
330
1F
100
AcDbEntity
  8
1
  6
CONTINUOUS
 62
     7
100
AcDbLine
 10
84.43180667547156
 20
111.05
 30
0.0
 11
84.43180667547156
 21
108.15
 31
0.0
  0
ARC
  5
9C
330
1F
100
AcDbEntity
  8
1
  6
CONTINUOUS
 62
     7
100
AcDbCircle
 10
82.8317861391003
 20
108.1500205363713
 30
0.0
 40
1.600020536503081
100
AcDbArc
 50
270.0007353951862
 51
359.9992646048129
  0
LINE
  5
9D
330
1F
100
AcDbEntity
  8
1
  6
CONTINUOUS
 62
     7
100
AcDbLine
 10
82.83180667547157
 20
106.5500000000001
 30
0.0
 11
77.93180667547156
 21
106.5500000000001
 31
0.0
  0
LINE
  5
9E
330
1F
100
AcDbEntity
  8
1
  6
CONTINUOUS
 62
     7
100
AcDbLine
 10
77.93180667547156
 20
103.9544117647059
 30
0.0
 11
77.93180667547156
 21
106.55
 31
0.0
  0
LINE
  5
9F
330
1F
100
AcDbEntity
  8
1
  6
CONTINUOUS
 62
     7
100
AcDbLine
 10
85.9318066754715
 20
111.05
 30
0.0
 11
84.43180667547156
 21
111.05
 31
0.0
  0
LINE
  5
A0
330
1F
100
AcDbEntity
  8
1
  6
CONTINUOUS
 62
     7
100
AcDbLine
 10
77.93180667547156
 20
172.145588235294
 30
0.0
 11
77.93180667547156
 21
169.55
 31
0.0
  0
LINE
  5
A1
330
1F
100
AcDbEntity
  8
1
  6
CONTINUOUS
 62
     7
100
AcDbLine
 10
82.83180667547157
 20
169.5499999999999
 30
0.0
 11
77.93180667547156
 21
169.5499999999999
 31
0.0
  0
ARC
  5
A2
330
1F
100
AcDbEntity
  8
1
  6
CONTINUOUS
 62
     7
100
AcDbCircle
 10
82.83178267560315
 20
167.9499760001315
 30
0.0
 40
1.600024000048412
100
AcDbArc
 50
0.0008594190897671
 51
89.99914058091025
  0
LINE
  5
A3
330
1F
100
AcDbEntity
  8
1
  6
CONTINUOUS
 62
     7
100
AcDbLine
 10
84.43180667547156
 20
167.9499999999999
 30
0.0
 11
84.43180667547156
 21
165.05
 31
0.0
  0
LINE
  5
A4
330
1F
100
AcDbEntity
  8
1
  6
CONTINUOUS
 62
     7
100
AcDbLine
 10
84.43180667547156
 20
165.05
 30
0.0
 11
85.9318066754715
 21
165.05
 31
0.0
  0
LINE
  5
A5
330
1F
100
AcDbEntity
  8
1
  6
CONTINUOUS
 62
     7
100
AcDbLine
 10
47.43180667547158
 20
120.9375203592885
 30
0.0
 11
47.43180667547158
 21
155.1624796407115
 31
0.0
  0
LINE
  5
A6
330
1F
100
AcDbEntity
  8
1
  6
CONTINUOUS
 62
     7
100
AcDbLine
 10
47.43180667547158
 20
114.0029577566922
 30
0.0
 11
47.43180667547158
 21
120.9375203592885
 31
0.0
  0
LINE
  5
A7
330
1F
100
AcDbEntity
  8
1
  6
CONTINUOUS
 62
     7
100
AcDbLine
 10
47.43180667547158
 20
155.1624796407115
 30
0.0
 11
47.43180667547158
 21
162.0970422433077
 31
0.0
  0
LINE
  5
A8
330
1F
100
AcDbEntity
  8
1
  6
CONTINUOUS
 62
     7
100
AcDbLine
 10
47.43180667547158
 20
106.7135357323677
 30
0.0
 11
47.43180667547158
 21
114.0029577566922
 31
0.0
  0
LINE
  5
A9
330
1F
100
AcDbEntity
  8
1
  6
CONTINUOUS
 62
     7
100
AcDbLine
 10
47.43180667547158
 20
162.0970422433077
 30
0.0
 11
47.43180667547158
 21
169.3864642676323
 31
0.0
  0
LINE
  5
AA
330
1F
100
AcDbEntity
  8
1
  6
CONTINUOUS
 62
     7
100
AcDbLine
 10
62.43180667547154
 20
176.3999999999999
 30
0.0
 11
77.93180667547162
 21
176.3999999999999
 31
0.0
  0
LINE
  5
AB
330
1F
100
AcDbEntity
  8
1
  6
CONTINUOUS
 62
     7
100
AcDbLine
 10
77.93180667547162
 20
176.3999999999999
 30
0.0
 11
77.93180667547156
 21
172.145588235294
 31
0.0
  0
LINE
  5
AC
330
1F
100
AcDbEntity
  8
1
  6
CONTINUOUS
 62
     7
100
AcDbLine
 10
62.43180667547154
 20
99.69999999999996
 30
0.0
 11
77.93180667547162
 21
99.69999999999996
 31
0.0
  0
LINE
  5
AD
330
1F
100
AcDbEntity
  8
1
  6
CONTINUOUS
 62
     7
100
AcDbLine
 10
77.93180667547162
 20
99.70000000000003
 30
0.0
 11
77.93180667547156
 21
103.9544117647059
 31
0.0
  0
LINE
  5
AE
330
1F
100
AcDbEntity
  8
1
  6
CONTINUOUS
 62
     7
100
AcDbLine
 10
47.43180667547158
 20
169.3864642676323
 30
0.0
 11
47.43180667547158
 21
169.7999999999999
 31
0.0
  0
ARC
  5
AF
330
1F
100
AcDbEntity
  8
1
  6
CONTINUOUS
 62
     7
100
AcDbCircle
 10
54.03180667547147
 20
169.8
 30
0.0
 40
6.599999999999883
100
AcDbArc
 50
89.99999999999905
 51
180.0000000000015
  0
ARC
  5
B0
330
1F
100
AcDbEntity
  8
1
  6
CONTINUOUS
 62
     7
100
AcDbCircle
 10
54.03180667547158
 20
106.3
 30
0.0
 40
6.599999999999994
100
AcDbArc
 50
180.0000000000002
 51
270.0
  0
LINE
  5
B1
330
1F
100
AcDbEntity
  8
1
  6
CONTINUOUS
 62
     7
100
AcDbLine
 10
47.43180667547158
 20
106.3
 30
0.0
 11
47.43180667547158
 21
106.7135357323677
 31
0.0
  0
LINE
  5
B2
330
1F
100
AcDbEntity
  8
1
  6
CONTINUOUS
 62
     7
100
AcDbLine
 10
82.83180667547157
 20
184.2985631709316
 30
0.0
 11
82.83180667547157
 21
177.3999999999999
 31
0.0
  0
LINE
  5
B3
330
1F
100
AcDbEntity
  8
1
  6
CONTINUOUS
 62
     7
100
AcDbLine
 10
84.43180667547156
 20
184.2985631709316
 30
0.0
 11
84.43180667547156
 21
177.3999999999999
 31
0.0
  0
ARC
  5
B4
330
1F
100
AcDbEntity
  8
1
  6
CONTINUOUS
 62
     7
100
AcDbCircle
 10
81.83180667547157
 20
177.3999999999999
 30
0.0
 40
1.000000000000001
100
AcDbArc
 50
270.0000000000005
 51
0.0
  0
LINE
  5
B5
330
1F
100
AcDbEntity
  8
1
  6
CONTINUOUS
 62
     7
100
AcDbLine
 10
81.83180667547157
 20
174.7999999999999
 30
0.0
 11
77.93180667547156
 21
174.7999999999999
 31
0.0
  0
LINE
  5
B6
330
1F
100
AcDbEntity
  8
1
  6
CONTINUOUS
 62
     7
100
AcDbLine
 10
81.83180667547157
 20
176.3999999999999
 30
0.0
 11
77.93180667547156
 21
176.3999999999999
 31
0.0
  0
LINE
  5
B7
330
1F
100
AcDbEntity
  8
1
  6
CONTINUOUS
 62
     7
100
AcDbLine
 10
84.43180667547156
 20
187.05
 30
0.0
 11
82.83180667547157
 21
187.05
 31
0.0
  0
LINE
  5
B8
330
1F
100
AcDbEntity
  8
1
  6
CONTINUOUS
 62
     7
100
AcDbLine
 10
82.83180667547157
 20
187.05
 30
0.0
 11
82.83180667547157
 21
184.2985631709317
 31
0.0
  0
LINE
  5
B9
330
1F
100
AcDbEntity
  8
1
  6
CONTINUOUS
 62
     7
100
AcDbLine
 10
84.43180667547156
 20
187.05
 30
0.0
 11
84.43180667547156
 21
184.2985631709316
 31
0.0
  0
LINE
  5
BA
330
1F
100
AcDbEntity
  8
1
  6
CONTINUOUS
 62
     7
100
AcDbLine
 10
82.83180667547157
 20
89.04999999999997
 30
0.0
 11
84.43180667547156
 21
89.04999999999995
 31
0.0
  0
LINE
  5
BB
330
1F
100
AcDbEntity
  8
1
  6
CONTINUOUS
 62
     7
100
AcDbLine
 10
82.83180667547157
 20
89.04999999999993
 30
0.0
 11
82.83180667547157
 21
89.99999999999987
 31
0.0
  0
LINE
  5
BC
330
1F
100
AcDbEntity
  8
1
  6
CONTINUOUS
 62
     7
100
AcDbLine
 10
82.83180667547157
 20
90.67911239151394
 30
0.0
 11
82.83180667547157
 21
91.80143682906831
 31
0.0
  0
LINE
  5
BD
330
1F
100
AcDbEntity
  8
1
  6
CONTINUOUS
 62
     7
100
AcDbLine
 10
84.43180667547156
 20
89.04999999999995
 30
0.0
 11
84.43180667547156
 21
91.80143682906835
 31
0.0
  0
LINE
  5
BE
330
1F
100
AcDbEntity
  8
1
  6
CONTINUOUS
 62
     7
100
AcDbLine
 10
84.43180667547156
 20
98.69999999999995
 30
0.0
 11
84.43180667547156
 21
91.80143682906834
 31
0.0
  0
LINE
  5
BF
330
1F
100
AcDbEntity
  8
1
  6
CONTINUOUS
 62
     7
100
AcDbLine
 10
82.83180667547157
 20
98.69999999999995
 30
0.0
 11
82.83180667547157
 21
91.80143682906832
 31
0.0
  0
ARC
  5
C0
330
1F
100
AcDbEntity
  8
1
  6
CONTINUOUS
 62
     7
100
AcDbCircle
 10
81.83180667547157
 20
98.69999999999995
 30
0.0
 40
1.000000000000001
100
AcDbArc
 50
0.0
 51
89.99999999999972
  0
LINE
  5
C1
330
1F
100
AcDbEntity
  8
1
  6
CONTINUOUS
 62
     7
100
AcDbLine
 10
77.93180667547156
 20
101.2999999999999
 30
0.0
 11
81.83180667547157
 21
101.2999999999999
 31
0.0
  0
LINE
  5
C2
330
1F
100
AcDbEntity
  8
1
  6
CONTINUOUS
 62
     7
100
AcDbLine
 10
77.93180667547156
 20
99.69999999999996
 30
0.0
 11
81.83180667547157
 21
99.69999999999996
 31
0.0
  0
LINE
  5
C3
330
1F
100
AcDbEntity
  8
1
  6
CONTINUOUS
 62
     7
100
AcDbLine
 10
84.43180667547156
 20
98.69999999999995
 30
0.0
 11
84.43180667547156
 21
99.83452350598579
 31
0.0
  0
LINE
  5
C4
330
1F
100
AcDbEntity
  8
1
  6
CONTINUOUS
 62
     7
100
AcDbLine
 10
84.43180667547156
 20
176.2654764940142
 30
0.0
 11
84.43180667547156
 21
177.3999999999999
 31
0.0
  0
LINE
  5
C5
330
1F
100
AcDbEntity
  8
1
  6
CONTINUOUS
 62
     7
100
AcDbLine
 10
86.38180667547157
 20
187.05
 30
0.0
 11
86.38180667547157
 21
89.04999999999995
 31
0.0
  0
LINE
  5
C6
330
1F
100
AcDbEntity
  8
1
  6
CONTINUOUS
 62
     7
100
AcDbLine
 10
86.43180667547156
 20
187.05
 30
0.0
 11
86.43180667547156
 21
89.04999999999995
 31
0.0
  0
LINE
  5
C7
330
1F
100
AcDbEntity
  8
1
  6
CONTINUOUS
 62
     7
100
AcDbLine
 10
86.38180667547157
 20
81.04999999999998
 30
0.0
 11
86.43180667547156
 21
81.04999999999998
 31
0.0
  0
LINE
  5
C8
330
1F
100
AcDbEntity
  8
1
  6
CONTINUOUS
 62
     7
100
AcDbLine
 10
86.38180667547157
 20
89.04999999999995
 30
0.0
 11
86.38180667547157
 21
81.04999999999998
 31
0.0
  0
LINE
  5
C9
330
1F
100
AcDbEntity
  8
1
  6
CONTINUOUS
 62
     7
100
AcDbLine
 10
86.43180667547156
 20
89.04999999999995
 30
0.0
 11
86.43180667547156
 21
81.04999999999998
 31
0.0
  0
LINE
  5
CA
330
1F
100
AcDbEntity
  8
1
  6
CONTINUOUS
 62
     7
100
AcDbLine
 10
86.38180667547157
 20
195.05
 30
0.0
 11
86.43180667547156
 21
195.05
 31
0.0
  0
LINE
  5
CB
330
1F
100
AcDbEntity
  8
1
  6
CONTINUOUS
 62
     7
100
AcDbLine
 10
86.38180667547157
 20
195.05
 30
0.0
 11
86.38180667547157
 21
187.05
 31
0.0
  0
LINE
  5
CC
330
1F
100
AcDbEntity
  8
1
  6
CONTINUOUS
 62
     7
100
AcDbLine
 10
86.43180667547156
 20
195.05
 30
0.0
 11
86.43180667547156
 21
187.05
 31
0.0
  0
LINE
  5
CD
330
1F
100
AcDbEntity
  8
1
  6
CONTINUOUS
 62
     7
100
AcDbLine
 10
86.6318066754716
 20
184.0
 30
0.0
 11
86.43180667547156
 21
183.8
 31
0.0
  0
LINE
  5
CE
330
1F
100
AcDbEntity
  8
1
  6
CONTINUOUS
 62
     7
100
AcDbLine
 10
86.43180667547156
 20
175.8
 30
0.0
 11
86.6318066754716
 21
175.5999999999999
 31
0.0
  0
LINE
  5
CF
330
1F
100
AcDbEntity
  8
1
  6
CONTINUOUS
 62
     7
100
AcDbLine
 10
86.6318066754716
 20
175.5999999999999
 30
0.0
 11
87.13180667547154
 21
175.5999999999999
 31
0.0
  0
LINE
  5
D0
330
1F
100
AcDbEntity
  8
1
  6
CONTINUOUS
 62
     7
100
AcDbLine
 10
87.13180667547154
 20
184.0
 30
0.0
 11
86.6318066754716
 21
184.0
 31
0.0
  0
ARC
  5
D1
330
1F
100
AcDbEntity
  8
1
  6
CONTINUOUS
 62
     7
100
AcDbCircle
 10
82.09239298517102
 20
98.69999999999995
 30
0.0
 40
2.600000000000007
100
AcDbArc
 50
25.87155840830077
 51
88.34672038963511
  0
ARC
  5
D2
330
1F
100
AcDbEntity
  8
1
  6
CONTINUOUS
 62
     7
100
AcDbCircle
 10
82.09239298517102
 20
98.69999999999995
 30
0.0
 40
2.600000000000007
100
AcDbArc
 50
88.34672038963511
 51
90.0
  0
ARC
  5
D3
330
1F
100
AcDbEntity
  8
1
  6
CONTINUOUS
 62
     7
100
AcDbCircle
 10
82.09239298517096
 20
177.3999999999999
 30
0.0
 40
2.599999999999991
100
AcDbArc
 50
270.0
 51
334.1284415917011
  0
LINE
  5
D4
330
1F
100
AcDbEntity
  8
1
  6
CONTINUOUS
 62
     7
100
AcDbLine
 10
220.802908017126
 20
64.2318066754715
 30
0.0
 11
234.8529080171261
 21
64.2318066754715
 31
0.0
  0
LINE
  5
D5
330
1F
100
AcDbEntity
  8
1
  6
CONTINUOUS
 62
     7
100
AcDbLine
 10
220.802908017126
 20
64.2318066754715
 30
0.0
 11
220.802908017126
 21
64.2718066754715
 31
0.0
  0
LINE
  5
D6
330
1F
100
AcDbEntity
  8
1
  6
CONTINUOUS
 62
     7
100
AcDbLine
 10
234.8529080171261
 20
64.2318066754715
 30
0.0
 11
234.8529080171261
 21
64.2718066754715
 31
0.0
  0
LINE
  5
D7
330
1F
100
AcDbEntity
  8
1
  6
CONTINUOUS
 62
     7
100
AcDbLine
 10
220.802908017126
 20
64.27180667547151
 30
0.0
 11
234.8529080171261
 21
64.27180667547151
 31
0.0
  0
LINE
  5
D8
330
1F
100
AcDbEntity
  8
1
  6
CONTINUOUS
 62
     7
100
AcDbLine
 10
220.802908017126
 20
60.63180667547151
 30
0.0
 11
220.802908017126
 21
62.5818066754715
 31
0.0
  0
LINE
  5
D9
330
1F
100
AcDbEntity
  8
1
  6
CONTINUOUS
 62
     7
100
AcDbLine
 10
220.802908017126
 20
62.63180667547151
 30
0.0
 11
220.802908017126
 21
64.23180667547152
 31
0.0
  0
LINE
  5
DA
330
1F
100
AcDbEntity
  8
1
  6
CONTINUOUS
 62
     7
100
AcDbLine
 10
230.2100000000001
 20
64.2318066754715
 30
0.0
 11
230.2100000000001
 21
62.63180667547148
 31
0.0
  0
LINE
  5
DB
330
1F
100
AcDbEntity
  8
1
  6
CONTINUOUS
 62
     7
100
AcDbLine
 10
230.2100000000001
 20
62.5818066754715
 30
0.0
 11
230.2100000000001
 21
54.1318066754715
 31
0.0
  0
LINE
  5
DC
330
1F
100
AcDbEntity
  8
1
  6
CONTINUOUS
 62
     7
100
AcDbLine
 10
230.2500000000001
 20
64.2318066754715
 30
0.0
 11
230.2500000000001
 21
62.63180667547148
 31
0.0
  0
LINE
  5
DD
330
1F
100
AcDbEntity
  8
1
  6
CONTINUOUS
 62
     7
100
AcDbLine
 10
230.2500000000001
 20
62.5818066754715
 30
0.0
 11
230.2500000000001
 21
54.1318066754715
 31
0.0
  0
LINE
  5
DE
330
1F
100
AcDbEntity
  8
1
  6
CONTINUOUS
 62
     7
100
AcDbLine
 10
142.8970919828741
 20
64.2318066754715
 30
0.0
 11
142.8970919828741
 21
64.2718066754715
 31
0.0
  0
LINE
  5
DF
330
1F
100
AcDbEntity
  8
1
  6
CONTINUOUS
 62
     7
100
AcDbLine
 10
142.8970919828741
 20
64.27180667547151
 30
0.0
 11
128.8470919828741
 21
64.27180667547151
 31
0.0
  0
LINE
  5
E0
330
1F
100
AcDbEntity
  8
1
  6
CONTINUOUS
 62
     7
100
AcDbLine
 10
128.8470919828741
 20
64.2318066754715
 30
0.0
 11
128.8470919828741
 21
64.2718066754715
 31
0.0
  0
LINE
  5
E1
330
1F
100
AcDbEntity
  8
1
  6
CONTINUOUS
 62
     7
100
AcDbLine
 10
142.8970919828741
 20
64.2318066754715
 30
0.0
 11
128.8470919828741
 21
64.2318066754715
 31
0.0
  0
LINE
  5
E2
330
1F
100
AcDbEntity
  8
1
  6
CONTINUOUS
 62
     7
100
AcDbLine
 10
142.8970919828741
 20
60.63180667547151
 30
0.0
 11
142.8970919828741
 21
62.5818066754715
 31
0.0
  0
LINE
  5
E3
330
1F
100
AcDbEntity
  8
1
  6
CONTINUOUS
 62
     7
100
AcDbLine
 10
142.8970919828741
 20
62.63180667547151
 30
0.0
 11
142.8970919828741
 21
64.23180667547152
 31
0.0
  0
LINE
  5
E4
330
1F
100
AcDbEntity
  8
1
  6
CONTINUOUS
 62
     7
100
AcDbLine
 10
133.49
 20
64.2318066754715
 30
0.0
 11
133.49
 21
62.63180667547148
 31
0.0
  0
LINE
  5
E5
330
1F
100
AcDbEntity
  8
1
  6
CONTINUOUS
 62
     7
100
AcDbLine
 10
133.49
 20
62.5818066754715
 30
0.0
 11
133.49
 21
54.1318066754715
 31
0.0
  0
LINE
  5
E6
330
1F
100
AcDbEntity
  8
1
  6
CONTINUOUS
 62
     7
100
AcDbLine
 10
133.4500000000001
 20
64.2318066754715
 30
0.0
 11
133.4500000000001
 21
62.63180667547148
 31
0.0
  0
LINE
  5
E7
330
1F
100
AcDbEntity
  8
1
  6
CONTINUOUS
 62
     7
100
AcDbLine
 10
133.4500000000001
 20
62.5818066754715
 30
0.0
 11
133.4500000000001
 21
54.1318066754715
 31
0.0
  0
LINE
  5
E8
330
1F
100
AcDbEntity
  8
1
  6
CONTINUOUS
 62
     7
100
AcDbLine
 10
193.5031942820899
 20
60.63180667547151
 30
0.0
 11
216.1968057179102
 21
60.63180667547151
 31
0.0
  0
LINE
  5
E9
330
1F
100
AcDbEntity
  8
1
  6
CONTINUOUS
 62
     7
100
AcDbLine
 10
174.85
 20
59.03180667547151
 30
0.0
 11
174.85
 21
60.63180667547152
 31
0.0
  0
LINE
  5
EA
330
1F
100
AcDbEntity
  8
1
  6
CONTINUOUS
 62
     7
100
AcDbLine
 10
174.85
 20
59.03180667547151
 30
0.0
 11
170.1968057179103
 21
59.03180667547151
 31
0.0
  0
LINE
  5
EB
330
1F
100
AcDbEntity
  8
1
  6
CONTINUOUS
 62
     7
100
AcDbLine
 10
174.85
 20
60.63180667547151
 30
0.0
 11
170.1968057179103
 21
60.63180667547151
 31
0.0
  0
LINE
  5
EC
330
1F
100
AcDbEntity
  8
1
  6
CONTINUOUS
 62
     7
100
AcDbLine
 10
142.8500000000002
 20
60.63180667547151
 30
0.0
 11
142.8500000000002
 21
59.0318066754715
 31
0.0
  0
LINE
  5
ED
330
1F
100
AcDbEntity
  8
1
  6
CONTINUOUS
 62
     7
100
AcDbLine
 10
174.85
 20
60.63180667547151
 30
0.0
 11
142.8500000000003
 21
60.63180667547151
 31
0.0
  0
LINE
  5
EE
330
1F
100
AcDbEntity
  8
1
  6
CONTINUOUS
 62
     7
100
AcDbLine
 10
188.8500000000003
 20
60.63180667547151
 30
0.0
 11
188.8500000000003
 21
59.0318066754715
 31
0.0
  0
LINE
  5
EF
330
1F
100
AcDbEntity
  8
1
  6
CONTINUOUS
 62
     7
100
AcDbLine
 10
188.8500000000003
 20
60.63180667547151
 30
0.0
 11
193.5031942820899
 21
60.63180667547151
 31
0.0
  0
LINE
  5
F0
330
1F
100
AcDbEntity
  8
1
  6
CONTINUOUS
 62
     7
100
AcDbLine
 10
220.8499999999999
 20
59.03180667547151
 30
0.0
 11
220.8499999999999
 21
60.63180667547152
 31
0.0
  0
LINE
  5
F1
330
1F
100
AcDbEntity
  8
1
  6
CONTINUOUS
 62
     7
100
AcDbLine
 10
216.1968057179103
 20
60.63180667547151
 30
0.0
 11
220.85
 21
60.63180667547151
 31
0.0
  0
LINE
  5
F2
330
1F
100
AcDbEntity
  8
1
  6
CONTINUOUS
 62
     7
100
AcDbLine
 10
188.8500000000003
 20
59.03180667547151
 30
0.0
 11
188.8500000000003
 21
58.03180667547152
 31
0.0
  0
LINE
  5
F3
330
1F
100
AcDbEntity
  8
1
  6
CONTINUOUS
 62
     7
100
AcDbLine
 10
220.8499999999999
 20
58.03180667547151
 30
0.0
 11
220.8499999999999
 21
59.03180667547151
 31
0.0
  0
LINE
  5
F4
330
1F
100
AcDbEntity
  8
1
  6
CONTINUOUS
 62
     7
100
AcDbLine
 10
174.85
 20
58.03180667547151
 30
0.0
 11
174.85
 21
59.03180667547151
 31
0.0
  0
LINE
  5
F5
330
1F
100
AcDbEntity
  8
1
  6
CONTINUOUS
 62
     7
100
AcDbLine
 10
142.8500000000002
 20
59.03180667547151
 30
0.0
 11
142.8500000000002
 21
58.03180667547152
 31
0.0
  0
LINE
  5
F6
330
1F
100
AcDbEntity
  8
1
  6
CONTINUOUS
 62
     7
100
AcDbLine
 10
223.9182327445413
 20
54.1318066754715
 30
0.0
 11
230.0873668677755
 21
54.1318066754715
 31
0.0
  0
LINE
  5
F7
330
1F
100
AcDbEntity
  8
1
  6
CONTINUOUS
 62
     7
100
AcDbLine
 10
188.8500000000003
 20
58.03180667547151
 30
0.0
 11
174.85
 21
58.03180667547151
 31
0.0
  0
LINE
  5
F8
330
1F
100
AcDbEntity
  8
1
  6
CONTINUOUS
 62
     7
100
AcDbLine
 10
220.8499999999999
 20
54.13180667547153
 30
0.0
 11
223.9182327445413
 21
54.13180667547154
 31
0.0
  0
LINE
  5
F9
330
1F
100
AcDbEntity
  8
1
  6
CONTINUOUS
 62
     7
100
AcDbLine
 10
139.7817672554586
 20
54.13180667547153
 30
0.0
 11
142.8500000000002
 21
54.13180667547152
 31
0.0
  0
LINE
  5
FA
330
1F
100
AcDbEntity
  8
1
  6
CONTINUOUS
 62
     7
100
AcDbLine
 10
220.8499999999999
 20
58.03180667547151
 30
0.0
 11
220.8499999999999
 21
54.13180667547153
 31
0.0
  0
LINE
  5
FB
330
1F
100
AcDbEntity
  8
1
  6
CONTINUOUS
 62
     7
100
AcDbLine
 10
142.8500000000002
 20
54.13180667547153
 30
0.0
 11
142.8500000000002
 21
58.03180667547151
 31
0.0
  0
LINE
  5
FC
330
1F
100
AcDbEntity
  8
1
  6
CONTINUOUS
 62
     7
100
AcDbLine
 10
139.7817672554586
 20
54.1318066754715
 30
0.0
 11
133.6126331322247
 21
54.1318066754715
 31
0.0
  0
LINE
  5
FD
330
1F
100
AcDbEntity
  8
1
  6
CONTINUOUS
 62
     7
100
AcDbLine
 10
128.8500000000001
 20
64.2318066754715
 30
0.0
 11
128.8500000000001
 21
62.63180667547148
 31
0.0
  0
LINE
  5
FE
330
1F
100
AcDbEntity
  8
1
  6
CONTINUOUS
 62
     7
100
AcDbLine
 10
230.3500000000001
 20
64.2318066754715
 30
0.0
 11
230.3500000000001
 21
62.63180667547148
 31
0.0
  0
LINE
  5
FF
330
1F
100
AcDbEntity
  8
1
  6
CONTINUOUS
 62
     7
100
AcDbLine
 10
234.8500000000001
 20
64.2318066754715
 30
0.0
 11
234.8500000000001
 21
62.63180667547148
 31
0.0
  0
LINE
  5
100
330
1F
100
AcDbEntity
  8
1
  6
CONTINUOUS
 62
     7
100
AcDbLine
 10
133.3500000000001
 20
64.2318066754715
 30
0.0
 11
133.3500000000001
 21
62.63180667547148
 31
0.0
  0
LINE
  5
101
330
1F
100
AcDbEntity
  8
1
  6
CONTINUOUS
 62
     7
100
AcDbLine
 10
133.5733309156448
 20
62.13180667547151
 30
0.0
 11
133.5242987629215
 21
62.58186903724157
 31
0.0
  0
LINE
  5
102
330
1F
100
AcDbEntity
  8
1
  6
CONTINUOUS
 62
     7
100
AcDbLine
 10
133.5126244494151
 20
62.63188910769007
 30
0.0
 11
133.4903735305244
 21
62.71483262839979
 31
0.0
  0
LINE
  5
103
330
1F
100
AcDbEntity
  8
1
  6
CONTINUOUS
 62
     7
100
AcDbLine
 10
133.4501786719335
 20
62.83871528112125
 30
0.0
 11
133.35
 21
63.07206051624284
 31
0.0
  0
LINE
  5
104
330
1F
100
AcDbEntity
  8
1
  6
CONTINUOUS
 62
     7
100
AcDbLine
 10
230.3500000000001
 20
63.07206051624321
 30
0.0
 11
230.2498797226445
 21
62.83887782228706
 31
0.0
  0
LINE
  5
105
330
1F
100
AcDbEntity
  8
1
  6
CONTINUOUS
 62
     7
100
AcDbLine
 10
230.2095692344945
 20
62.71463549755227
 30
0.0
 11
230.1873814844666
 21
62.63191319147615
 31
0.0
  0
LINE
  5
106
330
1F
100
AcDbEntity
  8
1
  6
CONTINUOUS
 62
     7
100
AcDbLine
 10
230.1756918298763
 20
62.58182636820994
 30
0.0
 11
230.1266690843554
 21
62.1318066754715
 31
0.0
  0
LINE
  5
107
330
1F
100
AcDbEntity
  8
1
  6
CONTINUOUS
 62
     7
100
AcDbLine
 10
230.8946142880637
 20
29.54191881790503
 30
0.0
 11
230.8953953066714
 21
29.54934971343116
 31
0.0
  0
LINE
  5
108
330
1F
100
AcDbEntity
  8
1
  6
CONTINUOUS
 62
     7
100
AcDbLine
 10
230.9268096208106
 20
59.0318066754715
 30
0.0
 11
230.9268096208106
 21
54.13180667547151
 31
0.0
  0
LWPOLYLINE
  5
109
330
1F
100
AcDbEntity
  8
1
  6
CONTINUOUS
 62
     7
100
AcDbPolyline
 90
        3
 70
     0
 43
0.0
 10
231.3044892220583
 20
60.63180667547151
 10
231.2181469723996
 20
60.57917602573894
 10
231.1597442261801
 20
60.48656078327407
  0
ARC
  5
10A
330
1F
100
AcDbEntity
  8
1
  6
CONTINUOUS
 62
     7
100
AcDbCircle
 10
234.8352699496725
 20
59.15201142830915
 30
0.0
 40
3.910308341408833
100
AcDbArc
 50
160.0445092164857
 51
181.7615772432081
  0
LINE
  5
10B
330
1F
100
AcDbEntity
  8
1
  6
CONTINUOUS
 62
     7
100
AcDbLine
 10
231.3044892220583
 20
60.63180667547151
 30
0.0
 11
231.7340101175401
 21
60.63180667547151
 31
0.0
  0
LINE
  5
10C
330
1F
100
AcDbEntity
  8
1
  6
CONTINUOUS
 62
     7
100
AcDbLine
 10
231.7340101175401
 20
60.63180667547151
 30
0.0
 11
231.7340101175401
 21
62.13180667547147
 31
0.0
  0
LINE
  5
10D
330
1F
100
AcDbEntity
  8
1
  6
CONTINUOUS
 62
     7
100
AcDbLine
 10
231.8500000000001
 20
38.6318066754715
 30
0.0
 11
231.8499999999999
 21
62.13180667547147
 31
0.0
  0
LINE
  5
10E
330
1F
100
AcDbEntity
  8
1
  6
CONTINUOUS
 62
     7
100
AcDbLine
 10
230.0873668677755
 20
54.1318066754715
 30
0.0
 11
230.9268096208106
 21
54.1318066754715
 31
0.0
  0
LINE
  5
10F
330
1F
100
AcDbEntity
  8
1
  6
CONTINUOUS
 62
     7
100
AcDbLine
 10
131.9659898824599
 20
60.63180667547151
 30
0.0
 11
132.3955107779417
 21
60.63180667547151
 31
0.0
  0
ARC
  5
110
330
1F
100
AcDbEntity
  8
1
  6
CONTINUOUS
 62
     7
100
AcDbCircle
 10
128.7800133225434
 20
59.14586637710291
 30
0.0
 40
3.994805705070091
100
AcDbArc
 50
358.3638684205452
 51
19.27964389097474
  0
LWPOLYLINE
  5
111
330
1F
100
AcDbEntity
  8
1
  6
CONTINUOUS
 62
     7
100
AcDbPolyline
 90
        4
 70
     0
 43
0.0
 10
132.5507836025751
 20
60.46486755848625
 10
132.4933600868072
 20
60.56455961678657
 10
132.4118368230946
 20
60.62981957000764
 10
132.3955107779417
 20
60.63180667547151
  0
LINE
  5
112
330
1F
100
AcDbEntity
  8
1
  6
CONTINUOUS
 62
     7
100
AcDbLine
 10
132.7731903791894
 20
59.0318066754715
 30
0.0
 11
132.7731903791894
 21
54.13180667547151
 31
0.0
  0
LINE
  5
113
330
1F
100
AcDbEntity
  8
1
  6
CONTINUOUS
 62
     7
100
AcDbLine
 10
131.85
 20
38.63180667547149
 30
0.0
 11
131.85
 21
62.13180667547147
 31
0.0
  0
LINE
  5
114
330
1F
100
AcDbEntity
  8
1
  6
CONTINUOUS
 62
     7
100
AcDbLine
 10
131.9659898824599
 20
62.13180667547147
 30
0.0
 11
131.9659898824599
 21
60.6318066754715
 31
0.0
  0
LINE
  5
115
330
1F
100
AcDbEntity
  8
1
  6
CONTINUOUS
 62
     7
100
AcDbLine
 10
133.6126331322247
 20
54.1318066754715
 30
0.0
 11
132.7731903791894
 21
54.1318066754715
 31
0.0
  0
LINE
  5
116
330
1F
100
AcDbEntity
  8
1
  6
CONTINUOUS
 62
     7
100
AcDbLine
 10
134.4336120607491
 20
54.1318066754715
 30
0.0
 11
134.4336120607492
 21
59.03180667547149
 31
0.0
  0
LWPOLYLINE
  5
117
330
1F
100
AcDbEntity
  8
1
  6
CONTINUOUS
 62
     7
100
AcDbPolyline
 90
        3
 70
     0
 43
0.0
 10
-134.0306527080183
 20
60.63180667547151
 10
-134.1229694189171
 20
60.57887825703764
 10
-134.1854238278527
 20
60.4857549343237
210
0.0
220
0.0
230
-1.0
  0
ARC
  5
118
330
1F
100
AcDbEntity
  8
1
  6
CONTINUOUS
 62
     7
100
AcDbCircle
 10
130.7382171333524
 20
59.14916156156171
 30
0.0
 40
3.69725788101387
100
AcDbArc
 50
358.1810656809257
 51
21.19292066168487
  0
LINE
  5
119
330
1F
100
AcDbEntity
  8
1
  6
CONTINUOUS
 62
     7
100
AcDbLine
 10
133.5733309156448
 20
62.13180667547151
 30
0.0
 11
133.5733309156448
 21
60.63180667547151
 31
0.0
  0
ARC
  5
11A
330
1F
100
AcDbEntity
  8
1
  6
CONTINUOUS
 62
     7
100
AcDbCircle
 10
233.0429591280025
 20
59.14318147535487
 30
0.0
 40
3.778213108038923
100
AcDbArc
 50
159.5650312180169
 51
181.6892193061387
  0
LWPOLYLINE
  5
11B
330
1F
100
AcDbEntity
  8
1
  6
CONTINUOUS
 62
     7
100
AcDbPolyline
 90
        4
 70
     0
 43
0.0
 10
-229.5025124682845
 20
60.46232200594627
 10
-229.5637232846807
 20
60.5629053791735
 10
-229.6516896488739
 20
60.62976099978022
 10
-229.6693472919818
 20
60.63180667547151
210
0.0
220
0.0
230
-1.0
  0
LINE
  5
11C
330
1F
100
AcDbEntity
  8
1
  6
CONTINUOUS
 62
     7
100
AcDbLine
 10
229.2663879392511
 20
54.1318066754715
 30
0.0
 11
229.266387939251
 21
59.03180667547149
 31
0.0
  0
LINE
  5
11D
330
1F
100
AcDbEntity
  8
1
  6
CONTINUOUS
 62
     7
100
AcDbLine
 10
230.1266690843554
 20
62.13180667547151
 30
0.0
 11
230.1266690843554
 21
60.63180667547151
 31
0.0
  0
LINE
  5
11E
330
1F
100
AcDbEntity
  8
1
  6
CONTINUOUS
 62
     7
100
AcDbLine
 10
229.6693472919818
 20
60.63180667547151
 30
0.0
 11
230.2100000000001
 21
60.63180667547151
 31
0.0
  0
LINE
  5
11F
330
1F
100
AcDbEntity
  8
1
  6
CONTINUOUS
 62
     7
100
AcDbLine
 10
230.2499999999999
 20
60.63180667547151
 30
0.0
 11
231.3044892220583
 21
60.63180667547151
 31
0.0
  0
LINE
  5
120
330
1F
100
AcDbEntity
  8
1
  6
CONTINUOUS
 62
     7
100
AcDbLine
 10
132.3955107779417
 20
60.63180667547151
 30
0.0
 11
133.45
 21
60.63180667547149
 31
0.0
  0
LINE
  5
121
330
1F
100
AcDbEntity
  8
1
  6
CONTINUOUS
 62
     7
100
AcDbLine
 10
133.49
 20
60.63180667547151
 30
0.0
 11
134.0306527080183
 21
60.63180667547151
 31
0.0
  0
LWPOLYLINE
  5
122
330
1F
100
AcDbEntity
  8
1
  6
CONTINUOUS
 62
     7
100
AcDbPolyline
 90
       28
 70
     0
 43
0.0
 10
-131.6825725123228
 20
62.58188287359582
 10
-131.7020304294678
 20
62.57198102152986
 10
-131.7225967512767
 20
62.56031537296285
 10
-131.7425919652411
 20
62.54769586659638
 10
-131.7608524055185
 20
62.53496830403436
 10
-131.7785310557932
 20
62.52144426961788
 10
-131.788820241882
 20
62.51297820658168
 10
-131.7988809740667
 20
62.50424189077621
 10
-131.8175895949273
 20
62.48667419281669
 10
-131.8353748984176
 20
62.46817233523451
 10
-131.8508741399091
 20
62.45037299093882
 10
-131.8655175029522
 20
62.43186314027198
 10
-131.8784901883527
 20
62.41382440907971
 10
-131.8906489447616
 20
62.39522734790317
 10
-131.9013115264821
 20
62.37727248637422
 10
-131.911214554809
 20
62.35888777817718
 10
-131.9204317749861
 20
62.33990074466379
 10
-131.928845361408
 20
62.32052354965918
 10
-131.9364335281275
 20
62.30080851168043
 10
-131.9431744891975
 20
62.2808079492446
 10
-131.9491254003589
 20
62.26029750757277
 10
-131.9541923929258
 20
62.2395510140904
 10
-131.9577758581974
 20
62.2218701294908
 10
-131.9607179479505
 20
62.20406527752835
 10
-131.9630127768909
 20
62.18617146541249
 10
-131.9646653818985
 20
62.16809206585862
 10
-131.9656584216869
 20
62.14995842117442
 10
-131.9659898824599
 20
62.13180667547147
210
0.0
220
0.0
230
-1.0
  0
ARC
  5
123
330
1F
100
AcDbEntity
  8
1
  6
CONTINUOUS
 62
     7
100
AcDbCircle
 10
232.3499999999999
 20
62.13180667547151
 30
0.0
 40
0.4999999999999791
100
AcDbArc
 50
115.8419327631657
 51
180.0000000000043
  0
LWPOLYLINE
  5
124
330
1F
100
AcDbEntity
  8
1
  6
CONTINUOUS
 62
     7
100
AcDbPolyline
 90
       44
 70
     0
 43
0.0
 10
-231.7340101175401
 20
62.13180667547147
 10
-231.7342509807353
 20
62.14728932600981
 10
-231.7349730964354
 20
62.16275700313341
 10
-231.7361816078889
 20
62.17825479940174
 10
-231.7378731972471
 20
62.19370733079529
 10
-231.7409219472013
 20
62.21447940768822
 10
-231.7448512085103
 20
62.2351411571984
 10
-231.749715579279
 20
62.25587715309767
 10
-231.7554730389007
 20
62.27642368929495
 10
-231.7621307108473
 20
62.29677915690086
 10
-231.7693976333783
 20
62.31618116472683
 10
-231.77746374426
 20
62.3352647731265
 10
-231.7863800567477
 20
62.3541264081474
 10
-231.7960764341577
 20
62.37259915533744
 10
-231.8066921333107
 20
62.39090686607346
 10
-231.8180732914445
 20
62.40874880658161
 10
-231.8302905624838
 20
62.42621686790921
 10
-231.8432407889323
 20
62.44314869595858
 10
-231.8531141027674
 20
62.45511741982783
 10
-231.863353520097
 20
62.4667744807972
 10
-231.8739908885152
 20
62.47815184205761
 10
-231.8849767218229
 20
62.48919310488149
 10
-231.9003469132333
 20
62.50355178156314
 10
-231.9163344292246
 20
62.51727683386704
 10
-231.933095565298
 20
62.53047791011712
 10
-231.9504343866317
 20
62.54297675460363
 10
-231.9683552703405
 20
62.55476791987771
 10
-231.9816762227358
 20
62.56284537808883
 10
-231.9952410412255
 20
62.57050624328786
 10
-232.0090905099268
 20
62.57777024739671
 10
-232.023159068752
 20
62.58460027231344
 10
-232.0424819663631
 20
62.59312365698725
 10
-232.0621804422652
 20
62.60084179081726
 10
-232.0824391515053
 20
62.6078067565224
 10
-232.1030132378326
 20
62.61391417887951
 10
-232.1239051164762
 20
62.61915722623347
 10
-232.1376243638787
 20
62.62208979257271
 10
-232.151430655769
 20
62.62464118067132
 10
-232.1653849764695
 20
62.62681866519702
 10
-232.1793948136146
 20
62.62860443594505
 10
-232.1934936183528
 20
62.63000074060683
 10
-232.2076260866351
 20
62.63100039401608
 10
-232.221865578826
 20
62.6316049036288
 10
-232.2361278752582
 20
62.63180667547151
210
0.0
220
0.0
230
-1.0
  0
ARC
  5
125
330
1F
100
AcDbEntity
  8
1
  6
CONTINUOUS
 62
     7
100
AcDbCircle
 10
131.35
 20
62.13180667547151
 30
0.0
 40
0.5000000000000004
100
AcDbArc
 50
359.9999999999953
 51
64.15806723683346
  0
ARC
  5
126
330
1F
100
AcDbEntity
  8
1
  6
CONTINUOUS
 62
     7
100
AcDbCircle
 10
225.2499999999998
 20
30.23180667547177
 30
0.0
 40
6.600000000000236
100
AcDbArc
 50
270.000000000001
 51
359.999999999998
  0
ARC
  5
127
330
1F
100
AcDbEntity
  8
1
  6
CONTINUOUS
 62
     7
100
AcDbCircle
 10
138.45
 20
30.23180667547141
 30
0.0
 40
6.599999999999884
100
AcDbArc
 50
179.9999999999994
 51
270.0000000000005
  0
LINE
  5
128
330
1F
100
AcDbEntity
  8
1
  6
CONTINUOUS
 62
     7
100
AcDbLine
 10
131.8500000000001
 20
30.23180667547147
 30
0.0
 11
131.8500000000001
 21
38.63180667547151
 31
0.0
  0
LINE
  5
129
330
1F
100
AcDbEntity
  8
1
  6
CONTINUOUS
 62
     7
100
AcDbLine
 10
231.8500000000001
 20
30.23180667547154
 30
0.0
 11
231.8500000000001
 21
38.63180667547151
 31
0.0
  0
LINE
  5
12A
330
1F
100
AcDbEntity
  8
1
  6
CONTINUOUS
 62
     7
100
AcDbLine
 10
134.8500000000001
 20
62.5818066754715
 30
0.0
 11
228.8500000000001
 21
62.5818066754715
 31
0.0
  0
LINE
  5
12B
330
1F
100
AcDbEntity
  8
1
  6
CONTINUOUS
 62
     7
100
AcDbLine
 10
134.8500000000001
 20
62.63180667547151
 30
0.0
 11
228.8500000000001
 21
62.63180667547151
 31
0.0
  0
LINE
  5
12C
330
1F
100
AcDbEntity
  8
1
  6
CONTINUOUS
 62
     7
100
AcDbLine
 10
126.8500000000001
 20
62.58180667547151
 30
0.0
 11
126.8500000000001
 21
62.63180667547151
 31
0.0
  0
LINE
  5
12D
330
1F
100
AcDbEntity
  8
1
  6
CONTINUOUS
 62
     7
100
AcDbLine
 10
126.8500000000001
 20
62.63180667547151
 30
0.0
 11
134.8500000000001
 21
62.63180667547151
 31
0.0
  0
LINE
  5
12E
330
1F
100
AcDbEntity
  8
1
  6
CONTINUOUS
 62
     7
100
AcDbLine
 10
126.8500000000001
 20
62.58180667547151
 30
0.0
 11
134.8500000000001
 21
62.58180667547151
 31
0.0
  0
LINE
  5
12F
330
1F
100
AcDbEntity
  8
1
  6
CONTINUOUS
 62
     7
100
AcDbLine
 10
236.8500000000001
 20
62.58180667547151
 30
0.0
 11
236.8500000000001
 21
62.63180667547151
 31
0.0
  0
LINE
  5
130
330
1F
100
AcDbEntity
  8
1
  6
CONTINUOUS
 62
     7
100
AcDbLine
 10
228.8500000000001
 20
62.63180667547151
 30
0.0
 11
236.8500000000001
 21
62.63180667547151
 31
0.0
  0
LINE
  5
131
330
1F
100
AcDbEntity
  8
1
  6
CONTINUOUS
 62
     7
100
AcDbLine
 10
228.8500000000001
 20
62.58180667547151
 30
0.0
 11
236.8500000000001
 21
62.58180667547151
 31
0.0
  0
LINE
  5
132
330
1F
100
AcDbEntity
  8
1
  6
CONTINUOUS
 62
     7
100
AcDbLine
 10
220.802908017126
 20
97.19257524394226
 30
0.0
 11
234.852908017126
 21
97.19257524394226
 31
0.0
  0
LINE
  5
133
330
1F
100
AcDbEntity
  8
1
  6
CONTINUOUS
 62
     7
100
AcDbLine
 10
220.802908017126
 20
102.2325752439423
 30
0.0
 11
220.802908017126
 21
97.19257524394226
 31
0.0
  0
LINE
  5
134
330
1F
100
AcDbEntity
  8
1
  6
CONTINUOUS
 62
     7
100
AcDbLine
 10
225.6325275519326
 20
102.2325752439423
 30
0.0
 11
220.802908017126
 21
102.2325752439423
 31
0.0
  0
ARC
  5
135
330
1F
100
AcDbEntity
  8
1
  6
CONTINUOUS
 62
     7
100
AcDbCircle
 10
225.6325275519326
 20
105.1925752439423
 30
0.0
 40
2.960000000000004
100
AcDbArc
 50
270.0
 51
338.0931122032301
  0
ARC
  5
136
330
1F
100
AcDbEntity
  8
1
  6
CONTINUOUS
 62
     7
100
AcDbCircle
 10
204.85
 20
113.55
 30
0.0
 40
25.35999999999999
100
AcDbArc
 50
338.0931122032301
 51
0.0
  0
LINE
  5
137
330
1F
100
AcDbEntity
  8
1
  6
CONTINUOUS
 62
     7
100
AcDbLine
 10
230.2100000000001
 20
130.55
 30
0.0
 11
230.2100000000001
 21
113.55
 31
0.0
  0
LINE
  5
138
330
1F
100
AcDbEntity
  8
1
  6
CONTINUOUS
 62
     7
100
AcDbLine
 10
230.2100000000001
 20
145.55
 30
0.0
 11
230.2100000000001
 21
130.55
 31
0.0
  0
LINE
  5
139
330
1F
100
AcDbEntity
  8
1
  6
CONTINUOUS
 62
     7
100
AcDbLine
 10
230.2100000000001
 20
162.55
 30
0.0
 11
230.2100000000001
 21
145.55
 31
0.0
  0
ARC
  5
13A
330
1F
100
AcDbEntity
  8
1
  6
CONTINUOUS
 62
     7
100
AcDbCircle
 10
204.85
 20
162.55
 30
0.0
 40
25.35999999999999
100
AcDbArc
 50
0.0
 51
21.90688779676972
  0
ARC
  5
13B
330
1F
100
AcDbEntity
  8
1
  6
CONTINUOUS
 62
     7
100
AcDbCircle
 10
225.6325275519326
 20
170.9074247560577
 30
0.0
 40
2.960000000000004
100
AcDbArc
 50
21.90688779676967
 51
89.99999999999999
  0
LINE
  5
13C
330
1F
100
AcDbEntity
  8
1
  6
CONTINUOUS
 62
     7
100
AcDbLine
 10
225.6325275519326
 20
173.8674247560577
 30
0.0
 11
220.802908017126
 21
173.8674247560577
 31
0.0
  0
LINE
  5
13D
330
1F
100
AcDbEntity
  8
1
  6
CONTINUOUS
 62
     7
100
AcDbLine
 10
220.802908017126
 20
173.8674247560577
 30
0.0
 11
220.802908017126
 21
178.9074247560577
 31
0.0
  0
LINE
  5
13E
330
1F
100
AcDbEntity
  8
1
  6
CONTINUOUS
 62
     7
100
AcDbLine
 10
220.802908017126
 20
178.9074247560577
 30
0.0
 11
234.852908017126
 21
178.9074247560577
 31
0.0
  0
LINE
  5
13F
330
1F
100
AcDbEntity
  8
1
  6
CONTINUOUS
 62
     7
100
AcDbLine
 10
234.8529080171261
 20
178.9074247560577
 30
0.0
 11
234.8529080171261
 21
162.55
 31
0.0
  0
LINE
  5
140
330
1F
100
AcDbEntity
  8
1
  6
CONTINUOUS
 62
     7
100
AcDbLine
 10
234.8529080171261
 20
162.55
 30
0.0
 11
234.8500000000001
 21
162.55
 31
0.0
  0
LINE
  5
141
330
1F
100
AcDbEntity
  8
1
  6
CONTINUOUS
 62
     7
100
AcDbLine
 10
234.8500000000001
 20
162.55
 30
0.0
 11
234.8500000000001
 21
145.55
 31
0.0
  0
LINE
  5
142
330
1F
100
AcDbEntity
  8
1
  6
CONTINUOUS
 62
     7
100
AcDbLine
 10
234.8500000000001
 20
145.55
 30
0.0
 11
234.8500000000001
 21
130.55
 31
0.0
  0
LINE
  5
143
330
1F
100
AcDbEntity
  8
1
  6
CONTINUOUS
 62
     7
100
AcDbLine
 10
234.8500000000001
 20
130.55
 30
0.0
 11
234.8500000000001
 21
113.55
 31
0.0
  0
LINE
  5
144
330
1F
100
AcDbEntity
  8
1
  6
CONTINUOUS
 62
     7
100
AcDbLine
 10
234.8529080171261
 20
113.55
 30
0.0
 11
234.8500000000001
 21
113.55
 31
0.0
  0
LINE
  5
145
330
1F
100
AcDbEntity
  8
1
  6
CONTINUOUS
 62
     7
100
AcDbLine
 10
234.8529080171261
 20
97.19257524394226
 30
0.0
 11
234.8529080171261
 21
113.55
 31
0.0
  0
LINE
  5
146
330
1F
100
AcDbEntity
  8
1
  6
CONTINUOUS
 62
     7
100
AcDbLine
 10
128.8470919828741
 20
113.55
 30
0.0
 11
128.8500000000001
 21
113.55
 31
0.0
  0
LINE
  5
147
330
1F
100
AcDbEntity
  8
1
  6
CONTINUOUS
 62
     7
100
AcDbLine
 10
128.8500000000001
 20
130.55
 30
0.0
 11
128.8500000000001
 21
113.55
 31
0.0
  0
LINE
  5
148
330
1F
100
AcDbEntity
  8
1
  6
CONTINUOUS
 62
     7
100
AcDbLine
 10
128.8500000000001
 20
145.55
 30
0.0
 11
128.8500000000001
 21
130.55
 31
0.0
  0
LINE
  5
149
330
1F
100
AcDbEntity
  8
1
  6
CONTINUOUS
 62
     7
100
AcDbLine
 10
128.8500000000001
 20
162.55
 30
0.0
 11
128.8500000000001
 21
145.55
 31
0.0
  0
LINE
  5
14A
330
1F
100
AcDbEntity
  8
1
  6
CONTINUOUS
 62
     7
100
AcDbLine
 10
128.8470919828741
 20
162.55
 30
0.0
 11
128.8500000000001
 21
162.55
 31
0.0
  0
LINE
  5
14B
330
1F
100
AcDbEntity
  8
1
  6
CONTINUOUS
 62
     7
100
AcDbLine
 10
128.8470919828741
 20
178.9074247560577
 30
0.0
 11
128.8470919828741
 21
162.55
 31
0.0
  0
LINE
  5
14C
330
1F
100
AcDbEntity
  8
1
  6
CONTINUOUS
 62
     7
100
AcDbLine
 10
142.8970919828741
 20
178.9074247560577
 30
0.0
 11
128.8470919828741
 21
178.9074247560577
 31
0.0
  0
LINE
  5
14D
330
1F
100
AcDbEntity
  8
1
  6
CONTINUOUS
 62
     7
100
AcDbLine
 10
142.8970919828741
 20
173.8674247560577
 30
0.0
 11
142.8970919828741
 21
178.9074247560577
 31
0.0
  0
LINE
  5
14E
330
1F
100
AcDbEntity
  8
1
  6
CONTINUOUS
 62
     7
100
AcDbLine
 10
138.0674724480675
 20
173.8674247560577
 30
0.0
 11
142.8970919828741
 21
173.8674247560577
 31
0.0
  0
ARC
  5
14F
330
1F
100
AcDbEntity
  8
1
  6
CONTINUOUS
 62
     7
100
AcDbCircle
 10
138.0674724480675
 20
170.9074247560577
 30
0.0
 40
2.960000000000004
100
AcDbArc
 50
90.00000000000006
 51
158.0931122032304
  0
ARC
  5
150
330
1F
100
AcDbEntity
  8
1
  6
CONTINUOUS
 62
     7
100
AcDbCircle
 10
158.85
 20
162.55
 30
0.0
 40
25.35999999999999
100
AcDbArc
 50
158.0931122032302
 51
180.0
  0
LINE
  5
151
330
1F
100
AcDbEntity
  8
1
  6
CONTINUOUS
 62
     7
100
AcDbLine
 10
133.49
 20
162.55
 30
0.0
 11
133.49
 21
145.55
 31
0.0
  0
LINE
  5
152
330
1F
100
AcDbEntity
  8
1
  6
CONTINUOUS
 62
     7
100
AcDbLine
 10
133.49
 20
145.55
 30
0.0
 11
133.49
 21
130.55
 31
0.0
  0
LINE
  5
153
330
1F
100
AcDbEntity
  8
1
  6
CONTINUOUS
 62
     7
100
AcDbLine
 10
133.49
 20
130.55
 30
0.0
 11
133.49
 21
113.55
 31
0.0
  0
ARC
  5
154
330
1F
100
AcDbEntity
  8
1
  6
CONTINUOUS
 62
     7
100
AcDbCircle
 10
158.85
 20
113.55
 30
0.0
 40
25.35999999999999
100
AcDbArc
 50
180.0
 51
201.9068877967697
  0
ARC
  5
155
330
1F
100
AcDbEntity
  8
1
  6
CONTINUOUS
 62
     7
100
AcDbCircle
 10
138.0674724480675
 20
105.1925752439423
 30
0.0
 40
2.960000000000004
100
AcDbArc
 50
201.9068877967696
 51
269.9999999999999
  0
LINE
  5
156
330
1F
100
AcDbEntity
  8
1
  6
CONTINUOUS
 62
     7
100
AcDbLine
 10
138.0674724480675
 20
102.2325752439423
 30
0.0
 11
142.8970919828741
 21
102.2325752439423
 31
0.0
  0
LINE
  5
157
330
1F
100
AcDbEntity
  8
1
  6
CONTINUOUS
 62
     7
100
AcDbLine
 10
142.8970919828741
 20
102.2325752439423
 30
0.0
 11
142.8970919828741
 21
97.19257524394226
 31
0.0
  0
LINE
  5
158
330
1F
100
AcDbEntity
  8
1
  6
CONTINUOUS
 62
     7
100
AcDbLine
 10
142.8970919828741
 20
97.19257524394226
 30
0.0
 11
128.8470919828741
 21
97.19257524394226
 31
0.0
  0
LINE
  5
159
330
1F
100
AcDbEntity
  8
1
  6
CONTINUOUS
 62
     7
100
AcDbLine
 10
128.8470919828741
 20
97.19257524394226
 30
0.0
 11
128.8470919828741
 21
113.55
 31
0.0
  0
CIRCLE
  5
15A
330
1F
100
AcDbEntity
  8
1
  6
CONTINUOUS
 62
     7
100
AcDbCircle
 10
158.85
 20
96.3
 30
0.0
 40
4.200000000000002
  0
ARC
  5
15B
330
1F
100
AcDbEntity
  8
1
  6
CONTINUOUS
 62
     7
100
AcDbCircle
 10
158.85
 20
96.3
 30
0.0
 40
2.250000000000003
100
AcDbArc
 50
256.7683351757007
 51
283.2316648242992
  0
LINE
  5
15C
330
1F
100
AcDbEntity
  8
1
  6
CONTINUOUS
 62
     7
100
AcDbLine
 10
159.365
 20
94.1097317515884
 30
0.0
 11
159.365
 21
95.78500000000001
 31
0.0
  0
LINE
  5
15D
330
1F
100
AcDbEntity
  8
1
  6
CONTINUOUS
 62
     7
100
AcDbLine
 10
159.365
 20
95.78500000000001
 30
0.0
 11
161.0402682484116
 21
95.78500000000001
 31
0.0
  0
ARC
  5
15E
330
1F
100
AcDbEntity
  8
1
  6
CONTINUOUS
 62
     7
100
AcDbCircle
 10
158.85
 20
96.3
 30
0.0
 40
2.25
100
AcDbArc
 50
346.7683351757007
 51
13.23166482429929
  0
LINE
  5
15F
330
1F
100
AcDbEntity
  8
1
  6
CONTINUOUS
 62
     7
100
AcDbLine
 10
161.0402682484116
 20
96.81500000000001
 30
0.0
 11
159.365
 21
96.81500000000001
 31
0.0
  0
LINE
  5
160
330
1F
100
AcDbEntity
  8
1
  6
CONTINUOUS
 62
     7
100
AcDbLine
 10
159.365
 20
96.81500000000001
 30
0.0
 11
159.365
 21
98.49026824841161
 31
0.0
  0
ARC
  5
161
330
1F
100
AcDbEntity
  8
1
  6
CONTINUOUS
 62
     7
100
AcDbCircle
 10
158.85
 20
96.3
 30
0.0
 40
2.250000000000003
100
AcDbArc
 50
76.76833517570074
 51
103.2316648242992
  0
LINE
  5
162
330
1F
100
AcDbEntity
  8
1
  6
CONTINUOUS
 62
     7
100
AcDbLine
 10
158.3350000000001
 20
98.49026824841161
 30
0.0
 11
158.3350000000001
 21
96.81500000000001
 31
0.0
  0
LINE
  5
163
330
1F
100
AcDbEntity
  8
1
  6
CONTINUOUS
 62
     7
100
AcDbLine
 10
158.3350000000001
 20
96.81500000000001
 30
0.0
 11
156.6597317515885
 21
96.81500000000001
 31
0.0
  0
ARC
  5
164
330
1F
100
AcDbEntity
  8
1
  6
CONTINUOUS
 62
     7
100
AcDbCircle
 10
158.85
 20
96.3
 30
0.0
 40
2.25
100
AcDbArc
 50
166.7683351757007
 51
193.2316648242993
  0
LINE
  5
165
330
1F
100
AcDbEntity
  8
1
  6
CONTINUOUS
 62
     7
100
AcDbLine
 10
156.6597317515884
 20
95.78500000000001
 30
0.0
 11
158.335
 21
95.78500000000001
 31
0.0
  0
LINE
  5
166
330
1F
100
AcDbEntity
  8
1
  6
CONTINUOUS
 62
     7
100
AcDbLine
 10
158.3350000000001
 20
95.78500000000001
 30
0.0
 11
158.3350000000001
 21
94.1097317515884
 31
0.0
  0
ARC
  5
167
330
1F
100
AcDbEntity
  8
1
  6
CONTINUOUS
 62
     7
100
AcDbCircle
 10
158.85
 20
96.3
 30
0.0
 40
1.030668528585347
100
AcDbArc
 50
150.0214543835138
 51
209.9785456164862
  0
ARC
  5
168
330
1F
100
AcDbEntity
  8
1
  6
CONTINUOUS
 62
     7
100
AcDbCircle
 10
158.85
 20
96.3
 30
0.0
 40
1.030668528585347
100
AcDbArc
 50
240.0214543835139
 51
299.9785456164861
  0
ARC
  5
169
330
1F
100
AcDbEntity
  8
1
  6
CONTINUOUS
 62
     7
100
AcDbCircle
 10
158.85
 20
96.3
 30
0.0
 40
1.030668528585347
100
AcDbArc
 50
60.02145438351382
 51
119.9785456164862
  0
ARC
  5
16A
330
1F
100
AcDbEntity
  8
1
  6
CONTINUOUS
 62
     7
100
AcDbCircle
 10
158.85
 20
96.3
 30
0.0
 40
1.030668528585347
100
AcDbArc
 50
330.0214543835138
 51
29.97854561648614
  0
CIRCLE
  5
16B
330
1F
100
AcDbEntity
  8
1
  6
CONTINUOUS
 62
     7
100
AcDbCircle
 10
204.85
 20
96.3
 30
0.0
 40
4.200000000000002
  0
ARC
  5
16C
330
1F
100
AcDbEntity
  8
1
  6
CONTINUOUS
 62
     7
100
AcDbCircle
 10
204.85
 20
96.3
 30
0.0
 40
2.250000000000003
100
AcDbArc
 50
256.7683351757007
 51
283.2316648242992
  0
LINE
  5
16D
330
1F
100
AcDbEntity
  8
1
  6
CONTINUOUS
 62
     7
100
AcDbLine
 10
205.3650000000001
 20
94.1097317515884
 30
0.0
 11
205.3650000000001
 21
95.78500000000001
 31
0.0
  0
LINE
  5
16E
330
1F
100
AcDbEntity
  8
1
  6
CONTINUOUS
 62
     7
100
AcDbLine
 10
205.3650000000001
 20
95.78500000000001
 30
0.0
 11
207.0402682484117
 21
95.78500000000001
 31
0.0
  0
ARC
  5
16F
330
1F
100
AcDbEntity
  8
1
  6
CONTINUOUS
 62
     7
100
AcDbCircle
 10
204.85
 20
96.3
 30
0.0
 40
2.25
100
AcDbArc
 50
346.7683351757007
 51
13.23166482429929
  0
LINE
  5
170
330
1F
100
AcDbEntity
  8
1
  6
CONTINUOUS
 62
     7
100
AcDbLine
 10
207.0402682484116
 20
96.81499999999998
 30
0.0
 11
205.365
 21
96.81499999999998
 31
0.0
  0
LINE
  5
171
330
1F
100
AcDbEntity
  8
1
  6
CONTINUOUS
 62
     7
100
AcDbLine
 10
205.3650000000001
 20
96.81499999999998
 30
0.0
 11
205.3650000000001
 21
98.49026824841158
 31
0.0
  0
ARC
  5
172
330
1F
100
AcDbEntity
  8
1
  6
CONTINUOUS
 62
     7
100
AcDbCircle
 10
204.85
 20
96.3
 30
0.0
 40
2.250000000000003
100
AcDbArc
 50
76.76833517570074
 51
103.2316648242992
  0
LINE
  5
173
330
1F
100
AcDbEntity
  8
1
  6
CONTINUOUS
 62
     7
100
AcDbLine
 10
204.335
 20
98.49026824841158
 30
0.0
 11
204.335
 21
96.81499999999998
 31
0.0
  0
LINE
  5
174
330
1F
100
AcDbEntity
  8
1
  6
CONTINUOUS
 62
     7
100
AcDbLine
 10
204.335
 20
96.81499999999998
 30
0.0
 11
202.6597317515884
 21
96.81499999999998
 31
0.0
  0
ARC
  5
175
330
1F
100
AcDbEntity
  8
1
  6
CONTINUOUS
 62
     7
100
AcDbCircle
 10
204.85
 20
96.3
 30
0.0
 40
2.25
100
AcDbArc
 50
166.7683351757007
 51
193.2316648242993
  0
LINE
  5
176
330
1F
100
AcDbEntity
  8
1
  6
CONTINUOUS
 62
     7
100
AcDbLine
 10
202.6597317515884
 20
95.78500000000001
 30
0.0
 11
204.335
 21
95.78500000000001
 31
0.0
  0
LINE
  5
177
330
1F
100
AcDbEntity
  8
1
  6
CONTINUOUS
 62
     7
100
AcDbLine
 10
204.335
 20
95.78500000000001
 30
0.0
 11
204.335
 21
94.1097317515884
 31
0.0
  0
ARC
  5
178
330
1F
100
AcDbEntity
  8
1
  6
CONTINUOUS
 62
     7
100
AcDbCircle
 10
204.85
 20
96.3
 30
0.0
 40
1.030668528585347
100
AcDbArc
 50
150.0214543835138
 51
209.9785456164862
  0
ARC
  5
179
330
1F
100
AcDbEntity
  8
1
  6
CONTINUOUS
 62
     7
100
AcDbCircle
 10
204.85
 20
96.3
 30
0.0
 40
1.030668528585347
100
AcDbArc
 50
240.0214543835139
 51
299.9785456164861
  0
ARC
  5
17A
330
1F
100
AcDbEntity
  8
1
  6
CONTINUOUS
 62
     7
100
AcDbCircle
 10
204.85
 20
96.3
 30
0.0
 40
1.030668528585347
100
AcDbArc
 50
60.02145438351382
 51
119.9785456164862
  0
ARC
  5
17B
330
1F
100
AcDbEntity
  8
1
  6
CONTINUOUS
 62
     7
100
AcDbCircle
 10
204.85
 20
96.3
 30
0.0
 40
1.030668528585347
100
AcDbArc
 50
330.0214543835138
 51
29.97854561648614
  0
CIRCLE
  5
17C
330
1F
100
AcDbEntity
  8
1
  6
CONTINUOUS
 62
     7
100
AcDbCircle
 10
204.85
 20
179.8
 30
0.0
 40
4.199999999999998
  0
ARC
  5
17D
330
1F
100
AcDbEntity
  8
1
  6
CONTINUOUS
 62
     7
100
AcDbCircle
 10
204.85
 20
179.8
 30
0.0
 40
2.250000000000003
100
AcDbArc
 50
76.76833517570074
 51
103.2316648242993
  0
LINE
  5
17E
330
1F
100
AcDbEntity
  8
1
  6
CONTINUOUS
 62
     7
100
AcDbLine
 10
204.3350000000001
 20
181.9902682484116
 30
0.0
 11
204.3350000000001
 21
180.3149999999999
 31
0.0
  0
LINE
  5
17F
330
1F
100
AcDbEntity
  8
1
  6
CONTINUOUS
 62
     7
100
AcDbLine
 10
204.3350000000001
 20
180.315
 30
0.0
 11
202.6597317515885
 21
180.315
 31
0.0
  0
ARC
  5
180
330
1F
100
AcDbEntity
  8
1
  6
CONTINUOUS
 62
     7
100
AcDbCircle
 10
204.85
 20
179.8
 30
0.0
 40
2.25
100
AcDbArc
 50
166.7683351757007
 51
193.2316648242993
  0
LINE
  5
181
330
1F
100
AcDbEntity
  8
1
  6
CONTINUOUS
 62
     7
100
AcDbLine
 10
202.6597317515884
 20
179.2849999999999
 30
0.0
 11
204.335
 21
179.2849999999999
 31
0.0
  0
LINE
  5
182
330
1F
100
AcDbEntity
  8
1
  6
CONTINUOUS
 62
     7
100
AcDbLine
 10
204.3350000000001
 20
179.2849999999999
 30
0.0
 11
204.3350000000001
 21
177.6097317515883
 31
0.0
  0
ARC
  5
183
330
1F
100
AcDbEntity
  8
1
  6
CONTINUOUS
 62
     7
100
AcDbCircle
 10
204.85
 20
179.8
 30
0.0
 40
2.250000000000003
100
AcDbArc
 50
256.7683351757007
 51
283.2316648242992
  0
LINE
  5
184
330
1F
100
AcDbEntity
  8
1
  6
CONTINUOUS
 62
     7
100
AcDbLine
 10
205.3650000000001
 20
177.6097317515884
 30
0.0
 11
205.3650000000001
 21
179.285
 31
0.0
  0
LINE
  5
185
330
1F
100
AcDbEntity
  8
1
  6
CONTINUOUS
 62
     7
100
AcDbLine
 10
205.3650000000001
 20
179.2849999999999
 30
0.0
 11
207.0402682484117
 21
179.2849999999999
 31
0.0
  0
ARC
  5
186
330
1F
100
AcDbEntity
  8
1
  6
CONTINUOUS
 62
     7
100
AcDbCircle
 10
204.85
 20
179.8
 30
0.0
 40
2.25
100
AcDbArc
 50
346.7683351757007
 51
13.23166482429929
  0
LINE
  5
187
330
1F
100
AcDbEntity
  8
1
  6
CONTINUOUS
 62
     7
100
AcDbLine
 10
207.0402682484116
 20
180.315
 30
0.0
 11
205.365
 21
180.315
 31
0.0
  0
LINE
  5
188
330
1F
100
AcDbEntity
  8
1
  6
CONTINUOUS
 62
     7
100
AcDbLine
 10
205.3650000000001
 20
180.315
 30
0.0
 11
205.3650000000001
 21
181.9902682484116
 31
0.0
  0
ARC
  5
189
330
1F
100
AcDbEntity
  8
1
  6
CONTINUOUS
 62
     7
100
AcDbCircle
 10
204.85
 20
179.8
 30
0.0
 40
1.030668528585347
100
AcDbArc
 50
330.0214543835138
 51
29.97854561648614
  0
ARC
  5
18A
330
1F
100
AcDbEntity
  8
1
  6
CONTINUOUS
 62
     7
100
AcDbCircle
 10
204.85
 20
179.8
 30
0.0
 40
1.030668528585347
100
AcDbArc
 50
240.0214543835139
 51
299.9785456164861
  0
ARC
  5
18B
330
1F
100
AcDbEntity
  8
1
  6
CONTINUOUS
 62
     7
100
AcDbCircle
 10
204.85
 20
179.8
 30
0.0
 40
1.030668528585347
100
AcDbArc
 50
150.0214543835138
 51
209.9785456164862
  0
ARC
  5
18C
330
1F
100
AcDbEntity
  8
1
  6
CONTINUOUS
 62
     7
100
AcDbCircle
 10
204.85
 20
179.8
 30
0.0
 40
1.030668528585347
100
AcDbArc
 50
60.02145438351382
 51
119.9785456164862
  0
CIRCLE
  5
18D
330
1F
100
AcDbEntity
  8
1
  6
CONTINUOUS
 62
     7
100
AcDbCircle
 10
158.8500000000001
 20
179.8
 30
0.0
 40
4.199999999999998
  0
ARC
  5
18E
330
1F
100
AcDbEntity
  8
1
  6
CONTINUOUS
 62
     7
100
AcDbCircle
 10
158.8500000000001
 20
179.8
 30
0.0
 40
2.250000000000003
100
AcDbArc
 50
76.76833517570074
 51
103.2316648242993
  0
LINE
  5
18F
330
1F
100
AcDbEntity
  8
1
  6
CONTINUOUS
 62
     7
100
AcDbLine
 10
158.3350000000001
 20
181.9902682484116
 30
0.0
 11
158.3350000000001
 21
180.3149999999999
 31
0.0
  0
LINE
  5
190
330
1F
100
AcDbEntity
  8
1
  6
CONTINUOUS
 62
     7
100
AcDbLine
 10
158.3350000000001
 20
180.315
 30
0.0
 11
156.6597317515885
 21
180.315
 31
0.0
  0
ARC
  5
191
330
1F
100
AcDbEntity
  8
1
  6
CONTINUOUS
 62
     7
100
AcDbCircle
 10
158.8500000000001
 20
179.8
 30
0.0
 40
2.25
100
AcDbArc
 50
166.7683351757007
 51
193.2316648242993
  0
LINE
  5
192
330
1F
100
AcDbEntity
  8
1
  6
CONTINUOUS
 62
     7
100
AcDbLine
 10
156.6597317515885
 20
179.2849999999999
 30
0.0
 11
158.3350000000001
 21
179.2849999999999
 31
0.0
  0
LINE
  5
193
330
1F
100
AcDbEntity
  8
1
  6
CONTINUOUS
 62
     7
100
AcDbLine
 10
158.3350000000001
 20
179.2849999999999
 30
0.0
 11
158.3350000000001
 21
177.6097317515883
 31
0.0
  0
ARC
  5
194
330
1F
100
AcDbEntity
  8
1
  6
CONTINUOUS
 62
     7
100
AcDbCircle
 10
158.8500000000001
 20
179.8
 30
0.0
 40
2.250000000000003
100
AcDbArc
 50
256.7683351757007
 51
283.2316648242992
  0
LINE
  5
195
330
1F
100
AcDbEntity
  8
1
  6
CONTINUOUS
 62
     7
100
AcDbLine
 10
159.365
 20
177.6097317515884
 30
0.0
 11
159.365
 21
179.285
 31
0.0
  0
LINE
  5
196
330
1F
100
AcDbEntity
  8
1
  6
CONTINUOUS
 62
     7
100
AcDbLine
 10
159.365
 20
179.2849999999999
 30
0.0
 11
161.0402682484116
 21
179.2849999999999
 31
0.0
  0
ARC
  5
197
330
1F
100
AcDbEntity
  8
1
  6
CONTINUOUS
 62
     7
100
AcDbCircle
 10
158.8500000000001
 20
179.8
 30
0.0
 40
2.25
100
AcDbArc
 50
346.7683351757007
 51
13.23166482429929
  0
LINE
  5
198
330
1F
100
AcDbEntity
  8
1
  6
CONTINUOUS
 62
     7
100
AcDbLine
 10
161.0402682484116
 20
180.315
 30
0.0
 11
159.365
 21
180.315
 31
0.0
  0
LINE
  5
199
330
1F
100
AcDbEntity
  8
1
  6
CONTINUOUS
 62
     7
100
AcDbLine
 10
159.365
 20
180.315
 30
0.0
 11
159.365
 21
181.9902682484116
 31
0.0
  0
ARC
  5
19A
330
1F
100
AcDbEntity
  8
1
  6
CONTINUOUS
 62
     7
100
AcDbCircle
 10
158.8500000000001
 20
179.8
 30
0.0
 40
1.030668528585347
100
AcDbArc
 50
330.0214543835138
 51
29.97854561648614
  0
ARC
  5
19B
330
1F
100
AcDbEntity
  8
1
  6
CONTINUOUS
 62
     7
100
AcDbCircle
 10
158.8500000000001
 20
179.8
 30
0.0
 40
1.030668528585347
100
AcDbArc
 50
150.0214543835138
 51
209.9785456164862
  0
ARC
  5
19C
330
1F
100
AcDbEntity
  8
1
  6
CONTINUOUS
 62
     7
100
AcDbCircle
 10
158.8500000000001
 20
179.8
 30
0.0
 40
1.030668528585347
100
AcDbArc
 50
240.0214543835139
 51
299.9785456164861
  0
ARC
  5
19D
330
1F
100
AcDbEntity
  8
1
  6
CONTINUOUS
 62
     7
100
AcDbCircle
 10
158.8500000000001
 20
179.8
 30
0.0
 40
1.030668528585347
100
AcDbArc
 50
60.02145438351382
 51
119.9785456164862
  0
ARC
  5
19E
330
1F
100
AcDbEntity
  8
1
  6
CONTINUOUS
 62
     7
100
AcDbCircle
 10
149.8500000000001
 20
95.2
 30
0.0
 40
4.200000000000002
100
AcDbArc
 50
289.4961621812306
 51
0.0
  0
ARC
  5
19F
330
1F
100
AcDbEntity
  8
1
  6
CONTINUOUS
 62
     7
100
AcDbCircle
 10
149.8500000000001
 20
95.2
 30
0.0
 40
4.199999999999997
100
AcDbArc
 50
0.0
 51
84.44035130152099
  0
ARC
  5
1A0
330
1F
100
AcDbEntity
  8
1
  6
CONTINUOUS
 62
     7
100
AcDbCircle
 10
149.8500000000001
 20
95.2
 30
0.0
 40
2.250000000000003
100
AcDbArc
 50
256.7683351757007
 51
283.2316648242992
  0
LINE
  5
1A1
330
1F
100
AcDbEntity
  8
1
  6
CONTINUOUS
 62
     7
100
AcDbLine
 10
150.365
 20
93.00973175158842
 30
0.0
 11
150.365
 21
94.68500000000002
 31
0.0
  0
LINE
  5
1A2
330
1F
100
AcDbEntity
  8
1
  6
CONTINUOUS
 62
     7
100
AcDbLine
 10
150.365
 20
94.68500000000002
 30
0.0
 11
152.0402682484116
 21
94.68500000000002
 31
0.0
  0
ARC
  5
1A3
330
1F
100
AcDbEntity
  8
1
  6
CONTINUOUS
 62
     7
100
AcDbCircle
 10
149.8500000000001
 20
95.2
 30
0.0
 40
2.25
100
AcDbArc
 50
346.7683351757007
 51
13.23166482429929
  0
LINE
  5
1A4
330
1F
100
AcDbEntity
  8
1
  6
CONTINUOUS
 62
     7
100
AcDbLine
 10
152.0402682484116
 20
95.71500000000002
 30
0.0
 11
150.365
 21
95.71500000000002
 31
0.0
  0
LINE
  5
1A5
330
1F
100
AcDbEntity
  8
1
  6
CONTINUOUS
 62
     7
100
AcDbLine
 10
150.365
 20
95.71500000000002
 30
0.0
 11
150.365
 21
97.39026824841163
 31
0.0
  0
ARC
  5
1A6
330
1F
100
AcDbEntity
  8
1
  6
CONTINUOUS
 62
     7
100
AcDbCircle
 10
149.8500000000001
 20
95.2
 30
0.0
 40
2.250000000000003
100
AcDbArc
 50
76.76833517570074
 51
103.2316648242993
  0
LINE
  5
1A7
330
1F
100
AcDbEntity
  8
1
  6
CONTINUOUS
 62
     7
100
AcDbLine
 10
149.335
 20
97.39026824841163
 30
0.0
 11
149.335
 21
95.71500000000002
 31
0.0
  0
LINE
  5
1A8
330
1F
100
AcDbEntity
  8
1
  6
CONTINUOUS
 62
     7
100
AcDbLine
 10
149.335
 20
95.71500000000002
 30
0.0
 11
147.6597317515885
 21
95.71500000000002
 31
0.0
  0
ARC
  5
1A9
330
1F
100
AcDbEntity
  8
1
  6
CONTINUOUS
 62
     7
100
AcDbCircle
 10
149.8500000000001
 20
95.2
 30
0.0
 40
2.250000000000003
100
AcDbArc
 50
166.7683351757008
 51
193.2316648242993
  0
LINE
  5
1AA
330
1F
100
AcDbEntity
  8
1
  6
CONTINUOUS
 62
     7
100
AcDbLine
 10
147.6597317515885
 20
94.68500000000002
 30
0.0
 11
149.3350000000001
 21
94.68500000000002
 31
0.0
  0
LINE
  5
1AB
330
1F
100
AcDbEntity
  8
1
  6
CONTINUOUS
 62
     7
100
AcDbLine
 10
149.335
 20
94.68500000000002
 30
0.0
 11
149.335
 21
93.00973175158842
 31
0.0
  0
ARC
  5
1AC
330
1F
100
AcDbEntity
  8
1
  6
CONTINUOUS
 62
     7
100
AcDbCircle
 10
149.8500000000001
 20
95.2
 30
0.0
 40
1.030668528585347
100
AcDbArc
 50
150.0214543835138
 51
209.9785456164862
  0
ARC
  5
1AD
330
1F
100
AcDbEntity
  8
1
  6
CONTINUOUS
 62
     7
100
AcDbCircle
 10
149.8500000000001
 20
95.2
 30
0.0
 40
1.030668528585347
100
AcDbArc
 50
330.0214543835138
 51
29.97854561648614
  0
ARC
  5
1AE
330
1F
100
AcDbEntity
  8
1
  6
CONTINUOUS
 62
     7
100
AcDbCircle
 10
149.8500000000001
 20
95.2
 30
0.0
 40
1.030668528585347
100
AcDbArc
 50
60.02145438351382
 51
119.9785456164862
  0
ARC
  5
1AF
330
1F
100
AcDbEntity
  8
1
  6
CONTINUOUS
 62
     7
100
AcDbCircle
 10
149.8500000000001
 20
95.2
 30
0.0
 40
1.030668528585347
100
AcDbArc
 50
240.0214543835139
 51
299.9785456164861
  0
ARC
  5
1B0
330
1F
100
AcDbEntity
  8
1
  6
CONTINUOUS
 62
     7
100
AcDbCircle
 10
195.85
 20
95.2
 30
0.0
 40
4.200000000000002
100
AcDbArc
 50
289.4961621812312
 51
0.0
  0
ARC
  5
1B1
330
1F
100
AcDbEntity
  8
1
  6
CONTINUOUS
 62
     7
100
AcDbCircle
 10
195.85
 20
95.2
 30
0.0
 40
4.199999999999999
100
AcDbArc
 50
0.0
 51
84.4403513015215
  0
ARC
  5
1B2
330
1F
100
AcDbEntity
  8
1
  6
CONTINUOUS
 62
     7
100
AcDbCircle
 10
195.85
 20
95.2
 30
0.0
 40
2.250000000000003
100
AcDbArc
 50
256.7683351757008
 51
283.2316648242992
  0
LINE
  5
1B3
330
1F
100
AcDbEntity
  8
1
  6
CONTINUOUS
 62
     7
100
AcDbLine
 10
196.365
 20
93.00973175158842
 30
0.0
 11
196.365
 21
94.68500000000002
 31
0.0
  0
LINE
  5
1B4
330
1F
100
AcDbEntity
  8
1
  6
CONTINUOUS
 62
     7
100
AcDbLine
 10
196.365
 20
94.685
 30
0.0
 11
198.0402682484116
 21
94.685
 31
0.0
  0
ARC
  5
1B5
330
1F
100
AcDbEntity
  8
1
  6
CONTINUOUS
 62
     7
100
AcDbCircle
 10
195.85
 20
95.2
 30
0.0
 40
2.25
100
AcDbArc
 50
346.7683351757007
 51
13.23166482429929
  0
LINE
  5
1B6
330
1F
100
AcDbEntity
  8
1
  6
CONTINUOUS
 62
     7
100
AcDbLine
 10
198.0402682484116
 20
95.71499999999999
 30
0.0
 11
196.365
 21
95.71499999999999
 31
0.0
  0
LINE
  5
1B7
330
1F
100
AcDbEntity
  8
1
  6
CONTINUOUS
 62
     7
100
AcDbLine
 10
196.365
 20
95.71499999999999
 30
0.0
 11
196.365
 21
97.3902682484116
 31
0.0
  0
ARC
  5
1B8
330
1F
100
AcDbEntity
  8
1
  6
CONTINUOUS
 62
     7
100
AcDbCircle
 10
195.85
 20
95.2
 30
0.0
 40
2.250000000000003
100
AcDbArc
 50
76.76833517570076
 51
103.2316648242992
  0
LINE
  5
1B9
330
1F
100
AcDbEntity
  8
1
  6
CONTINUOUS
 62
     7
100
AcDbLine
 10
195.3350000000001
 20
97.3902682484116
 30
0.0
 11
195.3350000000001
 21
95.71499999999999
 31
0.0
  0
LINE
  5
1BA
330
1F
100
AcDbEntity
  8
1
  6
CONTINUOUS
 62
     7
100
AcDbLine
 10
195.3350000000001
 20
95.71499999999999
 30
0.0
 11
193.6597317515885
 21
95.71499999999999
 31
0.0
  0
ARC
  5
1BB
330
1F
100
AcDbEntity
  8
1
  6
CONTINUOUS
 62
     7
100
AcDbCircle
 10
195.85
 20
95.2
 30
0.0
 40
2.25
100
AcDbArc
 50
166.7683351757007
 51
193.2316648242993
  0
LINE
  5
1BC
330
1F
100
AcDbEntity
  8
1
  6
CONTINUOUS
 62
     7
100
AcDbLine
 10
193.6597317515885
 20
94.685
 30
0.0
 11
195.3350000000001
 21
94.685
 31
0.0
  0
LINE
  5
1BD
330
1F
100
AcDbEntity
  8
1
  6
CONTINUOUS
 62
     7
100
AcDbLine
 10
195.3350000000001
 20
94.685
 30
0.0
 11
195.3350000000001
 21
93.00973175158842
 31
0.0
  0
ARC
  5
1BE
330
1F
100
AcDbEntity
  8
1
  6
CONTINUOUS
 62
     7
100
AcDbCircle
 10
195.85
 20
95.2
 30
0.0
 40
1.030668528585347
100
AcDbArc
 50
150.0214543835138
 51
209.9785456164862
  0
ARC
  5
1BF
330
1F
100
AcDbEntity
  8
1
  6
CONTINUOUS
 62
     7
100
AcDbCircle
 10
195.85
 20
95.2
 30
0.0
 40
1.030668528585346
100
AcDbArc
 50
240.0214543835139
 51
299.9785456164861
  0
ARC
  5
1C0
330
1F
100
AcDbEntity
  8
1
  6
CONTINUOUS
 62
     7
100
AcDbCircle
 10
195.85
 20
95.2
 30
0.0
 40
1.030668528585346
100
AcDbArc
 50
60.02145438351391
 51
119.9785456164861
  0
ARC
  5
1C1
330
1F
100
AcDbEntity
  8
1
  6
CONTINUOUS
 62
     7
100
AcDbCircle
 10
195.85
 20
95.2
 30
0.0
 40
1.030668528585347
100
AcDbArc
 50
330.0214543835138
 51
29.97854561648614
  0
ARC
  5
1C2
330
1F
100
AcDbEntity
  8
1
  6
CONTINUOUS
 62
     7
100
AcDbCircle
 10
213.8500000000001
 20
180.8999999999999
 30
0.0
 40
4.200000000000002
100
AcDbArc
 50
109.4961621812308
 51
180.0
  0
ARC
  5
1C3
330
1F
100
AcDbEntity
  8
1
  6
CONTINUOUS
 62
     7
100
AcDbCircle
 10
213.8500000000001
 20
180.8999999999999
 30
0.0
 40
4.2
100
AcDbArc
 50
180.0
 51
264.4403513015204
  0
ARC
  5
1C4
330
1F
100
AcDbEntity
  8
1
  6
CONTINUOUS
 62
     7
100
AcDbCircle
 10
213.8500000000001
 20
180.8999999999999
 30
0.0
 40
2.250000000000003
100
AcDbArc
 50
76.76833517570074
 51
103.2316648242993
  0
LINE
  5
1C5
330
1F
100
AcDbEntity
  8
1
  6
CONTINUOUS
 62
     7
100
AcDbLine
 10
213.3350000000001
 20
183.0902682484115
 30
0.0
 11
213.3350000000001
 21
181.4149999999999
 31
0.0
  0
LINE
  5
1C6
330
1F
100
AcDbEntity
  8
1
  6
CONTINUOUS
 62
     7
100
AcDbLine
 10
213.3350000000001
 20
181.415
 30
0.0
 11
211.6597317515885
 21
181.415
 31
0.0
  0
ARC
  5
1C7
330
1F
100
AcDbEntity
  8
1
  6
CONTINUOUS
 62
     7
100
AcDbCircle
 10
213.8500000000001
 20
180.8999999999999
 30
0.0
 40
2.25
100
AcDbArc
 50
166.7683351757007
 51
193.2316648242993
  0
LINE
  5
1C8
330
1F
100
AcDbEntity
  8
1
  6
CONTINUOUS
 62
     7
100
AcDbLine
 10
211.6597317515885
 20
180.3849999999999
 30
0.0
 11
213.3350000000001
 21
180.3849999999999
 31
0.0
  0
LINE
  5
1C9
330
1F
100
AcDbEntity
  8
1
  6
CONTINUOUS
 62
     7
100
AcDbLine
 10
213.3350000000001
 20
180.3849999999999
 30
0.0
 11
213.3350000000001
 21
178.7097317515883
 31
0.0
  0
ARC
  5
1CA
330
1F
100
AcDbEntity
  8
1
  6
CONTINUOUS
 62
     7
100
AcDbCircle
 10
213.8500000000001
 20
180.8999999999999
 30
0.0
 40
2.250000000000003
100
AcDbArc
 50
256.7683351757007
 51
283.2316648242992
  0
LINE
  5
1CB
330
1F
100
AcDbEntity
  8
1
  6
CONTINUOUS
 62
     7
100
AcDbLine
 10
214.3650000000001
 20
178.7097317515884
 30
0.0
 11
214.3650000000001
 21
180.385
 31
0.0
  0
LINE
  5
1CC
330
1F
100
AcDbEntity
  8
1
  6
CONTINUOUS
 62
     7
100
AcDbLine
 10
214.3650000000001
 20
180.3849999999999
 30
0.0
 11
216.0402682484117
 21
180.3849999999999
 31
0.0
  0
ARC
  5
1CD
330
1F
100
AcDbEntity
  8
1
  6
CONTINUOUS
 62
     7
100
AcDbCircle
 10
213.8500000000001
 20
180.8999999999999
 30
0.0
 40
2.250000000000003
100
AcDbArc
 50
346.7683351757009
 51
13.23166482429929
  0
LINE
  5
1CE
330
1F
100
AcDbEntity
  8
1
  6
CONTINUOUS
 62
     7
100
AcDbLine
 10
216.0402682484118
 20
181.415
 30
0.0
 11
214.3650000000002
 21
181.415
 31
0.0
  0
LINE
  5
1CF
330
1F
100
AcDbEntity
  8
1
  6
CONTINUOUS
 62
     7
100
AcDbLine
 10
214.3650000000001
 20
181.415
 30
0.0
 11
214.3650000000001
 21
183.0902682484116
 31
0.0
  0
ARC
  5
1D0
330
1F
100
AcDbEntity
  8
1
  6
CONTINUOUS
 62
     7
100
AcDbCircle
 10
213.8500000000001
 20
180.8999999999999
 30
0.0
 40
1.030668528585347
100
AcDbArc
 50
330.0214543835138
 51
29.97854561648614
  0
ARC
  5
1D1
330
1F
100
AcDbEntity
  8
1
  6
CONTINUOUS
 62
     7
100
AcDbCircle
 10
213.8500000000001
 20
180.8999999999999
 30
0.0
 40
1.030668528585347
100
AcDbArc
 50
60.02145438351382
 51
119.9785456164862
  0
ARC
  5
1D2
330
1F
100
AcDbEntity
  8
1
  6
CONTINUOUS
 62
     7
100
AcDbCircle
 10
213.8500000000001
 20
180.8999999999999
 30
0.0
 40
1.030668528585347
100
AcDbArc
 50
150.0214543835138
 51
209.9785456164862
  0
ARC
  5
1D3
330
1F
100
AcDbEntity
  8
1
  6
CONTINUOUS
 62
     7
100
AcDbCircle
 10
213.8500000000001
 20
180.8999999999999
 30
0.0
 40
1.030668528585347
100
AcDbArc
 50
240.0214543835139
 51
299.9785456164861
  0
ARC
  5
1D4
330
1F
100
AcDbEntity
  8
1
  6
CONTINUOUS
 62
     7
100
AcDbCircle
 10
167.8500000000001
 20
180.8999999999999
 30
0.0
 40
4.2
100
AcDbArc
 50
109.4961621812306
 51
180.0
  0
ARC
  5
1D5
330
1F
100
AcDbEntity
  8
1
  6
CONTINUOUS
 62
     7
100
AcDbCircle
 10
167.8500000000001
 20
180.8999999999999
 30
0.0
 40
4.199999999999997
100
AcDbArc
 50
180.0
 51
264.4403513015219
  0
ARC
  5
1D6
330
1F
100
AcDbEntity
  8
1
  6
CONTINUOUS
 62
     7
100
AcDbCircle
 10
167.8500000000001
 20
180.8999999999999
 30
0.0
 40
2.250000000000003
100
AcDbArc
 50
76.76833517570076
 51
103.2316648242992
  0
LINE
  5
1D7
330
1F
100
AcDbEntity
  8
1
  6
CONTINUOUS
 62
     7
100
AcDbLine
 10
167.3350000000001
 20
183.0902682484115
 30
0.0
 11
167.3350000000001
 21
181.4149999999999
 31
0.0
  0
LINE
  5
1D8
330
1F
100
AcDbEntity
  8
1
  6
CONTINUOUS
 62
     7
100
AcDbLine
 10
167.3350000000001
 20
181.415
 30
0.0
 11
165.6597317515885
 21
181.415
 31
0.0
  0
ARC
  5
1D9
330
1F
100
AcDbEntity
  8
1
  6
CONTINUOUS
 62
     7
100
AcDbCircle
 10
167.8500000000001
 20
180.8999999999999
 30
0.0
 40
2.250000000000001
100
AcDbArc
 50
166.7683351757007
 51
193.2316648242993
  0
LINE
  5
1DA
330
1F
100
AcDbEntity
  8
1
  6
CONTINUOUS
 62
     7
100
AcDbLine
 10
165.6597317515885
 20
180.3849999999999
 30
0.0
 11
167.3350000000001
 21
180.3849999999999
 31
0.0
  0
LINE
  5
1DB
330
1F
100
AcDbEntity
  8
1
  6
CONTINUOUS
 62
     7
100
AcDbLine
 10
167.3350000000001
 20
180.3849999999999
 30
0.0
 11
167.3350000000001
 21
178.7097317515883
 31
0.0
  0
ARC
  5
1DC
330
1F
100
AcDbEntity
  8
1
  6
CONTINUOUS
 62
     7
100
AcDbCircle
 10
167.8500000000001
 20
180.8999999999999
 30
0.0
 40
2.250000000000003
100
AcDbArc
 50
256.7683351757008
 51
283.2316648242992
  0
LINE
  5
1DD
330
1F
100
AcDbEntity
  8
1
  6
CONTINUOUS
 62
     7
100
AcDbLine
 10
168.3650000000002
 20
178.7097317515884
 30
0.0
 11
168.3650000000002
 21
180.385
 31
0.0
  0
LINE
  5
1DE
330
1F
100
AcDbEntity
  8
1
  6
CONTINUOUS
 62
     7
100
AcDbLine
 10
168.3650000000002
 20
180.3849999999999
 30
0.0
 11
170.0402682484118
 21
180.3849999999999
 31
0.0
  0
ARC
  5
1DF
330
1F
100
AcDbEntity
  8
1
  6
CONTINUOUS
 62
     7
100
AcDbCircle
 10
167.8500000000001
 20
180.8999999999999
 30
0.0
 40
2.25
100
AcDbArc
 50
346.7683351757007
 51
13.23166482429929
  0
LINE
  5
1E0
330
1F
100
AcDbEntity
  8
1
  6
CONTINUOUS
 62
     7
100
AcDbLine
 10
170.0402682484117
 20
181.415
 30
0.0
 11
168.3650000000001
 21
181.415
 31
0.0
  0
LINE
  5
1E1
330
1F
100
AcDbEntity
  8
1
  6
CONTINUOUS
 62
     7
100
AcDbLine
 10
168.3650000000002
 20
181.415
 30
0.0
 11
168.3650000000002
 21
183.0902682484116
 31
0.0
  0
ARC
  5
1E2
330
1F
100
AcDbEntity
  8
1
  6
CONTINUOUS
 62
     7
100
AcDbCircle
 10
167.8500000000001
 20
180.8999999999999
 30
0.0
 40
1.030668528585347
100
AcDbArc
 50
330.0214543835138
 51
29.97854561648614
  0
ARC
  5
1E3
330
1F
100
AcDbEntity
  8
1
  6
CONTINUOUS
 62
     7
100
AcDbCircle
 10
167.8500000000001
 20
180.8999999999999
 30
0.0
 40
1.030668528585347
100
AcDbArc
 50
150.0214543835138
 51
209.9785456164862
  0
ARC
  5
1E4
330
1F
100
AcDbEntity
  8
1
  6
CONTINUOUS
 62
     7
100
AcDbCircle
 10
167.8500000000001
 20
180.8999999999999
 30
0.0
 40
1.030668528585346
100
AcDbArc
 50
60.02145438351391
 51
119.9785456164861
  0
ARC
  5
1E5
330
1F
100
AcDbEntity
  8
1
  6
CONTINUOUS
 62
     7
100
AcDbCircle
 10
167.8500000000001
 20
180.8999999999999
 30
0.0
 40
1.030668528585346
100
AcDbArc
 50
240.0214543835139
 51
299.9785456164861
  0
ARC
  5
1E6
330
1F
100
AcDbEntity
  8
1
  6
CONTINUOUS
 62
     7
100
AcDbCircle
 10
195.85
 20
95.2
 30
0.0
 40
4.634523505985773
100
AcDbArc
 50
49.04299641851026
 51
69.17856142901918
  0
ARC
  5
1E7
330
1F
100
AcDbEntity
  8
1
  6
CONTINUOUS
 62
     7
100
AcDbCircle
 10
149.8500000000001
 20
95.2
 30
0.0
 40
4.634523505985773
100
AcDbArc
 50
49.04299641851014
 51
69.17856142901894
  0
ARC
  5
1E8
330
1F
100
AcDbEntity
  8
1
  6
CONTINUOUS
 62
     7
100
AcDbCircle
 10
167.8500000000001
 20
180.8999999999999
 30
0.0
 40
4.63452350598577
100
AcDbArc
 50
229.0429964185116
 51
249.1785614290193
  0
ARC
  5
1E9
330
1F
100
AcDbEntity
  8
1
  6
CONTINUOUS
 62
     7
100
AcDbCircle
 10
213.8500000000001
 20
180.8999999999999
 30
0.0
 40
4.634523505985773
100
AcDbArc
 50
229.0429964185116
 51
249.1785614290187
  0
ARC
  5
1EA
330
1F
100
AcDbEntity
  8
1
  6
CONTINUOUS
 62
     7
100
AcDbCircle
 10
139.7817672554587
 20
169.7999999999999
 30
0.0
 40
4.999999999999991
100
AcDbArc
 50
145.8423319349043
 51
148.4332049437596
  0
ARC
  5
1EB
330
1F
100
AcDbEntity
  8
1
  6
CONTINUOUS
 62
     7
100
AcDbCircle
 10
139.7817672554587
 20
106.3
 30
0.0
 40
4.999999999999989
100
AcDbArc
 50
211.5667950786145
 51
214.1576680424706
  0
ARC
  5
1EC
330
1F
100
AcDbEntity
  8
1
  6
CONTINUOUS
 62
     7
100
AcDbCircle
 10
223.9182327445415
 20
106.3
 30
0.0
 40
4.99999999999999
100
AcDbArc
 50
325.8423319719268
 51
328.433204907144
  0
ARC
  5
1ED
330
1F
100
AcDbEntity
  8
1
  6
CONTINUOUS
 62
     7
100
AcDbCircle
 10
223.9182327445415
 20
169.7999999999999
 30
0.0
 40
4.999999999999993
100
AcDbArc
 50
31.56679509026755
 51
34.15766803069242
  0
CIRCLE
  5
1EE
330
1F
100
AcDbEntity
  8
1
  6
CONTINUOUS
 62
     7
100
AcDbCircle
 10
158.85
 20
123.05
 30
0.0
 40
10.65000000000001
  0
CIRCLE
  5
1EF
330
1F
100
AcDbEntity
  8
1
  6
CONTINUOUS
 62
     7
100
AcDbCircle
 10
204.85
 20
123.05
 30
0.0
 40
10.65000000000001
  0
CIRCLE
  5
1F0
330
1F
100
AcDbEntity
  8
1
  6
CONTINUOUS
 62
     7
100
AcDbCircle
 10
204.85
 20
153.05
 30
0.0
 40
10.65000000000001
  0
CIRCLE
  5
1F1
330
1F
100
AcDbEntity
  8
1
  6
CONTINUOUS
 62
     7
100
AcDbCircle
 10
158.85
 20
153.05
 30
0.0
 40
10.65000000000001
  0
LINE
  5
1F2
330
1F
100
AcDbEntity
  8
1
  6
CONTINUOUS
 62
     7
100
AcDbLine
 10
204.4430957104011
 20
92.1197573157643
 30
0.0
 11
196.3474096628576
 21
91.13028457662011
 31
0.0
  0
LINE
  5
1F3
330
1F
100
AcDbEntity
  8
1
  6
CONTINUOUS
 62
     7
100
AcDbLine
 10
195.3525903371425
 20
99.26971542337986
 30
0.0
 11
203.4482763846858
 21
100.259188162524
 31
0.0
  0
ARC
  5
1F4
330
1F
100
AcDbEntity
  8
1
  6
CONTINUOUS
 62
     7
100
AcDbCircle
 10
195.85
 20
95.19999999999997
 30
0.0
 40
4.100000000000002
100
AcDbArc
 50
96.96825674137754
 51
276.9682567413783
  0
LINE
  5
1F5
330
1F
100
AcDbEntity
  8
1
  6
CONTINUOUS
 62
     7
100
AcDbLine
 10
158.4430957104011
 20
92.11975731576432
 30
0.0
 11
150.3474096628576
 21
91.13028457662011
 31
0.0
  0
LINE
  5
1F6
330
1F
100
AcDbEntity
  8
1
  6
CONTINUOUS
 62
     7
100
AcDbLine
 10
149.3525903371425
 20
99.26971542337984
 30
0.0
 11
157.4482763846856
 21
100.259188162524
 31
0.0
  0
ARC
  5
1F7
330
1F
100
AcDbEntity
  8
1
  6
CONTINUOUS
 62
     7
100
AcDbCircle
 10
149.8500000000001
 20
95.19999999999997
 30
0.0
 40
4.100000000000001
100
AcDbArc
 50
96.96825674137814
 51
276.9682567413782
  0
LINE
  5
1F8
330
1F
100
AcDbEntity
  8
1
  6
CONTINUOUS
 62
     7
100
AcDbLine
 10
181.8500000000001
 20
173.8674247560577
 30
0.0
 11
220.8029080171261
 21
173.8674247560577
 31
0.0
  0
LINE
  5
1F9
330
1F
100
AcDbEntity
  8
1
  6
CONTINUOUS
 62
     7
100
AcDbLine
 10
142.8970919828741
 20
173.8674247560577
 30
0.0
 11
181.85
 21
173.8674247560577
 31
0.0
  0
LINE
  5
1FA
330
1F
100
AcDbEntity
  8
1
  6
CONTINUOUS
 62
     7
100
AcDbLine
 10
181.8500000000001
 20
102.2325752439423
 30
0.0
 11
142.8970919828742
 21
102.2325752439423
 31
0.0
  0
LINE
  5
1FB
330
1F
100
AcDbEntity
  8
1
  6
CONTINUOUS
 62
     7
100
AcDbLine
 10
220.802908017126
 20
102.2325752439423
 30
0.0
 11
181.8500000000001
 21
102.2325752439423
 31
0.0
  0
LINE
  5
1FC
330
1F
100
AcDbEntity
  8
1
  6
CONTINUOUS
 62
     7
100
AcDbLine
 10
126.8500000000001
 20
187.05
 30
0.0
 11
126.85
 21
89.04999999999998
 31
0.0
  0
ARC
  5
1FD
330
1F
100
AcDbEntity
  8
1
  6
CONTINUOUS
 62
     7
100
AcDbCircle
 10
134.8500000000001
 20
187.05
 30
0.0
 40
7.999999999999993
100
AcDbArc
 50
89.99999999999994
 51
180.0
  0
LINE
  5
1FE
330
1F
100
AcDbEntity
  8
1
  6
CONTINUOUS
 62
     7
100
AcDbLine
 10
228.8500000000001
 20
195.05
 30
0.0
 11
134.8500000000001
 21
195.05
 31
0.0
  0
ARC
  5
1FF
330
1F
100
AcDbEntity
  8
1
  6
CONTINUOUS
 62
     7
100
AcDbCircle
 10
228.8500000000001
 20
187.05
 30
0.0
 40
7.999999999999993
100
AcDbArc
 50
359.9999999999998
 51
90.0
  0
LINE
  5
200
330
1F
100
AcDbEntity
  8
1
  6
CONTINUOUS
 62
     7
100
AcDbLine
 10
236.8500000000001
 20
89.04999999999997
 30
0.0
 11
236.8500000000001
 21
187.0499999999999
 31
0.0
  0
ARC
  5
201
330
1F
100
AcDbEntity
  8
1
  6
CONTINUOUS
 62
     7
100
AcDbCircle
 10
228.8500000000001
 20
89.04999999999997
 30
0.0
 40
8.0
100
AcDbArc
 50
270.0
 51
0.0
  0
LINE
  5
202
330
1F
100
AcDbEntity
  8
1
  6
CONTINUOUS
 62
     7
100
AcDbLine
 10
134.8500000000001
 20
81.04999999999998
 30
0.0
 11
228.8500000000001
 21
81.04999999999998
 31
0.0
  0
ARC
  5
203
330
1F
100
AcDbEntity
  8
1
  6
CONTINUOUS
 62
     7
100
AcDbCircle
 10
134.8500000000001
 20
89.04999999999997
 30
0.0
 40
8.0
100
AcDbArc
 50
180.0
 51
269.9999999999999
  0
LINE
  5
204
330
1F
100
AcDbEntity
  8
1
  6
CONTINUOUS
 62
     7
100
AcDbLine
 10
159.256904289599
 20
183.9802426842357
 30
0.0
 11
167.3525903371425
 21
184.9697154233799
 31
0.0
  0
LINE
  5
205
330
1F
100
AcDbEntity
  8
1
  6
CONTINUOUS
 62
     7
100
AcDbLine
 10
168.3474096628576
 20
176.8302845766201
 30
0.0
 11
160.2517236153144
 21
175.840811837476
 31
0.0
  0
ARC
  5
206
330
1F
100
AcDbEntity
  8
1
  6
CONTINUOUS
 62
     7
100
AcDbCircle
 10
167.8500000000001
 20
180.9
 30
0.0
 40
4.100000000000001
100
AcDbArc
 50
276.9682567413781
 51
96.9682567413783
  0
LINE
  5
207
330
1F
100
AcDbEntity
  8
1
  6
CONTINUOUS
 62
     7
100
AcDbLine
 10
205.256904289599
 20
183.9802426842357
 30
0.0
 11
213.3525903371425
 21
184.9697154233798
 31
0.0
  0
LINE
  5
208
330
1F
100
AcDbEntity
  8
1
  6
CONTINUOUS
 62
     7
100
AcDbLine
 10
214.3474096628575
 20
176.8302845766201
 30
0.0
 11
206.2517236153145
 21
175.840811837476
 31
0.0
  0
ARC
  5
209
330
1F
100
AcDbEntity
  8
1
  6
CONTINUOUS
 62
     7
100
AcDbCircle
 10
213.8500000000001
 20
180.9
 30
0.0
 40
4.100000000000002
100
AcDbArc
 50
276.9682567413776
 51
96.9682567413784
  0
LINE
  5
20A
330
1F
100
AcDbEntity
  8
1
  6
CONTINUOUS
 62
     7
100
AcDbLine
 10
47.43180667547158
 20
185.3
 30
0.0
 11
75.83180667547157
 21
185.3
 31
0.0
  0
LINE
  5
20B
330
1F
100
AcDbEntity
  8
1
  6
CONTINUOUS
 62
     7
100
AcDbLine
 10
188.8500000000003
 20
59.03180667547151
 30
0.0
 11
220.8499999999999
 21
59.03180667547151
 31
0.0
  0
LINE
  5
20C
330
1F
100
AcDbEntity
  8
1
  6
CONTINUOUS
 62
     7
100
AcDbLine
 10
47.43180667547158
 20
99.69999999999996
 30
0.0
 11
81.83180667547157
 21
99.69999999999996
 31
0.0
  0
LINE
  5
20D
330
1F
100
AcDbEntity
  8
1
  6
CONTINUOUS
 62
     7
100
AcDbLine
 10
225.2499999999998
 20
23.63180667547153
 30
0.0
 11
138.45
 21
23.63180667547153
 31
0.0
  0
LINE
  5
20E
330
1F
100
AcDbEntity
  8
1
  6
CONTINUOUS
 62
     7
100
AcDbLine
 10
47.43180667547158
 20
176.3999999999999
 30
0.0
 11
81.83180667547157
 21
176.3999999999999
 31
0.0
  0
LINE
  5
20F
330
1F
100
AcDbEntity
  8
1
  6
CONTINUOUS
 62
     7
100
AcDbLine
 10
142.8500000000002
 20
59.03180667547151
 30
0.0
 11
174.85
 21
59.03180667547151
 31
0.0
  0
MTEXT
  5
210
330
1F
100
AcDbEntity
  8
1
 62
     7
100
AcDbMText
 10
66.65297611604363
 20
50.07956733775163
 30
0.0
 40
6.0
 41
0.0
 71
     1
 72
     1
  1
{\fＭＳ ゴシック;SBP-2FGYF}
  0
ENDSEC
  0
SECTION
  2
OBJECTS
  0
DICTIONARY
  5
C
330
0
100
AcDbDictionary
  3
ACAD_GROUP
350
D
  3
ACAD_LAYOUT
350
1A
  3
ACAD_MATERIAL
350
43
  3
ACAD_MLEADERSTYLE
350
6B
  3
ACAD_MLINESTYLE
350
17
  3
ACAD_PLOTSETTINGS
350
19
  3
ACAD_SCALELIST
350
47
  3
ACAD_VISUALSTYLE
350
2A
  3
ACDBHEADERROUNDTRIPXREC
350
211
  3
ACDBVARIABLEDICTIONARY
350
232
  0
DICTIONARY
  5
239
330
8
100
AcDbDictionary
280
     1
  3
ACAD_XREC_ROUNDTRIP
360
23A
  0
DICTIONARY
  5
D
102
{ACAD_REACTORS
330
C
102
}
330
C
100
AcDbDictionary
  0
DICTIONARY
  5
1A
102
{ACAD_REACTORS
330
C
102
}
330
C
100
AcDbDictionary
  0
DICTIONARY
  5
43
102
{ACAD_REACTORS
330
C
102
}
330
C
100
AcDbDictionary
  3
BYBLOCK
350
45
  3
BYLAYER
350
44
  3
GLOBAL
350
46
  0
DICTIONARY
  5
6B
102
{ACAD_REACTORS
330
C
102
}
330
C
100
AcDbDictionary
  3
STANDARD
350
6C
  0
DICTIONARY
  5
17
102
{ACAD_REACTORS
330
C
102
}
330
C
100
AcDbDictionary
  3
STANDARD
350
18
  0
DICTIONARY
  5
19
102
{ACAD_REACTORS
330
C
102
}
330
C
100
AcDbDictionary
  0
DICTIONARY
  5
47
102
{ACAD_REACTORS
330
C
102
}
330
C
100
AcDbDictionary
  3
A0
350
48
  3
A1
350
49
  3
A2
350
4A
  3
A3
350
4B
  3
A4
350
4C
  3
A5
350
4D
  3
A6
350
4E
  3
A7
350
4F
  3
A8
350
50
  3
A9
350
51
  3
B0
350
52
  3
B1
350
53
  3
B2
350
54
  3
B3
350
55
  3
B4
350
56
  3
B5
350
57
  3
B6
350
58
  3
B7
350
59
  3
B8
350
5A
  3
B9
350
5B
  3
C0
350
5C
  3
C1
350
5D
  3
C2
350
5E
  3
C3
350
5F
  3
C4
350
60
  3
C5
350
61
  3
C6
350
62
  3
C7
350
63
  3
C8
350
64
  3
C9
350
65
  3
D0
350
66
  3
D1
350
67
  3
D2
350
68
  0
DICTIONARY
  5
2A
102
{ACAD_REACTORS
330
C
102
}
330
C
100
AcDbDictionary
  3
2DWIREFRAME
350
2F
  3
BASIC
350
32
  3
BRIGHTEN
350
36
  3
COLORCHANGE
350
3A
  3
CONCEPTUAL
350
34
  3
DIM
350
35
  3
EDGECOLOROFF
350
3D
  3
FACEPATTERN
350
39
  3
FLAT
350
2B
  3
FLATWITHEDGES
350
2C
  3
GOURAUD
350
2D
  3
GOURAUDWITHEDGES
350
2E
  3
HIDDEN
350
31
  3
JITTEROFF
350
3B
  3
LINEPATTERN
350
38
  3
OVERHANGOFF
350
3C
  3
REALISTIC
350
33
  3
SHADED
350
42
  3
SHADED_WITH_EDGES
350
41
  3
SHADES_OF_GRAY
350
3E
  3
SKETCHY
350
3F
  3
THICKEN
350
37
  3
WIREFRAME
350
30
  3
X-RAY
350
40
  0
DICTIONARY
  5
211
102
{ACAD_REACTORS
330
C
102
}
330
C
100
AcDbDictionary
  3
CEPSNID
350
21B
  3
CEPSNTYPE
350
21A
  3
DIMSTYLEDATA
350
231
  3
FINGERPRINTGUID
350
21C
  3
HYPERLINKBASE
350
214
  3
INSUNITS
350
219
  3
LAYOUTDICT
350
216
  3
LWETCUNION
350
218
  3
PLOTSETDICT
350
217
  3
PSVPSCALE
350
21E
  3
PUCSBASE
350
221
  3
PUCSORGBACK
350
227
  3
PUCSORGBOTTOM
350
223
  3
PUCSORGFRONT
350
226
  3
PUCSORGLEFT
350
224
  3
PUCSORGRIGHT
350
225
  3
PUCSORGTOP
350
222
  3
PUCSORTHOREF
350
21F
  3
PUCSORTHOVIEW
350
220
  3
STYLESHEET
350
215
  3
TSTACKALIGN
350
212
  3
TSTACKSIZE
350
213
  3
UCSBASE
350
22A
  3
UCSORGBACK
350
230
  3
UCSORGBOTTOM
350
22C
  3
UCSORGFRONT
350
22F
  3
UCSORGLEFT
350
22D
  3
UCSORGRIGHT
350
22E
  3
UCSORGTOP
350
22B
  3
UCSORTHOREF
350
228
  3
UCSORTHOVIEW
350
229
  3
VERSIONGUID
350
21D
  0
DICTIONARY
  5
232
102
{ACAD_REACTORS
330
C
102
}
330
C
100
AcDbDictionary
  3
CANNOSCALE
350
23B
  3
CMLEADERSTYLE
350
234
  3
CTABLESTYLE
350
233
  3
DIMASSOC
350
237
  3
HIDETEXT
350
238
  3
MSLTSCALE
350
23C
  0
XRECORD
  5
23A
102
{ACAD_REACTORS
330
239
102
}
330
239
100
AcDbXrecord
102
VTR_0.000_0.000_1.000_1.000_VISUALSTYLE
340
2F
102
VTR_0.000_0.000_1.000_1.000_GRIDDISPLAY
 70
     3
102
VTR_0.000_0.000_1.000_1.000_GRIDMAJOR
 70
     5
102
VTR_0.000_0.000_1.000_1.000_DEFAULTLIGHTING
280
     1
102
VTR_0.000_0.000_1.000_1.000_DEFAULTLIGHTINGTYPE
 70
     1
102
VTR_0.000_0.000_1.000_1.000_BRIGHTNESS
141
0.0
102
VTR_0.000_0.000_1.000_1.000_CONTRAST
142
0.0
  0
MATERIAL
  5
45
102
{ACAD_REACTORS
330
43
102
}
102
{ACAD_XDICTIONARY
360
23F
102
}
330
43
100
AcDbMaterial
  1
BYBLOCK
  0
MATERIAL
  5
44
102
{ACAD_REACTORS
330
43
102
}
102
{ACAD_XDICTIONARY
360
23D
102
}
330
43
100
AcDbMaterial
  1
BYLAYER
  0
MATERIAL
  5
46
102
{ACAD_REACTORS
330
43
102
}
102
{ACAD_XDICTIONARY
360
241
102
}
330
43
100
AcDbMaterial
  1
GLOBAL
  0
ACAD_PROXY_OBJECT
  5
6C
102
{ACAD_REACTORS
330
6B
102
}
330
6B
100
AcDbProxyObject
 90
      499
 91
      505
 93
      610
310
40901902A4063FBFFFFFE056BD1B81E855B9FC0AD7A3703D0AD73F4214DD185B99185C9900AD7A3703D0AC73F90141901A02B5E8DC0F42B1CFC02B5E8DC0F42B1CFE5764000000000000300FC0
340
14
340
0
340
11
340
0
 94
        0
1001
ACAD_MLEADERVER
1070
     2
  0
MLINESTYLE
  5
18
102
{ACAD_REACTORS
330
17
102
}
330
17
100
AcDbMlineStyle
  2
Standard
 70
     0
  3

 62
   256
 51
90.0
 52
90.0
 71
     2
 49
0.5
 62
   256
  6
BYLAYER
 49
-0.5
 62
   256
  6
BYLAYER
  0
ACAD_PROXY_OBJECT
  5
48
102
{ACAD_REACTORS
330
47
102
}
330
47
100
AcDbProxyObject
 90
      499
 91
      503
 93
       41
310
903313A31580
  0
ACAD_PROXY_OBJECT
  5
49
102
{ACAD_REACTORS
330
47
102
}
330
47
100
AcDbProxyObject
 90
      499
 91
      503
 93
      105
310
903313A324000000000000004000
  0
ACAD_PROXY_OBJECT
  5
4A
102
{ACAD_REACTORS
330
47
102
}
330
47
100
AcDbProxyObject
 90
      499
 91
      503
 93
      105
310
903313A344000000000000104000
  0
ACAD_PROXY_OBJECT
  5
4B
102
{ACAD_REACTORS
330
47
102
}
330
47
100
AcDbProxyObject
 90
      499
 91
      503
 93
      105
310
903313A354000000000000144000
  0
ACAD_PROXY_OBJECT
  5
4C
102
{ACAD_REACTORS
330
47
102
}
330
47
100
AcDbProxyObject
 90
      499
 91
      503
 93
      105
310
903313A384000000000000204000
  0
ACAD_PROXY_OBJECT
  5
4D
102
{ACAD_REACTORS
330
47
102
}
330
47
100
AcDbProxyObject
 90
      499
 91
      503
 93
      113
310
904313A31304000000000000244000
  0
ACAD_PROXY_OBJECT
  5
4E
102
{ACAD_REACTORS
330
47
102
}
330
47
100
AcDbProxyObject
 90
      499
 91
      503
 93
      113
310
904313A31364000000000000304000
  0
ACAD_PROXY_OBJECT
  5
4F
102
{ACAD_REACTORS
330
47
102
}
330
47
100
AcDbProxyObject
 90
      499
 91
      503
 93
      113
310
904313A32304000000000000344000
  0
ACAD_PROXY_OBJECT
  5
50
102
{ACAD_REACTORS
330
47
102
}
330
47
100
AcDbProxyObject
 90
      499
 91
      503
 93
      113
310
904313A333040000000000003E4000
  0
ACAD_PROXY_OBJECT
  5
51
102
{ACAD_REACTORS
330
47
102
}
330
47
100
AcDbProxyObject
 90
      499
 91
      503
 93
      113
310
904313A34304000000000000444000
  0
ACAD_PROXY_OBJECT
  5
52
102
{ACAD_REACTORS
330
47
102
}
330
47
100
AcDbProxyObject
 90
      499
 91
      503
 93
      113
310
904313A35304000000000000494000
  0
ACAD_PROXY_OBJECT
  5
53
102
{ACAD_REACTORS
330
47
102
}
330
47
100
AcDbProxyObject
 90
      499
 91
      503
 93
      121
310
905313A3130304000000000000594000
  0
ACAD_PROXY_OBJECT
  5
54
102
{ACAD_REACTORS
330
47
102
}
330
47
100
AcDbProxyObject
 90
      499
 91
      503
 93
      105
310
903323A310000000000000010100
  0
ACAD_PROXY_OBJECT
  5
55
102
{ACAD_REACTORS
330
47
102
}
330
47
100
AcDbProxyObject
 90
      499
 91
      503
 93
      105
310
903343A310000000000000410100
  0
ACAD_PROXY_OBJECT
  5
56
102
{ACAD_REACTORS
330
47
102
}
330
47
100
AcDbProxyObject
 90
      499
 91
      503
 93
      105
310
903383A310000000000000810100
  0
ACAD_PROXY_OBJECT
  5
57
102
{ACAD_REACTORS
330
47
102
}
330
47
100
AcDbProxyObject
 90
      499
 91
      503
 93
      113
310
90431303A310000000000000910100
  0
ACAD_PROXY_OBJECT
  5
58
102
{ACAD_REACTORS
330
47
102
}
330
47
100
AcDbProxyObject
 90
      499
 91
      503
 93
      121
310
9053130303A310000000000001650100
  0
ACAD_PROXY_OBJECT
  5
59
102
{ACAD_REACTORS
330
47
102
}
330
47
100
AcDbProxyObject
 90
      499
 91
      503
 93
      257
310
90E312F31323822203D2031272D3022000000000000200FC000000000000284000
  0
ACAD_PROXY_OBJECT
  5
5A
102
{ACAD_REACTORS
330
47
102
}
330
47
100
AcDbProxyObject
 90
      499
 91
      503
 93
      249
310
90D312F363422203D2031272D3022000000000000240FC000000000000284000
  0
ACAD_PROXY_OBJECT
  5
5B
102
{ACAD_REACTORS
330
47
102
}
330
47
100
AcDbProxyObject
 90
      499
 91
      503
 93
      249
310
90D312F333222203D2031272D3022000000000000280FC000000000000284000
  0
ACAD_PROXY_OBJECT
  5
5C
102
{ACAD_REACTORS
330
47
102
}
330
47
100
AcDbProxyObject
 90
      499
 91
      503
 93
      249
310
90D312F313622203D2031272D30220000000000002C0FC000000000000284000
  0
ACAD_PROXY_OBJECT
  5
5D
102
{ACAD_REACTORS
330
47
102
}
330
47
100
AcDbProxyObject
 90
      499
 91
      503
 93
      249
310
90D332F333222203D2031272D30220000000000002E0FC000000000000284000
  0
ACAD_PROXY_OBJECT
  5
5E
102
{ACAD_REACTORS
330
47
102
}
330
47
100
AcDbProxyObject
 90
      499
 91
      503
 93
      241
310
90C312F3822203D2031272D3022000000000000300FC000000000000284000
  0
ACAD_PROXY_OBJECT
  5
5F
102
{ACAD_REACTORS
330
47
102
}
330
47
100
AcDbProxyObject
 90
      499
 91
      503
 93
      249
310
90D332F313622203D2031272D3022000000000000320FC000000000000284000
  0
ACAD_PROXY_OBJECT
  5
60
102
{ACAD_REACTORS
330
47
102
}
330
47
100
AcDbProxyObject
 90
      499
 91
      503
 93
      241
310
90C312F3422203D2031272D3022000000000000340FC000000000000284000
  0
ACAD_PROXY_OBJECT
  5
61
102
{ACAD_REACTORS
330
47
102
}
330
47
100
AcDbProxyObject
 90
      499
 91
      503
 93
      241
310
90C332F3822203D2031272D3022000000000000360FC000000000000284000
  0
ACAD_PROXY_OBJECT
  5
62
102
{ACAD_REACTORS
330
47
102
}
330
47
100
AcDbProxyObject
 90
      499
 91
      503
 93
      241
310
90C312F3222203D2031272D3022000000000000380FC000000000000284000
  0
ACAD_PROXY_OBJECT
  5
63
102
{ACAD_REACTORS
330
47
102
}
330
47
100
AcDbProxyObject
 90
      499
 91
      503
 93
      241
310
90C332F3422203D2031272D30220000000000003A0FC000000000000284000
  0
ACAD_PROXY_OBJECT
  5
64
102
{ACAD_REACTORS
330
47
102
}
330
47
100
AcDbProxyObject
 90
      499
 91
      503
 93
      161
310
90A3122203D2031272D30224000000000000284000
  0
ACAD_PROXY_OBJECT
  5
65
102
{ACAD_REACTORS
330
47
102
}
330
47
100
AcDbProxyObject
 90
      499
 91
      503
 93
      257
310
90E312D312F3222203D2031272D30220000000000003E0FC000000000000284000
  0
ACAD_PROXY_OBJECT
  5
66
102
{ACAD_REACTORS
330
47
102
}
330
47
100
AcDbProxyObject
 90
      499
 91
      503
 93
      225
310
90A3322203D2031272D302200000000000002100000000000000284000
  0
ACAD_PROXY_OBJECT
  5
67
102
{ACAD_REACTORS
330
47
102
}
330
47
100
AcDbProxyObject
 90
      499
 91
      503
 93
      225
310
90A3622203D2031272D302200000000000006100000000000000284000
  0
ACAD_PROXY_OBJECT
  5
68
102
{ACAD_REACTORS
330
47
102
}
330
47
100
AcDbProxyObject
 90
      499
 91
      503
 93
      249
310
90D31272D3022203D2031272D30220000000000000A100000000000000284000
  0
ACAD_PROXY_OBJECT
  5
2F
102
{ACAD_REACTORS
330
2A
102
}
330
2A
100
AcDbProxyObject
 90
      499
 91
      501
 93
      436
310
42CC9915DA5C99599C985B595049028333333333333E33F0000000000000F90107901411070040501600405405064090741402480A0340
1001
ACAD
1000
AcDbSavedByObjectVersion
1070
     0
  0
ACAD_PROXY_OBJECT
  5
32
102
{ACAD_REACTORS
330
2A
102
}
330
2A
100
AcDbProxyObject
 90
      499
 91
      501
 93
      388
310
4150985CDA58D07406404333333333333E33F0000000000000F90107A41107004050150841D405064090741402480A0350
1001
ACAD
1000
AcDbSavedByObjectVersion
1070
     0
  0
ACAD_PROXY_OBJECT
  5
36
102
{ACAD_REACTORS
330
2A
102
}
330
2A
100
AcDbProxyObject
 90
      499
 91
      501
 93
      428
310
42109C9A59DA1D195B90C409028333333333333E33F0000000000000F9010790141107004050150841D405064090741402480A029950
1001
ACAD
1000
AcDbSavedByObjectVersion
1070
     0
  0
ACAD_PROXY_OBJECT
  5
3A
102
{ACAD_REACTORS
330
2A
102
}
330
2A
100
AcDbProxyObject
 90
      499
 91
      501
 93
      452
310
42D0DBDB1BDC90DA185B99D95104090240C333333333333E33F0000000000000F90108901411070040501508421405064090741402480A0350
1001
ACAD
1000
AcDbSavedByObjectVersion
1070
     0
  0
ACAD_PROXY_OBJECT
  5
34
102
{ACAD_REACTORS
330
2A
102
}
330
2A
100
AcDbProxyObject
 90
      499
 91
      501
 93
      500
310
4290DBDB98D95C1D1D585B10940D028333333333333E33F0000000000000F90107902409070040501000000000018199010841D405064090740C02480A0340
1001
ACAD
1000
AcDbSavedByObjectVersion
1070
     0
  0
ACAD_PROXY_OBJECT
  5
35
102
{ACAD_REACTORS
330
2A
102
}
330
2A
100
AcDbProxyObject
 90
      499
 91
      501
 93
      412
310
40D11A5B50B409028333333333333E33F0000000000000F9010790141107004050150841D405064090741402480A02677FFFFFD0
1001
ACAD
1000
AcDbSavedByObjectVersion
1070
     0
  0
ACAD_PROXY_OBJECT
  5
3D
102
{ACAD_REACTORS
330
2A
102
}
330
2A
100
AcDbProxyObject
 90
      499
 91
      501
 93
      452
310
43115919D950DBDB1BDC93D999916409028333333333333E33F0000000000000F9010790141107004050150841D405064090741402480A0350
1001
ACAD
1000
AcDbSavedByObjectVersion
1070
     0
  0
ACAD_PROXY_OBJECT
  5
39
102
{ACAD_REACTORS
330
2A
102
}
330
2A
100
AcDbProxyObject
 90
      499
 91
      501
 93
      444
310
42D19858D95C185D1D195C9B90F409028333333333333E33F0000000000000F9010790141107004050150841D405064090741402480A0350
1001
ACAD
1000
AcDbSavedByObjectVersion
1070
     0
  0
ACAD_PROXY_OBJECT
  5
2B
102
{ACAD_REACTORS
330
2A
102
}
330
2A
100
AcDbProxyObject
 90
      499
 91
      501
 93
      380
310
41119B185D240901404333333333333E33F0000000000000F9010740A907004050150841D405064090741402480A1B50
1001
ACAD
1000
AcDbSavedByObjectVersion
1070
     0
  0
ACAD_PROXY_OBJECT
  5
2C
102
{ACAD_REACTORS
330
2A
102
}
330
2A
100
AcDbProxyObject
 90
      499
 91
      501
 93
      468
310
43519B185D15DA5D1A115919D95CD0140901404333333333333E33F0000000000000F90107409019070040501600405405064090741402480A1B50
1001
ACAD
1000
AcDbSavedByObjectVersion
1070
     0
  0
ACAD_PROXY_OBJECT
  5
2D
102
{ACAD_REACTORS
330
2A
102
}
330
2A
100
AcDbProxyObject
 90
      499
 91
      501
 93
      404
310
41D1DBDD5C985D5910240902404333333333333E33F0000000000000F9010740A9070040501641D405064090741402480A1B50
1001
ACAD
1000
AcDbSavedByObjectVersion
1070
     0
  0
ACAD_PROXY_OBJECT
  5
2E
102
{ACAD_REACTORS
330
2A
102
}
330
2A
100
AcDbProxyObject
 90
      499
 91
      501
 93
      492
310
4411DBDD5C985D5915DA5D1A115919D95CD0340902404333333333333E33F0000000000000F90107409019070040501600405405064090741402480A1B50
1001
ACAD
1000
AcDbSavedByObjectVersion
1070
     0
  0
ACAD_PROXY_OBJECT
  5
31
102
{ACAD_REACTORS
330
2A
102
}
330
2A
100
AcDbProxyObject
 90
      499
 91
      501
 93
      476
310
41921A5919195B90640502408333333333333E33F0000000000000F901079024090700405020000000000001110200405405064090740C02480A0340
1001
ACAD
1000
AcDbSavedByObjectVersion
1070
     0
  0
ACAD_PROXY_OBJECT
  5
3B
102
{ACAD_REACTORS
330
2A
102
}
330
2A
100
AcDbProxyObject
 90
      499
 91
      501
 93
      428
310
42529A5D1D195C93D999914409028333333333333E33F0000000000000F9010790141107004050150A41D405064090741402480A0350
1001
ACAD
1000
AcDbSavedByObjectVersion
1070
     0
  0
ACAD_PROXY_OBJECT
  5
38
102
{ACAD_REACTORS
330
2A
102
}
330
2A
100
AcDbProxyObject
 90
      499
 91
      501
 93
      444
310
42D31A5B995C185D1D195C9B90E409028333333333333E33F0000000000000F9010790141107004050750841D405064090741402483A0350
1001
ACAD
1000
AcDbSavedByObjectVersion
1070
     0
  0
ACAD_PROXY_OBJECT
  5
3C
102
{ACAD_REACTORS
330
2A
102
}
330
2A
100
AcDbProxyObject
 90
      499
 91
      501
 93
      444
310
42D3DD995C9A185B99D3D999915409028333333333333E33F0000000000000F9010790141107004050150941D405064090741402480A0350
1001
ACAD
1000
AcDbSavedByObjectVersion
1070
     0
  0
ACAD_PROXY_OBJECT
  5
33
102
{ACAD_REACTORS
330
2A
102
}
330
2A
100
AcDbProxyObject
 90
      499
 91
      501
 93
      428
310
425499585B1A5CDD1A58D08409038333333333333E33F0000000000000F9010740A907004050150800405405064090740C02480A1B40
1001
ACAD
1000
AcDbSavedByObjectVersion
1070
     0
  0
ACAD_PROXY_OBJECT
  5
42
102
{ACAD_REACTORS
330
2A
102
}
330
2A
100
AcDbProxyObject
 90
      499
 91
      501
 93
      420
310
4194DA1859195911B40902404333333333333E33F0000000000000F9010740A41107004050150800405405064090840C02480A0B40
1001
ACAD
1000
AcDbSavedByObjectVersion
1070
     0
  0
ACAD_PROXY_OBJECT
  5
41
102
{ACAD_REACTORS
330
2A
102
}
330
2A
100
AcDbProxyObject
 90
      499
 91
      501
 93
      516
310
4454DA18591959081DDA5D1A08195919D95CD1A40902404333333333333E33F0000000000000F901074090142907004050250800405405064090740C02480A0B40
1001
ACAD
1000
AcDbSavedByObjectVersion
1070
     0
  0
ACAD_PROXY_OBJECT
  5
3E
102
{ACAD_REACTORS
330
2A
102
}
330
2A
100
AcDbProxyObject
 90
      499
 91
      501
 93
      532
310
4394DA1859195CC81BD98811DC985E5174090240C333333333333E33F0000000000000F901079024090741D01000000000000111010841D405064090740C02480A0340
1001
ACAD
1000
AcDbSavedByObjectVersion
1070
     0
  0
ACAD_PROXY_OBJECT
  5
3F
102
{ACAD_REACTORS
330
2A
102
}
330
2A
100
AcDbProxyObject
 90
      499
 91
      501
 93
      476
310
41D4DAD95D18DA1E51840502408333333333333E33F0000000000000F901079024090741D01000000000000111010B41D405064090741802480A0340
1001
ACAD
1000
AcDbSavedByObjectVersion
1070
     0
  0
ACAD_PROXY_OBJECT
  5
37
102
{ACAD_REACTORS
330
2A
102
}
330
2A
100
AcDbProxyObject
 90
      499
 91
      501
 93
      412
310
41D51A1A58DAD95B90D409028333333333333E33F0000000000000F9010790141107004050150C41D405064090741402480A0350
1001
ACAD
1000
AcDbSavedByObjectVersion
1070
     0
  0
ACAD_PROXY_OBJECT
  5
30
102
{ACAD_REACTORS
330
2A
102
}
330
2A
100
AcDbProxyObject
 90
      499
 91
      501
 93
      420
310
4255DA5C99599C985B595059028333333333333E33F0000000000000F90107901411070040501600405405064090740C02480A0340
1001
ACAD
1000
AcDbSavedByObjectVersion
1070
     0
  0
ACAD_PROXY_OBJECT
  5
40
102
{ACAD_REACTORS
330
2A
102
}
330
2A
100
AcDbProxyObject
 90
      499
 91
      501
 93
      404
310
41560B54985E51940902404000000000000E03F0000000000000F9010740501907004050150841D405064090740C02480A1B40
1001
ACAD
1000
AcDbSavedByObjectVersion
1070
     0
  0
XRECORD
  5
21B
102
{ACAD_REACTORS
330
211
102
}
330
211
100
AcDbXrecord
340
0
  0
XRECORD
  5
21A
102
{ACAD_REACTORS
330
211
102
}
330
211
100
AcDbXrecord
 90
        0
  0
XRECORD
  5
231
102
{ACAD_REACTORS
330
211
102
}
330
211
100
AcDbXrecord
1000
DSTYLE
1002
{
1070
   179
 70
     2
1070
   171
 70
     2
1070
   143
 40
25.4
1070
   274
 70
     2
1070
    41
 40
3.0
1070
   141
 40
0.09
1070
    43
 40
0.38
1070
   278
 70
    46
1070
    44
 40
1.5
1070
    42
 40
0.0625
1070
   147
 40
1.5
1070
   272
 70
     4
1070
    73
 70
     1
1070
   172
 70
     0
1070
    74
 70
     1
1070
   283
 70
     1
1070
   340
340
6F
1070
   140
 40
3.0
1070
   284
 70
     0
1070
    78
 70
     0
1002
}
  0
XRECORD
  5
21C
102
{ACAD_REACTORS
330
211
102
}
330
211
100
AcDbXrecord
  1
{9E3ABB6F-A697-4EF5-973B-6133462E0161}
  0
XRECORD
  5
214
102
{ACAD_REACTORS
330
211
102
}
330
211
100
AcDbXrecord
  1

  0
XRECORD
  5
219
102
{ACAD_REACTORS
330
211
102
}
330
211
100
AcDbXrecord
 90
        4
  0
XRECORD
  5
216
102
{ACAD_REACTORS
330
211
102
}
330
211
100
AcDbXrecord
340
1A
  0
XRECORD
  5
218
102
{ACAD_REACTORS
330
211
102
}
330
211
100
AcDbXrecord
 90
    10269
  0
XRECORD
  5
217
102
{ACAD_REACTORS
330
211
102
}
330
211
100
AcDbXrecord
340
19
  0
XRECORD
  5
21E
102
{ACAD_REACTORS
330
211
102
}
330
211
100
AcDbXrecord
 40
0.0
  0
XRECORD
  5
221
102
{ACAD_REACTORS
330
211
102
}
330
211
100
AcDbXrecord
340
0
  0
XRECORD
  5
227
102
{ACAD_REACTORS
330
211
102
}
330
211
100
AcDbXrecord
 10
0.0
 20
0.0
 30
0.0
  0
XRECORD
  5
223
102
{ACAD_REACTORS
330
211
102
}
330
211
100
AcDbXrecord
 10
0.0
 20
0.0
 30
0.0
  0
XRECORD
  5
226
102
{ACAD_REACTORS
330
211
102
}
330
211
100
AcDbXrecord
 10
0.0
 20
0.0
 30
0.0
  0
XRECORD
  5
224
102
{ACAD_REACTORS
330
211
102
}
330
211
100
AcDbXrecord
 10
0.0
 20
0.0
 30
0.0
  0
XRECORD
  5
225
102
{ACAD_REACTORS
330
211
102
}
330
211
100
AcDbXrecord
 10
0.0
 20
0.0
 30
0.0
  0
XRECORD
  5
222
102
{ACAD_REACTORS
330
211
102
}
330
211
100
AcDbXrecord
 10
0.0
 20
0.0
 30
0.0
  0
XRECORD
  5
21F
102
{ACAD_REACTORS
330
211
102
}
330
211
100
AcDbXrecord
340
0
  0
XRECORD
  5
220
102
{ACAD_REACTORS
330
211
102
}
330
211
100
AcDbXrecord
 70
     0
  0
XRECORD
  5
215
102
{ACAD_REACTORS
330
211
102
}
330
211
100
AcDbXrecord
  1

  0
XRECORD
  5
212
102
{ACAD_REACTORS
330
211
102
}
330
211
100
AcDbXrecord
 90
        1
  0
XRECORD
  5
213
102
{ACAD_REACTORS
330
211
102
}
330
211
100
AcDbXrecord
 90
       70
  0
XRECORD
  5
22A
102
{ACAD_REACTORS
330
211
102
}
330
211
100
AcDbXrecord
340
0
  0
XRECORD
  5
230
102
{ACAD_REACTORS
330
211
102
}
330
211
100
AcDbXrecord
 10
0.0
 20
0.0
 30
0.0
  0
XRECORD
  5
22C
102
{ACAD_REACTORS
330
211
102
}
330
211
100
AcDbXrecord
 10
0.0
 20
0.0
 30
0.0
  0
XRECORD
  5
22F
102
{ACAD_REACTORS
330
211
102
}
330
211
100
AcDbXrecord
 10
0.0
 20
0.0
 30
0.0
  0
XRECORD
  5
22D
102
{ACAD_REACTORS
330
211
102
}
330
211
100
AcDbXrecord
 10
0.0
 20
0.0
 30
0.0
  0
XRECORD
  5
22E
102
{ACAD_REACTORS
330
211
102
}
330
211
100
AcDbXrecord
 10
0.0
 20
0.0
 30
0.0
  0
XRECORD
  5
22B
102
{ACAD_REACTORS
330
211
102
}
330
211
100
AcDbXrecord
 10
0.0
 20
0.0
 30
0.0
  0
XRECORD
  5
228
102
{ACAD_REACTORS
330
211
102
}
330
211
100
AcDbXrecord
340
0
  0
XRECORD
  5
229
102
{ACAD_REACTORS
330
211
102
}
330
211
100
AcDbXrecord
 70
     0
  0
XRECORD
  5
21D
102
{ACAD_REACTORS
330
211
102
}
330
211
100
AcDbXrecord
  1
{FAEB1C32-E019-11D5-929B-00C0DF256EC4}
  0
DICTIONARYVAR
  5
23B
102
{ACAD_REACTORS
330
232
102
}
330
232
100
DictionaryVariables
280
     0
  1
1:1
  0
DICTIONARYVAR
  5
234
102
{ACAD_REACTORS
330
232
102
}
330
232
100
DictionaryVariables
280
     0
  1
Standard
  0
DICTIONARYVAR
  5
233
102
{ACAD_REACTORS
330
232
102
}
330
232
100
DictionaryVariables
280
     0
  1
Standard
  0
DICTIONARYVAR
  5
237
102
{ACAD_REACTORS
330
232
102
}
330
232
100
DictionaryVariables
280
     0
  1
2
  0
DICTIONARYVAR
  5
238
102
{ACAD_REACTORS
330
232
102
}
330
232
100
DictionaryVariables
280
     0
  1
1
  0
DICTIONARYVAR
  5
23C
102
{ACAD_REACTORS
330
232
102
}
330
232
100
DictionaryVariables
280
     0
  1
1
  0
DICTIONARY
  5
23F
330
45
100
AcDbDictionary
280
     1
  3
ACAD_XREC_ROUNDTRIP
360
240
  0
DICTIONARY
  5
23D
330
44
100
AcDbDictionary
280
     1
  3
ACAD_XREC_ROUNDTRIP
360
23E
  0
DICTIONARY
  5
241
330
46
100
AcDbDictionary
280
     1
  3
ACAD_XREC_ROUNDTRIP
360
242
  0
XRECORD
  5
240
102
{ACAD_REACTORS
330
23F
102
}
330
23F
100
AcDbXrecord
102
MATERIAL
148
0.0
149
0.0
149
0.0
 93
        0
 94
      127
282
     0
 72
     1
 77
     1
171
     1
175
     1
179
     1
273
     0
  0
XRECORD
  5
23E
102
{ACAD_REACTORS
330
23D
102
}
330
23D
100
AcDbXrecord
102
MATERIAL
148
0.0
149
0.0
149
0.0
 93
        0
 94
      127
282
     0
 72
     1
 77
     1
171
     1
175
     1
179
     1
273
     0
  0
XRECORD
  5
242
102
{ACAD_REACTORS
330
241
102
}
330
241
100
AcDbXrecord
102
MATERIAL
148
0.0
149
0.0
149
0.0
 93
        0
 94
      127
282
     0
 72
     1
 77
     1
171
     1
175
     1
179
     1
273
     0
  0
ENDSEC
  0
EOF
