  0
SECTION
  2
HEADER
  9
$ACADVER
  1
AC1006
  9
$DWGCODEPAGE
  3
ansi_932
  9
$INSBASE
 10
0.0
 20
0.0
 30
0.0
  9
$EXTMIN
 10
63.99999999999999
 20
43.08180667547152
  9
$EXTMAX
 10
324.4181933245282
 20
241.5000000000001
  9
$LIMMIN
 10
0.0
 20
0.0
  9
$LIMMAX
 10
12.0
 20
9.0
  9
$ORTHOMODE
 70
     0
  9
$REGENMODE
 70
     1
  9
$FILLMODE
 70
     1
  9
$QTEXTMODE
 70
     0
  9
$MIRRTEXT
 70
     1
  9
$DRAGMODE
 70
     2
  9
$LTSCALE
 40
1.0
  9
$OSMODE
 70
    37
  9
$ATTMODE
 70
     1
  9
$TEXTSIZE
 40
0.2
  9
$TRACEWID
 40
0.05
  9
$TEXTSTYLE
  7
STANDARD
  9
$CLAYER
  8
0
  9
$CELTYPE
  6
BYLAYER
  9
$CECOLOR
 62
   256
  9
$DIMSCALE
 40
1.0
  9
$DIMASZ
 40
3.0
  9
$DIMEXO
 40
0.0625
  9
$DIMDLI
 40
0.38
  9
$DIMRND
 40
0.0
  9
$DIMDLE
 40
0.0
  9
$DIMEXE
 40
1.5
  9
$DIMTP
 40
0.0
  9
$DIMTM
 40
0.0
  9
$DIMTXT
 40
3.0
  9
$DIMCEN
 40
0.09
  9
$DIMTSZ
 40
0.0
  9
$DIMTOL
 70
     0
  9
$DIMLIM
 70
     0
  9
$DIMTIH
 70
     1
  9
$DIMTOH
 70
     1
  9
$DIMSE1
 70
     0
  9
$DIMSE2
 70
     0
  9
$DIMTAD
 70
     1
  9
$DIMZIN
 70
     0
  9
$DIMBLK
  1

  9
$DIMASO
 70
     1
  9
$DIMSHO
 70
     1
  9
$DIMPOST
  1

  9
$DIMAPOST
  1

  9
$DIMALT
 70
     0
  9
$DIMALTD
 70
     2
  9
$DIMALTF
 40
25.4
  9
$DIMLFAC
 40
1.0
  9
$DIMTOFL
 70
     0
  9
$DIMTVP
 40
0.0
  9
$DIMTIX
 70
     0
  9
$DIMSOXD
 70
     0
  9
$DIMSAH
 70
     0
  9
$DIMBLK1
  1

  9
$DIMBLK2
  1

  9
$LUNITS
 70
     2
  9
$LUPREC
 70
     4
  9
$SKETCHINC
 40
0.1
  9
$FILLETRAD
 40
0.5
  9
$AUNITS
 70
     0
  9
$AUPREC
 70
     0
  9
$MENU
  1
.
  9
$ELEVATION
 40
0.0
  9
$THICKNESS
 40
0.0
  9
$LIMCHECK
 70
     0
  9
$CHAMFERA
 40
0.0
  9
$CHAMFERB
 40
0.0
  9
$SKPOLY
 70
     0
  9
$TDCREATE
 40
2460627.613977673
  9
$TDUPDATE
 40
2460627.613977951
  9
$TDINDWG
 40
0.0000000116
  9
$TDUSRTIMER
 40
0.0000000116
  9
$USRTIMER
 70
     1
  9
$ANGBASE
 50
0.0
  9
$ANGDIR
 70
     0
  9
$PDMODE
 70
     0
  9
$PDSIZE
 40
0.0
  9
$PLINEWID
 40
0.0
  9
$COORDS
 70
     1
  9
$SPLFRAME
 70
     0
  9
$SPLINETYPE
 70
     6
  9
$SPLINESEGS
 70
     8
  9
$ATTDIA
 70
     0
  9
$ATTREQ
 70
     1
  9
$HANDLING
 70
     1
  9
$HANDSEED
  5
359
  9
$SURFTAB1
 70
     6
  9
$SURFTAB2
 70
     6
  9
$SURFTYPE
 70
     6
  9
$SURFU
 70
     6
  9
$SURFV
 70
     6
  9
$UCSNAME
  2

  9
$UCSORG
 10
0.0
 20
0.0
 30
0.0
  9
$UCSXDIR
 10
1.0
 20
0.0
 30
0.0
  9
$UCSYDIR
 10
0.0
 20
1.0
 30
0.0
  9
$USERI1
 70
     0
  9
$USERI2
 70
     0
  9
$USERI3
 70
     0
  9
$USERI4
 70
     0
  9
$USERI5
 70
     0
  9
$USERR1
 40
0.0
  9
$USERR2
 40
0.0
  9
$USERR3
 40
0.0
  9
$USERR4
 40
0.0
  9
$USERR5
 40
0.0
  9
$WORLDVIEW
 70
     1
  0
ENDSEC
  0
SECTION
  2
TABLES
  0
TABLE
  2
VPORT
 70
     1
  0
VPORT
  2
*ACTIVE
 70
     0
 10
0.0
 20
0.0
 11
1.0
 21
1.0
 12
194.2090966622641
 22
142.2909033377358
 13
0.0
 23
0.0
 14
0.5
 24
0.5
 15
0.5
 25
0.5
 16
0.0
 26
0.0
 36
1.0
 17
0.0
 27
0.0
 37
0.0
 40
198.4181933245285
 41
1.6
 42
50.0
 43
0.0
 44
0.0
 50
0.0
 51
0.0
 71
     0
 72
   100
 73
     1
 74
     3
 75
     0
 76
     0
 77
     0
 78
     0
  0
ENDTAB
  0
TABLE
  2
LTYPE
 70
     2
  0
LTYPE
  2
CONTINUOUS
 70
     0
  3
Solid line
 72
    65
 73
     0
 40
0.0
  0
LTYPE
  2
CENTER
 70
     0
  3

 72
    65
 73
     0
 40
0.0
  0
ENDTAB
  0
TABLE
  2
LAYER
 70
     2
  0
LAYER
  2
0
 70
     0
 62
     7
  6
CONTINUOUS
  0
LAYER
  2
1
 70
     0
 62
     7
  6
CONTINUOUS
  0
ENDTAB
  0
TABLE
  2
STYLE
 70
     2
  0
STYLE
  2
STANDARD
 70
     0
 40
0.0
 41
1.0
 50
0.0
 71
     0
 42
0.2
  3
txt
  4

  0
STYLE
  2
ＭＳ_ゴシック
 70
     0
 40
0.0
 41
1.0
 50
0.0
 71
     0
 42
0.2
  3
ＭＳ ゴシック.shx
  4

  0
ENDTAB
  0
TABLE
  2
VIEW
 70
     0
  0
ENDTAB
  0
TABLE
  2
UCS
 70
     0
  0
ENDTAB
  0
ENDSEC
  0
SECTION
  2
BLOCKS
  0
ENDSEC
  0
SECTION
  2
ENTITIES
  0
LINE
  5
70
  8
1
  6
CONTINUOUS
 62
     7
 10
92.99999999999997
 20
88.48180667547152
 30
0.0
 11
92.99999999999997
 21
54.28180667547153
 31
0.0
  0
LINE
  5
71
  8
1
  6
CONTINUOUS
 62
     7
 10
216.4
 20
53.08180667547152
 30
0.0
 11
83.60000000000004
 21
53.08180667547152
 31
0.0
  0
LINE
  5
72
  8
1
  6
CONTINUOUS
 62
     7
 10
280.0181933245284
 20
144.15
 30
0.0
 11
314.4181933245284
 21
144.15
 31
0.0
  0
LINE
  5
73
  8
1
  6
CONTINUOUS
 62
     7
 10
100.35
 20
61.68180667547151
 30
0.0
 11
114.0
 21
61.68180667547151
 31
0.0
  0
LINE
  5
74
  8
1
  6
CONTINUOUS
 62
     7
 10
96.99999999999997
 20
54.28180667547153
 30
0.0
 11
96.99999999999997
 21
88.48180667547152
 31
0.0
  0
LINE
  5
75
  8
1
  6
CONTINUOUS
 62
     7
 10
185.0
 20
88.48180667547152
 30
0.0
 11
185.0
 21
54.28180667547153
 31
0.0
  0
LINE
  5
76
  8
1
  6
CONTINUOUS
 62
     7
 10
189.0
 20
54.28180667547153
 30
0.0
 11
189.0
 21
88.48180667547152
 31
0.0
  0
LINE
  5
77
  8
1
  6
CONTINUOUS
 62
     7
 10
314.4181933245284
 20
220.85
 30
0.0
 11
280.0181933245284
 21
220.85
 31
0.0
  0
LINE
  5
78
  8
1
  6
CONTINUOUS
 62
     7
 10
314.4181933245284
 20
135.25
 30
0.0
 11
286.0181933245286
 21
135.25
 31
0.0
  0
LINE
  5
79
  8
1
  6
CONTINUOUS
 62
     7
 10
192.35
 20
53.08180667547152
 30
0.0
 11
192.35
 21
88.48180667547152
 31
0.0
  0
LINE
  5
7A
  8
1
  6
CONTINUOUS
 62
     7
 10
191.15
 20
88.48180667547152
 30
0.0
 11
191.15
 21
53.08180667547153
 31
0.0
  0
LINE
  5
7B
  8
1
  6
CONTINUOUS
 62
     7
 10
99.15
 20
53.08180667547152
 30
0.0
 11
99.15
 21
88.48180667547152
 31
0.0
  0
LINE
  5
7C
  8
1
  6
CONTINUOUS
 62
     7
 10
100.35
 20
88.48180667547152
 30
0.0
 11
100.35
 21
53.08180667547153
 31
0.0
  0
LINE
  5
7D
  8
1
  6
CONTINUOUS
 62
     7
 10
192.35
 20
61.68180667547151
 30
0.0
 11
206.0
 21
61.68180667547151
 31
0.0
  0
LINE
  5
7E
  8
1
  6
CONTINUOUS
 62
     7
 10
126.0
 20
146.5
 30
0.0
 11
126.0
 21
218.5
 31
0.0
  0
LINE
  5
7F
  8
1
  6
CONTINUOUS
 62
     7
 10
128.0
 20
218.5
 30
0.0
 11
128.0
 21
146.5
 31
0.0
  0
LINE
  5
80
  8
1
  6
CONTINUOUS
 62
     7
 10
128.0
 20
146.5
 30
0.0
 11
126.0
 21
146.5
 31
0.0
  0
LINE
  5
81
  8
1
  6
CONTINUOUS
 62
     7
 10
126.0
 20
218.5
 30
0.0
 11
128.0
 21
218.5
 31
0.0
  0
LINE
  5
82
  8
1
  6
CONTINUOUS
 62
     7
 10
128.5
 20
212.5
 30
0.0
 11
128.0
 21
212.5
 31
0.0
  0
LINE
  5
83
  8
1
  6
CONTINUOUS
 62
     7
 10
128.0
 20
152.5
 30
0.0
 11
128.5
 21
152.5
 31
0.0
  0
LINE
  5
84
  8
1
  6
CONTINUOUS
 62
     7
 10
126.0
 20
212.5
 30
0.0
 11
125.5
 21
212.5
 31
0.0
  0
LINE
  5
85
  8
1
  6
CONTINUOUS
 62
     7
 10
125.5
 20
152.5
 30
0.0
 11
126.0
 21
152.5
 31
0.0
  0
LINE
  5
86
  8
1
  6
CONTINUOUS
 62
     7
 10
128.5
 20
212.5
 30
0.0
 11
132.0
 21
212.5
 31
0.0
  0
LINE
  5
87
  8
1
  6
CONTINUOUS
 62
     7
 10
132.0
 20
152.5
 30
0.0
 11
128.5
 21
152.5
 31
0.0
  0
LINE
  5
88
  8
1
  6
CONTINUOUS
 62
     7
 10
132.5
 20
212.5
 30
0.0
 11
132.5
 21
152.5
 31
0.0
  0
LINE
  5
89
  8
1
  6
CONTINUOUS
 62
     7
 10
132.0
 20
212.5
 30
0.0
 11
132.5
 21
212.5
 31
0.0
  0
LINE
  5
8A
  8
1
  6
CONTINUOUS
 62
     7
 10
132.5
 20
152.5
 30
0.0
 11
132.0
 21
152.5
 31
0.0
  0
LINE
  5
8B
  8
1
  6
CONTINUOUS
 62
     7
 10
122.0
 20
212.5
 30
0.0
 11
125.5
 21
212.5
 31
0.0
  0
LINE
  5
8C
  8
1
  6
CONTINUOUS
 62
     7
 10
125.5
 20
152.5
 30
0.0
 11
122.0
 21
152.5
 31
0.0
  0
LINE
  5
8D
  8
1
  6
CONTINUOUS
 62
     7
 10
121.5
 20
152.5
 30
0.0
 11
121.5
 21
212.5
 31
0.0
  0
LINE
  5
8E
  8
1
  6
CONTINUOUS
 62
     7
 10
121.5
 20
212.5
 30
0.0
 11
122.0
 21
212.5
 31
0.0
  0
LINE
  5
8F
  8
1
  6
CONTINUOUS
 62
     7
 10
122.0
 20
152.5
 30
0.0
 11
121.5
 21
152.5
 31
0.0
  0
CIRCLE
  5
90
  8
1
  6
CONTINUOUS
 62
     7
 10
150.0
 20
140.75
 30
0.0
 40
4.2
  0
LINE
  5
91
  8
1
  6
CONTINUOUS
 62
     7
 10
152.1902682484116
 20
140.235
 30
0.0
 11
150.515
 21
140.235
 31
0.0
  0
ARC
  5
92
  8
1
  6
CONTINUOUS
 62
     7
 10
150.0
 20
140.75
 30
0.0
 40
2.25
 50
346.7683351757007
 51
13.23166482429923
  0
LINE
  5
93
  8
1
  6
CONTINUOUS
 62
     7
 10
150.515
 20
141.265
 30
0.0
 11
152.1902682484116
 21
141.265
 31
0.0
  0
LINE
  5
94
  8
1
  6
CONTINUOUS
 62
     7
 10
150.515
 20
142.9402682484116
 30
0.0
 11
150.515
 21
141.265
 31
0.0
  0
ARC
  5
95
  8
1
  6
CONTINUOUS
 62
     7
 10
150.0
 20
140.75
 30
0.0
 40
2.250000000000003
 50
76.76833517570076
 51
103.2316648242992
  0
LINE
  5
96
  8
1
  6
CONTINUOUS
 62
     7
 10
149.485
 20
141.265
 30
0.0
 11
149.485
 21
142.9402682484116
 31
0.0
  0
LINE
  5
97
  8
1
  6
CONTINUOUS
 62
     7
 10
147.8097317515884
 20
141.265
 30
0.0
 11
149.485
 21
141.265
 31
0.0
  0
ARC
  5
98
  8
1
  6
CONTINUOUS
 62
     7
 10
150.0
 20
140.75
 30
0.0
 40
2.25
 50
166.7683351757007
 51
193.2316648242993
  0
LINE
  5
99
  8
1
  6
CONTINUOUS
 62
     7
 10
149.485
 20
140.235
 30
0.0
 11
147.8097317515884
 21
140.235
 31
0.0
  0
LINE
  5
9A
  8
1
  6
CONTINUOUS
 62
     7
 10
149.485
 20
138.5597317515884
 30
0.0
 11
149.485
 21
140.235
 31
0.0
  0
ARC
  5
9B
  8
1
  6
CONTINUOUS
 62
     7
 10
150.0
 20
140.75
 30
0.0
 40
2.250000000000003
 50
256.7683351757007
 51
283.2316648242993
  0
LINE
  5
9C
  8
1
  6
CONTINUOUS
 62
     7
 10
150.515
 20
140.235
 30
0.0
 11
150.515
 21
138.5597317515884
 31
0.0
  0
ARC
  5
9D
  8
1
  6
CONTINUOUS
 62
     7
 10
150.0
 20
224.25
 30
0.0
 40
2.250000000000003
 50
76.76833517570076
 51
103.2316648242992
  0
LINE
  5
9E
  8
1
  6
CONTINUOUS
 62
     7
 10
149.485
 20
226.4402682484116
 30
0.0
 11
149.485
 21
224.765
 31
0.0
  0
LINE
  5
9F
  8
1
  6
CONTINUOUS
 62
     7
 10
149.485
 20
224.765
 30
0.0
 11
147.8097317515884
 21
224.765
 31
0.0
  0
ARC
  5
A0
  8
1
  6
CONTINUOUS
 62
     7
 10
150.0
 20
224.25
 30
0.0
 40
2.25
 50
166.7683351757008
 51
193.2316648242993
  0
LINE
  5
A1
  8
1
  6
CONTINUOUS
 62
     7
 10
147.8097317515884
 20
223.735
 30
0.0
 11
149.485
 21
223.735
 31
0.0
  0
LINE
  5
A2
  8
1
  6
CONTINUOUS
 62
     7
 10
149.485
 20
223.735
 30
0.0
 11
149.485
 21
222.0597317515884
 31
0.0
  0
ARC
  5
A3
  8
1
  6
CONTINUOUS
 62
     7
 10
150.0
 20
224.25
 30
0.0
 40
2.250000000000003
 50
256.7683351757008
 51
283.2316648242992
  0
LINE
  5
A4
  8
1
  6
CONTINUOUS
 62
     7
 10
150.515
 20
222.0597317515884
 30
0.0
 11
150.515
 21
223.735
 31
0.0
  0
LINE
  5
A5
  8
1
  6
CONTINUOUS
 62
     7
 10
150.515
 20
223.735
 30
0.0
 11
152.1902682484116
 21
223.735
 31
0.0
  0
ARC
  5
A6
  8
1
  6
CONTINUOUS
 62
     7
 10
150.0
 20
224.25
 30
0.0
 40
2.25
 50
346.7683351757009
 51
13.23166482429929
  0
LINE
  5
A7
  8
1
  6
CONTINUOUS
 62
     7
 10
152.1902682484116
 20
224.765
 30
0.0
 11
150.515
 21
224.765
 31
0.0
  0
LINE
  5
A8
  8
1
  6
CONTINUOUS
 62
     7
 10
150.515
 20
224.765
 30
0.0
 11
150.515
 21
226.4402682484116
 31
0.0
  0
CIRCLE
  5
A9
  8
1
  6
CONTINUOUS
 62
     7
 10
150.0
 20
224.25
 30
0.0
 40
4.2
  0
CIRCLE
  5
AA
  8
1
  6
CONTINUOUS
 62
     7
 10
104.0
 20
140.75
 30
0.0
 40
4.200000000000002
  0
ARC
  5
AB
  8
1
  6
CONTINUOUS
 62
     7
 10
104.0
 20
140.75
 30
0.0
 40
2.250000000000003
 50
256.7683351757007
 51
283.2316648242992
  0
LINE
  5
AC
  8
1
  6
CONTINUOUS
 62
     7
 10
104.515
 20
138.5597317515884
 30
0.0
 11
104.515
 21
140.235
 31
0.0
  0
LINE
  5
AD
  8
1
  6
CONTINUOUS
 62
     7
 10
104.515
 20
140.235
 30
0.0
 11
106.1902682484116
 21
140.235
 31
0.0
  0
ARC
  5
AE
  8
1
  6
CONTINUOUS
 62
     7
 10
104.0
 20
140.75
 30
0.0
 40
2.250000000000003
 50
346.7683351757009
 51
13.23166482429929
  0
LINE
  5
AF
  8
1
  6
CONTINUOUS
 62
     7
 10
106.1902682484116
 20
141.265
 30
0.0
 11
104.515
 21
141.265
 31
0.0
  0
LINE
  5
B0
  8
1
  6
CONTINUOUS
 62
     7
 10
104.515
 20
141.265
 30
0.0
 11
104.515
 21
142.9402682484116
 31
0.0
  0
ARC
  5
B1
  8
1
  6
CONTINUOUS
 62
     7
 10
104.0
 20
140.75
 30
0.0
 40
2.250000000000003
 50
76.76833517570074
 51
103.2316648242993
  0
LINE
  5
B2
  8
1
  6
CONTINUOUS
 62
     7
 10
103.485
 20
142.9402682484116
 30
0.0
 11
103.485
 21
141.265
 31
0.0
  0
LINE
  5
B3
  8
1
  6
CONTINUOUS
 62
     7
 10
103.485
 20
141.265
 30
0.0
 11
101.8097317515884
 21
141.265
 31
0.0
  0
ARC
  5
B4
  8
1
  6
CONTINUOUS
 62
     7
 10
104.0
 20
140.75
 30
0.0
 40
2.250000000000003
 50
166.7683351757008
 51
193.2316648242993
  0
LINE
  5
B5
  8
1
  6
CONTINUOUS
 62
     7
 10
101.8097317515884
 20
140.235
 30
0.0
 11
103.485
 21
140.235
 31
0.0
  0
LINE
  5
B6
  8
1
  6
CONTINUOUS
 62
     7
 10
103.485
 20
140.235
 30
0.0
 11
103.485
 21
138.5597317515884
 31
0.0
  0
CIRCLE
  5
B7
  8
1
  6
CONTINUOUS
 62
     7
 10
195.9999999999999
 20
140.75
 30
0.0
 40
4.200000000000002
  0
ARC
  5
B8
  8
1
  6
CONTINUOUS
 62
     7
 10
195.9999999999999
 20
140.75
 30
0.0
 40
2.250000000000003
 50
256.7683351757007
 51
283.2316648242992
  0
LINE
  5
B9
  8
1
  6
CONTINUOUS
 62
     7
 10
196.515
 20
138.5597317515884
 30
0.0
 11
196.515
 21
140.235
 31
0.0
  0
LINE
  5
BA
  8
1
  6
CONTINUOUS
 62
     7
 10
196.515
 20
140.235
 30
0.0
 11
198.1902682484116
 21
140.235
 31
0.0
  0
ARC
  5
BB
  8
1
  6
CONTINUOUS
 62
     7
 10
195.9999999999999
 20
140.75
 30
0.0
 40
2.250000000000003
 50
346.7683351757009
 51
13.23166482429929
  0
LINE
  5
BC
  8
1
  6
CONTINUOUS
 62
     7
 10
198.1902682484116
 20
141.265
 30
0.0
 11
196.515
 21
141.265
 31
0.0
  0
LINE
  5
BD
  8
1
  6
CONTINUOUS
 62
     7
 10
196.515
 20
141.265
 30
0.0
 11
196.515
 21
142.9402682484116
 31
0.0
  0
ARC
  5
BE
  8
1
  6
CONTINUOUS
 62
     7
 10
195.9999999999999
 20
140.75
 30
0.0
 40
2.250000000000003
 50
76.76833517570074
 51
103.2316648242993
  0
LINE
  5
BF
  8
1
  6
CONTINUOUS
 62
     7
 10
195.485
 20
142.9402682484116
 30
0.0
 11
195.485
 21
141.265
 31
0.0
  0
LINE
  5
C0
  8
1
  6
CONTINUOUS
 62
     7
 10
195.485
 20
141.265
 30
0.0
 11
193.8097317515883
 21
141.265
 31
0.0
  0
ARC
  5
C1
  8
1
  6
CONTINUOUS
 62
     7
 10
195.9999999999999
 20
140.75
 30
0.0
 40
2.250000000000003
 50
166.7683351757008
 51
193.2316648242993
  0
LINE
  5
C2
  8
1
  6
CONTINUOUS
 62
     7
 10
193.8097317515883
 20
140.235
 30
0.0
 11
195.485
 21
140.235
 31
0.0
  0
LINE
  5
C3
  8
1
  6
CONTINUOUS
 62
     7
 10
195.485
 20
140.235
 30
0.0
 11
195.485
 21
138.5597317515884
 31
0.0
  0
CIRCLE
  5
C4
  8
1
  6
CONTINUOUS
 62
     7
 10
196.0
 20
224.25
 30
0.0
 40
4.200000000000002
  0
ARC
  5
C5
  8
1
  6
CONTINUOUS
 62
     7
 10
196.0
 20
224.25
 30
0.0
 40
2.250000000000003
 50
76.76833517570074
 51
103.2316648242993
  0
LINE
  5
C6
  8
1
  6
CONTINUOUS
 62
     7
 10
195.485
 20
226.4402682484116
 30
0.0
 11
195.485
 21
224.765
 31
0.0
  0
LINE
  5
C7
  8
1
  6
CONTINUOUS
 62
     7
 10
195.485
 20
224.765
 30
0.0
 11
193.8097317515884
 21
224.765
 31
0.0
  0
ARC
  5
C8
  8
1
  6
CONTINUOUS
 62
     7
 10
196.0
 20
224.25
 30
0.0
 40
2.250000000000003
 50
166.7683351757008
 51
193.2316648242993
  0
LINE
  5
C9
  8
1
  6
CONTINUOUS
 62
     7
 10
193.8097317515884
 20
223.735
 30
0.0
 11
195.485
 21
223.735
 31
0.0
  0
LINE
  5
CA
  8
1
  6
CONTINUOUS
 62
     7
 10
195.485
 20
223.735
 30
0.0
 11
195.485
 21
222.0597317515884
 31
0.0
  0
ARC
  5
CB
  8
1
  6
CONTINUOUS
 62
     7
 10
196.0
 20
224.25
 30
0.0
 40
2.250000000000003
 50
256.7683351757007
 51
283.2316648242992
  0
LINE
  5
CC
  8
1
  6
CONTINUOUS
 62
     7
 10
196.515
 20
222.0597317515884
 30
0.0
 11
196.515
 21
223.735
 31
0.0
  0
LINE
  5
CD
  8
1
  6
CONTINUOUS
 62
     7
 10
196.515
 20
223.735
 30
0.0
 11
198.1902682484116
 21
223.735
 31
0.0
  0
ARC
  5
CE
  8
1
  6
CONTINUOUS
 62
     7
 10
196.0
 20
224.25
 30
0.0
 40
2.250000000000003
 50
346.7683351757009
 51
13.23166482429929
  0
LINE
  5
CF
  8
1
  6
CONTINUOUS
 62
     7
 10
198.1902682484116
 20
224.765
 30
0.0
 11
196.515
 21
224.765
 31
0.0
  0
LINE
  5
D0
  8
1
  6
CONTINUOUS
 62
     7
 10
196.515
 20
224.765
 30
0.0
 11
196.515
 21
226.4402682484116
 31
0.0
  0
CIRCLE
  5
D1
  8
1
  6
CONTINUOUS
 62
     7
 10
104.0
 20
224.25
 30
0.0
 40
4.200000000000002
  0
ARC
  5
D2
  8
1
  6
CONTINUOUS
 62
     7
 10
104.0
 20
224.25
 30
0.0
 40
2.250000000000003
 50
76.76833517570074
 51
103.2316648242993
  0
LINE
  5
D3
  8
1
  6
CONTINUOUS
 62
     7
 10
103.485
 20
226.4402682484116
 30
0.0
 11
103.485
 21
224.765
 31
0.0
  0
LINE
  5
D4
  8
1
  6
CONTINUOUS
 62
     7
 10
103.485
 20
224.765
 30
0.0
 11
101.8097317515884
 21
224.765
 31
0.0
  0
ARC
  5
D5
  8
1
  6
CONTINUOUS
 62
     7
 10
104.0
 20
224.25
 30
0.0
 40
2.250000000000003
 50
166.7683351757008
 51
193.2316648242993
  0
LINE
  5
D6
  8
1
  6
CONTINUOUS
 62
     7
 10
101.8097317515884
 20
223.735
 30
0.0
 11
103.485
 21
223.735
 31
0.0
  0
LINE
  5
D7
  8
1
  6
CONTINUOUS
 62
     7
 10
103.485
 20
223.735
 30
0.0
 11
103.485
 21
222.0597317515884
 31
0.0
  0
ARC
  5
D8
  8
1
  6
CONTINUOUS
 62
     7
 10
104.0
 20
224.25
 30
0.0
 40
2.250000000000003
 50
256.7683351757007
 51
283.2316648242992
  0
LINE
  5
D9
  8
1
  6
CONTINUOUS
 62
     7
 10
104.515
 20
222.0597317515884
 30
0.0
 11
104.515
 21
223.735
 31
0.0
  0
LINE
  5
DA
  8
1
  6
CONTINUOUS
 62
     7
 10
104.515
 20
223.735
 30
0.0
 11
106.1902682484116
 21
223.735
 31
0.0
  0
ARC
  5
DB
  8
1
  6
CONTINUOUS
 62
     7
 10
104.0
 20
224.25
 30
0.0
 40
2.250000000000003
 50
346.7683351757009
 51
13.23166482429929
  0
LINE
  5
DC
  8
1
  6
CONTINUOUS
 62
     7
 10
106.1902682484116
 20
224.765
 30
0.0
 11
104.515
 21
224.765
 31
0.0
  0
LINE
  5
DD
  8
1
  6
CONTINUOUS
 62
     7
 10
104.515
 20
224.765
 30
0.0
 11
104.515
 21
226.4402682484116
 31
0.0
  0
CIRCLE
  5
DE
  8
1
  6
CONTINUOUS
 62
     7
 10
94.99999999999997
 20
139.65
 30
0.0
 40
4.200000000000002
  0
ARC
  5
DF
  8
1
  6
CONTINUOUS
 62
     7
 10
94.99999999999997
 20
139.65
 30
0.0
 40
2.250000000000003
 50
256.7683351757007
 51
283.2316648242992
  0
LINE
  5
E0
  8
1
  6
CONTINUOUS
 62
     7
 10
95.51499999999996
 20
137.4597317515884
 30
0.0
 11
95.51499999999996
 21
139.135
 31
0.0
  0
LINE
  5
E1
  8
1
  6
CONTINUOUS
 62
     7
 10
95.51499999999996
 20
139.135
 30
0.0
 11
97.19026824841157
 21
139.135
 31
0.0
  0
ARC
  5
E2
  8
1
  6
CONTINUOUS
 62
     7
 10
94.99999999999997
 20
139.65
 30
0.0
 40
2.250000000000003
 50
346.7683351757009
 51
13.23166482429929
  0
LINE
  5
E3
  8
1
  6
CONTINUOUS
 62
     7
 10
97.19026824841157
 20
140.165
 30
0.0
 11
95.51499999999996
 21
140.165
 31
0.0
  0
LINE
  5
E4
  8
1
  6
CONTINUOUS
 62
     7
 10
95.51499999999996
 20
140.165
 30
0.0
 11
95.51499999999996
 21
141.8402682484116
 31
0.0
  0
ARC
  5
E5
  8
1
  6
CONTINUOUS
 62
     7
 10
94.99999999999997
 20
139.65
 30
0.0
 40
2.250000000000003
 50
76.76833517570074
 51
103.2316648242993
  0
LINE
  5
E6
  8
1
  6
CONTINUOUS
 62
     7
 10
94.48499999999996
 20
141.8402682484116
 30
0.0
 11
94.48499999999996
 21
140.165
 31
0.0
  0
LINE
  5
E7
  8
1
  6
CONTINUOUS
 62
     7
 10
94.48499999999996
 20
140.165
 30
0.0
 11
92.80973175158834
 21
140.165
 31
0.0
  0
ARC
  5
E8
  8
1
  6
CONTINUOUS
 62
     7
 10
94.99999999999997
 20
139.65
 30
0.0
 40
2.250000000000003
 50
166.7683351757008
 51
193.2316648242993
  0
LINE
  5
E9
  8
1
  6
CONTINUOUS
 62
     7
 10
92.80973175158836
 20
139.135
 30
0.0
 11
94.48499999999996
 21
139.135
 31
0.0
  0
LINE
  5
EA
  8
1
  6
CONTINUOUS
 62
     7
 10
94.48499999999996
 20
139.135
 30
0.0
 11
94.48499999999996
 21
137.4597317515884
 31
0.0
  0
CIRCLE
  5
EB
  8
1
  6
CONTINUOUS
 62
     7
 10
187.0
 20
139.65
 30
0.0
 40
4.200000000000002
  0
ARC
  5
EC
  8
1
  6
CONTINUOUS
 62
     7
 10
187.0
 20
139.65
 30
0.0
 40
2.250000000000003
 50
256.7683351757007
 51
283.2316648242992
  0
LINE
  5
ED
  8
1
  6
CONTINUOUS
 62
     7
 10
187.515
 20
137.4597317515884
 30
0.0
 11
187.515
 21
139.135
 31
0.0
  0
LINE
  5
EE
  8
1
  6
CONTINUOUS
 62
     7
 10
187.515
 20
139.135
 30
0.0
 11
189.1902682484116
 21
139.135
 31
0.0
  0
ARC
  5
EF
  8
1
  6
CONTINUOUS
 62
     7
 10
187.0
 20
139.65
 30
0.0
 40
2.250000000000003
 50
346.7683351757009
 51
13.23166482429929
  0
LINE
  5
F0
  8
1
  6
CONTINUOUS
 62
     7
 10
189.1902682484116
 20
140.165
 30
0.0
 11
187.515
 21
140.165
 31
0.0
  0
LINE
  5
F1
  8
1
  6
CONTINUOUS
 62
     7
 10
187.515
 20
140.165
 30
0.0
 11
187.515
 21
141.8402682484116
 31
0.0
  0
ARC
  5
F2
  8
1
  6
CONTINUOUS
 62
     7
 10
187.0
 20
139.65
 30
0.0
 40
2.250000000000003
 50
76.76833517570074
 51
103.2316648242993
  0
LINE
  5
F3
  8
1
  6
CONTINUOUS
 62
     7
 10
186.485
 20
141.8402682484116
 30
0.0
 11
186.485
 21
140.165
 31
0.0
  0
LINE
  5
F4
  8
1
  6
CONTINUOUS
 62
     7
 10
186.485
 20
140.165
 30
0.0
 11
184.8097317515883
 21
140.165
 31
0.0
  0
ARC
  5
F5
  8
1
  6
CONTINUOUS
 62
     7
 10
187.0
 20
139.65
 30
0.0
 40
2.250000000000003
 50
166.7683351757008
 51
193.2316648242993
  0
LINE
  5
F6
  8
1
  6
CONTINUOUS
 62
     7
 10
184.8097317515884
 20
139.135
 30
0.0
 11
186.485
 21
139.135
 31
0.0
  0
LINE
  5
F7
  8
1
  6
CONTINUOUS
 62
     7
 10
186.485
 20
139.135
 30
0.0
 11
186.485
 21
137.4597317515884
 31
0.0
  0
CIRCLE
  5
F8
  8
1
  6
CONTINUOUS
 62
     7
 10
205.0
 20
225.35
 30
0.0
 40
4.200000000000002
  0
ARC
  5
F9
  8
1
  6
CONTINUOUS
 62
     7
 10
205.0
 20
225.35
 30
0.0
 40
2.250000000000003
 50
76.76833517570074
 51
103.2316648242993
  0
LINE
  5
FA
  8
1
  6
CONTINUOUS
 62
     7
 10
204.485
 20
227.5402682484116
 30
0.0
 11
204.485
 21
225.865
 31
0.0
  0
LINE
  5
FB
  8
1
  6
CONTINUOUS
 62
     7
 10
204.485
 20
225.865
 30
0.0
 11
202.8097317515884
 21
225.865
 31
0.0
  0
ARC
  5
FC
  8
1
  6
CONTINUOUS
 62
     7
 10
205.0
 20
225.35
 30
0.0
 40
2.250000000000003
 50
166.7683351757008
 51
193.2316648242993
  0
LINE
  5
FD
  8
1
  6
CONTINUOUS
 62
     7
 10
202.8097317515884
 20
224.835
 30
0.0
 11
204.485
 21
224.835
 31
0.0
  0
LINE
  5
FE
  8
1
  6
CONTINUOUS
 62
     7
 10
204.485
 20
224.835
 30
0.0
 11
204.485
 21
223.1597317515884
 31
0.0
  0
ARC
  5
FF
  8
1
  6
CONTINUOUS
 62
     7
 10
205.0
 20
225.35
 30
0.0
 40
2.250000000000003
 50
256.7683351757007
 51
283.2316648242992
  0
LINE
  5
100
  8
1
  6
CONTINUOUS
 62
     7
 10
205.515
 20
223.1597317515884
 30
0.0
 11
205.515
 21
224.835
 31
0.0
  0
LINE
  5
101
  8
1
  6
CONTINUOUS
 62
     7
 10
205.515
 20
224.835
 30
0.0
 11
207.1902682484116
 21
224.835
 31
0.0
  0
ARC
  5
102
  8
1
  6
CONTINUOUS
 62
     7
 10
205.0
 20
225.35
 30
0.0
 40
2.250000000000003
 50
346.7683351757009
 51
13.23166482429929
  0
LINE
  5
103
  8
1
  6
CONTINUOUS
 62
     7
 10
207.1902682484116
 20
225.865
 30
0.0
 11
205.515
 21
225.865
 31
0.0
  0
LINE
  5
104
  8
1
  6
CONTINUOUS
 62
     7
 10
205.515
 20
225.865
 30
0.0
 11
205.515
 21
227.5402682484116
 31
0.0
  0
CIRCLE
  5
105
  8
1
  6
CONTINUOUS
 62
     7
 10
113.0
 20
225.35
 30
0.0
 40
4.200000000000002
  0
ARC
  5
106
  8
1
  6
CONTINUOUS
 62
     7
 10
113.0
 20
225.35
 30
0.0
 40
2.250000000000003
 50
76.76833517570074
 51
103.2316648242993
  0
LINE
  5
107
  8
1
  6
CONTINUOUS
 62
     7
 10
112.485
 20
227.5402682484116
 30
0.0
 11
112.485
 21
225.865
 31
0.0
  0
LINE
  5
108
  8
1
  6
CONTINUOUS
 62
     7
 10
112.485
 20
225.865
 30
0.0
 11
110.8097317515884
 21
225.865
 31
0.0
  0
ARC
  5
109
  8
1
  6
CONTINUOUS
 62
     7
 10
113.0
 20
225.35
 30
0.0
 40
2.250000000000003
 50
166.7683351757008
 51
193.2316648242993
  0
LINE
  5
10A
  8
1
  6
CONTINUOUS
 62
     7
 10
110.8097317515884
 20
224.835
 30
0.0
 11
112.485
 21
224.835
 31
0.0
  0
LINE
  5
10B
  8
1
  6
CONTINUOUS
 62
     7
 10
112.485
 20
224.835
 30
0.0
 11
112.485
 21
223.1597317515884
 31
0.0
  0
ARC
  5
10C
  8
1
  6
CONTINUOUS
 62
     7
 10
113.0
 20
225.35
 30
0.0
 40
2.250000000000003
 50
256.7683351757007
 51
283.2316648242992
  0
LINE
  5
10D
  8
1
  6
CONTINUOUS
 62
     7
 10
113.515
 20
223.1597317515884
 30
0.0
 11
113.515
 21
224.835
 31
0.0
  0
LINE
  5
10E
  8
1
  6
CONTINUOUS
 62
     7
 10
113.515
 20
224.835
 30
0.0
 11
115.1902682484116
 21
224.835
 31
0.0
  0
ARC
  5
10F
  8
1
  6
CONTINUOUS
 62
     7
 10
113.0
 20
225.35
 30
0.0
 40
2.250000000000003
 50
346.7683351757009
 51
13.23166482429929
  0
LINE
  5
110
  8
1
  6
CONTINUOUS
 62
     7
 10
115.1902682484116
 20
225.865
 30
0.0
 11
113.515
 21
225.865
 31
0.0
  0
LINE
  5
111
  8
1
  6
CONTINUOUS
 62
     7
 10
113.515
 20
225.865
 30
0.0
 11
113.515
 21
227.5402682484116
 31
0.0
  0
LINE
  5
112
  8
1
  6
CONTINUOUS
 62
     7
 10
78.5
 20
209.5
 30
0.0
 11
78.58731284520351
 21
209.5
 31
0.0
  0
LINE
  5
113
  8
1
  6
CONTINUOUS
 62
     7
 10
78.58731284520351
 20
209.5
 30
0.0
 11
78.72333091564477
 21
209.5
 31
0.0
  0
ARC
  5
114
  8
1
  6
CONTINUOUS
 62
     7
 10
104.0
 20
207.0
 30
0.0
 40
25.39999999999999
 50
174.3515064830805
 51
180.0
  0
ARC
  5
115
  8
1
  6
CONTINUOUS
 62
     7
 10
104.0
 20
207.0
 30
0.0
 40
27.5
 50
158.0135970028061
 51
180.0
  0
LINE
  5
116
  8
1
  6
CONTINUOUS
 62
     7
 10
78.5
 20
217.295630140987
 30
0.0
 11
78.5
 21
209.5
 31
0.0
  0
LINE
  5
117
  8
1
  6
CONTINUOUS
 62
     7
 10
221.5
 20
155.5
 30
0.0
 11
221.4126871547965
 21
155.5
 31
0.0
  0
LINE
  5
118
  8
1
  6
CONTINUOUS
 62
     7
 10
221.4126871547965
 20
155.5
 30
0.0
 11
221.2766690843553
 21
155.5
 31
0.0
  0
ARC
  5
119
  8
1
  6
CONTINUOUS
 62
     7
 10
196.0
 20
158.0
 30
0.0
 40
25.40000000000001
 50
354.3515064830804
 51
359.9999999999998
  0
ARC
  5
11A
  8
1
  6
CONTINUOUS
 62
     7
 10
196.0
 20
158.0
 30
0.0
 40
27.5
 50
338.0135970028061
 51
0.0
  0
LINE
  5
11B
  8
1
  6
CONTINUOUS
 62
     7
 10
221.5
 20
147.704369859013
 30
0.0
 11
221.5
 21
155.5
 31
0.0
  0
ARC
  5
11C
  8
1
  6
CONTINUOUS
 62
     7
 10
196.0
 20
207.0
 30
0.0
 40
27.5
 50
0.0
 51
21.98640299719392
  0
ARC
  5
11D
  8
1
  6
CONTINUOUS
 62
     7
 10
196.0
 20
207.0
 30
0.0
 40
25.39999999999999
 50
0.0
 51
5.648493516919522
  0
LINE
  5
11E
  8
1
  6
CONTINUOUS
 62
     7
 10
221.2766690843552
 20
209.5
 30
0.0
 11
221.4303520315527
 21
209.5
 31
0.0
  0
LINE
  5
11F
  8
1
  6
CONTINUOUS
 62
     7
 10
221.4303520315527
 20
209.5
 30
0.0
 11
221.5
 21
209.5
 31
0.0
  0
LINE
  5
120
  8
1
  6
CONTINUOUS
 62
     7
 10
221.5
 20
209.5
 30
0.0
 11
221.5
 21
217.295630140987
 31
0.0
  0
ARC
  5
121
  8
1
  6
CONTINUOUS
 62
     7
 10
104.0
 20
158.0
 30
0.0
 40
27.5
 50
180.0
 51
201.9864029971939
  0
ARC
  5
122
  8
1
  6
CONTINUOUS
 62
     7
 10
104.0
 20
158.0
 30
0.0
 40
25.39999999999999
 50
180.0
 51
185.6484935169196
  0
LINE
  5
123
  8
1
  6
CONTINUOUS
 62
     7
 10
78.72333091564477
 20
155.5
 30
0.0
 11
78.5696479684473
 21
155.5
 31
0.0
  0
LINE
  5
124
  8
1
  6
CONTINUOUS
 62
     7
 10
78.5696479684473
 20
155.5
 30
0.0
 11
78.5
 21
155.5
 31
0.0
  0
LINE
  5
125
  8
1
  6
CONTINUOUS
 62
     7
 10
78.5
 20
155.5
 30
0.0
 11
78.5
 21
147.704369859013
 31
0.0
  0
LINE
  5
126
  8
1
  6
CONTINUOUS
 62
     7
 10
78.5
 20
146.5
 30
0.0
 11
76.00000000000001
 21
146.5
 31
0.0
  0
ARC
  5
127
  8
1
  6
CONTINUOUS
 62
     7
 10
76.00000000000001
 20
148.5
 30
0.0
 40
2.000000000000002
 50
180.0
 51
270.0
  0
LINE
  5
128
  8
1
  6
CONTINUOUS
 62
     7
 10
74.00000000000001
 20
159.0
 30
0.0
 11
74.00000000000001
 21
148.5
 31
0.0
  0
ARC
  5
129
  8
1
  6
CONTINUOUS
 62
     7
 10
75.00000000000001
 20
160.0
 30
0.0
 40
1.000000000000001
 50
269.9999999999999
 51
0.0000000000001705
  0
ARC
  5
12A
  8
1
  6
CONTINUOUS
 62
     7
 10
75.00000000000001
 20
161.0
 30
0.0
 40
1.000000000000001
 50
0.0
 51
90.0
  0
LINE
  5
12B
  8
1
  6
CONTINUOUS
 62
     7
 10
74.00000000000001
 20
176.5
 30
0.0
 11
74.00000000000001
 21
162.0
 31
0.0
  0
LINE
  5
12C
  8
1
  6
CONTINUOUS
 62
     7
 10
76.5
 20
158.0
 30
0.0
 11
76.5
 21
177.5
 31
0.0
  0
LINE
  5
12D
  8
1
  6
CONTINUOUS
 62
     7
 10
76.5
 20
177.5
 30
0.0
 11
75.00000000000001
 21
177.5
 31
0.0
  0
LINE
  5
12E
  8
1
  6
CONTINUOUS
 62
     7
 10
75.00000000000001
 20
159.0
 30
0.0
 11
74.00000000000001
 21
159.0
 31
0.0
  0
LINE
  5
12F
  8
1
  6
CONTINUOUS
 62
     7
 10
76.00000000000001
 20
161.0
 30
0.0
 11
76.00000000000001
 21
160.0
 31
0.0
  0
LINE
  5
130
  8
1
  6
CONTINUOUS
 62
     7
 10
74.00000000000001
 20
162.0
 30
0.0
 11
75.00000000000001
 21
162.0
 31
0.0
  0
ARC
  5
131
  8
1
  6
CONTINUOUS
 62
     7
 10
75.00000000000001
 20
176.5
 30
0.0
 40
1.0
 50
90.0
 51
180.0
  0
LINE
  5
132
  8
1
  6
CONTINUOUS
 62
     7
 10
78.5
 20
147.704369859013
 30
0.0
 11
78.5
 21
146.5
 31
0.0
  0
LINE
  5
133
  8
1
  6
CONTINUOUS
 62
     7
 10
221.5
 20
218.5
 30
0.0
 11
224.0
 21
218.5
 31
0.0
  0
ARC
  5
134
  8
1
  6
CONTINUOUS
 62
     7
 10
224.0
 20
216.5
 30
0.0
 40
2.000000000000002
 50
0.0
 51
90.0
  0
ARC
  5
135
  8
1
  6
CONTINUOUS
 62
     7
 10
225.0
 20
188.5
 30
0.0
 40
1.0
 50
270.0
 51
0.0
  0
LINE
  5
136
  8
1
  6
CONTINUOUS
 62
     7
 10
223.5
 20
207.0
 30
0.0
 11
223.5
 21
187.5
 31
0.0
  0
LINE
  5
137
  8
1
  6
CONTINUOUS
 62
     7
 10
226.0
 20
206.0
 30
0.0
 11
226.0
 21
216.5
 31
0.0
  0
LINE
  5
138
  8
1
  6
CONTINUOUS
 62
     7
 10
225.0
 20
206.0
 30
0.0
 11
226.0
 21
206.0
 31
0.0
  0
LINE
  5
139
  8
1
  6
CONTINUOUS
 62
     7
 10
226.0
 20
188.5
 30
0.0
 11
226.0
 21
203.0
 31
0.0
  0
LINE
  5
13A
  8
1
  6
CONTINUOUS
 62
     7
 10
223.5
 20
187.5
 30
0.0
 11
224.9999999999999
 21
187.5
 31
0.0
  0
ARC
  5
13B
  8
1
  6
CONTINUOUS
 62
     7
 10
225.0
 20
205.0
 30
0.0
 40
1.000000000000001
 50
90.0
 51
180.0000000000002
  0
ARC
  5
13C
  8
1
  6
CONTINUOUS
 62
     7
 10
225.0
 20
204.0
 30
0.0
 40
1.000000000000001
 50
180.0
 51
270.0
  0
LINE
  5
13D
  8
1
  6
CONTINUOUS
 62
     7
 10
226.0
 20
203.0
 30
0.0
 11
225.0
 21
203.0
 31
0.0
  0
LINE
  5
13E
  8
1
  6
CONTINUOUS
 62
     7
 10
224.0
 20
204.0
 30
0.0
 11
224.0
 21
204.9999999999999
 31
0.0
  0
LINE
  5
13F
  8
1
  6
CONTINUOUS
 62
     7
 10
221.5
 20
217.295630140987
 30
0.0
 11
221.5
 21
218.5
 31
0.0
  0
LINE
  5
140
  8
1
  6
CONTINUOUS
 62
     7
 10
74.00000000000001
 20
188.5
 30
0.0
 11
74.00000000000001
 21
203.0
 31
0.0
  0
LINE
  5
141
  8
1
  6
CONTINUOUS
 62
     7
 10
74.00000000000001
 20
203.0
 30
0.0
 11
75.00000000000001
 21
203.0
 31
0.0
  0
ARC
  5
142
  8
1
  6
CONTINUOUS
 62
     7
 10
75.00000000000001
 20
204.0
 30
0.0
 40
1.000000000000001
 50
270.0
 51
0.0
  0
LINE
  5
143
  8
1
  6
CONTINUOUS
 62
     7
 10
76.00000000000001
 20
204.0
 30
0.0
 11
76.00000000000001
 21
204.9999999999999
 31
0.0
  0
ARC
  5
144
  8
1
  6
CONTINUOUS
 62
     7
 10
75.00000000000001
 20
205.0
 30
0.0
 40
1.000000000000001
 50
359.9999999999998
 51
90.0
  0
LINE
  5
145
  8
1
  6
CONTINUOUS
 62
     7
 10
75.00000000000001
 20
206.0
 30
0.0
 11
74.00000000000001
 21
206.0
 31
0.0
  0
LINE
  5
146
  8
1
  6
CONTINUOUS
 62
     7
 10
74.00000000000001
 20
206.0
 30
0.0
 11
74.00000000000001
 21
216.5
 31
0.0
  0
ARC
  5
147
  8
1
  6
CONTINUOUS
 62
     7
 10
76.00000000000001
 20
216.5
 30
0.0
 40
2.000000000000002
 50
90.0
 51
180.0
  0
LINE
  5
148
  8
1
  6
CONTINUOUS
 62
     7
 10
78.5
 20
218.5
 30
0.0
 11
76.00000000000001
 21
218.5
 31
0.0
  0
LINE
  5
149
  8
1
  6
CONTINUOUS
 62
     7
 10
76.5
 20
187.5
 30
0.0
 11
76.5
 21
207.0
 31
0.0
  0
LINE
  5
14A
  8
1
  6
CONTINUOUS
 62
     7
 10
76.5
 20
187.5
 30
0.0
 11
75.00000000000001
 21
187.5
 31
0.0
  0
ARC
  5
14B
  8
1
  6
CONTINUOUS
 62
     7
 10
75.00000000000001
 20
188.5
 30
0.0
 40
1.0
 50
180.0
 51
270.0
  0
LINE
  5
14C
  8
1
  6
CONTINUOUS
 62
     7
 10
78.5
 20
218.5
 30
0.0
 11
78.5
 21
217.295630140987
 31
0.0
  0
LINE
  5
14D
  8
1
  6
CONTINUOUS
 62
     7
 10
78.60000000000001
 20
177.5
 30
0.0
 11
78.60000000000001
 21
158.0
 31
0.0
  0
LINE
  5
14E
  8
1
  6
CONTINUOUS
 62
     7
 10
76.5
 20
177.5
 30
0.0
 11
78.60000000000001
 21
177.5
 31
0.0
  0
LINE
  5
14F
  8
1
  6
CONTINUOUS
 62
     7
 10
221.4
 20
187.5
 30
0.0
 11
221.4
 21
207.0
 31
0.0
  0
LINE
  5
150
  8
1
  6
CONTINUOUS
 62
     7
 10
223.5
 20
187.5
 30
0.0
 11
221.4
 21
187.5
 31
0.0
  0
LINE
  5
151
  8
1
  6
CONTINUOUS
 62
     7
 10
224.0
 20
161.0
 30
0.0
 11
224.0
 21
160.0
 31
0.0
  0
LINE
  5
152
  8
1
  6
CONTINUOUS
 62
     7
 10
223.5
 20
177.5
 30
0.0
 11
223.5
 21
158.0
 31
0.0
  0
ARC
  5
153
  8
1
  6
CONTINUOUS
 62
     7
 10
225.0
 20
161.0
 30
0.0
 40
1.000000000000001
 50
90.0
 51
180.0
  0
ARC
  5
154
  8
1
  6
CONTINUOUS
 62
     7
 10
224.0
 20
148.5
 30
0.0
 40
2.000000000000002
 50
270.0
 51
0.0
  0
LINE
  5
155
  8
1
  6
CONTINUOUS
 62
     7
 10
221.5
 20
146.5
 30
0.0
 11
224.0
 21
146.5
 31
0.0
  0
LINE
  5
156
  8
1
  6
CONTINUOUS
 62
     7
 10
226.0
 20
159.0
 30
0.0
 11
226.0
 21
148.5
 31
0.0
  0
LINE
  5
157
  8
1
  6
CONTINUOUS
 62
     7
 10
225.0
 20
159.0
 30
0.0
 11
226.0
 21
159.0
 31
0.0
  0
LINE
  5
158
  8
1
  6
CONTINUOUS
 62
     7
 10
226.0
 20
162.0
 30
0.0
 11
225.0
 21
162.0
 31
0.0
  0
LINE
  5
159
  8
1
  6
CONTINUOUS
 62
     7
 10
226.0
 20
176.5
 30
0.0
 11
226.0
 21
162.0
 31
0.0
  0
ARC
  5
15A
  8
1
  6
CONTINUOUS
 62
     7
 10
225.0
 20
176.5
 30
0.0
 40
1.0
 50
0.0
 51
90.0
  0
LINE
  5
15B
  8
1
  6
CONTINUOUS
 62
     7
 10
223.5
 20
177.5
 30
0.0
 11
224.9999999999999
 21
177.5
 31
0.0
  0
ARC
  5
15C
  8
1
  6
CONTINUOUS
 62
     7
 10
225.0
 20
160.0
 30
0.0
 40
1.000000000000001
 50
179.9999999999998
 51
270.0
  0
LINE
  5
15D
  8
1
  6
CONTINUOUS
 62
     7
 10
221.5
 20
146.5
 30
0.0
 11
221.5
 21
147.704369859013
 31
0.0
  0
LINE
  5
15E
  8
1
  6
CONTINUOUS
 62
     7
 10
221.4
 20
158.0
 30
0.0
 11
221.4
 21
177.5
 31
0.0
  0
LINE
  5
15F
  8
1
  6
CONTINUOUS
 62
     7
 10
221.4
 20
177.5
 30
0.0
 11
223.5
 21
177.5
 31
0.0
  0
LINE
  5
160
  8
1
  6
CONTINUOUS
 62
     7
 10
78.60000000000001
 20
207.0
 30
0.0
 11
78.60000000000001
 21
187.5
 31
0.0
  0
LINE
  5
161
  8
1
  6
CONTINUOUS
 62
     7
 10
78.60000000000001
 20
187.5
 30
0.0
 11
76.5
 21
187.5
 31
0.0
  0
LINE
  5
162
  8
1
  6
CONTINUOUS
 62
     7
 10
221.4
 20
187.5
 30
0.0
 11
221.4
 21
187.0
 31
0.0
  0
LINE
  5
163
  8
1
  6
CONTINUOUS
 62
     7
 10
223.0
 20
187.0
 30
0.0
 11
223.0
 21
187.5
 31
0.0
  0
LINE
  5
164
  8
1
  6
CONTINUOUS
 62
     7
 10
221.4
 20
178.0
 30
0.0
 11
221.4
 21
177.5
 31
0.0
  0
LINE
  5
165
  8
1
  6
CONTINUOUS
 62
     7
 10
223.0
 20
177.5
 30
0.0
 11
223.0
 21
178.0
 31
0.0
  0
LINE
  5
166
  8
1
  6
CONTINUOUS
 62
     7
 10
78.60000000000001
 20
177.5
 30
0.0
 11
78.60000000000001
 21
178.0
 31
0.0
  0
LINE
  5
167
  8
1
  6
CONTINUOUS
 62
     7
 10
77.0
 20
178.0
 30
0.0
 11
77.0
 21
177.5
 31
0.0
  0
LINE
  5
168
  8
1
  6
CONTINUOUS
 62
     7
 10
78.60000000000001
 20
187.0
 30
0.0
 11
78.60000000000001
 21
187.5
 31
0.0
  0
LINE
  5
169
  8
1
  6
CONTINUOUS
 62
     7
 10
77.0
 20
187.5
 30
0.0
 11
77.0
 21
187.0
 31
0.0
  0
ARC
  5
16A
  8
1
  6
CONTINUOUS
 62
     7
 10
104.0
 20
207.0
 30
0.0
 40
25.39999999999999
 50
167.7253297854137
 51
174.3515064830805
  0
LINE
  5
16B
  8
1
  6
CONTINUOUS
 62
     7
 10
79.58361206074902
 20
214.0
 30
0.0
 11
79.18065270801829
 21
212.4
 31
0.0
  0
LINE
  5
16C
  8
1
  6
CONTINUOUS
 62
     7
 10
79.18065270801829
 20
152.6
 30
0.0
 11
79.58361206074902
 21
151.0
 31
0.0
  0
ARC
  5
16D
  8
1
  6
CONTINUOUS
 62
     7
 10
104.0
 20
158.0
 30
0.0
 40
25.39999999999999
 50
185.6484935169196
 51
192.2746702145863
  0
LINE
  5
16E
  8
1
  6
CONTINUOUS
 62
     7
 10
116.0378953450595
 20
221.85
 30
0.0
 11
120.0
 21
221.85
 31
0.0
  0
LINE
  5
16F
  8
1
  6
CONTINUOUS
 62
     7
 10
120.0
 20
219.25
 30
0.0
 11
120.0
 21
221.85
 31
0.0
  0
LINE
  5
170
  8
1
  6
CONTINUOUS
 62
     7
 10
120.0
 20
219.25
 30
0.0
 11
116.0378953450595
 21
219.25
 31
0.0
  0
LINE
  5
171
  8
1
  6
CONTINUOUS
 62
     7
 10
134.0
 20
228.7485631709316
 30
0.0
 11
134.0
 21
221.85
 31
0.0
  0
ARC
  5
172
  8
1
  6
CONTINUOUS
 62
     7
 10
150.0
 20
207.0
 30
0.0
 40
27.0
 50
114.8505023402284
 51
126.3412030937848
  0
LINE
  5
173
  8
1
  6
CONTINUOUS
 62
     7
 10
161.3468057179102
 20
231.5
 30
0.0
 11
138.6531942820898
 21
231.5
 31
0.0
  0
ARC
  5
174
  8
1
  6
CONTINUOUS
 62
     7
 10
150.0
 20
207.0
 30
0.0
 40
27.0
 50
53.65879690621518
 51
65.14949765977153
  0
LINE
  5
175
  8
1
  6
CONTINUOUS
 62
     7
 10
134.0
 20
221.85
 30
0.0
 11
146.5532624120772
 21
221.85
 31
0.0
  0
LINE
  5
176
  8
1
  6
CONTINUOUS
 62
     7
 10
153.4467375879229
 20
221.85
 30
0.0
 11
165.9999999999999
 21
221.85
 31
0.0
  0
LINE
  5
177
  8
1
  6
CONTINUOUS
 62
     7
 10
165.9999999999999
 20
221.85
 30
0.0
 11
166.0
 21
228.7485631709316
 31
0.0
  0
LINE
  5
178
  8
1
  6
CONTINUOUS
 62
     7
 10
207.3468057179102
 20
231.5
 30
0.0
 11
184.6531942820898
 21
231.5
 31
0.0
  0
ARC
  5
179
  8
1
  6
CONTINUOUS
 62
     7
 10
196.0
 20
207.0
 30
0.0
 40
27.0
 50
53.6587969062155
 51
65.14949765977161
  0
LINE
  5
17A
  8
1
  6
CONTINUOUS
 62
     7
 10
211.9999999999998
 20
221.85
 30
0.0
 11
211.9999999999999
 21
228.7485631709317
 31
0.0
  0
LINE
  5
17B
  8
1
  6
CONTINUOUS
 62
     7
 10
208.0378953450595
 20
221.85
 30
0.0
 11
211.9999999999998
 21
221.85
 31
0.0
  0
LINE
  5
17C
  8
1
  6
CONTINUOUS
 62
     7
 10
180.0
 20
221.85
 30
0.0
 11
192.5532624120772
 21
221.85
 31
0.0
  0
LINE
  5
17D
  8
1
  6
CONTINUOUS
 62
     7
 10
199.4467375879228
 20
221.85
 30
0.0
 11
201.9621046549405
 21
221.85
 31
0.0
  0
ARC
  5
17E
  8
1
  6
CONTINUOUS
 62
     7
 10
196.0
 20
207.0
 30
0.0
 40
27.0
 50
114.8505023402284
 51
126.341203093785
  0
LINE
  5
17F
  8
1
  6
CONTINUOUS
 62
     7
 10
180.0
 20
228.7485631709315
 30
0.0
 11
180.0
 21
221.85
 31
0.0
  0
LINE
  5
180
  8
1
  6
CONTINUOUS
 62
     7
 10
201.9621046549405
 20
219.25
 30
0.0
 11
180.0
 21
219.25
 31
0.0
  0
LINE
  5
181
  8
1
  6
CONTINUOUS
 62
     7
 10
180.0
 20
221.85
 30
0.0
 11
180.0
 21
219.25
 31
0.0
  0
LINE
  5
182
  8
1
  6
CONTINUOUS
 62
     7
 10
134.0
 20
221.85
 30
0.0
 11
134.0
 21
219.25
 31
0.0
  0
LINE
  5
183
  8
1
  6
CONTINUOUS
 62
     7
 10
165.9999999999999
 20
219.25
 30
0.0
 11
134.0
 21
219.25
 31
0.0
  0
LINE
  5
184
  8
1
  6
CONTINUOUS
 62
     7
 10
165.9999999999999
 20
219.25
 30
0.0
 11
165.9999999999999
 21
221.85
 31
0.0
  0
LINE
  5
185
  8
1
  6
CONTINUOUS
 62
     7
 10
88.00000000000014
 20
221.85
 30
0.0
 11
100.5532624120772
 21
221.85
 31
0.0
  0
LINE
  5
186
  8
1
  6
CONTINUOUS
 62
     7
 10
107.4467375879228
 20
221.85
 30
0.0
 11
109.9621046549405
 21
221.85
 31
0.0
  0
LINE
  5
187
  8
1
  6
CONTINUOUS
 62
     7
 10
88.00000000000013
 20
228.7485631709317
 30
0.0
 11
88.00000000000016
 21
221.85
 31
0.0
  0
ARC
  5
188
  8
1
  6
CONTINUOUS
 62
     7
 10
104.0
 20
207.0
 30
0.0
 40
27.0
 50
114.8505023402284
 51
126.3412030937845
  0
LINE
  5
189
  8
1
  6
CONTINUOUS
 62
     7
 10
115.3468057179102
 20
231.5
 30
0.0
 11
92.65319428208979
 21
231.5
 31
0.0
  0
ARC
  5
18A
  8
1
  6
CONTINUOUS
 62
     7
 10
104.0
 20
207.0
 30
0.0
 40
27.0
 50
53.658796906215
 51
65.14949765977158
  0
LINE
  5
18B
  8
1
  6
CONTINUOUS
 62
     7
 10
120.0
 20
221.85
 30
0.0
 11
120.0
 21
228.7485631709315
 31
0.0
  0
LINE
  5
18C
  8
1
  6
CONTINUOUS
 62
     7
 10
116.0378953450595
 20
219.25
 30
0.0
 11
109.9621046549405
 21
219.25
 31
0.0
  0
ARC
  5
18D
  8
1
  6
CONTINUOUS
 62
     7
 10
113.0
 20
225.35
 30
0.0
 40
4.634523505985721
 50
229.0429964185116
 51
310.9570035814884
  0
LINE
  5
18E
  8
1
  6
CONTINUOUS
 62
     7
 10
211.9999999999998
 20
219.25
 30
0.0
 11
211.9999999999998
 21
221.85
 31
0.0
  0
LINE
  5
18F
  8
1
  6
CONTINUOUS
 62
     7
 10
211.9999999999998
 20
219.25
 30
0.0
 11
208.0378953450595
 21
219.25
 31
0.0
  0
LINE
  5
190
  8
1
  6
CONTINUOUS
 62
     7
 10
208.0378953450595
 20
219.25
 30
0.0
 11
201.9621046549405
 21
219.25
 31
0.0
  0
ARC
  5
191
  8
1
  6
CONTINUOUS
 62
     7
 10
205.0
 20
225.35
 30
0.0
 40
4.634523505985721
 50
229.0429964185116
 51
310.9570035814884
  0
ARC
  5
192
  8
1
  6
CONTINUOUS
 62
     7
 10
196.0
 20
158.0
 30
0.0
 40
25.39999999999999
 50
347.7253297854138
 51
354.3515064830804
  0
LINE
  5
193
  8
1
  6
CONTINUOUS
 62
     7
 10
78.60000000000001
 20
178.0
 30
0.0
 11
78.60000000000001
 21
187.0
 31
0.0
  0
LINE
  5
194
  8
1
  6
CONTINUOUS
 62
     7
 10
77.0
 20
187.0
 30
0.0
 11
77.0
 21
178.0
 31
0.0
  0
ARC
  5
195
  8
1
  6
CONTINUOUS
 62
     7
 10
196.0
 20
207.0
 30
0.0
 40
25.39999999999999
 50
5.648493516919522
 51
12.2746702145863
  0
LINE
  5
196
  8
1
  6
CONTINUOUS
 62
     7
 10
220.416387939251
 20
151.0
 30
0.0
 11
220.8193472919817
 21
152.6
 31
0.0
  0
LINE
  5
197
  8
1
  6
CONTINUOUS
 62
     7
 10
220.8193472919817
 20
212.4
 30
0.0
 11
220.416387939251
 21
214.0
 31
0.0
  0
LINE
  5
198
  8
1
  6
CONTINUOUS
 62
     7
 10
221.4
 20
178.0
 30
0.0
 11
221.4
 21
187.0
 31
0.0
  0
LINE
  5
199
  8
1
  6
CONTINUOUS
 62
     7
 10
223.0
 20
187.0
 30
0.0
 11
223.0
 21
178.0
 31
0.0
  0
LINE
  5
19A
  8
1
  6
CONTINUOUS
 62
     7
 10
109.9621046549405
 20
219.25
 30
0.0
 11
88.00000000000014
 21
219.25
 31
0.0
  0
LINE
  5
19B
  8
1
  6
CONTINUOUS
 62
     7
 10
88.00000000000014
 20
221.85
 30
0.0
 11
88.00000000000014
 21
219.25
 31
0.0
  0
LINE
  5
19C
  8
1
  6
CONTINUOUS
 62
     7
 10
183.9621046549404
 20
143.15
 30
0.0
 11
180.0
 21
143.15
 31
0.0
  0
LINE
  5
19D
  8
1
  6
CONTINUOUS
 62
     7
 10
180.0
 20
145.75
 30
0.0
 11
180.0
 21
143.15
 31
0.0
  0
LINE
  5
19E
  8
1
  6
CONTINUOUS
 62
     7
 10
180.0
 20
145.75
 30
0.0
 11
183.9621046549404
 21
145.75
 31
0.0
  0
ARC
  5
19F
  8
1
  6
CONTINUOUS
 62
     7
 10
94.99999999999997
 20
139.65
 30
0.0
 40
4.634523505985725
 50
49.04299641851139
 51
130.9570035814886
  0
ARC
  5
1A0
  8
1
  6
CONTINUOUS
 62
     7
 10
187.0
 20
139.65
 30
0.0
 40
4.634523505985716
 50
49.04299641851173
 51
130.9570035814883
  0
LINE
  5
1A1
  8
1
  6
CONTINUOUS
 62
     7
 10
183.9621046549404
 20
145.75
 30
0.0
 11
190.0378953450595
 21
145.75
 31
0.0
  0
LINE
  5
1A2
  8
1
  6
CONTINUOUS
 62
     7
 10
211.9999999999999
 20
143.15
 30
0.0
 11
199.4467375879228
 21
143.15
 31
0.0
  0
LINE
  5
1A3
  8
1
  6
CONTINUOUS
 62
     7
 10
192.5532624120771
 20
143.15
 30
0.0
 11
190.0378953450595
 21
143.15
 31
0.0
  0
LINE
  5
1A4
  8
1
  6
CONTINUOUS
 62
     7
 10
180.0
 20
143.15
 30
0.0
 11
180.0
 21
136.2514368290685
 31
0.0
  0
LINE
  5
1A5
  8
1
  6
CONTINUOUS
 62
     7
 10
184.6531942820898
 20
133.4999999999999
 30
0.0
 11
207.3468057179102
 21
133.4999999999999
 31
0.0
  0
LINE
  5
1A6
  8
1
  6
CONTINUOUS
 62
     7
 10
211.9999999999999
 20
136.2514368290683
 30
0.0
 11
211.9999999999998
 21
143.15
 31
0.0
  0
ARC
  5
1A7
  8
1
  6
CONTINUOUS
 62
     7
 10
196.0
 20
158.0
 30
0.0
 40
27.0
 50
233.658796906215
 51
245.1494976597715
  0
ARC
  5
1A8
  8
1
  6
CONTINUOUS
 62
     7
 10
196.0
 20
158.0
 30
0.0
 40
27.0
 50
294.8505023402284
 51
306.3412030937845
  0
LINE
  5
1A9
  8
1
  6
CONTINUOUS
 62
     7
 10
98.0378953450595
 20
145.75
 30
0.0
 11
120.0
 21
145.75
 31
0.0
  0
LINE
  5
1AA
  8
1
  6
CONTINUOUS
 62
     7
 10
120.0
 20
143.15
 30
0.0
 11
120.0
 21
145.75
 31
0.0
  0
LINE
  5
1AB
  8
1
  6
CONTINUOUS
 62
     7
 10
120.0
 20
143.15
 30
0.0
 11
107.4467375879228
 21
143.15
 31
0.0
  0
LINE
  5
1AC
  8
1
  6
CONTINUOUS
 62
     7
 10
100.5532624120771
 20
143.15
 30
0.0
 11
98.0378953450595
 21
143.15
 31
0.0
  0
LINE
  5
1AD
  8
1
  6
CONTINUOUS
 62
     7
 10
190.0378953450595
 20
145.75
 30
0.0
 11
211.9999999999999
 21
145.75
 31
0.0
  0
LINE
  5
1AE
  8
1
  6
CONTINUOUS
 62
     7
 10
211.9999999999999
 20
143.15
 30
0.0
 11
211.9999999999999
 21
145.75
 31
0.0
  0
LINE
  5
1AF
  8
1
  6
CONTINUOUS
 62
     7
 10
91.96210465494042
 20
143.15
 30
0.0
 11
88.00000000000013
 21
143.15
 31
0.0
  0
LINE
  5
1B0
  8
1
  6
CONTINUOUS
 62
     7
 10
88.00000000000014
 20
145.75
 30
0.0
 11
91.96210465494043
 21
145.75
 31
0.0
  0
LINE
  5
1B1
  8
1
  6
CONTINUOUS
 62
     7
 10
88.00000000000014
 20
145.75
 30
0.0
 11
88.00000000000014
 21
143.15
 31
0.0
  0
LINE
  5
1B2
  8
1
  6
CONTINUOUS
 62
     7
 10
91.96210465494043
 20
145.75
 30
0.0
 11
98.0378953450595
 21
145.75
 31
0.0
  0
LINE
  5
1B3
  8
1
  6
CONTINUOUS
 62
     7
 10
120.0
 20
136.2514368290685
 30
0.0
 11
120.0
 21
143.15
 31
0.0
  0
ARC
  5
1B4
  8
1
  6
CONTINUOUS
 62
     7
 10
104.0
 20
158.0
 30
0.0
 40
27.0
 50
294.8505023402284
 51
306.341203093785
  0
LINE
  5
1B5
  8
1
  6
CONTINUOUS
 62
     7
 10
92.65319428208979
 20
133.4999999999999
 30
0.0
 11
115.3468057179102
 21
133.4999999999999
 31
0.0
  0
ARC
  5
1B6
  8
1
  6
CONTINUOUS
 62
     7
 10
104.0
 20
158.0
 30
0.0
 40
27.0
 50
233.6587969062154
 51
245.1494976597717
  0
LINE
  5
1B7
  8
1
  6
CONTINUOUS
 62
     7
 10
88.00000000000014
 20
143.15
 30
0.0
 11
88.00000000000013
 21
136.2514368290684
 31
0.0
  0
LINE
  5
1B8
  8
1
  6
CONTINUOUS
 62
     7
 10
165.9999999999999
 20
143.15
 30
0.0
 11
153.4467375879229
 21
143.15
 31
0.0
  0
LINE
  5
1B9
  8
1
  6
CONTINUOUS
 62
     7
 10
146.5532624120772
 20
143.15
 30
0.0
 11
134.0
 21
143.15
 31
0.0
  0
ARC
  5
1BA
  8
1
  6
CONTINUOUS
 62
     7
 10
150.0
 20
158.0
 30
0.0
 40
27.0
 50
233.6587969062152
 51
245.1494976597715
  0
LINE
  5
1BB
  8
1
  6
CONTINUOUS
 62
     7
 10
134.0
 20
143.15
 30
0.0
 11
134.0
 21
136.2514368290684
 31
0.0
  0
LINE
  5
1BC
  8
1
  6
CONTINUOUS
 62
     7
 10
166.0
 20
136.2514368290684
 30
0.0
 11
166.0
 21
143.15
 31
0.0
  0
LINE
  5
1BD
  8
1
  6
CONTINUOUS
 62
     7
 10
138.6531942820898
 20
133.5
 30
0.0
 11
161.3468057179102
 21
133.5
 31
0.0
  0
ARC
  5
1BE
  8
1
  6
CONTINUOUS
 62
     7
 10
150.0
 20
158.0
 30
0.0
 40
27.0
 50
294.8505023402286
 51
306.3412030937848
  0
LINE
  5
1BF
  8
1
  6
CONTINUOUS
 62
     7
 10
134.0
 20
145.75
 30
0.0
 11
165.9999999999999
 21
145.75
 31
0.0
  0
LINE
  5
1C0
  8
1
  6
CONTINUOUS
 62
     7
 10
134.0
 20
145.75
 30
0.0
 11
134.0
 21
143.15
 31
0.0
  0
LINE
  5
1C1
  8
1
  6
CONTINUOUS
 62
     7
 10
165.9999999999999
 20
143.15
 30
0.0
 11
165.9999999999999
 21
145.75
 31
0.0
  0
LINE
  5
1C2
  8
1
  6
CONTINUOUS
 62
     7
 10
180.0
 20
144.15
 30
0.0
 11
166.0
 21
144.15
 31
0.0
  0
LINE
  5
1C3
  8
1
  6
CONTINUOUS
 62
     7
 10
165.9999999999999
 20
145.75
 30
0.0
 11
180.0
 21
145.75
 31
0.0
  0
LINE
  5
1C4
  8
1
  6
CONTINUOUS
 62
     7
 10
134.0
 20
144.15
 30
0.0
 11
120.0
 21
144.15
 31
0.0
  0
LINE
  5
1C5
  8
1
  6
CONTINUOUS
 62
     7
 10
120.0
 20
145.75
 30
0.0
 11
134.0
 21
145.75
 31
0.0
  0
LINE
  5
1C6
  8
1
  6
CONTINUOUS
 62
     7
 10
120.0
 20
220.85
 30
0.0
 11
134.0
 21
220.85
 31
0.0
  0
LINE
  5
1C7
  8
1
  6
CONTINUOUS
 62
     7
 10
134.0
 20
219.25
 30
0.0
 11
120.0
 21
219.25
 31
0.0
  0
LINE
  5
1C8
  8
1
  6
CONTINUOUS
 62
     7
 10
165.9999999999999
 20
220.85
 30
0.0
 11
180.0
 21
220.85
 31
0.0
  0
LINE
  5
1C9
  8
1
  6
CONTINUOUS
 62
     7
 10
180.0
 20
219.25
 30
0.0
 11
166.0
 21
219.25
 31
0.0
  0
ARC
  5
1CA
  8
1
  6
CONTINUOUS
 62
     7
 10
84.93176725545861
 20
214.25
 30
0.0
 40
4.999999999999997
 50
90.0
 51
159.1825193229101
  0
ARC
  5
1CB
  8
1
  6
CONTINUOUS
 62
     7
 10
84.93176725545861
 20
214.25
 30
0.0
 40
6.599999999999994
 50
90.0
 51
159.1825193229101
  0
LINE
  5
1CC
  8
1
  6
CONTINUOUS
 62
     7
 10
88.00000000000014
 20
220.85
 30
0.0
 11
84.93176725545861
 21
220.85
 31
0.0
  0
LINE
  5
1CD
  8
1
  6
CONTINUOUS
 62
     7
 10
88.00000000000014
 20
219.25
 30
0.0
 11
84.93176725545861
 21
219.25
 31
0.0
  0
ARC
  5
1CE
  8
1
  6
CONTINUOUS
 62
     7
 10
104.0
 20
207.0
 30
0.0
 40
27.0
 50
159.1825193229101
 51
160.8587494317308
  0
ARC
  5
1CF
  8
1
  6
CONTINUOUS
 62
     7
 10
104.0
 20
207.0
 30
0.0
 40
25.39999999999999
 50
159.1825193229101
 51
164.0027897599482
  0
ARC
  5
1D0
  8
1
  6
CONTINUOUS
 62
     7
 10
84.93176725545861
 20
150.75
 30
0.0
 40
6.599999999999994
 50
200.8174806770899
 51
269.9999999999999
  0
ARC
  5
1D1
  8
1
  6
CONTINUOUS
 62
     7
 10
84.93176725545861
 20
150.75
 30
0.0
 40
4.999999999999997
 50
200.8174806770899
 51
269.9999999999998
  0
LINE
  5
1D2
  8
1
  6
CONTINUOUS
 62
     7
 10
84.9317672554586
 20
144.15
 30
0.0
 11
88.00000000000014
 21
144.15
 31
0.0
  0
LINE
  5
1D3
  8
1
  6
CONTINUOUS
 62
     7
 10
84.9317672554586
 20
145.75
 30
0.0
 11
88.00000000000014
 21
145.75
 31
0.0
  0
ARC
  5
1D4
  8
1
  6
CONTINUOUS
 62
     7
 10
104.0
 20
158.0
 30
0.0
 40
27.0
 50
199.1412505682693
 51
200.8174806770899
  0
ARC
  5
1D5
  8
1
  6
CONTINUOUS
 62
     7
 10
104.0
 20
158.0
 30
0.0
 40
25.39999999999999
 50
195.9972102400518
 51
200.8174806770899
  0
ARC
  5
1D6
  8
1
  6
CONTINUOUS
 62
     7
 10
215.0682327445414
 20
150.75
 30
0.0
 40
6.599999999999994
 50
270.0000000000002
 51
339.1825193229101
  0
ARC
  5
1D7
  8
1
  6
CONTINUOUS
 62
     7
 10
215.0682327445414
 20
150.75
 30
0.0
 40
4.999999999999997
 50
270.0000000000005
 51
339.1825193229101
  0
LINE
  5
1D8
  8
1
  6
CONTINUOUS
 62
     7
 10
211.9999999999999
 20
144.15
 30
0.0
 11
215.0682327445414
 21
144.15
 31
0.0
  0
LINE
  5
1D9
  8
1
  6
CONTINUOUS
 62
     7
 10
211.9999999999999
 20
145.75
 30
0.0
 11
215.0682327445414
 21
145.75
 31
0.0
  0
ARC
  5
1DA
  8
1
  6
CONTINUOUS
 62
     7
 10
196.0
 20
158.0
 30
0.0
 40
27.0
 50
339.1825193229101
 51
340.8587494317308
  0
ARC
  5
1DB
  8
1
  6
CONTINUOUS
 62
     7
 10
196.0
 20
158.0
 30
0.0
 40
25.39999999999999
 50
339.1825193229101
 51
344.0027897599482
  0
ARC
  5
1DC
  8
1
  6
CONTINUOUS
 62
     7
 10
215.0682327445414
 20
214.25
 30
0.0
 40
6.599999999999994
 50
20.81748067708983
 51
89.99999999999987
  0
ARC
  5
1DD
  8
1
  6
CONTINUOUS
 62
     7
 10
215.0682327445414
 20
214.25
 30
0.0
 40
4.999999999999997
 50
20.81748067708986
 51
90.0
  0
LINE
  5
1DE
  8
1
  6
CONTINUOUS
 62
     7
 10
215.0682327445414
 20
220.85
 30
0.0
 11
211.9999999999999
 21
220.85
 31
0.0
  0
LINE
  5
1DF
  8
1
  6
CONTINUOUS
 62
     7
 10
215.0682327445414
 20
219.25
 30
0.0
 11
211.9999999999999
 21
219.25
 31
0.0
  0
ARC
  5
1E0
  8
1
  6
CONTINUOUS
 62
     7
 10
196.0
 20
207.0
 30
0.0
 40
27.0
 50
19.14125056826929
 51
20.81748067708984
  0
ARC
  5
1E1
  8
1
  6
CONTINUOUS
 62
     7
 10
196.0
 20
207.0
 30
0.0
 40
25.39999999999999
 50
15.9972102400518
 51
20.81748067708986
  0
LINE
  5
1E2
  8
1
  6
CONTINUOUS
 62
     7
 10
79.53780749721638
 20
158.0000203583845
 30
0.0
 11
79.53724364540496
 21
158.0
 31
0.0
  0
LINE
  5
1E3
  8
1
  6
CONTINUOUS
 62
     7
 10
220.4621925027836
 20
206.9999796416153
 30
0.0
 11
220.462756354595
 21
207.0
 31
0.0
  0
LINE
  5
1E4
  8
1
  6
CONTINUOUS
 62
     7
 10
220.462756354595
 20
158.0
 30
0.0
 11
220.4621925027836
 21
158.0000203583846
 31
0.0
  0
CIRCLE
  5
1E5
  8
1
  6
CONTINUOUS
 62
     7
 10
150.0
 20
197.5
 30
0.0
 40
10.65
  0
CIRCLE
  5
1E6
  8
1
  6
CONTINUOUS
 62
     7
 10
196.0
 20
197.5
 30
0.0
 40
10.65
  0
CIRCLE
  5
1E7
  8
1
  6
CONTINUOUS
 62
     7
 10
196.0
 20
167.5
 30
0.0
 40
10.65
  0
CIRCLE
  5
1E8
  8
1
  6
CONTINUOUS
 62
     7
 10
104.0
 20
167.5
 30
0.0
 40
10.65
  0
CIRCLE
  5
1E9
  8
1
  6
CONTINUOUS
 62
     7
 10
150.0
 20
167.5
 30
0.0
 40
10.65
  0
CIRCLE
  5
1EA
  8
1
  6
CONTINUOUS
 62
     7
 10
104.0
 20
197.5
 30
0.0
 40
10.65
  0
CIRCLE
  5
1EB
  8
1
  6
CONTINUOUS
 62
     7
 10
88.99982891966313
 20
182.496385158637
 30
0.0
 40
1.750174813418836
  0
LINE
  5
1EC
  8
1
  6
CONTINUOUS
 62
     7
 10
145.8
 20
92.78180667547151
 30
0.0
 11
154.2
 21
92.78180667547151
 31
0.0
  0
LINE
  5
1ED
  8
1
  6
CONTINUOUS
 62
     7
 10
148.35
 20
80.78180667547153
 30
0.0
 11
151.65
 21
80.78180667547153
 31
0.0
  0
LINE
  5
1EE
  8
1
  6
CONTINUOUS
 62
     7
 10
108.2
 20
92.78180667547151
 30
0.0
 11
99.79999999999997
 21
92.78180667547151
 31
0.0
  0
LINE
  5
1EF
  8
1
  6
CONTINUOUS
 62
     7
 10
105.65
 20
80.78180667547153
 30
0.0
 11
102.35
 21
80.78180667547153
 31
0.0
  0
LINE
  5
1F0
  8
1
  6
CONTINUOUS
 62
     7
 10
200.2
 20
92.28180667547153
 30
0.0
 11
191.8
 21
92.28180667547153
 31
0.0
  0
LINE
  5
1F1
  8
1
  6
CONTINUOUS
 62
     7
 10
200.2
 20
92.78180667547151
 30
0.0
 11
191.8
 21
92.78180667547151
 31
0.0
  0
LINE
  5
1F2
  8
1
  6
CONTINUOUS
 62
     7
 10
197.6499999999999
 20
80.78180667547153
 30
0.0
 11
194.35
 21
80.78180667547153
 31
0.0
  0
LINE
  5
1F3
  8
1
  6
CONTINUOUS
 62
     7
 10
96.64999999999996
 20
50.88180667547152
 30
0.0
 11
93.34999999999997
 21
50.88180667547152
 31
0.0
  0
LINE
  5
1F4
  8
1
  6
CONTINUOUS
 62
     7
 10
188.6499999999999
 20
50.88180667547152
 30
0.0
 11
185.35
 21
50.88180667547152
 31
0.0
  0
LINE
  5
1F5
  8
1
  6
CONTINUOUS
 62
     7
 10
89.65
 20
88.48180667547152
 30
0.0
 11
89.64999999999999
 21
81.48180667547157
 31
0.0
  0
LINE
  5
1F6
  8
1
  6
CONTINUOUS
 62
     7
 10
89.65
 20
88.48180667547152
 30
0.0
 11
90.79403543848461
 21
88.48180667547152
 31
0.0
  0
LINE
  5
1F7
  8
1
  6
CONTINUOUS
 62
     7
 10
90.85
 20
88.48180667547152
 30
0.0
 11
90.85
 21
81.48180667547159
 31
0.0
  0
LINE
  5
1F8
  8
1
  6
CONTINUOUS
 62
     7
 10
90.85
 20
54.28180667547153
 30
0.0
 11
99.15
 21
54.28180667547153
 31
0.0
  0
ARC
  5
1F9
  8
1
  6
CONTINUOUS
 62
     7
 10
90.85
 20
54.28180667547153
 30
0.0
 40
1.199999999999993
 50
180.0
 51
270.0
  0
LINE
  5
1FA
  8
1
  6
CONTINUOUS
 62
     7
 10
89.64999999999999
 20
54.28180667547153
 30
0.0
 11
89.64999999999999
 21
81.48180667547159
 31
0.0
  0
LINE
  5
1FB
  8
1
  6
CONTINUOUS
 62
     7
 10
90.85
 20
54.28180667547153
 30
0.0
 11
90.85
 21
81.48180667547159
 31
0.0
  0
LINE
  5
1FC
  8
1
  6
CONTINUOUS
 62
     7
 10
181.65
 20
88.48180667547152
 30
0.0
 11
181.65
 21
81.48180667547157
 31
0.0
  0
LINE
  5
1FD
  8
1
  6
CONTINUOUS
 62
     7
 10
181.65
 20
88.48180667547152
 30
0.0
 11
182.7940354384847
 21
88.48180667547152
 31
0.0
  0
LINE
  5
1FE
  8
1
  6
CONTINUOUS
 62
     7
 10
182.85
 20
88.48180667547152
 30
0.0
 11
182.85
 21
81.48180667547159
 31
0.0
  0
LINE
  5
1FF
  8
1
  6
CONTINUOUS
 62
     7
 10
182.85
 20
54.28180667547153
 30
0.0
 11
191.15
 21
54.28180667547153
 31
0.0
  0
ARC
  5
200
  8
1
  6
CONTINUOUS
 62
     7
 10
182.85
 20
54.28180667547153
 30
0.0
 40
1.200000000000007
 50
180.0
 51
270.0
  0
LINE
  5
201
  8
1
  6
CONTINUOUS
 62
     7
 10
181.65
 20
54.28180667547153
 30
0.0
 11
181.65
 21
81.48180667547159
 31
0.0
  0
LINE
  5
202
  8
1
  6
CONTINUOUS
 62
     7
 10
182.85
 20
54.28180667547153
 30
0.0
 11
182.85
 21
81.48180667547159
 31
0.0
  0
LINE
  5
203
  8
1
  6
CONTINUOUS
 62
     7
 10
191.15
 20
57.38534657595094
 30
0.0
 11
191.15
 21
81.48180667547155
 31
0.0
  0
LINE
  5
204
  8
1
  6
CONTINUOUS
 62
     7
 10
120.0000000000001
 20
90.08180667547153
 30
0.0
 11
115.3468057179102
 21
90.08180667547153
 31
0.0
  0
LINE
  5
205
  8
1
  6
CONTINUOUS
 62
     7
 10
120.0
 20
88.48180667547152
 30
0.0
 11
120.0
 21
90.08180667547153
 31
0.0
  0
LINE
  5
206
  8
1
  6
CONTINUOUS
 62
     7
 10
120.0
 20
88.48180667547152
 30
0.0
 11
115.3468057179102
 21
88.48180667547152
 31
0.0
  0
LINE
  5
207
  8
1
  6
CONTINUOUS
 62
     7
 10
180.0
 20
88.48180667547152
 30
0.0
 11
181.65
 21
88.48180667547152
 31
0.0
  0
LINE
  5
208
  8
1
  6
CONTINUOUS
 62
     7
 10
182.7940354384847
 20
88.48180667547152
 30
0.0
 11
184.6531942820897
 21
88.48180667547152
 31
0.0
  0
LINE
  5
209
  8
1
  6
CONTINUOUS
 62
     7
 10
180.0
 20
90.08180667547153
 30
0.0
 11
180.0
 21
88.48180667547152
 31
0.0
  0
LINE
  5
20A
  8
1
  6
CONTINUOUS
 62
     7
 10
179.9999999999999
 20
90.08180667547153
 30
0.0
 11
184.6531942820898
 21
90.08180667547153
 31
0.0
  0
LINE
  5
20B
  8
1
  6
CONTINUOUS
 62
     7
 10
184.6531942820898
 20
90.08180667547153
 30
0.0
 11
207.3468057179102
 21
90.08180667547153
 31
0.0
  0
LINE
  5
20C
  8
1
  6
CONTINUOUS
 62
     7
 10
184.6531942820898
 20
88.48180667547152
 30
0.0
 11
207.3468057179103
 21
88.48180667547152
 31
0.0
  0
LINE
  5
20D
  8
1
  6
CONTINUOUS
 62
     7
 10
211.9999999999998
 20
88.48180667547152
 30
0.0
 11
211.9999999999999
 21
90.08180667547153
 31
0.0
  0
LINE
  5
20E
  8
1
  6
CONTINUOUS
 62
     7
 10
207.3468057179103
 20
88.48180667547152
 30
0.0
 11
211.9999999999998
 21
88.48180667547152
 31
0.0
  0
LINE
  5
20F
  8
1
  6
CONTINUOUS
 62
     7
 10
207.3468057179102
 20
90.08180667547153
 30
0.0
 11
211.9999999999999
 21
90.08180667547153
 31
0.0
  0
LINE
  5
210
  8
1
  6
CONTINUOUS
 62
     7
 10
92.65319428208979
 20
90.08180667547153
 30
0.0
 11
115.3468057179102
 21
90.08180667547153
 31
0.0
  0
LINE
  5
211
  8
1
  6
CONTINUOUS
 62
     7
 10
92.65319428208974
 20
88.48180667547152
 30
0.0
 11
115.3468057179102
 21
88.48180667547152
 31
0.0
  0
LINE
  5
212
  8
1
  6
CONTINUOUS
 62
     7
 10
92.65319428208971
 20
88.48180667547152
 30
0.0
 11
90.79403543848463
 21
88.48180667547152
 31
0.0
  0
LINE
  5
213
  8
1
  6
CONTINUOUS
 62
     7
 10
89.64999999999998
 20
88.48180667547152
 30
0.0
 11
88.00000000000013
 21
88.48180667547152
 31
0.0
  0
LINE
  5
214
  8
1
  6
CONTINUOUS
 62
     7
 10
88.00000000000013
 20
90.08180667547153
 30
0.0
 11
88.00000000000017
 21
88.48180667547152
 31
0.0
  0
LINE
  5
215
  8
1
  6
CONTINUOUS
 62
     7
 10
92.65319428208979
 20
90.08180667547153
 30
0.0
 11
88.0000000000001
 21
90.08180667547153
 31
0.0
  0
LINE
  5
216
  8
1
  6
CONTINUOUS
 62
     7
 10
138.6531942820897
 20
88.48180667547152
 30
0.0
 11
134.0
 21
88.48180667547152
 31
0.0
  0
LINE
  5
217
  8
1
  6
CONTINUOUS
 62
     7
 10
134.0
 20
90.08180667547153
 30
0.0
 11
134.0
 21
88.48180667547152
 31
0.0
  0
LINE
  5
218
  8
1
  6
CONTINUOUS
 62
     7
 10
138.6531942820898
 20
90.08180667547153
 30
0.0
 11
134.0
 21
90.08180667547153
 31
0.0
  0
LINE
  5
219
  8
1
  6
CONTINUOUS
 62
     7
 10
138.6531942820898
 20
88.48180667547152
 30
0.0
 11
161.3468057179102
 21
88.48180667547152
 31
0.0
  0
LINE
  5
21A
  8
1
  6
CONTINUOUS
 62
     7
 10
138.6531942820898
 20
90.08180667547153
 30
0.0
 11
161.3468057179102
 21
90.08180667547153
 31
0.0
  0
LINE
  5
21B
  8
1
  6
CONTINUOUS
 62
     7
 10
165.9999999999999
 20
88.48180667547152
 30
0.0
 11
166.0
 21
90.08180667547153
 31
0.0
  0
LINE
  5
21C
  8
1
  6
CONTINUOUS
 62
     7
 10
165.9999999999999
 20
88.48180667547152
 30
0.0
 11
161.3468057179102
 21
88.48180667547152
 31
0.0
  0
LINE
  5
21D
  8
1
  6
CONTINUOUS
 62
     7
 10
166.0
 20
90.08180667547153
 30
0.0
 11
161.3468057179102
 21
90.08180667547153
 31
0.0
  0
LINE
  5
21E
  8
1
  6
CONTINUOUS
 62
     7
 10
120.0
 20
87.48180667547153
 30
0.0
 11
106.0
 21
87.48180667547153
 31
0.0
  0
LINE
  5
21F
  8
1
  6
CONTINUOUS
 62
     7
 10
120.0
 20
87.48180667547153
 30
0.0
 11
120.0
 21
88.48180667547152
 31
0.0
  0
LINE
  5
220
  8
1
  6
CONTINUOUS
 62
     7
 10
88.00000000000014
 20
88.48180667547152
 30
0.0
 11
88.00000000000014
 21
87.48180667547152
 31
0.0
  0
LINE
  5
221
  8
1
  6
CONTINUOUS
 62
     7
 10
211.9999999999999
 20
87.48180667547152
 30
0.0
 11
197.9999999999999
 21
87.48180667547153
 31
0.0
  0
LINE
  5
222
  8
1
  6
CONTINUOUS
 62
     7
 10
181.65
 20
87.48180667547153
 30
0.0
 11
180.0
 21
87.48180667547153
 31
0.0
  0
LINE
  5
223
  8
1
  6
CONTINUOUS
 62
     7
 10
180.0
 20
88.48180667547152
 30
0.0
 11
180.0
 21
87.48180667547153
 31
0.0
  0
LINE
  5
224
  8
1
  6
CONTINUOUS
 62
     7
 10
211.9999999999999
 20
87.48180667547152
 30
0.0
 11
211.9999999999999
 21
88.48180667547152
 31
0.0
  0
LINE
  5
225
  8
1
  6
CONTINUOUS
 62
     7
 10
165.9999999999999
 20
87.48180667547153
 30
0.0
 11
152.0
 21
87.48180667547153
 31
0.0
  0
LINE
  5
226
  8
1
  6
CONTINUOUS
 62
     7
 10
148.0
 20
87.48180667547153
 30
0.0
 11
134.0
 21
87.48180667547153
 31
0.0
  0
LINE
  5
227
  8
1
  6
CONTINUOUS
 62
     7
 10
134.0
 20
88.48180667547152
 30
0.0
 11
134.0
 21
87.48180667547153
 31
0.0
  0
LINE
  5
228
  8
1
  6
CONTINUOUS
 62
     7
 10
165.9999999999999
 20
87.48180667547153
 30
0.0
 11
165.9999999999999
 21
88.48180667547152
 31
0.0
  0
LINE
  5
229
  8
1
  6
CONTINUOUS
 62
     7
 10
86.10446559366997
 20
53.08180667547152
 30
0.0
 11
85.91620769427655
 21
53.08180667547152
 31
0.0
  0
LINE
  5
22A
  8
1
  6
CONTINUOUS
 62
     7
 10
85.91620769427655
 20
53.08180667547152
 30
0.0
 11
85.75820328240232
 21
53.08180667547152
 31
0.0
  0
LINE
  5
22B
  8
1
  6
CONTINUOUS
 62
     7
 10
78.76263313222465
 20
83.58180667547151
 30
0.0
 11
84.9317672554586
 21
83.58180667547151
 31
0.0
  0
LINE
  5
22C
  8
1
  6
CONTINUOUS
 62
     7
 10
180.0
 20
87.48180667547153
 30
0.0
 11
165.9999999999999
 21
87.48180667547153
 31
0.0
  0
LINE
  5
22D
  8
1
  6
CONTINUOUS
 62
     7
 10
211.9999999999999
 20
83.58180667547153
 30
0.0
 11
215.0682327445414
 21
83.58180667547153
 31
0.0
  0
LINE
  5
22E
  8
1
  6
CONTINUOUS
 62
     7
 10
206.0
 20
61.68180667547151
 30
0.0
 11
206.0
 21
59.68180667547153
 31
0.0
  0
LINE
  5
22F
  8
1
  6
CONTINUOUS
 62
     7
 10
114.0
 20
61.68180667547151
 30
0.0
 11
114.0
 21
59.68180667547153
 31
0.0
  0
LINE
  5
230
  8
1
  6
CONTINUOUS
 62
     7
 10
84.9317672554586
 20
83.58180667547153
 30
0.0
 11
88.00000000000014
 21
83.58180667547153
 31
0.0
  0
LINE
  5
231
  8
1
  6
CONTINUOUS
 62
     7
 10
134.0
 20
87.48180667547153
 30
0.0
 11
120.0
 21
87.48180667547153
 31
0.0
  0
LINE
  5
232
  8
1
  6
CONTINUOUS
 62
     7
 10
88.00000000000014
 20
83.58180667547153
 30
0.0
 11
88.00000000000014
 21
87.48180667547152
 31
0.0
  0
LINE
  5
233
  8
1
  6
CONTINUOUS
 62
     7
 10
211.9999999999999
 20
87.48180667547152
 30
0.0
 11
211.9999999999999
 21
83.58180667547153
 31
0.0
  0
LINE
  5
234
  8
1
  6
CONTINUOUS
 62
     7
 10
221.2373668677753
 20
83.58180667547151
 30
0.0
 11
215.0682327445414
 21
83.58180667547151
 31
0.0
  0
LINE
  5
235
  8
1
  6
CONTINUOUS
 62
     7
 10
206.0
 20
59.68180667547153
 30
0.0
 11
206.0
 21
54.22494459640081
 31
0.0
  0
ARC
  5
236
  8
1
  6
CONTINUOUS
 62
     7
 10
201.8945664560603
 20
54.17646114718898
 30
0.0
 40
4.105719818564368
 50
352.0198772325987
 51
0.6766076849711454
  0
LINE
  5
237
  8
1
  6
CONTINUOUS
 62
     7
 10
205.9605276807999
 20
53.60646593013313
 30
0.0
 11
205.9183551074265
 21
53.41975932287467
 31
0.0
  0
LINE
  5
238
  8
1
  6
CONTINUOUS
 62
     7
 10
205.9183551074265
 20
53.41975932287467
 30
0.0
 11
205.8630746514353
 21
53.28108517272656
 31
0.0
  0
LINE
  5
239
  8
1
  6
CONTINUOUS
 62
     7
 10
205.8630746514353
 20
53.28108517272656
 30
0.0
 11
205.7969003445106
 21
53.18427922335699
 31
0.0
  0
LINE
  5
23A
  8
1
  6
CONTINUOUS
 62
     7
 10
205.7969003445106
 20
53.18427922335699
 30
0.0
 11
205.7152138347871
 21
53.11889376971863
 31
0.0
  0
LINE
  5
23B
  8
1
  6
CONTINUOUS
 62
     7
 10
205.7152138347871
 20
53.11889376971863
 30
0.0
 11
205.6171776282499
 21
53.08591821618175
 31
0.0
  0
LINE
  5
23C
  8
1
  6
CONTINUOUS
 62
     7
 10
205.6171776282499
 20
53.08591821618175
 30
0.0
 11
205.5621488653217
 21
53.08180667547152
 31
0.0
  0
ARC
  5
23D
  8
1
  6
CONTINUOUS
 62
     7
 10
110.6802312682868
 20
54.14311913248169
 30
0.0
 40
3.320776993206028
 50
348.2056672291653
 51
1.411937113634792
  0
LINE
  5
23E
  8
1
  6
CONTINUOUS
 62
     7
 10
113.9308987259879
 20
53.46435487439987
 30
0.0
 11
113.8801209778799
 21
53.3162380183888
 31
0.0
  0
LINE
  5
23F
  8
1
  6
CONTINUOUS
 62
     7
 10
113.8801209778799
 20
53.3162380183888
 30
0.0
 11
113.8125093240735
 21
53.20261161462608
 31
0.0
  0
LINE
  5
240
  8
1
  6
CONTINUOUS
 62
     7
 10
113.8125093240735
 20
53.20261161462608
 30
0.0
 11
113.7267792933054
 21
53.12560330113064
 31
0.0
  0
LINE
  5
241
  8
1
  6
CONTINUOUS
 62
     7
 10
113.7267792933054
 20
53.12560330113064
 30
0.0
 11
113.6217627352529
 21
53.08666387754388
 31
0.0
  0
LINE
  5
242
  8
1
  6
CONTINUOUS
 62
     7
 10
113.6217627352529
 20
53.08666387754388
 30
0.0
 11
113.5621488653217
 21
53.08180667547152
 31
0.0
  0
LINE
  5
243
  8
1
  6
CONTINUOUS
 62
     7
 10
114.0
 20
59.68180667547153
 30
0.0
 11
114.0
 21
54.22494459640081
 31
0.0
  0
LINE
  5
244
  8
1
  6
CONTINUOUS
 62
     7
 10
86.10446559366997
 20
53.08180667547155
 30
0.0
 11
90.85
 21
53.08180667547155
 31
0.0
  0
LINE
  5
245
  8
1
  6
CONTINUOUS
 62
     7
 10
221.5
 20
93.68180667547153
 30
0.0
 11
221.5
 21
92.08180667547153
 31
0.0
  0
LINE
  5
246
  8
1
  6
CONTINUOUS
 62
     7
 10
221.5
 20
93.68180667547153
 30
0.0
 11
224.0
 21
93.68180667547153
 31
0.0
  0
LINE
  5
247
  8
1
  6
CONTINUOUS
 62
     7
 10
221.5
 20
92.08180667547153
 30
0.0
 11
224.0
 21
92.08180667547153
 31
0.0
  0
LINE
  5
248
  8
1
  6
CONTINUOUS
 62
     7
 10
74.00000000000001
 20
93.68180667547153
 30
0.0
 11
74.00000000000001
 21
92.08180667547153
 31
0.0
  0
LINE
  5
249
  8
1
  6
CONTINUOUS
 62
     7
 10
76.00000000000001
 20
93.68180667547153
 30
0.0
 11
74.00000000000001
 21
93.68180667547153
 31
0.0
  0
LINE
  5
24A
  8
1
  6
CONTINUOUS
 62
     7
 10
76.00000000000001
 20
92.08180667547153
 30
0.0
 11
74.00000000000001
 21
92.08180667547153
 31
0.0
  0
LINE
  5
24B
  8
1
  6
CONTINUOUS
 62
     7
 10
78.5
 20
93.68180667547153
 30
0.0
 11
76.00000000000001
 21
93.68180667547153
 31
0.0
  0
LINE
  5
24C
  8
1
  6
CONTINUOUS
 62
     7
 10
78.5
 20
92.08180667547153
 30
0.0
 11
76.00000000000001
 21
92.08180667547153
 31
0.0
  0
LINE
  5
24D
  8
1
  6
CONTINUOUS
 62
     7
 10
78.5
 20
93.68180667547153
 30
0.0
 11
78.5
 21
92.08180667547153
 31
0.0
  0
LINE
  5
24E
  8
1
  6
CONTINUOUS
 62
     7
 10
226.0
 20
93.68180667547153
 30
0.0
 11
226.0
 21
92.08180667547153
 31
0.0
  0
LINE
  5
24F
  8
1
  6
CONTINUOUS
 62
     7
 10
224.0
 20
93.68180667547153
 30
0.0
 11
226.0
 21
93.68180667547153
 31
0.0
  0
LINE
  5
250
  8
1
  6
CONTINUOUS
 62
     7
 10
224.0
 20
92.08180667547153
 30
0.0
 11
226.0
 21
92.08180667547153
 31
0.0
  0
ARC
  5
251
  8
1
  6
CONTINUOUS
 62
     7
 10
223.3683898135755
 20
91.58162702797786
 30
0.0
 40
2.091720736934775
 50
153.2821041557766
 51
179.9950791503768
  0
ARC
  5
252
  8
1
  6
CONTINUOUS
 62
     7
 10
76.63143569255382
 20
91.58158558185532
 30
0.0
 40
2.091895234774701
 50
0.0060556240575201
 51
26.71676106978929
  0
LINE
  5
253
  8
1
  6
CONTINUOUS
 62
     7
 10
77.11598988245986
 20
90.08180667547153
 30
0.0
 11
77.54551077794169
 21
90.08180667547153
 31
0.0
  0
ARC
  5
254
  8
1
  6
CONTINUOUS
 62
     7
 10
73.93001332254703
 20
88.59586637710353
 30
0.0
 40
3.994805705066446
 50
358.363868420535
 51
19.27964389098389
  0
LINE
  5
255
  8
1
  6
CONTINUOUS
 62
     7
 10
77.70078360257503
 20
89.91486755848626
 30
0.0
 11
77.64336008680718
 21
90.01455961678658
 31
0.0
  0
LINE
  5
256
  8
1
  6
CONTINUOUS
 62
     7
 10
77.64336008680718
 20
90.01455961678658
 30
0.0
 11
77.56183682309461
 21
90.07981957000767
 31
0.0
  0
LINE
  5
257
  8
1
  6
CONTINUOUS
 62
     7
 10
77.56183682309461
 20
90.07981957000767
 30
0.0
 11
77.54551077794167
 21
90.08180667547153
 31
0.0
  0
LINE
  5
258
  8
1
  6
CONTINUOUS
 62
     7
 10
77.9231903791894
 20
88.48180667547152
 30
0.0
 11
77.9231903791894
 21
83.58180667547151
 31
0.0
  0
LINE
  5
259
  8
1
  6
CONTINUOUS
 62
     7
 10
77.00000000000001
 20
68.08180667547153
 30
0.0
 11
77.0
 21
91.58180667547153
 31
0.0
  0
LINE
  5
25A
  8
1
  6
CONTINUOUS
 62
     7
 10
77.11598988245986
 20
91.58180667547153
 30
0.0
 11
77.11598988245986
 21
90.08180667547153
 31
0.0
  0
LINE
  5
25B
  8
1
  6
CONTINUOUS
 62
     7
 10
77.9231903791894
 20
83.58180667547151
 30
0.0
 11
78.76263313222465
 21
83.58180667547151
 31
0.0
  0
LINE
  5
25C
  8
1
  6
CONTINUOUS
 62
     7
 10
222.0768096208106
 20
88.48180667547152
 30
0.0
 11
222.0768096208106
 21
83.58180667547151
 31
0.0
  0
LINE
  5
25D
  8
1
  6
CONTINUOUS
 62
     7
 10
222.4544892220584
 20
90.08180667547153
 30
0.0
 11
222.3681469723996
 21
90.02917602573896
 31
0.0
  0
LINE
  5
25E
  8
1
  6
CONTINUOUS
 62
     7
 10
222.3681469723996
 20
90.02917602573896
 30
0.0
 11
222.3097442261802
 21
89.93656078327407
 31
0.0
  0
ARC
  5
25F
  8
1
  6
CONTINUOUS
 62
     7
 10
225.9852699496733
 20
88.60201142830869
 30
0.0
 40
3.910308341409731
 50
160.0445092164828
 51
181.7615772432007
  0
LINE
  5
260
  8
1
  6
CONTINUOUS
 62
     7
 10
222.4544892220583
 20
90.08180667547153
 30
0.0
 11
222.8840101175401
 21
90.08180667547153
 31
0.0
  0
LINE
  5
261
  8
1
  6
CONTINUOUS
 62
     7
 10
222.8840101175401
 20
90.08180667547153
 30
0.0
 11
222.8840101175401
 21
91.58180667547153
 31
0.0
  0
LINE
  5
262
  8
1
  6
CONTINUOUS
 62
     7
 10
223.0
 20
68.08180667547153
 30
0.0
 11
223.0
 21
91.58180667547153
 31
0.0
  0
LINE
  5
263
  8
1
  6
CONTINUOUS
 62
     7
 10
222.0768096208106
 20
83.58180667547151
 30
0.0
 11
221.2373668677753
 21
83.58180667547151
 31
0.0
  0
LINE
  5
264
  8
1
  6
CONTINUOUS
 62
     7
 10
79.58361206074905
 20
83.58180667547151
 30
0.0
 11
79.58361206074902
 21
88.48180667547152
 31
0.0
  0
LINE
  5
265
  8
1
  6
CONTINUOUS
 62
     7
 10
79.18065270801829
 20
90.08180667547153
 30
0.0
 11
79.27296941891713
 21
90.02887825703768
 31
0.0
  0
LINE
  5
266
  8
1
  6
CONTINUOUS
 62
     7
 10
79.27296941891713
 20
90.02887825703768
 30
0.0
 11
79.33542382785271
 21
89.93575493432373
 31
0.0
  0
ARC
  5
267
  8
1
  6
CONTINUOUS
 62
     7
 10
75.88821713335464
 20
88.5991615615625
 30
0.0
 40
3.697257881011479
 50
358.1810656809125
 51
21.19292066168629
  0
LINE
  5
268
  8
1
  6
CONTINUOUS
 62
     7
 10
78.72333091564477
 20
91.58180667547153
 30
0.0
 11
78.72333091564477
 21
90.08180667547153
 31
0.0
  0
ARC
  5
269
  8
1
  6
CONTINUOUS
 62
     7
 10
224.1929591280025
 20
88.59318147535475
 30
0.0
 40
3.778213108038891
 50
159.5650312180145
 51
181.6892193061367
  0
LINE
  5
26A
  8
1
  6
CONTINUOUS
 62
     7
 10
220.6525124682846
 20
89.91232200594628
 30
0.0
 11
220.7137232846808
 21
90.01290537917353
 31
0.0
  0
LINE
  5
26B
  8
1
  6
CONTINUOUS
 62
     7
 10
220.7137232846808
 20
90.01290537917353
 30
0.0
 11
220.8016896488739
 21
90.07976099978023
 31
0.0
  0
LINE
  5
26C
  8
1
  6
CONTINUOUS
 62
     7
 10
220.8016896488739
 20
90.07976099978023
 30
0.0
 11
220.8193472919817
 21
90.08180667547153
 31
0.0
  0
LINE
  5
26D
  8
1
  6
CONTINUOUS
 62
     7
 10
220.4163879392509
 20
83.58180667547151
 30
0.0
 11
220.416387939251
 21
88.48180667547152
 31
0.0
  0
LINE
  5
26E
  8
1
  6
CONTINUOUS
 62
     7
 10
221.2766690843552
 20
91.58180667547153
 30
0.0
 11
221.2766690843552
 21
90.08180667547153
 31
0.0
  0
LINE
  5
26F
  8
1
  6
CONTINUOUS
 62
     7
 10
77.54551077794167
 20
90.08180667547153
 30
0.0
 11
79.18065270801829
 21
90.08180667547153
 31
0.0
  0
LINE
  5
270
  8
1
  6
CONTINUOUS
 62
     7
 10
220.8193472919817
 20
90.08180667547153
 30
0.0
 11
222.4544892220584
 21
90.08180667547153
 31
0.0
  0
ARC
  5
271
  8
1
  6
CONTINUOUS
 62
     7
 10
223.5
 20
91.58180667547153
 30
0.0
 40
0.5000000000000004
 50
90.0
 51
180.0
  0
LINE
  5
272
  8
1
  6
CONTINUOUS
 62
     7
 10
222.8840101175401
 20
91.58180667547153
 30
0.0
 11
222.8844383040038
 21
91.60244597053914
 31
0.0
  0
LINE
  5
273
  8
1
  6
CONTINUOUS
 62
     7
 10
222.8844383040038
 20
91.60244597053914
 30
0.0
 11
222.8857213667135
 21
91.62304979582888
 31
0.0
  0
LINE
  5
274
  8
1
  6
CONTINUOUS
 62
     7
 10
222.8857213667135
 20
91.62304979582888
 30
0.0
 11
222.8878756401345
 21
91.64372529128558
 31
0.0
  0
LINE
  5
275
  8
1
  6
CONTINUOUS
 62
     7
 10
222.8878756401345
 20
91.64372529128558
 30
0.0
 11
222.8908905829083
 21
91.6642929161862
 31
0.0
  0
LINE
  5
276
  8
1
  6
CONTINUOUS
 62
     7
 10
222.8908905829083
 20
91.6642929161862
 30
0.0
 11
222.8948554216407
 21
91.685160015824
 31
0.0
  0
LINE
  5
277
  8
1
  6
CONTINUOUS
 62
     7
 10
222.8948554216407
 20
91.685160015824
 30
0.0
 11
222.8997058226045
 21
91.70583922102225
 31
0.0
  0
LINE
  5
278
  8
1
  6
CONTINUOUS
 62
     7
 10
222.8997058226045
 20
91.70583922102225
 30
0.0
 11
222.9054789727124
 21
91.72644250845498
 31
0.0
  0
LINE
  5
279
  8
1
  6
CONTINUOUS
 62
     7
 10
222.9054789727124
 20
91.72644250845498
 30
0.0
 11
222.9121307108474
 21
91.7467791569009
 31
0.0
  0
LINE
  5
27A
  8
1
  6
CONTINUOUS
 62
     7
 10
222.9121307108474
 20
91.7467791569009
 30
0.0
 11
222.9193700212166
 21
91.76611185140281
 31
0.0
  0
LINE
  5
27B
  8
1
  6
CONTINUOUS
 62
     7
 10
222.9193700212166
 20
91.76611185140281
 30
0.0
 11
222.9274028262567
 21
91.78512855234536
 31
0.0
  0
LINE
  5
27C
  8
1
  6
CONTINUOUS
 62
     7
 10
222.9274028262567
 20
91.78512855234536
 30
0.0
 11
222.9362795320623
 21
91.8039246637461
 31
0.0
  0
LINE
  5
27D
  8
1
  6
CONTINUOUS
 62
     7
 10
222.9362795320623
 20
91.8039246637461
 30
0.0
 11
222.9459307979977
 21
91.82233506817023
 31
0.0
  0
LINE
  5
27E
  8
1
  6
CONTINUOUS
 62
     7
 10
222.9459307979977
 20
91.82233506817023
 30
0.0
 11
222.9565741745971
 21
91.84071290941343
 31
0.0
  0
LINE
  5
27F
  8
1
  6
CONTINUOUS
 62
     7
 10
222.9565741745971
 20
91.84071290941343
 30
0.0
 11
222.9679886276729
 21
91.85862204228877
 31
0.0
  0
LINE
  5
280
  8
1
  6
CONTINUOUS
 62
     7
 10
222.9679886276729
 20
91.85862204228877
 30
0.0
 11
222.9802455651295
 21
91.8761553494253
 31
0.0
  0
LINE
  5
281
  8
1
  6
CONTINUOUS
 62
     7
 10
222.9802455651295
 20
91.8761553494253
 30
0.0
 11
222.9932407889324
 21
91.8931486959586
 31
0.0
  0
LINE
  5
282
  8
1
  6
CONTINUOUS
 62
     7
 10
222.9932407889324
 20
91.8931486959586
 30
0.0
 11
223.0064860803504
 21
91.90903697456582
 31
0.0
  0
LINE
  5
283
  8
1
  6
CONTINUOUS
 62
     7
 10
223.0064860803504
 20
91.90903697456582
 30
0.0
 11
223.0203761213251
 21
91.92436479760114
 31
0.0
  0
LINE
  5
284
  8
1
  6
CONTINUOUS
 62
     7
 10
223.0203761213251
 20
91.92436479760114
 30
0.0
 11
223.0349897435823
 21
91.93920553047458
 31
0.0
  0
LINE
  5
285
  8
1
  6
CONTINUOUS
 62
     7
 10
223.0349897435823
 20
91.93920553047458
 30
0.0
 11
223.0502071244703
 21
91.95342653223891
 31
0.0
  0
LINE
  5
286
  8
1
  6
CONTINUOUS
 62
     7
 10
223.0502071244703
 20
91.95342653223891
 30
0.0
 11
223.0663493459464
 21
91.96728884234003
 31
0.0
  0
LINE
  5
287
  8
1
  6
CONTINUOUS
 62
     7
 10
223.0663493459464
 20
91.96728884234003
 30
0.0
 11
223.0830645842767
 21
91.98045455725574
 31
0.0
  0
LINE
  5
288
  8
1
  6
CONTINUOUS
 62
     7
 10
223.0830645842767
 20
91.98045455725574
 30
0.0
 11
223.1004505867166
 21
91.99298766398427
 31
0.0
  0
LINE
  5
289
  8
1
  6
CONTINUOUS
 62
     7
 10
223.1004505867166
 20
91.99298766398427
 30
0.0
 11
223.1183552703406
 21
92.00476791987772
 31
0.0
  0
LINE
  5
28A
  8
1
  6
CONTINUOUS
 62
     7
 10
223.1183552703406
 20
92.00476791987772
 30
0.0
 11
223.1361700193413
 21
92.01544472676578
 31
0.0
  0
LINE
  5
28B
  8
1
  6
CONTINUOUS
 62
     7
 10
223.1361700193413
 20
92.01544472676578
 30
0.0
 11
223.1544104194264
 21
92.02537687203257
 31
0.0
  0
LINE
  5
28C
  8
1
  6
CONTINUOUS
 62
     7
 10
223.1544104194264
 20
92.02537687203257
 30
0.0
 11
223.1731755310415
 21
92.03460774421538
 31
0.0
  0
LINE
  5
28D
  8
1
  6
CONTINUOUS
 62
     7
 10
223.1731755310415
 20
92.03460774421538
 30
0.0
 11
223.1923078950049
 21
92.04305115950712
 31
0.0
  0
LINE
  5
28E
  8
1
  6
CONTINUOUS
 62
     7
 10
223.1923078950049
 20
92.04305115950712
 30
0.0
 11
223.2121985764125
 21
92.05084824365609
 31
0.0
  0
LINE
  5
28F
  8
1
  6
CONTINUOUS
 62
     7
 10
223.2121985764125
 20
92.05084824365609
 30
0.0
 11
223.2324020025176
 21
92.05779486040323
 31
0.0
  0
LINE
  5
290
  8
1
  6
CONTINUOUS
 62
     7
 10
223.2324020025176
 20
92.05779486040323
 30
0.0
 11
223.2530322432602
 21
92.06391916661474
 31
0.0
  0
LINE
  5
291
  8
1
  6
CONTINUOUS
 62
     7
 10
223.2530322432602
 20
92.06391916661474
 30
0.0
 11
223.2739051164764
 21
92.06915722623349
 31
0.0
  0
LINE
  5
292
  8
1
  6
CONTINUOUS
 62
     7
 10
223.2739051164764
 20
92.06915722623349
 30
0.0
 11
223.2922486940219
 21
92.07298821762876
 31
0.0
  0
LINE
  5
293
  8
1
  6
CONTINUOUS
 62
     7
 10
223.2922486940219
 20
92.07298821762876
 30
0.0
 11
223.3107283458684
 21
92.07613606580885
 31
0.0
  0
LINE
  5
294
  8
1
  6
CONTINUOUS
 62
     7
 10
223.3107283458684
 20
92.07613606580885
 30
0.0
 11
223.3293057612981
 21
92.07859434268126
 31
0.0
  0
LINE
  5
295
  8
1
  6
CONTINUOUS
 62
     7
 10
223.3293057612981
 20
92.07859434268126
 30
0.0
 11
223.3481994621025
 21
92.08037747171001
 31
0.0
  0
LINE
  5
296
  8
1
  6
CONTINUOUS
 62
     7
 10
223.3481994621025
 20
92.08037747171001
 30
0.0
 11
223.3671535876579
 21
92.08144899945634
 31
0.0
  0
LINE
  5
297
  8
1
  6
CONTINUOUS
 62
     7
 10
223.3671535876579
 20
92.08144899945634
 30
0.0
 11
223.3861278752583
 21
92.08180667547153
 31
0.0
  0
LINE
  5
298
  8
1
  6
CONTINUOUS
 62
     7
 10
76.6138721247417
 20
92.08180667547153
 30
0.0
 11
76.63473083866423
 21
92.0813748182298
 31
0.0
  0
LINE
  5
299
  8
1
  6
CONTINUOUS
 62
     7
 10
76.63473083866423
 20
92.0813748182298
 30
0.0
 11
76.65555384806764
 21
92.08008071056
 31
0.0
  0
LINE
  5
29A
  8
1
  6
CONTINUOUS
 62
     7
 10
76.65555384806764
 20
92.08008071056
 30
0.0
 11
76.67644902184303
 21
92.07790785417497
 31
0.0
  0
LINE
  5
29B
  8
1
  6
CONTINUOUS
 62
     7
 10
76.67644902184303
 20
92.07790785417497
 30
0.0
 11
76.69723557139362
 21
92.07486665484335
 31
0.0
  0
LINE
  5
29C
  8
1
  6
CONTINUOUS
 62
     7
 10
76.69723557139362
 20
92.07486665484335
 30
0.0
 11
76.71832392208547
 21
92.07086712724875
 31
0.0
  0
LINE
  5
29D
  8
1
  6
CONTINUOUS
 62
     7
 10
76.71832392208547
 20
92.07086712724875
 30
0.0
 11
76.7392229222303
 21
92.06597361750416
 31
0.0
  0
LINE
  5
29E
  8
1
  6
CONTINUOUS
 62
     7
 10
76.7392229222303
 20
92.06597361750416
 30
0.0
 11
76.76004550258169
 21
92.06014824284416
 31
0.0
  0
LINE
  5
29F
  8
1
  6
CONTINUOUS
 62
     7
 10
76.76004550258169
 20
92.06014824284416
 30
0.0
 11
76.78059901804555
 21
92.05343499616176
 31
0.0
  0
LINE
  5
2A0
  8
1
  6
CONTINUOUS
 62
     7
 10
76.78059901804555
 20
92.05343499616176
 30
0.0
 11
76.8001402086379
 21
92.04612629165794
 31
0.0
  0
LINE
  5
2A1
  8
1
  6
CONTINUOUS
 62
     7
 10
76.8001402086379
 20
92.04612629165794
 30
0.0
 11
76.81936189810426
 21
92.03801446249187
 31
0.0
  0
LINE
  5
2A2
  8
1
  6
CONTINUOUS
 62
     7
 10
76.81936189810426
 20
92.03801446249187
 30
0.0
 11
76.83836066747635
 21
92.02904778050883
 31
0.0
  0
LINE
  5
2A3
  8
1
  6
CONTINUOUS
 62
     7
 10
76.83836066747635
 20
92.02904778050883
 30
0.0
 11
76.85696860902121
 21
92.01929591281194
 31
0.0
  0
LINE
  5
2A4
  8
1
  6
CONTINUOUS
 62
     7
 10
76.85696860902121
 20
92.01929591281194
 30
0.0
 11
76.87554480816436
 21
92.0085366855226
 31
0.0
  0
LINE
  5
2A5
  8
1
  6
CONTINUOUS
 62
     7
 10
76.87554480816436
 20
92.0085366855226
 30
0.0
 11
76.8936447849767
 21
91.99699429754136
 31
0.0
  0
LINE
  5
2A6
  8
1
  6
CONTINUOUS
 62
     7
 10
76.8936447849767
 20
91.99699429754136
 30
0.0
 11
76.91136300466225
 21
91.98459488062089
 31
0.0
  0
LINE
  5
2A7
  8
1
  6
CONTINUOUS
 62
     7
 10
76.91136300466225
 20
91.98459488062089
 30
0.0
 11
76.92853105579314
 21
91.9714442696179
 31
0.0
  0
LINE
  5
2A8
  8
1
  6
CONTINUOUS
 62
     7
 10
76.92853105579314
 20
91.9714442696179
 30
0.0
 11
76.94451169201568
 21
91.95809344317975
 31
0.0
  0
LINE
  5
2A9
  8
1
  6
CONTINUOUS
 62
     7
 10
76.94451169201568
 20
91.95809344317975
 30
0.0
 11
76.9599245810906
 21
91.94409101871929
 31
0.0
  0
LINE
  5
2AA
  8
1
  6
CONTINUOUS
 62
     7
 10
76.9599245810906
 20
91.94409101871929
 30
0.0
 11
76.97484371389243
 21
91.92935587530633
 31
0.0
  0
LINE
  5
2AB
  8
1
  6
CONTINUOUS
 62
     7
 10
76.97484371389243
 20
91.92935587530633
 30
0.0
 11
76.98913344815406
 21
91.9140095990403
 31
0.0
  0
LINE
  5
2AC
  8
1
  6
CONTINUOUS
 62
     7
 10
76.98913344815406
 20
91.9140095990403
 30
0.0
 11
77.00305933033364
 21
91.89772247705744
 31
0.0
  0
LINE
  5
2AD
  8
1
  6
CONTINUOUS
 62
     7
 10
77.00305933033364
 20
91.89772247705744
 30
0.0
 11
77.0162755331533
 21
91.88085439425505
 31
0.0
  0
LINE
  5
2AE
  8
1
  6
CONTINUOUS
 62
     7
 10
77.0162755331533
 20
91.88085439425505
 30
0.0
 11
77.0288467741598
 21
91.86330393763402
 31
0.0
  0
LINE
  5
2AF
  8
1
  6
CONTINUOUS
 62
     7
 10
77.0288467741598
 20
91.86330393763402
 30
0.0
 11
77.04064894476154
 21
91.8452273479032
 31
0.0
  0
LINE
  5
2B0
  8
1
  6
CONTINUOUS
 62
     7
 10
77.04064894476154
 20
91.8452273479032
 30
0.0
 11
77.0512415203916
 21
91.8273961561044
 31
0.0
  0
LINE
  5
2B1
  8
1
  6
CONTINUOUS
 62
     7
 10
77.0512415203916
 20
91.8273961561044
 30
0.0
 11
77.06108496177951
 21
91.80914073244482
 31
0.0
  0
LINE
  5
2B2
  8
1
  6
CONTINUOUS
 62
     7
 10
77.06108496177951
 20
91.80914073244482
 30
0.0
 11
77.07031234659787
 21
91.7901603562998
 31
0.0
  0
LINE
  5
2B3
  8
1
  6
CONTINUOUS
 62
     7
 10
77.07031234659787
 20
91.7901603562998
 30
0.0
 11
77.07873644294985
 21
91.7707894193091
 31
0.0
  0
LINE
  5
2B4
  8
1
  6
CONTINUOUS
 62
     7
 10
77.07873644294985
 20
91.7707894193091
 30
0.0
 11
77.08633543941191
 21
91.75108021523873
 31
0.0
  0
LINE
  5
2B5
  8
1
  6
CONTINUOUS
 62
     7
 10
77.08633543941191
 20
91.75108021523873
 30
0.0
 11
77.09308752456052
 21
91.73108503785464
 31
0.0
  0
LINE
  5
2B6
  8
1
  6
CONTINUOUS
 62
     7
 10
77.09308752456052
 20
91.73108503785464
 30
0.0
 11
77.09908790851658
 21
91.71043779146083
 31
0.0
  0
LINE
  5
2B7
  8
1
  6
CONTINUOUS
 62
     7
 10
77.09908790851658
 20
91.71043779146083
 30
0.0
 11
77.10419239292574
 21
91.68955101409041
 31
0.0
  0
LINE
  5
2B8
  8
1
  6
CONTINUOUS
 62
     7
 10
77.10419239292574
 20
91.68955101409041
 30
0.0
 11
77.10776669220085
 21
91.67191998103638
 31
0.0
  0
LINE
  5
2B9
  8
1
  6
CONTINUOUS
 62
     7
 10
77.10776669220085
 20
91.67191998103638
 30
0.0
 11
77.11070322305741
 21
91.65416562729112
 31
0.0
  0
LINE
  5
2BA
  8
1
  6
CONTINUOUS
 62
     7
 10
77.11070322305741
 20
91.65416562729112
 30
0.0
 11
77.11299614426935
 21
91.6363226649674
 31
0.0
  0
LINE
  5
2BB
  8
1
  6
CONTINUOUS
 62
     7
 10
77.11299614426935
 20
91.6363226649674
 30
0.0
 11
77.11465797457495
 21
91.61819321963547
 31
0.0
  0
LINE
  5
2BC
  8
1
  6
CONTINUOUS
 62
     7
 10
77.11465797457495
 20
91.61819321963547
 30
0.0
 11
77.11565656609412
 21
91.60000907405188
 31
0.0
  0
LINE
  5
2BD
  8
1
  6
CONTINUOUS
 62
     7
 10
77.11565656609412
 20
91.60000907405188
 30
0.0
 11
77.11598988245986
 21
91.58180667547153
 31
0.0
  0
ARC
  5
2BE
  8
1
  6
CONTINUOUS
 62
     7
 10
76.5
 20
91.58180667547153
 30
0.0
 40
0.5000000000000004
 50
0.0
 51
90.0
  0
ARC
  5
2BF
  8
1
  6
CONTINUOUS
 62
     7
 10
83.60000000000001
 20
59.68180667547151
 30
0.0
 40
6.599999999999994
 50
180.0
 51
269.9999999999998
  0
ARC
  5
2C0
  8
1
  6
CONTINUOUS
 62
     7
 10
216.4
 20
59.68180667547151
 30
0.0
 40
6.599999999999994
 50
270.0
 51
0.0
  0
LINE
  5
2C1
  8
1
  6
CONTINUOUS
 62
     7
 10
223.0
 20
59.68180667547151
 30
0.0
 11
223.0
 21
68.08180667547153
 31
0.0
  0
LINE
  5
2C2
  8
1
  6
CONTINUOUS
 62
     7
 10
77.00000000000001
 20
59.68180667547151
 30
0.0
 11
77.00000000000001
 21
68.08180667547153
 31
0.0
  0
LINE
  5
2C3
  8
1
  6
CONTINUOUS
 62
     7
 10
154.2
 20
92.28180667547153
 30
0.0
 11
154.2
 21
92.78180667547151
 31
0.0
  0
LINE
  5
2C4
  8
1
  6
CONTINUOUS
 62
     7
 10
145.8
 20
92.78180667547151
 30
0.0
 11
145.8
 21
92.28180667547153
 31
0.0
  0
LINE
  5
2C5
  8
1
  6
CONTINUOUS
 62
     7
 10
145.8
 20
92.28180667547153
 30
0.0
 11
148.0
 21
90.08180667547153
 31
0.0
  0
LINE
  5
2C6
  8
1
  6
CONTINUOUS
 62
     7
 10
152.0
 20
90.08180667547153
 30
0.0
 11
154.2
 21
92.28180667547153
 31
0.0
  0
LINE
  5
2C7
  8
1
  6
CONTINUOUS
 62
     7
 10
152.0
 20
81.13180667547152
 30
0.0
 11
152.0
 21
88.48180667547152
 31
0.0
  0
LINE
  5
2C8
  8
1
  6
CONTINUOUS
 62
     7
 10
148.0
 20
88.48180667547152
 30
0.0
 11
148.0
 21
81.13180667547152
 31
0.0
  0
LINE
  5
2C9
  8
1
  6
CONTINUOUS
 62
     7
 10
148.0
 20
81.13180667547152
 30
0.0
 11
148.35
 21
80.78180667547153
 31
0.0
  0
LINE
  5
2CA
  8
1
  6
CONTINUOUS
 62
     7
 10
151.65
 20
80.78180667547153
 30
0.0
 11
152.0
 21
81.13180667547152
 31
0.0
  0
LINE
  5
2CB
  8
1
  6
CONTINUOUS
 62
     7
 10
108.2
 20
92.28180667547153
 30
0.0
 11
108.2
 21
92.78180667547151
 31
0.0
  0
LINE
  5
2CC
  8
1
  6
CONTINUOUS
 62
     7
 10
99.79999999999997
 20
92.78180667547151
 30
0.0
 11
99.79999999999997
 21
92.28180667547153
 31
0.0
  0
LINE
  5
2CD
  8
1
  6
CONTINUOUS
 62
     7
 10
99.79999999999997
 20
92.28180667547153
 30
0.0
 11
102.0
 21
90.08180667547153
 31
0.0
  0
LINE
  5
2CE
  8
1
  6
CONTINUOUS
 62
     7
 10
106.0
 20
90.08180667547153
 30
0.0
 11
108.2
 21
92.28180667547153
 31
0.0
  0
LINE
  5
2CF
  8
1
  6
CONTINUOUS
 62
     7
 10
106.0
 20
81.13180667547152
 30
0.0
 11
106.0
 21
88.48180667547152
 31
0.0
  0
LINE
  5
2D0
  8
1
  6
CONTINUOUS
 62
     7
 10
102.0
 20
88.48180667547152
 30
0.0
 11
102.0
 21
81.13180667547152
 31
0.0
  0
LINE
  5
2D1
  8
1
  6
CONTINUOUS
 62
     7
 10
102.0
 20
81.13180667547152
 30
0.0
 11
102.35
 21
80.78180667547153
 31
0.0
  0
LINE
  5
2D2
  8
1
  6
CONTINUOUS
 62
     7
 10
105.65
 20
80.78180667547153
 30
0.0
 11
106.0
 21
81.13180667547152
 31
0.0
  0
LINE
  5
2D3
  8
1
  6
CONTINUOUS
 62
     7
 10
191.8
 20
92.28180667547153
 30
0.0
 11
193.9999999999999
 21
90.08180667547153
 31
0.0
  0
LINE
  5
2D4
  8
1
  6
CONTINUOUS
 62
     7
 10
197.9999999999999
 20
90.08180667547153
 30
0.0
 11
200.2
 21
92.28180667547153
 31
0.0
  0
LINE
  5
2D5
  8
1
  6
CONTINUOUS
 62
     7
 10
200.2
 20
92.28180667547153
 30
0.0
 11
200.2
 21
92.78180667547151
 31
0.0
  0
LINE
  5
2D6
  8
1
  6
CONTINUOUS
 62
     7
 10
191.8
 20
92.78180667547151
 30
0.0
 11
191.8
 21
92.28180667547153
 31
0.0
  0
LINE
  5
2D7
  8
1
  6
CONTINUOUS
 62
     7
 10
197.9999999999999
 20
81.13180667547152
 30
0.0
 11
197.9999999999999
 21
88.48180667547152
 31
0.0
  0
LINE
  5
2D8
  8
1
  6
CONTINUOUS
 62
     7
 10
193.9999999999999
 20
88.48180667547152
 30
0.0
 11
193.9999999999999
 21
81.13180667547152
 31
0.0
  0
LINE
  5
2D9
  8
1
  6
CONTINUOUS
 62
     7
 10
193.9999999999999
 20
81.13180667547152
 30
0.0
 11
194.35
 21
80.78180667547153
 31
0.0
  0
LINE
  5
2DA
  8
1
  6
CONTINUOUS
 62
     7
 10
197.6499999999999
 20
80.78180667547153
 30
0.0
 11
197.9999999999999
 21
81.13180667547152
 31
0.0
  0
LINE
  5
2DB
  8
1
  6
CONTINUOUS
 62
     7
 10
96.99999999999997
 20
51.23180667547153
 30
0.0
 11
96.99999999999997
 21
53.08180667547152
 31
0.0
  0
LINE
  5
2DC
  8
1
  6
CONTINUOUS
 62
     7
 10
92.99999999999997
 20
53.08180667547155
 30
0.0
 11
92.99999999999997
 21
51.23180667547153
 31
0.0
  0
LINE
  5
2DD
  8
1
  6
CONTINUOUS
 62
     7
 10
92.99999999999997
 20
51.23180667547153
 30
0.0
 11
93.34999999999997
 21
50.88180667547152
 31
0.0
  0
LINE
  5
2DE
  8
1
  6
CONTINUOUS
 62
     7
 10
96.64999999999996
 20
50.88180667547152
 30
0.0
 11
96.99999999999997
 21
51.23180667547153
 31
0.0
  0
LINE
  5
2DF
  8
1
  6
CONTINUOUS
 62
     7
 10
189.0
 20
51.23180667547153
 30
0.0
 11
189.0
 21
53.08180667547152
 31
0.0
  0
LINE
  5
2E0
  8
1
  6
CONTINUOUS
 62
     7
 10
185.0
 20
53.08180667547152
 30
0.0
 11
185.0
 21
51.23180667547153
 31
0.0
  0
LINE
  5
2E1
  8
1
  6
CONTINUOUS
 62
     7
 10
185.0
 20
51.23180667547153
 30
0.0
 11
185.35
 21
50.88180667547152
 31
0.0
  0
LINE
  5
2E2
  8
1
  6
CONTINUOUS
 62
     7
 10
188.6499999999999
 20
50.88180667547152
 30
0.0
 11
189.0
 21
51.23180667547153
 31
0.0
  0
LINE
  5
2E3
  8
1
  6
CONTINUOUS
 62
     7
 10
316.6181933245284
 20
141.3
 30
0.0
 11
316.6181933245284
 21
139.65
 31
0.0
  0
LINE
  5
2E4
  8
1
  6
CONTINUOUS
 62
     7
 10
316.6181933245284
 20
139.65
 30
0.0
 11
316.6181933245284
 21
138.0
 31
0.0
  0
LINE
  5
2E5
  8
1
  6
CONTINUOUS
 62
     7
 10
316.6181933245284
 20
227.0
 30
0.0
 11
316.6181933245284
 21
223.7
 31
0.0
  0
LINE
  5
2E6
  8
1
  6
CONTINUOUS
 62
     7
 10
279.0181933245284
 20
133.55
 30
0.0
 11
286.0181933245285
 21
135.25
 31
0.0
  0
LINE
  5
2E7
  8
1
  6
CONTINUOUS
 62
     7
 10
314.4181933245284
 20
144.15
 30
0.0
 11
314.4181933245284
 21
135.25
 31
0.0
  0
LINE
  5
2E8
  8
1
  6
CONTINUOUS
 62
     7
 10
279.0181933245284
 20
230.55
 30
0.0
 11
279.0181933245284
 21
229.8708876084861
 31
0.0
  0
LINE
  5
2E9
  8
1
  6
CONTINUOUS
 62
     7
 10
313.2181933245284
 20
229.75
 30
0.0
 11
286.0181933245284
 21
229.75
 31
0.0
  0
LINE
  5
2EA
  8
1
  6
CONTINUOUS
 62
     7
 10
314.4181933245284
 20
229.75
 30
0.0
 11
314.4181933245284
 21
220.85
 31
0.0
  0
LINE
  5
2EB
  8
1
  6
CONTINUOUS
 62
     7
 10
313.2181933245284
 20
229.75
 30
0.0
 11
314.4181933245284
 21
229.75
 31
0.0
  0
LINE
  5
2EC
  8
1
  6
CONTINUOUS
 62
     7
 10
279.0181933245284
 20
231.45
 30
0.0
 11
286.0181933245285
 21
229.75
 31
0.0
  0
LINE
  5
2ED
  8
1
  6
CONTINUOUS
 62
     7
 10
275.4181933245284
 20
187.5
 30
0.0
 11
273.8181933245285
 21
187.5
 31
0.0
  0
LINE
  5
2EE
  8
1
  6
CONTINUOUS
 62
     7
 10
273.8181933245285
 20
187.5
 30
0.0
 11
273.8181933245285
 21
188.5
 31
0.0
  0
LINE
  5
2EF
  8
1
  6
CONTINUOUS
 62
     7
 10
275.4181933245284
 20
187.5
 30
0.0
 11
275.4181933245284
 21
188.5
 31
0.0
  0
LINE
  5
2F0
  8
1
  6
CONTINUOUS
 62
     7
 10
273.8181933245285
 20
188.5
 30
0.0
 11
273.8181933245285
 21
203.0
 31
0.0
  0
LINE
  5
2F1
  8
1
  6
CONTINUOUS
 62
     7
 10
275.4181933245284
 20
188.5
 30
0.0
 11
275.4181933245284
 21
203.0
 31
0.0
  0
LINE
  5
2F2
  8
1
  6
CONTINUOUS
 62
     7
 10
275.4181933245284
 20
177.5
 30
0.0
 11
273.8181933245285
 21
177.5
 31
0.0
  0
LINE
  5
2F3
  8
1
  6
CONTINUOUS
 62
     7
 10
275.4181933245284
 20
177.5
 30
0.0
 11
275.4181933245284
 21
176.5
 31
0.0
  0
LINE
  5
2F4
  8
1
  6
CONTINUOUS
 62
     7
 10
273.8181933245285
 20
177.5
 30
0.0
 11
273.8181933245285
 21
176.5
 31
0.0
  0
LINE
  5
2F5
  8
1
  6
CONTINUOUS
 62
     7
 10
275.4181933245284
 20
176.5
 30
0.0
 11
275.4181933245284
 21
162.0
 31
0.0
  0
LINE
  5
2F6
  8
1
  6
CONTINUOUS
 62
     7
 10
273.8181933245285
 20
176.5
 30
0.0
 11
273.8181933245285
 21
162.0
 31
0.0
  0
LINE
  5
2F7
  8
1
  6
CONTINUOUS
 62
     7
 10
273.8181933245285
 20
206.0
 30
0.0
 11
273.8181933245285
 21
216.5
 31
0.0
  0
LINE
  5
2F8
  8
1
  6
CONTINUOUS
 62
     7
 10
275.4181933245284
 20
206.0
 30
0.0
 11
275.4181933245284
 21
216.5
 31
0.0
  0
LINE
  5
2F9
  8
1
  6
CONTINUOUS
 62
     7
 10
275.4181933245284
 20
159.0
 30
0.0
 11
275.4181933245284
 21
148.5
 31
0.0
  0
LINE
  5
2FA
  8
1
  6
CONTINUOUS
 62
     7
 10
273.8181933245285
 20
159.0
 30
0.0
 11
273.8181933245285
 21
148.5
 31
0.0
  0
LINE
  5
2FB
  8
1
  6
CONTINUOUS
 62
     7
 10
273.8181933245285
 20
218.5
 30
0.0
 11
273.8181933245285
 21
216.5
 31
0.0
  0
LINE
  5
2FC
  8
1
  6
CONTINUOUS
 62
     7
 10
273.8181933245285
 20
218.5
 30
0.0
 11
275.4181933245284
 21
218.5
 31
0.0
  0
LINE
  5
2FD
  8
1
  6
CONTINUOUS
 62
     7
 10
275.4181933245284
 20
218.5
 30
0.0
 11
275.4181933245284
 21
216.5
 31
0.0
  0
LINE
  5
2FE
  8
1
  6
CONTINUOUS
 62
     7
 10
273.8181933245285
 20
146.5
 30
0.0
 11
275.4181933245284
 21
146.5
 31
0.0
  0
LINE
  5
2FF
  8
1
  6
CONTINUOUS
 62
     7
 10
273.8181933245285
 20
146.5
 30
0.0
 11
273.8181933245285
 21
148.5
 31
0.0
  0
LINE
  5
300
  8
1
  6
CONTINUOUS
 62
     7
 10
275.4181933245284
 20
146.5
 30
0.0
 11
275.4181933245284
 21
148.5
 31
0.0
  0
LINE
  5
301
  8
1
  6
CONTINUOUS
 62
     7
 10
273.8181933245285
 20
159.0
 30
0.0
 11
273.8181933245285
 21
160.0
 31
0.0
  0
LINE
  5
302
  8
1
  6
CONTINUOUS
 62
     7
 10
275.4181933245284
 20
159.0
 30
0.0
 11
275.4181933245284
 21
160.0
 31
0.0
  0
LINE
  5
303
  8
1
  6
CONTINUOUS
 62
     7
 10
273.8181933245285
 20
204.0
 30
0.0
 11
273.8181933245285
 21
203.0
 31
0.0
  0
LINE
  5
304
  8
1
  6
CONTINUOUS
 62
     7
 10
275.4181933245284
 20
204.0
 30
0.0
 11
275.4181933245284
 21
203.0
 31
0.0
  0
LINE
  5
305
  8
1
  6
CONTINUOUS
 62
     7
 10
273.8181933245285
 20
161.0
 30
0.0
 11
273.8181933245285
 21
162.0
 31
0.0
  0
LINE
  5
306
  8
1
  6
CONTINUOUS
 62
     7
 10
275.4181933245284
 20
161.0
 30
0.0
 11
275.4181933245284
 21
162.0
 31
0.0
  0
LINE
  5
307
  8
1
  6
CONTINUOUS
 62
     7
 10
273.8181933245285
 20
206.0
 30
0.0
 11
273.8181933245285
 21
205.0
 31
0.0
  0
LINE
  5
308
  8
1
  6
CONTINUOUS
 62
     7
 10
275.4181933245284
 20
206.0
 30
0.0
 11
275.4181933245284
 21
205.0
 31
0.0
  0
LINE
  5
309
  8
1
  6
CONTINUOUS
 62
     7
 10
273.8181933245285
 20
204.0
 30
0.0
 11
273.8181933245285
 21
205.0
 31
0.0
  0
LINE
  5
30A
  8
1
  6
CONTINUOUS
 62
     7
 10
275.4181933245284
 20
204.0
 30
0.0
 11
275.4181933245284
 21
205.0
 31
0.0
  0
LINE
  5
30B
  8
1
  6
CONTINUOUS
 62
     7
 10
273.8181933245285
 20
161.0
 30
0.0
 11
273.8181933245285
 21
160.0
 31
0.0
  0
LINE
  5
30C
  8
1
  6
CONTINUOUS
 62
     7
 10
275.4181933245284
 20
161.0
 30
0.0
 11
275.4181933245284
 21
160.0
 31
0.0
  0
LINE
  5
30D
  8
1
  6
CONTINUOUS
 62
     7
 10
275.9181933245284
 20
158.0
 30
0.0
 11
275.9181933245284
 21
155.5
 31
0.0
  0
LINE
  5
30E
  8
1
  6
CONTINUOUS
 62
     7
 10
275.9181933245284
 20
155.5
 30
0.0
 11
275.4194513478694
 21
155.5
 31
0.0
  0
LINE
  5
30F
  8
1
  6
CONTINUOUS
 62
     7
 10
275.4194513478694
 20
155.5
 30
0.0
 11
275.4181933245284
 21
155.5
 31
0.0
  0
LINE
  5
310
  8
1
  6
CONTINUOUS
 62
     7
 10
275.9181933245284
 20
209.5
 30
0.0
 11
275.9181933245284
 21
207.0
 31
0.0
  0
LINE
  5
311
  8
1
  6
CONTINUOUS
 62
     7
 10
275.4181933245284
 20
209.5
 30
0.0
 11
275.4208958250042
 21
209.5
 31
0.0
  0
LINE
  5
312
  8
1
  6
CONTINUOUS
 62
     7
 10
275.4208958250042
 20
209.5
 30
0.0
 11
275.9181933245284
 21
209.5
 31
0.0
  0
LINE
  5
313
  8
1
  6
CONTINUOUS
 62
     7
 10
275.9181933245284
 20
207.0
 30
0.0
 11
275.9181933245284
 21
187.5
 31
0.0
  0
LINE
  5
314
  8
1
  6
CONTINUOUS
 62
     7
 10
275.4181933245284
 20
187.5
 30
0.0
 11
275.9181933245284
 21
187.5
 31
0.0
  0
LINE
  5
315
  8
1
  6
CONTINUOUS
 62
     7
 10
275.9181933245284
 20
177.5
 30
0.0
 11
275.9181933245284
 21
158.0
 31
0.0
  0
LINE
  5
316
  8
1
  6
CONTINUOUS
 62
     7
 10
275.9181933245284
 20
177.5
 30
0.0
 11
275.4181933245284
 21
177.5
 31
0.0
  0
LINE
  5
317
  8
1
  6
CONTINUOUS
 62
     7
 10
277.4181933245284
 20
209.5
 30
0.0
 11
277.4181933245284
 21
212.4
 31
0.0
  0
ARC
  5
318
  8
1
  6
CONTINUOUS
 62
     7
 10
279.0182138608998
 20
212.3999794636287
 30
0.0
 40
1.600020536503109
 50
90.00073539518814
 51
179.9992646048119
  0
LINE
  5
319
  8
1
  6
CONTINUOUS
 62
     7
 10
279.0181933245284
 20
214.0
 30
0.0
 11
283.9181933245284
 21
214.0
 31
0.0
  0
LINE
  5
31A
  8
1
  6
CONTINUOUS
 62
     7
 10
283.9181933245284
 20
214.0
 30
0.0
 11
283.9181933245284
 21
216.5955882352941
 31
0.0
  0
LINE
  5
31B
  8
1
  6
CONTINUOUS
 62
     7
 10
275.9181933245284
 20
209.5
 30
0.0
 11
277.4181933245284
 21
209.5
 31
0.0
  0
LINE
  5
31C
  8
1
  6
CONTINUOUS
 62
     7
 10
283.9181933245284
 20
151.0
 30
0.0
 11
283.9181933245284
 21
148.4044117647059
 31
0.0
  0
LINE
  5
31D
  8
1
  6
CONTINUOUS
 62
     7
 10
279.0181933245284
 20
151.0
 30
0.0
 11
283.9181933245284
 21
151.0
 31
0.0
  0
ARC
  5
31E
  8
1
  6
CONTINUOUS
 62
     7
 10
279.0182173243969
 20
152.6000239998684
 30
0.0
 40
1.600024000048412
 50
180.0008594190898
 51
269.9991405809103
  0
LINE
  5
31F
  8
1
  6
CONTINUOUS
 62
     7
 10
277.4181933245284
 20
152.6
 30
0.0
 11
277.4181933245284
 21
155.5
 31
0.0
  0
LINE
  5
320
  8
1
  6
CONTINUOUS
 62
     7
 10
277.4181933245284
 20
155.5
 30
0.0
 11
275.9181933245284
 21
155.5
 31
0.0
  0
ARC
  5
321
  8
1
  6
CONTINUOUS
 62
     7
 10
276.9181933245284
 20
178.0
 30
0.0
 40
0.5000000000000004
 50
269.9999999999998
 51
359.9999999999998
  0
LINE
  5
322
  8
1
  6
CONTINUOUS
 62
     7
 10
277.4181933245284
 20
187.0
 30
0.0
 11
277.4181933245284
 21
178.0
 31
0.0
  0
ARC
  5
323
  8
1
  6
CONTINUOUS
 62
     7
 10
276.9181933245284
 20
187.0
 30
0.0
 40
0.5000000000000004
 50
0.0
 51
90.00000000000016
  0
LINE
  5
324
  8
1
  6
CONTINUOUS
 62
     7
 10
275.9181933245284
 20
187.5
 30
0.0
 11
276.9181933245284
 21
187.5
 31
0.0
  0
LINE
  5
325
  8
1
  6
CONTINUOUS
 62
     7
 10
275.9181933245284
 20
177.5
 30
0.0
 11
276.9181933245284
 21
177.5
 31
0.0
  0
LINE
  5
326
  8
1
  6
CONTINUOUS
 62
     7
 10
314.4181933245284
 20
199.6124796407116
 30
0.0
 11
314.4181933245284
 21
165.3875203592883
 31
0.0
  0
LINE
  5
327
  8
1
  6
CONTINUOUS
 62
     7
 10
314.4181933245284
 20
165.3875203592883
 30
0.0
 11
314.4181933245284
 21
158.4529577566924
 31
0.0
  0
LINE
  5
328
  8
1
  6
CONTINUOUS
 62
     7
 10
314.4181933245284
 20
206.5470422433076
 30
0.0
 11
314.4181933245284
 21
199.6124796407116
 31
0.0
  0
LINE
  5
329
  8
1
  6
CONTINUOUS
 62
     7
 10
314.4181933245284
 20
213.8364642676291
 30
0.0
 11
314.4181933245284
 21
206.5470422433076
 31
0.0
  0
LINE
  5
32A
  8
1
  6
CONTINUOUS
 62
     7
 10
314.4181933245284
 20
158.4529577566924
 30
0.0
 11
314.4181933245284
 21
151.1635357323707
 31
0.0
  0
LINE
  5
32B
  8
1
  6
CONTINUOUS
 62
     7
 10
283.9181933245284
 20
216.5955882352941
 30
0.0
 11
283.9181933245284
 21
220.85
 31
0.0
  0
LINE
  5
32C
  8
1
  6
CONTINUOUS
 62
     7
 10
283.9181933245284
 20
148.4044117647059
 30
0.0
 11
283.9181933245284
 21
144.15
 31
0.0
  0
LINE
  5
32D
  8
1
  6
CONTINUOUS
 62
     7
 10
314.4181933245284
 20
151.1635357323707
 30
0.0
 11
314.4181933245284
 21
150.7499999999999
 31
0.0
  0
ARC
  5
32E
  8
1
  6
CONTINUOUS
 62
     7
 10
307.8181933245284
 20
150.75
 30
0.0
 40
6.599999999999994
 50
270.0
 51
359.9999999999996
  0
ARC
  5
32F
  8
1
  6
CONTINUOUS
 62
     7
 10
307.8181933245285
 20
214.2500000000001
 30
0.0
 40
6.599999999999939
 50
359.9999999999996
 51
90.0000000000005
  0
LINE
  5
330
  8
1
  6
CONTINUOUS
 62
     7
 10
314.4181933245285
 20
214.2499999999998
 30
0.0
 11
314.4181933245284
 21
213.8364642676293
 31
0.0
  0
LINE
  5
331
  8
1
  6
CONTINUOUS
 62
     7
 10
279.0181933245284
 20
231.5
 30
0.0
 11
277.4181933245284
 21
231.5
 31
0.0
  0
LINE
  5
332
  8
1
  6
CONTINUOUS
 62
     7
 10
279.0181933245284
 20
231.5
 30
0.0
 11
279.0181933245284
 21
230.5500000000001
 31
0.0
  0
LINE
  5
333
  8
1
  6
CONTINUOUS
 62
     7
 10
279.0181933245284
 20
229.8708876084861
 30
0.0
 11
279.0181933245284
 21
228.7485631709317
 31
0.0
  0
LINE
  5
334
  8
1
  6
CONTINUOUS
 62
     7
 10
277.4181933245284
 20
231.5
 30
0.0
 11
277.4181933245284
 21
228.7485631709317
 31
0.0
  0
LINE
  5
335
  8
1
  6
CONTINUOUS
 62
     7
 10
277.4181933245284
 20
221.85
 30
0.0
 11
277.4181933245284
 21
228.7485631709317
 31
0.0
  0
LINE
  5
336
  8
1
  6
CONTINUOUS
 62
     7
 10
279.0181933245284
 20
221.85
 30
0.0
 11
279.0181933245284
 21
228.7485631709317
 31
0.0
  0
ARC
  5
337
  8
1
  6
CONTINUOUS
 62
     7
 10
280.0181933245284
 20
221.85
 30
0.0
 40
1.000000000000001
 50
180.0
 51
270.0
  0
LINE
  5
338
  8
1
  6
CONTINUOUS
 62
     7
 10
283.9181933245284
 20
219.25
 30
0.0
 11
280.0181933245284
 21
219.25
 31
0.0
  0
ARC
  5
339
  8
1
  6
CONTINUOUS
 62
     7
 10
280.0181933245284
 20
143.15
 30
0.0
 40
1.000000000000001
 50
90.0
 51
180.0
  0
LINE
  5
33A
  8
1
  6
CONTINUOUS
 62
     7
 10
279.0181933245284
 20
136.2514368290683
 30
0.0
 11
279.0181933245284
 21
143.15
 31
0.0
  0
LINE
  5
33B
  8
1
  6
CONTINUOUS
 62
     7
 10
277.4181933245284
 20
136.2514368290683
 30
0.0
 11
277.4181933245284
 21
143.15
 31
0.0
  0
LINE
  5
33C
  8
1
  6
CONTINUOUS
 62
     7
 10
280.0181933245284
 20
145.75
 30
0.0
 11
283.9181933245284
 21
145.75
 31
0.0
  0
LINE
  5
33D
  8
1
  6
CONTINUOUS
 62
     7
 10
277.4181933245284
 20
133.4999999999999
 30
0.0
 11
279.0181933245284
 21
133.5
 31
0.0
  0
LINE
  5
33E
  8
1
  6
CONTINUOUS
 62
     7
 10
277.4181933245284
 20
133.4999999999999
 30
0.0
 11
277.4181933245284
 21
136.2514368290683
 31
0.0
  0
LINE
  5
33F
  8
1
  6
CONTINUOUS
 62
     7
 10
279.0181933245284
 20
133.4999999999999
 30
0.0
 11
279.0181933245284
 21
136.2514368290682
 31
0.0
  0
LINE
  5
340
  8
1
  6
CONTINUOUS
 62
     7
 10
277.4181933245284
 20
221.85
 30
0.0
 11
277.4181933245284
 21
220.7154764940142
 31
0.0
  0
LINE
  5
341
  8
1
  6
CONTINUOUS
 62
     7
 10
277.4181933245284
 20
144.2845235059858
 30
0.0
 11
277.4181933245284
 21
143.15
 31
0.0
  0
LINE
  5
342
  8
1
  6
CONTINUOUS
 62
     7
 10
316.2681933245285
 20
141.65
 30
0.0
 11
314.4181933245284
 21
141.65
 31
0.0
  0
LINE
  5
343
  8
1
  6
CONTINUOUS
 62
     7
 10
314.4181933245284
 20
137.65
 30
0.0
 11
316.2681933245285
 21
137.65
 31
0.0
  0
LINE
  5
344
  8
1
  6
CONTINUOUS
 62
     7
 10
316.2681933245285
 20
137.65
 30
0.0
 11
316.6181933245284
 21
138.0
 31
0.0
  0
LINE
  5
345
  8
1
  6
CONTINUOUS
 62
     7
 10
316.6181933245284
 20
141.3
 30
0.0
 11
316.2681933245285
 21
141.65
 31
0.0
  0
LINE
  5
346
  8
1
  6
CONTINUOUS
 62
     7
 10
316.2681933245285
 20
227.35
 30
0.0
 11
314.4181933245284
 21
227.35
 31
0.0
  0
LINE
  5
347
  8
1
  6
CONTINUOUS
 62
     7
 10
314.4181933245284
 20
223.35
 30
0.0
 11
316.2681933245285
 21
223.35
 31
0.0
  0
LINE
  5
348
  8
1
  6
CONTINUOUS
 62
     7
 10
316.2681933245285
 20
223.35
 30
0.0
 11
316.6181933245284
 21
223.7
 31
0.0
  0
LINE
  5
349
  8
1
  6
CONTINUOUS
 62
     7
 10
316.6181933245284
 20
227.0
 30
0.0
 11
316.2681933245285
 21
227.35
 31
0.0
  0
ARC
  5
34A
  8
1
  6
CONTINUOUS
 62
     7
 10
279.757607014829
 20
221.85
 30
0.0
 40
2.60000000000002
 50
205.8715584082986
 51
270.0
  0
ARC
  5
34B
  8
1
  6
CONTINUOUS
 62
     7
 10
279.757607014829
 20
143.15
 30
0.0
 40
2.599999999999991
 50
90.0
 51
154.1284415917014
  0
LINE
  5
34C
  8
0
  6
CENTER
 62
     1
 10
63.99999999999999
 20
182.5
 30
0.0
 11
236.0
 21
182.5
 31
0.0
  0
LINE
  5
34E
  8
0
  6
CENTER
 62
     1
 10
263.8181933245283
 20
182.5
 30
0.0
 11
324.4181933245282
 21
182.5
 31
0.0
  0
LINE
  5
34F
  8
0
  6
CENTER
 62
     1
 10
150.0
 20
123.5
 30
0.0
 11
150.0
 21
241.5000000000001
 31
0.0
  0
LINE
  5
350
  8
0
  6
CENTER
 62
     1
 10
150.0
 20
43.08180667547152
 30
0.0
 11
150.0
 21
102.7818066754715
 31
0.0
  0
TEXT
  5
351
  8
1
  6
CONTINUOUS
 62
     7
 10
277.5477991746905
 20
78.37886082280856
 30
0.0
 40
10.0
  1
SBP-3FG
  0
ENDSEC
  0
EOF
