  0
SECTION
  2
HEADER
  9
$ACADVER
  1
AC1004
  9
$INSBASE
 10
0.0
 20
0.0
  9
$EXTMIN
 10
0.0
 20
0.0
  9
$EXTMAX
 10
280.0681818181818
 20
192.0500000000002
  9
$LIMMIN
 10
0.0
 20
0.0
  9
$LIMMAX
 10
12.0
 20
9.0
  9
$ORTHOMODE
 70
     0
  9
$REGENMODE
 70
     1
  9
$FILLMODE
 70
     1
  9
$QTEXTMODE
 70
     0
  9
$DRAGMODE
 70
     2
  9
$LTSCALE
 40
1.0
  9
$OSMODE
 70
    37
  9
$ATTMODE
 70
     1
  9
$TEXTSIZE
 40
0.2
  9
$TRACEWID
 40
0.05
  9
$TEXTSTYLE
  7
STANDARD
  9
$CLAYER
  8
0
  9
$CELTYPE
  6
BYLAYER
  9
$CECOLOR
 62
   256
  9
$DIMSCALE
 40
1.0
  9
$DIMASZ
 40
3.0
  9
$DIMEXO
 40
0.0625
  9
$DIMDLI
 40
0.38
  9
$DIMRND
 40
0.0
  9
$DIMDLE
 40
0.0
  9
$DIMEXE
 40
1.5
  9
$DIMTP
 40
0.0
  9
$DIMTM
 40
0.0
  9
$DIMTXT
 40
3.0
  9
$DIMCEN
 40
0.09
  9
$DIMTSZ
 40
0.0
  9
$DIMTOL
 70
     0
  9
$DIMLIM
 70
     0
  9
$DIMTIH
 70
     1
  9
$DIMTOH
 70
     1
  9
$DIMSE1
 70
     0
  9
$DIMSE2
 70
     0
  9
$DIMTAD
 70
     1
  9
$DIMZIN
 70
     0
  9
$DIMBLK
  1

  9
$DIMASO
 70
     1
  9
$DIMSHO
 70
     1
  9
$DIMPOST
  1

  9
$DIMAPOST
  1

  9
$DIMALT
 70
     0
  9
$DIMALTD
 70
     2
  9
$DIMALTF
 40
25.4
  9
$DIMLFAC
 40
1.0
  9
$DIMTOFL
 70
     0
  9
$DIMTVP
 40
0.0
  9
$DIMTIX
 70
     0
  9
$DIMSOXD
 70
     0
  9
$DIMSAH
 70
     0
  9
$DIMBLK1
  1

  9
$DIMBLK2
  1

  9
$LUNITS
 70
     2
  9
$LUPREC
 70
     4
  9
$SKETCHINC
 40
0.1
  9
$FILLETRAD
 40
0.5
  9
$AUNITS
 70
     0
  9
$AUPREC
 70
     0
  9
$MENU
  1
.
  9
$ELEVATION
 40
0.0
  9
$THICKNESS
 40
0.0
  9
$LIMCHECK
 70
     0
  9
$CHAMFERA
 40
0.0
  9
$CHAMFERB
 40
0.0
  9
$SKPOLY
 70
     0
  9
$TDCREATE
 40
2460293.466522083
  9
$TDUPDATE
 40
2460293.466526528
  9
$TDINDWG
 40
0.0000000116
  9
$TDUSRTIMER
 40
0.0000000116
  9
$USRTIMER
 70
     1
  9
$ANGBASE
 50
0.0
  9
$ANGDIR
 70
     0
  9
$PDMODE
 70
     0
  9
$PDSIZE
 40
0.0
  9
$PLINEWID
 40
0.0
  9
$COORDS
 70
     1
  9
$SPLFRAME
 70
     0
  9
$SPLINETYPE
 70
     6
  9
$SPLINESEGS
 70
     8
  9
$ATTDIA
 70
     0
  9
$ATTREQ
 70
     1
  9
$SURFTAB1
 70
     6
  9
$SURFTAB2
 70
     6
  9
$SURFTYPE
 70
     6
  9
$SURFU
 70
     6
  9
$SURFV
 70
     6
  9
$UCSNAME
  2

  9
$UCSORG
 10
0.0
 20
0.0
 30
0.0
  9
$UCSXDIR
 10
1.0
 20
0.0
 30
0.0
  9
$UCSYDIR
 10
0.0
 20
1.0
 30
0.0
  9
$USERI1
 70
     0
  9
$USERI2
 70
     0
  9
$USERI3
 70
     0
  9
$USERI4
 70
     0
  9
$USERI5
 70
     0
  9
$USERR1
 40
0.0
  9
$USERR2
 40
0.0
  9
$USERR3
 40
0.0
  9
$USERR4
 40
0.0
  9
$USERR5
 40
0.0
  9
$WORLDVIEW
 70
     1
  0
ENDSEC
  0
SECTION
  2
TABLES
  0
TABLE
  2
LTYPE
 70
     1
  0
LTYPE
  2
CONTINUOUS
 70
     0
  3
Solid line
 72
    65
 73
     0
 40
0.0
  0
ENDTAB
  0
TABLE
  2
LAYER
 70
     3
  0
LAYER
  2
0
 70
     0
 62
     7
  6
CONTINUOUS
  0
LAYER
  2
図面枠
 70
     0
 62
     7
  6
CONTINUOUS
  0
LAYER
  2
1
 70
     0
 62
     7
  6
CONTINUOUS
  0
ENDTAB
  0
TABLE
  2
STYLE
 70
     2
  0
STYLE
  2
STANDARD
 70
     0
 40
0.0
 41
1.0
 50
0.0
 71
     0
 42
0.2
  3
txt
  4

  0
STYLE
  2
ＭＳ_ゴシック
 70
     0
 40
0.0
 41
1.0
 50
0.0
 71
     0
 42
0.2
  3
ＭＳ ゴシック.shx
  4

  0
ENDTAB
  0
TABLE
  2
VIEW
 70
     0
  0
ENDTAB
  0
ENDSEC
  0
SECTION
  2
BLOCKS
  0
BLOCK
  8
0
  2
D_FRAME_VIEW_5686
 70
     0
 10
0.0
 20
0.0
  0
LINE
  8
1
  6
CONTINUOUS
 62
     7
 10
39.30194701887451
 20
104.7
 11
38.77082323963693
 21
104.7
  0
LINE
  8
1
  6
CONTINUOUS
 62
     7
 10
57.43307079811205
 20
104.7
 11
56.90194701887452
 21
104.7
  0
LINE
  8
1
  6
CONTINUOUS
 62
     7
 10
73.10194701887451
 20
95.67911239151371
 11
73.10194701887451
 21
94.99999999999999
  0
LINE
  8
1
  6
CONTINUOUS
 62
     7
 10
28.90194701887449
 20
104.7
 11
30.50194701887449
 21
104.7
  0
LINE
  8
1
  6
CONTINUOUS
 62
     7
 10
28.90194701887449
 20
95.8
 11
66.10194701887451
 21
95.8
  0
LINE
  8
1
  6
CONTINUOUS
 62
     7
 10
27.70194701887452
 20
95.8
 11
27.70194701887452
 21
104.7
  0
LINE
  8
1
  6
CONTINUOUS
 62
     7
 10
27.70194701887452
 20
104.7
 11
28.90194701887449
 21
104.7
  0
LINE
  8
1
  6
CONTINUOUS
 62
     7
 10
28.90194701887449
 20
95.8
 11
27.70194701887452
 21
95.8
  0
LINE
  8
1
  6
CONTINUOUS
 62
     7
 10
66.10194701887445
 20
95.8
 11
73.10194701887445
 21
94.1
  0
LINE
  8
1
  6
CONTINUOUS
 62
     7
 10
66.10194701887445
 20
190.3
 11
73.10194701887445
 21
192.0
  0
LINE
  8
1
  6
CONTINUOUS
 62
     7
 10
27.70194701887452
 20
181.4
 11
27.70194701887452
 21
190.3
  0
LINE
  8
1
  6
CONTINUOUS
 62
     7
 10
28.90194701887449
 20
181.4
 11
27.70194701887452
 21
181.4
  0
LINE
  8
1
  6
CONTINUOUS
 62
     7
 10
29.70194701887452
 20
181.4
 11
28.90194701887449
 21
181.4
  0
LINE
  8
1
  6
CONTINUOUS
 62
     7
 10
76.7019470188745
 20
148.0500000000001
 11
78.3019470188745
 21
148.0500000000001
  0
LINE
  8
1
  6
CONTINUOUS
 62
     7
 10
78.3019470188745
 20
149.0500000000001
 11
78.3019470188745
 21
148.0500000000001
  0
LINE
  8
1
  6
CONTINUOUS
 62
     7
 10
76.7019470188745
 20
149.0500000000001
 11
76.7019470188745
 21
148.0500000000001
  0
LINE
  8
1
  6
CONTINUOUS
 62
     7
 10
76.7019470188745
 20
122.5499999999999
 11
76.7019470188745
 21
137.0499999999999
  0
LINE
  8
1
  6
CONTINUOUS
 62
     7
 10
78.3019470188745
 20
122.5499999999999
 11
78.3019470188745
 21
137.0499999999999
  0
LINE
  8
1
  6
CONTINUOUS
 62
     7
 10
78.3019470188745
 20
163.55
 11
78.3019470188745
 21
149.0500000000001
  0
LINE
  8
1
  6
CONTINUOUS
 62
     7
 10
76.7019470188745
 20
163.55
 11
76.7019470188745
 21
149.0500000000001
  0
LINE
  8
1
  6
CONTINUOUS
 62
     7
 10
76.7019470188745
 20
137.0499999999999
 11
76.7019470188745
 21
138.0499999999999
  0
LINE
  8
1
  6
CONTINUOUS
 62
     7
 10
76.7019470188745
 20
138.0499999999999
 11
78.3019470188745
 21
138.0499999999999
  0
LINE
  8
1
  6
CONTINUOUS
 62
     7
 10
78.3019470188745
 20
137.0499999999999
 11
78.3019470188745
 21
138.0499999999999
  0
LINE
  8
1
  6
CONTINUOUS
 62
     7
 10
78.3019470188745
 20
177.05
 11
78.3019470188745
 21
166.55
  0
LINE
  8
1
  6
CONTINUOUS
 62
     7
 10
76.7019470188745
 20
177.05
 11
76.7019470188745
 21
166.55
  0
LINE
  8
1
  6
CONTINUOUS
 62
     7
 10
76.7019470188745
 20
179.05
 11
78.3019470188745
 21
179.05
  0
LINE
  8
1
  6
CONTINUOUS
 62
     7
 10
78.3019470188745
 20
179.05
 11
78.3019470188745
 21
177.05
  0
LINE
  8
1
  6
CONTINUOUS
 62
     7
 10
76.7019470188745
 20
179.05
 11
76.7019470188745
 21
177.05
  0
LINE
  8
1
  6
CONTINUOUS
 62
     7
 10
76.7019470188745
 20
109.0499999999999
 11
76.7019470188745
 21
119.5499999999999
  0
LINE
  8
1
  6
CONTINUOUS
 62
     7
 10
78.3019470188745
 20
109.0499999999999
 11
78.3019470188745
 21
119.5499999999999
  0
LINE
  8
1
  6
CONTINUOUS
 62
     7
 10
76.7019470188745
 20
107.0499999999999
 11
78.3019470188745
 21
107.0499999999999
  0
LINE
  8
1
  6
CONTINUOUS
 62
     7
 10
76.7019470188745
 20
107.0499999999999
 11
76.7019470188745
 21
109.0499999999999
  0
LINE
  8
1
  6
CONTINUOUS
 62
     7
 10
78.3019470188745
 20
107.0499999999999
 11
78.3019470188745
 21
109.0499999999999
  0
LINE
  8
1
  6
CONTINUOUS
 62
     7
 10
78.3019470188745
 20
163.55
 11
78.3019470188745
 21
164.55
  0
LINE
  8
1
  6
CONTINUOUS
 62
     7
 10
76.7019470188745
 20
163.55
 11
76.7019470188745
 21
164.55
  0
LINE
  8
1
  6
CONTINUOUS
 62
     7
 10
78.3019470188745
 20
165.55
 11
78.3019470188745
 21
166.55
  0
LINE
  8
1
  6
CONTINUOUS
 62
     7
 10
76.7019470188745
 20
165.55
 11
76.7019470188745
 21
166.55
  0
LINE
  8
1
  6
CONTINUOUS
 62
     7
 10
76.7019470188745
 20
122.5499999999999
 11
76.7019470188745
 21
121.5499999999999
  0
LINE
  8
1
  6
CONTINUOUS
 62
     7
 10
78.3019470188745
 20
122.5499999999999
 11
78.3019470188745
 21
121.5499999999999
  0
LINE
  8
1
  6
CONTINUOUS
 62
     7
 10
76.7019470188745
 20
120.5499999999999
 11
76.7019470188745
 21
119.5499999999999
  0
LINE
  8
1
  6
CONTINUOUS
 62
     7
 10
78.3019470188745
 20
120.5499999999999
 11
78.3019470188745
 21
119.5499999999999
  0
LINE
  8
1
  6
CONTINUOUS
 62
     7
 10
76.7019470188745
 20
120.5499999999999
 11
76.7019470188745
 21
121.5499999999999
  0
LINE
  8
1
  6
CONTINUOUS
 62
     7
 10
78.3019470188745
 20
120.5499999999999
 11
78.3019470188745
 21
121.5499999999999
  0
LINE
  8
1
  6
CONTINUOUS
 62
     7
 10
78.3019470188745
 20
165.55
 11
78.3019470188745
 21
164.55
  0
LINE
  8
1
  6
CONTINUOUS
 62
     7
 10
76.7019470188745
 20
165.55
 11
76.7019470188745
 21
164.55
  0
LINE
  8
1
  6
CONTINUOUS
 62
     7
 10
76.7019470188745
 20
116.05
 11
76.69923579575993
 21
116.05
  0
LINE
  8
1
  6
CONTINUOUS
 62
     7
 10
76.69923579575993
 20
116.05
 11
76.2019470188745
 21
116.05
  0
LINE
  8
1
  6
CONTINUOUS
 62
     7
 10
76.2019470188745
 20
170.05
 11
76.69967469268084
 21
170.05
  0
LINE
  8
1
  6
CONTINUOUS
 62
     7
 10
76.69967469268084
 20
170.05
 11
76.7019470188745
 21
170.05
  0
LINE
  8
1
  6
CONTINUOUS
 62
     7
 10
76.7019470188745
 20
138.0499999999999
 11
76.2019470188745
 21
138.0499999999999
  0
LINE
  8
1
  6
CONTINUOUS
 62
     7
 10
76.2019470188745
 20
148.0500000000001
 11
76.7019470188745
 21
148.0500000000001
  0
LINE
  8
1
  6
CONTINUOUS
 62
     7
 10
73.7019470188745
 20
139.6499999999999
 11
73.7019470188745
 21
146.45
  0
ARC
  8
1
  6
CONTINUOUS
 62
     7
 10
75.30194701887449
 20
139.6499999999999
 40
1.59999999999999
 50
180.0
 51
270.0
  0
ARC
  8
1
  6
CONTINUOUS
 62
     7
 10
75.30194701887449
 20
146.4500000000001
 40
1.59999999999999
 50
90.0
 51
180.0000000000001
  0
LINE
  8
1
  6
CONTINUOUS
 62
     7
 10
76.2019470188745
 20
138.0499999999999
 11
75.30194701887449
 21
138.0499999999999
  0
LINE
  8
1
  6
CONTINUOUS
 62
     7
 10
76.2019470188745
 20
148.0500000000001
 11
75.30194701887449
 21
148.0500000000001
  0
LINE
  8
1
  6
CONTINUOUS
 62
     7
 10
68.20194701887449
 20
174.55
 11
68.20194701887449
 21
176.1459459459459
  0
LINE
  8
1
  6
CONTINUOUS
 62
     7
 10
73.10194701887451
 20
174.55
 11
68.20194701887449
 21
174.55
  0
ARC
  8
1
  6
CONTINUOUS
 62
     7
 10
73.101922737137
 20
172.9499757182625
 40
1.600024281921748
 50
0.0008695124792203
 51
89.9991304875218
  0
LINE
  8
1
  6
CONTINUOUS
 62
     7
 10
74.7019470188745
 20
170.05
 11
74.7019470188745
 21
172.9499999999999
  0
LINE
  8
1
  6
CONTINUOUS
 62
     7
 10
76.2019470188745
 20
170.05
 11
74.7019470188745
 21
170.05
  0
LINE
  8
1
  6
CONTINUOUS
 62
     7
 10
27.70194701887452
 20
119.05
 11
27.70194701887452
 21
167.05
  0
LINE
  8
1
  6
CONTINUOUS
 62
     7
 10
68.20194701887449
 20
111.55
 11
68.20194701887449
 21
109.9540540540541
  0
LINE
  8
1
  6
CONTINUOUS
 62
     7
 10
74.7019470188745
 20
116.05
 11
74.7019470188745
 21
113.15
  0
ARC
  8
1
  6
CONTINUOUS
 62
     7
 10
73.1019269382524
 20
113.1500200806221
 40
1.600020080748108
 50
270.0007190752858
 51
359.9992809247147
  0
LINE
  8
1
  6
CONTINUOUS
 62
     7
 10
73.10194701887451
 20
111.55
 11
68.20194701887449
 21
111.55
  0
LINE
  8
1
  6
CONTINUOUS
 62
     7
 10
76.2019470188745
 20
116.05
 11
74.7019470188745
 21
116.05
  0
LINE
  8
1
  6
CONTINUOUS
 62
     7
 10
27.70194701887452
 20
113.3
 11
27.70194701887452
 21
119.05
  0
LINE
  8
1
  6
CONTINUOUS
 62
     7
 10
27.70194701887452
 20
167.05
 11
27.70194701887452
 21
172.8
  0
LINE
  8
1
  6
CONTINUOUS
 62
     7
 10
68.20194701887449
 20
181.3999999999999
 11
68.20194701887449
 21
176.1459459459459
  0
LINE
  8
1
  6
CONTINUOUS
 62
     7
 10
36.30194701887451
 20
104.7
 11
38.77082323963693
 21
104.7
  0
LINE
  8
1
  6
CONTINUOUS
 62
     7
 10
57.43307079811205
 20
104.7
 11
68.20194701887449
 21
104.7
  0
LINE
  8
1
  6
CONTINUOUS
 62
     7
 10
68.20194701887449
 20
109.954054054054
 11
68.20194701887449
 21
104.7
  0
LINE
  8
1
  6
CONTINUOUS
 62
     7
 10
73.10194701887451
 20
103.7
 11
73.10194701887451
 21
96.80143682906824
  0
ARC
  8
1
  6
CONTINUOUS
 62
     7
 10
72.10194701887451
 20
103.7
 40
1.000000000000001
 50
0.0000000000003979
 51
90.0
  0
LINE
  8
1
  6
CONTINUOUS
 62
     7
 10
74.7019470188745
 20
103.7
 11
74.7019470188745
 21
96.8014368290683
  0
LINE
  8
1
  6
CONTINUOUS
 62
     7
 10
72.10194701887451
 20
104.7
 11
68.20194701887449
 21
104.7
  0
LINE
  8
1
  6
CONTINUOUS
 62
     7
 10
72.10194701887451
 20
106.3
 11
68.20194701887449
 21
106.3
  0
ARC
  8
1
  6
CONTINUOUS
 62
     7
 10
72.10194701887451
 20
182.4
 40
1.000000000000001
 50
270.0
 51
0.0
  0
LINE
  8
1
  6
CONTINUOUS
 62
     7
 10
73.10194701887451
 20
189.2985631709317
 11
73.10194701887451
 21
182.4
  0
LINE
  8
1
  6
CONTINUOUS
 62
     7
 10
74.7019470188745
 20
189.2985631709317
 11
74.7019470188745
 21
182.4
  0
LINE
  8
1
  6
CONTINUOUS
 62
     7
 10
68.20194701887449
 20
181.4
 11
72.10194701887451
 21
181.4
  0
LINE
  8
1
  6
CONTINUOUS
 62
     7
 10
68.20194701887449
 20
179.8
 11
72.10194701887451
 21
179.8
  0
LINE
  8
1
  6
CONTINUOUS
 62
     7
 10
73.10194701887451
 20
94.04999999999981
 11
74.7019470188745
 21
94.04999999999981
  0
LINE
  8
1
  6
CONTINUOUS
 62
     7
 10
73.10194701887451
 20
94.04999999999991
 11
73.10194701887451
 21
95.0000000000001
  0
LINE
  8
1
  6
CONTINUOUS
 62
     7
 10
73.10194701887451
 20
95.6791123915138
 11
73.10194701887451
 21
96.80143682906834
  0
LINE
  8
1
  6
CONTINUOUS
 62
     7
 10
74.7019470188745
 20
94.04999999999991
 11
74.7019470188745
 21
96.80143682906834
  0
LINE
  8
1
  6
CONTINUOUS
 62
     7
 10
73.10194701887451
 20
192.0500000000002
 11
74.7019470188745
 21
192.0500000000002
  0
LINE
  8
1
  6
CONTINUOUS
 62
     7
 10
73.10194701887451
 20
192.05
 11
73.10194701887451
 21
189.2985631709317
  0
LINE
  8
1
  6
CONTINUOUS
 62
     7
 10
74.7019470188745
 20
192.05
 11
74.7019470188745
 21
189.2985631709316
  0
LINE
  8
1
  6
CONTINUOUS
 62
     7
 10
74.7019470188745
 20
103.7
 11
74.7019470188745
 21
104.8345235059857
  0
LINE
  8
1
  6
CONTINUOUS
 62
     7
 10
74.7019470188745
 20
181.2654764940143
 11
74.7019470188745
 21
182.4
  0
ARC
  8
1
  6
CONTINUOUS
 62
     7
 10
36.26052500880839
 20
113.3180006059421
 40
8.558596919565423
 50
180.1205056762493
 51
270.2773019507098
  0
ARC
  8
1
  6
CONTINUOUS
 62
     7
 10
36.26137427806575
 20
172.781144207714
 40
8.559448028131769
 50
89.72841058099252
 51
179.8737817920487
  0
ARC
  8
1
  6
CONTINUOUS
 62
     7
 10
72.36253332857389
 20
103.7
 40
2.60000000000002
 50
25.87155840829907
 51
90.0
  0
ARC
  8
1
  6
CONTINUOUS
 62
     7
 10
72.36253332857389
 20
182.4
 40
2.599999999999991
 50
270.0
 51
334.1284415917013
  0
ENDBLK
  8
0
  0
BLOCK
  8
0
  2
D_FRAME_VIEW_6057
 70
     0
 10
0.0
 20
0.0
  0
LINE
  8
1
  6
CONTINUOUS
 62
     7
 10
221.5031942820899
 20
65.90194701887454
 11
244.1968057179103
 21
65.90194701887454
  0
LINE
  8
1
  6
CONTINUOUS
 62
     7
 10
216.85
 20
64.30194701887454
 11
216.8500000000001
 21
65.90194701887454
  0
LINE
  8
1
  6
CONTINUOUS
 62
     7
 10
216.8500000000001
 20
65.90194701887454
 11
221.5031942820899
 21
65.90194701887454
  0
LINE
  8
1
  6
CONTINUOUS
 62
     7
 10
248.85
 20
64.30194701887454
 11
248.85
 21
65.90194701887454
  0
LINE
  8
1
  6
CONTINUOUS
 62
     7
 10
244.1968057179103
 20
65.90194701887454
 11
248.85
 21
65.90194701887454
  0
LINE
  8
1
  6
CONTINUOUS
 62
     7
 10
124.8499999999999
 20
65.90194701887454
 11
124.85
 21
64.30194701887454
  0
LINE
  8
1
  6
CONTINUOUS
 62
     7
 10
129.5031942820897
 20
65.90194701887454
 11
124.85
 21
65.90194701887454
  0
LINE
  8
1
  6
CONTINUOUS
 62
     7
 10
152.1968057179101
 20
65.90194701887454
 11
129.5031942820896
 21
65.90194701887454
  0
LINE
  8
1
  6
CONTINUOUS
 62
     7
 10
156.8499999999999
 20
65.90194701887454
 11
156.8499999999999
 21
64.30194701887454
  0
LINE
  8
1
  6
CONTINUOUS
 62
     7
 10
156.8499999999998
 20
65.90194701887454
 11
152.19680571791
 21
65.90194701887454
  0
LINE
  8
1
  6
CONTINUOUS
 62
     7
 10
156.8499999999999
 20
64.30194701887454
 11
152.19680571791
 21
64.30194701887454
  0
LINE
  8
1
  6
CONTINUOUS
 62
     7
 10
175.5031942820897
 20
65.90194701887454
 11
170.8499999999999
 21
65.90194701887454
  0
LINE
  8
1
  6
CONTINUOUS
 62
     7
 10
175.5031942820897
 20
64.30194701887456
 11
170.8499999999999
 21
64.30194701887456
  0
LINE
  8
1
  6
CONTINUOUS
 62
     7
 10
170.8499999999999
 20
64.30194701887456
 11
170.8499999999999
 21
65.90194701887454
  0
LINE
  8
1
  6
CONTINUOUS
 62
     7
 10
198.1968057179102
 20
65.90194701887454
 11
175.5031942820897
 21
65.90194701887454
  0
LINE
  8
1
  6
CONTINUOUS
 62
     7
 10
198.1968057179102
 20
64.30194701887456
 11
175.5031942820897
 21
64.30194701887456
  0
LINE
  8
1
  6
CONTINUOUS
 62
     7
 10
202.85
 20
65.90194701887454
 11
202.85
 21
64.30194701887456
  0
LINE
  8
1
  6
CONTINUOUS
 62
     7
 10
202.85
 20
65.90194701887454
 11
198.1968057179102
 21
65.90194701887454
  0
LINE
  8
1
  6
CONTINUOUS
 62
     7
 10
202.85
 20
64.30194701887456
 11
198.1968057179102
 21
64.30194701887456
  0
LINE
  8
1
  6
CONTINUOUS
 62
     7
 10
216.85
 20
63.30194701887454
 11
216.85
 21
64.30194701887456
  0
LINE
  8
1
  6
CONTINUOUS
 62
     7
 10
248.85
 20
63.30194701887455
 11
248.85
 21
64.30194701887456
  0
LINE
  8
1
  6
CONTINUOUS
 62
     7
 10
156.8499999999999
 20
64.30194701887456
 11
156.8499999999999
 21
63.30194701887454
  0
LINE
  8
1
  6
CONTINUOUS
 62
     7
 10
124.8499999999999
 20
64.30194701887456
 11
124.8499999999999
 21
63.30194701887455
  0
LINE
  8
1
  6
CONTINUOUS
 62
     7
 10
202.85
 20
64.30194701887456
 11
202.85
 21
63.30194701887455
  0
LINE
  8
1
  6
CONTINUOUS
 62
     7
 10
170.8499999999999
 20
63.30194701887454
 11
170.8499999999999
 21
64.30194701887456
  0
LINE
  8
1
  6
CONTINUOUS
 62
     7
 10
250.226061118677
 20
59.40194701887454
 11
257.7400334943211
 21
59.40194701887454
  0
LINE
  8
1
  6
CONTINUOUS
 62
     7
 10
216.85
 20
63.30194701887454
 11
202.85
 21
63.30194701887455
  0
LINE
  8
1
  6
CONTINUOUS
 62
     7
 10
124.8499999999999
 20
59.40194701887454
 11
123.473938881323
 21
59.40194701887454
  0
LINE
  8
1
  6
CONTINUOUS
 62
     7
 10
250.226061118677
 20
59.40194701887454
 11
248.85
 21
59.40194701887454
  0
LINE
  8
1
  6
CONTINUOUS
 62
     7
 10
170.8499999999999
 20
63.30194701887454
 11
156.8499999999999
 21
63.30194701887454
  0
LINE
  8
1
  6
CONTINUOUS
 62
     7
 10
124.8499999999999
 20
63.30194701887455
 11
124.8499999999999
 21
59.40194701887454
  0
LINE
  8
1
  6
CONTINUOUS
 62
     7
 10
248.85
 20
59.40194701887454
 11
248.85
 21
63.30194701887455
  0
LINE
  8
1
  6
CONTINUOUS
 62
     7
 10
115.9599665056788
 20
59.40194701887454
 11
123.473938881323
 21
59.40194701887454
  0
LINE
  8
1
  6
CONTINUOUS
 62
     7
 10
115.35
 20
69.50194701887455
 11
115.35
 21
67.90194701887454
  0
LINE
  8
1
  6
CONTINUOUS
 62
     7
 10
115.35
 20
67.90194701887454
 11
112.8499999999998
 21
67.90194701887454
  0
LINE
  8
1
  6
CONTINUOUS
 62
     7
 10
115.35
 20
69.50194701887455
 11
112.8499999999998
 21
69.50194701887455
  0
LINE
  8
1
  6
CONTINUOUS
 62
     7
 10
262.8500000000001
 20
67.90194701887454
 11
262.8500000000001
 21
69.50194701887455
  0
LINE
  8
1
  6
CONTINUOUS
 62
     7
 10
260.8500000000001
 20
67.90194701887454
 11
262.8500000000001
 21
67.90194701887454
  0
LINE
  8
1
  6
CONTINUOUS
 62
     7
 10
260.8500000000001
 20
69.50194701887455
 11
262.8500000000001
 21
69.50194701887455
  0
LINE
  8
1
  6
CONTINUOUS
 62
     7
 10
112.8499999999998
 20
67.90194701887454
 11
110.8499999999998
 21
67.90194701887454
  0
LINE
  8
1
  6
CONTINUOUS
 62
     7
 10
110.8499999999998
 20
67.90194701887454
 11
110.8499999999998
 21
69.50194701887455
  0
LINE
  8
1
  6
CONTINUOUS
 62
     7
 10
112.8499999999998
 20
69.50194701887455
 11
110.8499999999998
 21
69.50194701887455
  0
LINE
  8
1
  6
CONTINUOUS
 62
     7
 10
258.3499999999999
 20
67.90194701887454
 11
260.8500000000001
 21
67.90194701887454
  0
LINE
  8
1
  6
CONTINUOUS
 62
     7
 10
258.3499999999999
 20
69.50194701887455
 11
258.3499999999999
 21
67.90194701887454
  0
LINE
  8
1
  6
CONTINUOUS
 62
     7
 10
258.3499999999999
 20
69.50194701887455
 11
260.8500000000001
 21
69.50194701887455
  0
ARC
  8
1
  6
CONTINUOUS
 62
     7
 10
122.9499999999999
 20
27.50194701887454
 40
8.599999999999996
 50
180.0
 51
270.0
  0
ARC
  8
1
  6
CONTINUOUS
 62
     7
 10
250.75
 20
27.50194701887453
 40
8.599999999999941
 50
269.9999999999999
 51
0.0
  0
LINE
  8
1
  6
CONTINUOUS
 62
     7
 10
250.75
 20
18.90194701887454
 11
249.8013273816536
 21
18.90194701887454
  0
LINE
  8
1
  6
CONTINUOUS
 62
     7
 10
259.1796410913632
 20
67.40194701887454
 11
259.1796410913632
 21
65.90194701887454
  0
LINE
  8
1
  6
CONTINUOUS
 62
     7
 10
259.3499999999999
 20
27.50194701887453
 11
259.3499999999999
 21
67.40194701887454
  0
LINE
  8
1
  6
CONTINUOUS
 62
     7
 10
258.2665300542776
 20
64.30194701887454
 11
258.2665300542776
 21
59.40194701887454
  0
POLYLINE
  8
1
  6
CONTINUOUS
 62
     7
 66
     1
  0
VERTEX
  8
1
  6
CONTINUOUS
 62
     7
 10
258.6848601699331
 20
65.90194701887454
  0
VERTEX
  8
1
  6
CONTINUOUS
 62
     7
 10
258.5880648562922
 20
65.84880995948868
  0
VERTEX
  8
1
  6
CONTINUOUS
 62
     7
 10
258.5228752087544
 20
65.75530157058728
  0
SEQEND
  8
1
  6
CONTINUOUS
 62
     7
  0
ARC
  8
1
  6
CONTINUOUS
 62
     7
 10
261.849153320064
 20
64.41932239083911
 40
3.584545500129389
 50
158.1174415371452
 51
181.8764766182198
  0
LINE
  8
1
  6
CONTINUOUS
 62
     7
 10
259.1796410913632
 20
65.90194701887454
 11
258.6848601699332
 21
65.90194701887454
  0
LINE
  8
1
  6
CONTINUOUS
 62
     7
 10
258.2665300542776
 20
59.40194701887454
 11
257.7400334943211
 21
59.40194701887454
  0
LINE
  8
1
  6
CONTINUOUS
 62
     7
 10
114.35
 20
27.50194701887453
 11
114.35
 21
67.40194701887454
  0
LINE
  8
1
  6
CONTINUOUS
 62
     7
 10
114.5203589086368
 20
67.40194701887454
 11
114.5203589086368
 21
65.90194701887454
  0
LINE
  8
1
  6
CONTINUOUS
 62
     7
 10
114.5203589086367
 20
65.90194701887454
 11
115.0151398300667
 21
65.90194701887454
  0
ARC
  8
1
  6
CONTINUOUS
 62
     7
 10
111.7719733330457
 20
64.41360075293508
 40
3.663198602447266
 50
358.2533628740538
 51
21.07779260069946
  0
POLYLINE
  8
1
  6
CONTINUOUS
 62
     7
 66
     1
  0
VERTEX
  8
1
  6
CONTINUOUS
 62
     7
 10
115.1900782945548
 20
65.73101582536998
  0
VERTEX
  8
1
  6
CONTINUOUS
 62
     7
 10
115.1264341941893
 20
65.83204545551139
  0
VERTEX
  8
1
  6
CONTINUOUS
 62
     7
 10
115.0338233635704
 20
65.89986572251877
  0
VERTEX
  8
1
  6
CONTINUOUS
 62
     7
 10
115.0151398300668
 20
65.90194701887454
  0
SEQEND
  8
1
  6
CONTINUOUS
 62
     7
  0
LINE
  8
1
  6
CONTINUOUS
 62
     7
 10
115.4334699457223
 20
64.30194701887454
 11
115.4334699457223
 21
59.40194701887454
  0
LINE
  8
1
  6
CONTINUOUS
 62
     7
 10
115.4334699457223
 20
59.40194701887454
 11
115.9599665056788
 21
59.40194701887454
  0
ARC
  8
1
  6
CONTINUOUS
 62
     7
 10
114.0367063935348
 20
67.4000242443344
 40
2.094678022817181
 50
0.0525937067068153
 51
51.17330757570696
  0
ARC
  8
1
  6
CONTINUOUS
 62
     7
 10
259.6625877931195
 20
67.40036260960748
 40
2.093971926405868
 50
128.8174517212946
 51
179.9566469962933
  0
LINE
  8
1
  6
CONTINUOUS
 62
     7
 10
257.5686164661374
 20
67.40194701887455
 11
257.5686164661374
 21
65.90194701887454
  0
ARC
  8
1
  6
CONTINUOUS
 62
     7
 10
260.0561102672617
 20
64.4103252761218
 40
3.464175288286925
 50
157.6463484121634
 51
181.792816365943
  0
POLYLINE
  8
1
  6
CONTINUOUS
 62
     7
 66
     1
  0
VERTEX
  8
1
  6
CONTINUOUS
 62
     7
 10
256.8522539254905
 20
65.72782858513881
  0
VERTEX
  8
1
  6
CONTINUOUS
 62
     7
 10
256.9202085347751
 20
65.82994417936598
  0
VERTEX
  8
1
  6
CONTINUOUS
 62
     7
 10
257.0000165694442
 20
65.89335283645718
  0
VERTEX
  8
1
  6
CONTINUOUS
 62
     7
 10
257.0409073827337
 20
65.90194701887454
  0
SEQEND
  8
1
  6
CONTINUOUS
 62
     7
  0
LINE
  8
1
  6
CONTINUOUS
 62
     7
 10
256.5936307248912
 20
64.30194701887454
 11
256.5936307248912
 21
59.40194701887454
  0
LINE
  8
1
  6
CONTINUOUS
 62
     7
 10
116.1313835338625
 20
67.40194701887455
 11
116.1313835338625
 21
65.90194701887454
  0
LINE
  8
1
  6
CONTINUOUS
 62
     7
 10
117.1063692751087
 20
64.30194701887454
 11
117.1063692751087
 21
59.40194701887454
  0
POLYLINE
  8
1
  6
CONTINUOUS
 62
     7
 66
     1
  0
VERTEX
  8
1
  6
CONTINUOUS
 62
     7
 10
116.6590926172662
 20
65.90194701887454
  0
VERTEX
  8
1
  6
CONTINUOUS
 62
     7
 10
116.7628701202273
 20
65.84842899109748
  0
VERTEX
  8
1
  6
CONTINUOUS
 62
     7
 10
116.8327759541384
 20
65.7542669867432
  0
VERTEX
  8
1
  6
CONTINUOUS
 62
     7
 10
116.8834321008667
 20
65.65510384607609
  0
SEQEND
  8
1
  6
CONTINUOUS
 62
     7
  0
ARC
  8
1
  6
CONTINUOUS
 62
     7
 10
113.4569492252
 20
64.39563593595598
 40
3.650622455672394
 50
358.5294099761462
 51
20.1818486553783
  0
LINE
  8
1
  6
CONTINUOUS
 62
     7
 10
257.0409073827337
 20
65.90194701887454
 11
258.6848601699331
 21
65.90194701887454
  0
LINE
  8
1
  6
CONTINUOUS
 62
     7
 10
115.0151398300668
 20
65.90194701887454
 11
116.6590926172662
 21
65.90194701887454
  0
ARC
  8
1
  6
CONTINUOUS
 62
     7
 10
113.85
 20
67.40194701887454
 40
0.5000000000000004
 50
359.9999999999998
 51
90.0
  0
POLYLINE
  8
1
  6
CONTINUOUS
 62
     7
 66
     1
  0
VERTEX
  8
1
  6
CONTINUOUS
 62
     7
 10
114.0171842700025
 20
67.90194701887454
  0
VERTEX
  8
1
  6
CONTINUOUS
 62
     7
 10
114.0328815199091
 20
67.9017035997461
  0
VERTEX
  8
1
  6
CONTINUOUS
 62
     7
 10
114.0485787698158
 20
67.90097263699485
  0
VERTEX
  8
1
  6
CONTINUOUS
 62
     7
 10
114.0748536666256
 20
67.89865154551924
  0
VERTEX
  8
1
  6
CONTINUOUS
 62
     7
 10
114.101042971499
 20
67.89495290654914
  0
VERTEX
  8
1
  6
CONTINUOUS
 62
     7
 10
114.1221143061483
 20
67.89095227888706
  0
VERTEX
  8
1
  6
CONTINUOUS
 62
     7
 10
114.1430345989474
 20
67.88605252318872
  0
VERTEX
  8
1
  6
CONTINUOUS
 62
     7
 10
114.1638953865693
 20
67.88021788489105
  0
VERTEX
  8
1
  6
CONTINUOUS
 62
     7
 10
114.184524736481
 20
67.87348177348225
  0
VERTEX
  8
1
  6
CONTINUOUS
 62
     7
 10
114.19925796013
 20
67.86805988300384
  0
VERTEX
  8
1
  6
CONTINUOUS
 62
     7
 10
114.213829573412
 20
67.86217685809027
  0
VERTEX
  8
1
  6
CONTINUOUS
 62
     7
 10
114.2378570295121
 20
67.85129059250981
  0
VERTEX
  8
1
  6
CONTINUOUS
 62
     7
 10
114.2496813208344
 20
67.84536352291235
  0
VERTEX
  8
1
  6
CONTINUOUS
 62
     7
 10
114.2613461536067
 20
67.83912848772522
  0
VERTEX
  8
1
  6
CONTINUOUS
 62
     7
 10
114.2799055339914
 20
67.82837167464889
  0
VERTEX
  8
1
  6
CONTINUOUS
 62
     7
 10
114.2980226269825
 20
67.81681289264252
  0
VERTEX
  8
1
  6
CONTINUOUS
 62
     7
 10
114.3157722906884
 20
67.8043872024134
  0
VERTEX
  8
1
  6
CONTINUOUS
 62
     7
 10
114.3330019153839
 20
67.79118353367936
  0
VERTEX
  8
1
  6
CONTINUOUS
 62
     7
 10
114.3450649562057
 20
67.78120642852903
  0
VERTEX
  8
1
  6
CONTINUOUS
 62
     7
 10
114.3568225504193
 20
67.77084807880054
  0
VERTEX
  8
1
  6
CONTINUOUS
 62
     7
 10
114.3664384987693
 20
67.76187336123468
  0
VERTEX
  8
1
  6
CONTINUOUS
 62
     7
 10
114.3758159691324
 20
67.7526497487097
  0
VERTEX
  8
1
  6
CONTINUOUS
 62
     7
 10
114.3849732056668
 20
67.74315688016371
  0
VERTEX
  8
1
  6
CONTINUOUS
 62
     7
 10
114.3938775827363
 20
67.73342643501577
  0
VERTEX
  8
1
  6
CONTINUOUS
 62
     7
 10
114.4077669761299
 20
67.71715490753301
  0
VERTEX
  8
1
  6
CONTINUOUS
 62
     7
 10
114.4209720471482
 20
67.70027350696972
  0
VERTEX
  8
1
  6
CONTINUOUS
 62
     7
 10
114.43354188953
 20
67.68269567632136
  0
VERTEX
  8
1
  6
CONTINUOUS
 62
     7
 10
114.4453616458069
 20
67.66455658026265
  0
VERTEX
  8
1
  6
CONTINUOUS
 62
     7
 10
114.4559728745466
 20
67.6466520649488
  0
VERTEX
  8
1
  6
CONTINUOUS
 62
     7
 10
114.4658449824821
 20
67.62828842734879
  0
VERTEX
  8
1
  6
CONTINUOUS
 62
     7
 10
114.4750267787944
 20
67.60934107205733
  0
VERTEX
  8
1
  6
CONTINUOUS
 62
     7
 10
114.4834006209397
 20
67.59002304690914
  0
VERTEX
  8
1
  6
CONTINUOUS
 62
     7
 10
114.4910019190465
 20
67.57022496411284
  0
VERTEX
  8
1
  6
CONTINUOUS
 62
     7
 10
114.4977536420758
 20
67.55012128872956
  0
VERTEX
  8
1
  6
CONTINUOUS
 62
     7
 10
114.5036977054044
 20
67.52954059711726
  0
VERTEX
  8
1
  6
CONTINUOUS
 62
     7
 10
114.5087587148977
 20
67.5086841358683
  0
VERTEX
  8
1
  6
CONTINUOUS
 62
     7
 10
114.5114542120438
 20
67.49559081351288
  0
VERTEX
  8
1
  6
CONTINUOUS
 62
     7
 10
114.5137967512756
 20
67.48242976156595
  0
VERTEX
  8
1
  6
CONTINUOUS
 62
     7
 10
114.5157897059084
 20
67.46917194600516
  0
VERTEX
  8
1
  6
CONTINUOUS
 62
     7
 10
114.5174243738568
 20
67.45586520373026
  0
VERTEX
  8
1
  6
CONTINUOUS
 62
     7
 10
114.5187058312653
 20
67.44244046806595
  0
VERTEX
  8
1
  6
CONTINUOUS
 62
     7
 10
114.5196225383228
 20
67.42898590373974
  0
VERTEX
  8
1
  6
CONTINUOUS
 62
     7
 10
114.5201747460495
 20
67.41547147288388
  0
VERTEX
  8
1
  6
CONTINUOUS
 62
     7
 10
114.5203589086368
 20
67.40194701887454
  0
SEQEND
  8
1
  6
CONTINUOUS
 62
     7
  0
POLYLINE
  8
1
  6
CONTINUOUS
 62
     7
 66
     1
  0
VERTEX
  8
1
  6
CONTINUOUS
 62
     7
 10
259.1796410913632
 20
67.40194701887454
  0
VERTEX
  8
1
  6
CONTINUOUS
 62
     7
 10
259.1800729503972
 20
67.42261612762624
  0
VERTEX
  8
1
  6
CONTINUOUS
 62
     7
 10
259.181365474816
 20
67.4432672737082
  0
VERTEX
  8
1
  6
CONTINUOUS
 62
     7
 10
259.1835140855948
 20
67.46384697950631
  0
VERTEX
  8
1
  6
CONTINUOUS
 62
     7
 10
259.1865142037084
 20
67.48430176740654
  0
VERTEX
  8
1
  6
CONTINUOUS
 62
     7
 10
259.1904905408073
 20
67.50520225993014
  0
VERTEX
  8
1
  6
CONTINUOUS
 62
     7
 10
259.1953618212464
 20
67.52593250523653
  0
VERTEX
  8
1
  6
CONTINUOUS
 62
     7
 10
259.2011131296487
 20
67.5464360687609
  0
VERTEX
  8
1
  6
CONTINUOUS
 62
     7
 10
259.2077295506371
 20
67.56665651593852
  0
VERTEX
  8
1
  6
CONTINUOUS
 62
     7
 10
259.2149838239347
 20
67.58601505590694
  0
VERTEX
  8
1
  6
CONTINUOUS
 62
     7
 10
259.2230420446614
 20
67.60507233998028
  0
VERTEX
  8
1
  6
CONTINUOUS
 62
     7
 10
259.2318819601979
 20
67.62377989215582
  0
VERTEX
  8
1
  6
CONTINUOUS
 62
     7
 10
259.2414813179246
 20
67.64208923643092
  0
VERTEX
  8
1
  6
CONTINUOUS
 62
     7
 10
259.25214370356
 20
67.66049391815561
  0
VERTEX
  8
1
  6
CONTINUOUS
 62
     7
 10
259.2635904987118
 20
67.67844417559313
  0
VERTEX
  8
1
  6
CONTINUOUS
 62
     7
 10
259.2757890435635
 20
67.69589234575265
  0
VERTEX
  8
1
  6
CONTINUOUS
 62
     7
 10
259.2887066782987
 20
67.71279076564336
  0
VERTEX
  8
1
  6
CONTINUOUS
 62
     7
 10
259.3019817560026
 20
67.72871887158446
  0
VERTEX
  8
1
  6
CONTINUOUS
 62
     7
 10
259.3159165375554
 20
67.74409716104904
  0
VERTEX
  8
1
  6
CONTINUOUS
 62
     7
 10
259.3304740120507
 20
67.75888742770032
  0
VERTEX
  8
1
  6
CONTINUOUS
 62
     7
 10
259.3456171685825
 20
67.77305146520159
  0
VERTEX
  8
1
  6
CONTINUOUS
 62
     7
 10
259.3617935803214
 20
67.7869541094232
  0
VERTEX
  8
1
  6
CONTINUOUS
 62
     7
 10
259.378560479797
 20
67.80016970156284
  0
VERTEX
  8
1
  6
CONTINUOUS
 62
     7
 10
259.3958715181279
 20
67.81266414248924
  0
VERTEX
  8
1
  6
CONTINUOUS
 62
     7
 10
259.4136803464322
 20
67.82440333307106
  0
VERTEX
  8
1
  6
CONTINUOUS
 62
     7
 10
259.4315648761387
 20
67.835142105197
  0
VERTEX
  8
1
  6
CONTINUOUS
 62
     7
 10
259.4498941592904
 20
67.84514019304949
  0
VERTEX
  8
1
  6
CONTINUOUS
 62
     7
 10
259.4686204409073
 20
67.85437341938344
  0
VERTEX
  8
1
  6
CONTINUOUS
 62
     7
 10
259.4876959660094
 20
67.8628176069537
  0
VERTEX
  8
1
  6
CONTINUOUS
 62
     7
 10
259.5076673137805
 20
67.87067123439499
  0
VERTEX
  8
1
  6
CONTINUOUS
 62
     7
 10
259.5279725031936
 20
67.87767596083701
  0
VERTEX
  8
1
  6
CONTINUOUS
 62
     7
 10
259.5485561771124
 20
67.88381441576142
  0
VERTEX
  8
1
  6
CONTINUOUS
 62
     7
 10
259.5693629784016
 20
67.88906922865002
  0
VERTEX
  8
1
  6
CONTINUOUS
 62
     7
 10
259.5917515531401
 20
67.89368462657103
  0
VERTEX
  8
1
  6
CONTINUOUS
 62
     7
 10
259.6143606449065
 20
67.89728783201392
  0
VERTEX
  8
1
  6
CONTINUOUS
 62
     7
 10
259.637120724463
 20
67.89987111751876
  0
VERTEX
  8
1
  6
CONTINUOUS
 62
     7
 10
259.6599622625725
 20
67.90142675562562
  0
VERTEX
  8
1
  6
CONTINUOUS
 62
     7
 10
259.6828157299975
 20
67.90194701887454
  0
SEQEND
  8
1
  6
CONTINUOUS
 62
     7
  0
ARC
  8
1
  6
CONTINUOUS
 62
     7
 10
259.85
 20
67.40194701887454
 40
0.5000000000000004
 50
90.0
 51
179.9999999999996
  0
ENDBLK
  8
0
  0
BLOCK
  8
0
  2
D_FRAME_VIEW_5009
 70
     0
 10
0.0
 20
0.0
  0
LINE
  8
1
  6
CONTINUOUS
 62
     7
 10
162.85
 20
107.05
 11
162.85
 21
179.05
  0
LINE
  8
1
  6
CONTINUOUS
 62
     7
 10
162.85
 20
179.05
 11
164.85
 21
179.05
  0
LINE
  8
1
  6
CONTINUOUS
 62
     7
 10
164.85
 20
179.05
 11
164.85
 21
107.05
  0
LINE
  8
1
  6
CONTINUOUS
 62
     7
 10
164.8499999999999
 20
107.05
 11
162.8499999999999
 21
107.05
  0
LINE
  8
1
  6
CONTINUOUS
 62
     7
 10
165.3499999999999
 20
171.55
 11
164.8499999999999
 21
171.55
  0
LINE
  8
1
  6
CONTINUOUS
 62
     7
 10
164.8499999999999
 20
114.55
 11
165.3499999999999
 21
114.55
  0
LINE
  8
1
  6
CONTINUOUS
 62
     7
 10
162.85
 20
171.55
 11
162.35
 21
171.55
  0
LINE
  8
1
  6
CONTINUOUS
 62
     7
 10
162.3499999999999
 20
114.55
 11
162.8499999999999
 21
114.55
  0
LINE
  8
1
  6
CONTINUOUS
 62
     7
 10
158.35
 20
114.55
 11
158.35
 21
171.55
  0
LINE
  8
1
  6
CONTINUOUS
 62
     7
 10
158.35
 20
171.55
 11
158.85
 21
171.55
  0
LINE
  8
1
  6
CONTINUOUS
 62
     7
 10
158.85
 20
114.55
 11
158.35
 21
114.55
  0
LINE
  8
1
  6
CONTINUOUS
 62
     7
 10
168.8499999999999
 20
171.55
 11
165.3499999999999
 21
171.55
  0
LINE
  8
1
  6
CONTINUOUS
 62
     7
 10
165.3499999999999
 20
114.55
 11
168.8499999999999
 21
114.55
  0
LINE
  8
1
  6
CONTINUOUS
 62
     7
 10
162.35
 20
171.55
 11
158.85
 21
171.55
  0
LINE
  8
1
  6
CONTINUOUS
 62
     7
 10
158.85
 20
114.55
 11
162.35
 21
114.55
  0
LINE
  8
1
  6
CONTINUOUS
 62
     7
 10
169.3499999999999
 20
171.55
 11
169.3499999999999
 21
114.55
  0
LINE
  8
1
  6
CONTINUOUS
 62
     7
 10
168.8499999999999
 20
171.55
 11
169.3499999999999
 21
171.55
  0
LINE
  8
1
  6
CONTINUOUS
 62
     7
 10
169.3499999999999
 20
114.55
 11
168.8499999999999
 21
114.55
  0
CIRCLE
  8
1
  6
CONTINUOUS
 62
     7
 10
232.8499999999999
 20
101.3
 40
4.200000000000002
  0
LINE
  8
1
  6
CONTINUOUS
 62
     7
 10
235.0402682484116
 20
100.785
 11
233.365
 21
100.785
  0
ARC
  8
1
  6
CONTINUOUS
 62
     7
 10
232.8499999999999
 20
101.3
 40
2.250000000000003
 50
346.7683351757007
 51
13.23166482429923
  0
LINE
  8
1
  6
CONTINUOUS
 62
     7
 10
233.3649999999999
 20
101.815
 11
235.0402682484115
 21
101.815
  0
LINE
  8
1
  6
CONTINUOUS
 62
     7
 10
233.3649999999999
 20
103.4902682484116
 11
233.3649999999999
 21
101.815
  0
ARC
  8
1
  6
CONTINUOUS
 62
     7
 10
232.8499999999999
 20
101.3
 40
2.250000000000003
 50
76.76833517570076
 51
103.2316648242993
  0
LINE
  8
1
  6
CONTINUOUS
 62
     7
 10
232.335
 20
101.815
 11
232.335
 21
103.4902682484116
  0
LINE
  8
1
  6
CONTINUOUS
 62
     7
 10
230.6597317515883
 20
101.815
 11
232.3349999999999
 21
101.815
  0
ARC
  8
1
  6
CONTINUOUS
 62
     7
 10
232.8499999999999
 20
101.3
 40
2.250000000000003
 50
166.7683351757007
 51
193.2316648242993
  0
LINE
  8
1
  6
CONTINUOUS
 62
     7
 10
232.335
 20
100.785
 11
230.6597317515883
 21
100.785
  0
LINE
  8
1
  6
CONTINUOUS
 62
     7
 10
232.335
 20
99.10973175158837
 11
232.335
 21
100.785
  0
ARC
  8
1
  6
CONTINUOUS
 62
     7
 10
232.8499999999999
 20
101.3
 40
2.250000000000003
 50
256.7683351757007
 51
283.2316648242993
  0
LINE
  8
1
  6
CONTINUOUS
 62
     7
 10
233.3649999999999
 20
100.785
 11
233.3649999999999
 21
99.10973175158836
  0
ARC
  8
1
  6
CONTINUOUS
 62
     7
 10
232.8499999999999
 20
101.3
 40
1.030668528585347
 50
330.0214543835139
 51
29.97854561648619
  0
ARC
  8
1
  6
CONTINUOUS
 62
     7
 10
232.8499999999999
 20
101.3
 40
1.030668528585347
 50
150.0214543835139
 51
209.9785456164862
  0
ARC
  8
1
  6
CONTINUOUS
 62
     7
 10
232.8499999999999
 20
101.3
 40
1.030668528585347
 50
60.02145438351386
 51
119.9785456164862
  0
ARC
  8
1
  6
CONTINUOUS
 62
     7
 10
232.8499999999999
 20
101.3
 40
1.030668528585347
 50
240.0214543835139
 51
299.9785456164861
  0
CIRCLE
  8
1
  6
CONTINUOUS
 62
     7
 10
186.85
 20
101.3
 40
4.2
  0
LINE
  8
1
  6
CONTINUOUS
 62
     7
 10
189.0402682484115
 20
100.785
 11
187.3649999999999
 21
100.785
  0
ARC
  8
1
  6
CONTINUOUS
 62
     7
 10
186.85
 20
101.3
 40
2.25
 50
346.7683351757007
 51
13.23166482429923
  0
LINE
  8
1
  6
CONTINUOUS
 62
     7
 10
187.365
 20
101.815
 11
189.0402682484115
 21
101.815
  0
LINE
  8
1
  6
CONTINUOUS
 62
     7
 10
187.365
 20
103.4902682484116
 11
187.365
 21
101.815
  0
ARC
  8
1
  6
CONTINUOUS
 62
     7
 10
186.85
 20
101.3
 40
2.250000000000003
 50
76.76833517570076
 51
103.2316648242992
  0
LINE
  8
1
  6
CONTINUOUS
 62
     7
 10
186.335
 20
101.815
 11
186.335
 21
103.4902682484116
  0
LINE
  8
1
  6
CONTINUOUS
 62
     7
 10
184.6597317515883
 20
101.815
 11
186.335
 21
101.815
  0
ARC
  8
1
  6
CONTINUOUS
 62
     7
 10
186.85
 20
101.3
 40
2.25
 50
166.7683351757007
 51
193.2316648242993
  0
LINE
  8
1
  6
CONTINUOUS
 62
     7
 10
186.335
 20
100.785
 11
184.6597317515884
 21
100.785
  0
LINE
  8
1
  6
CONTINUOUS
 62
     7
 10
186.335
 20
99.10973175158837
 11
186.335
 21
100.785
  0
ARC
  8
1
  6
CONTINUOUS
 62
     7
 10
186.85
 20
101.3
 40
2.250000000000003
 50
256.7683351757007
 51
283.2316648242993
  0
LINE
  8
1
  6
CONTINUOUS
 62
     7
 10
187.365
 20
100.785
 11
187.365
 21
99.10973175158836
  0
ARC
  8
1
  6
CONTINUOUS
 62
     7
 10
186.85
 20
101.3
 40
1.030668528585347
 50
330.0214543835138
 51
29.97854561648614
  0
ARC
  8
1
  6
CONTINUOUS
 62
     7
 10
186.85
 20
101.3
 40
1.030668528585346
 50
240.0214543835139
 51
299.9785456164861
  0
ARC
  8
1
  6
CONTINUOUS
 62
     7
 10
186.85
 20
101.3
 40
1.030668528585347
 50
150.0214543835139
 51
209.9785456164862
  0
ARC
  8
1
  6
CONTINUOUS
 62
     7
 10
186.85
 20
101.3
 40
1.030668528585346
 50
60.02145438351386
 51
119.9785456164861
  0
CIRCLE
  8
1
  6
CONTINUOUS
 62
     7
 10
140.85
 20
101.3
 40
4.200000000000002
  0
LINE
  8
1
  6
CONTINUOUS
 62
     7
 10
143.0402682484115
 20
100.785
 11
141.3649999999999
 21
100.785
  0
ARC
  8
1
  6
CONTINUOUS
 62
     7
 10
140.85
 20
101.3
 40
2.250000000000003
 50
346.7683351757007
 51
13.23166482429923
  0
LINE
  8
1
  6
CONTINUOUS
 62
     7
 10
141.365
 20
101.815
 11
143.0402682484116
 21
101.815
  0
LINE
  8
1
  6
CONTINUOUS
 62
     7
 10
141.365
 20
103.4902682484116
 11
141.365
 21
101.815
  0
ARC
  8
1
  6
CONTINUOUS
 62
     7
 10
140.85
 20
101.3
 40
2.250000000000003
 50
76.76833517570076
 51
103.2316648242993
  0
LINE
  8
1
  6
CONTINUOUS
 62
     7
 10
140.3349999999999
 20
101.815
 11
140.3349999999999
 21
103.4902682484116
  0
LINE
  8
1
  6
CONTINUOUS
 62
     7
 10
138.6597317515883
 20
101.815
 11
140.335
 21
101.815
  0
ARC
  8
1
  6
CONTINUOUS
 62
     7
 10
140.85
 20
101.3
 40
2.250000000000003
 50
166.7683351757007
 51
193.2316648242993
  0
LINE
  8
1
  6
CONTINUOUS
 62
     7
 10
140.3349999999999
 20
100.785
 11
138.6597317515883
 21
100.785
  0
LINE
  8
1
  6
CONTINUOUS
 62
     7
 10
140.3349999999999
 20
99.10973175158837
 11
140.3349999999999
 21
100.785
  0
ARC
  8
1
  6
CONTINUOUS
 62
     7
 10
140.85
 20
101.3
 40
2.250000000000003
 50
256.7683351757007
 51
283.2316648242993
  0
LINE
  8
1
  6
CONTINUOUS
 62
     7
 10
141.365
 20
100.785
 11
141.365
 21
99.10973175158836
  0
ARC
  8
1
  6
CONTINUOUS
 62
     7
 10
140.85
 20
101.3
 40
1.030668528585347
 50
330.0214543835139
 51
29.97854561648619
  0
ARC
  8
1
  6
CONTINUOUS
 62
     7
 10
140.85
 20
101.3
 40
1.030668528585347
 50
60.02145438351386
 51
119.9785456164862
  0
ARC
  8
1
  6
CONTINUOUS
 62
     7
 10
140.85
 20
101.3
 40
1.030668528585347
 50
240.0214543835139
 51
299.9785456164861
  0
ARC
  8
1
  6
CONTINUOUS
 62
     7
 10
140.85
 20
101.3
 40
1.030668528585347
 50
150.0214543835139
 51
209.9785456164862
  0
CIRCLE
  8
1
  6
CONTINUOUS
 62
     7
 10
232.8499999999999
 20
184.8
 40
4.200000000000002
  0
ARC
  8
1
  6
CONTINUOUS
 62
     7
 10
232.8499999999999
 20
184.8
 40
2.250000000000003
 50
76.76833517570074
 51
103.2316648242993
  0
LINE
  8
1
  6
CONTINUOUS
 62
     7
 10
232.335
 20
186.9902682484116
 11
232.335
 21
185.315
  0
LINE
  8
1
  6
CONTINUOUS
 62
     7
 10
232.335
 20
185.315
 11
230.6597317515883
 21
185.315
  0
ARC
  8
1
  6
CONTINUOUS
 62
     7
 10
232.8499999999999
 20
184.8
 40
2.250000000000003
 50
166.7683351757008
 51
193.2316648242993
  0
LINE
  8
1
  6
CONTINUOUS
 62
     7
 10
230.6597317515883
 20
184.285
 11
232.3349999999999
 21
184.285
  0
LINE
  8
1
  6
CONTINUOUS
 62
     7
 10
232.335
 20
184.285
 11
232.335
 21
182.6097317515884
  0
ARC
  8
1
  6
CONTINUOUS
 62
     7
 10
232.8499999999999
 20
184.8
 40
2.250000000000003
 50
256.7683351757007
 51
283.2316648242992
  0
LINE
  8
1
  6
CONTINUOUS
 62
     7
 10
233.3649999999999
 20
182.6097317515884
 11
233.3649999999999
 21
184.285
  0
LINE
  8
1
  6
CONTINUOUS
 62
     7
 10
233.3649999999999
 20
184.285
 11
235.0402682484115
 21
184.285
  0
ARC
  8
1
  6
CONTINUOUS
 62
     7
 10
232.8499999999999
 20
184.8
 40
2.250000000000003
 50
346.7683351757008
 51
13.23166482429929
  0
LINE
  8
1
  6
CONTINUOUS
 62
     7
 10
235.0402682484116
 20
185.315
 11
233.365
 21
185.315
  0
LINE
  8
1
  6
CONTINUOUS
 62
     7
 10
233.3649999999999
 20
185.315
 11
233.3649999999999
 21
186.9902682484116
  0
ARC
  8
1
  6
CONTINUOUS
 62
     7
 10
232.8499999999999
 20
184.8
 40
1.030668528585347
 50
330.0214543835138
 51
29.97854561648614
  0
ARC
  8
1
  6
CONTINUOUS
 62
     7
 10
232.8499999999999
 20
184.8
 40
1.030668528585347
 50
60.02145438351382
 51
119.9785456164862
  0
ARC
  8
1
  6
CONTINUOUS
 62
     7
 10
232.8499999999999
 20
184.8
 40
1.030668528585347
 50
150.0214543835138
 51
209.9785456164862
  0
ARC
  8
1
  6
CONTINUOUS
 62
     7
 10
232.8499999999999
 20
184.8
 40
1.030668528585347
 50
240.0214543835138
 51
299.9785456164861
  0
CIRCLE
  8
1
  6
CONTINUOUS
 62
     7
 10
186.85
 20
184.8
 40
4.2
  0
ARC
  8
1
  6
CONTINUOUS
 62
     7
 10
186.85
 20
184.8
 40
2.250000000000003
 50
76.76833517570076
 51
103.2316648242992
  0
LINE
  8
1
  6
CONTINUOUS
 62
     7
 10
186.335
 20
186.9902682484116
 11
186.335
 21
185.315
  0
LINE
  8
1
  6
CONTINUOUS
 62
     7
 10
186.335
 20
185.315
 11
184.6597317515884
 21
185.315
  0
ARC
  8
1
  6
CONTINUOUS
 62
     7
 10
186.85
 20
184.8
 40
2.25
 50
166.7683351757008
 51
193.2316648242993
  0
LINE
  8
1
  6
CONTINUOUS
 62
     7
 10
184.6597317515883
 20
184.285
 11
186.335
 21
184.285
  0
LINE
  8
1
  6
CONTINUOUS
 62
     7
 10
186.335
 20
184.285
 11
186.335
 21
182.6097317515884
  0
ARC
  8
1
  6
CONTINUOUS
 62
     7
 10
186.85
 20
184.8
 40
2.250000000000003
 50
256.7683351757008
 51
283.2316648242992
  0
LINE
  8
1
  6
CONTINUOUS
 62
     7
 10
187.365
 20
182.6097317515884
 11
187.365
 21
184.285
  0
LINE
  8
1
  6
CONTINUOUS
 62
     7
 10
187.365
 20
184.285
 11
189.0402682484115
 21
184.285
  0
ARC
  8
1
  6
CONTINUOUS
 62
     7
 10
186.85
 20
184.8
 40
2.25
 50
346.7683351757008
 51
13.23166482429929
  0
LINE
  8
1
  6
CONTINUOUS
 62
     7
 10
189.0402682484115
 20
185.315
 11
187.3649999999999
 21
185.315
  0
LINE
  8
1
  6
CONTINUOUS
 62
     7
 10
187.365
 20
185.315
 11
187.365
 21
186.9902682484116
  0
ARC
  8
1
  6
CONTINUOUS
 62
     7
 10
186.85
 20
184.8
 40
1.030668528585347
 50
330.0214543835139
 51
29.97854561648619
  0
ARC
  8
1
  6
CONTINUOUS
 62
     7
 10
186.85
 20
184.8
 40
1.030668528585346
 50
240.0214543835139
 51
299.9785456164861
  0
ARC
  8
1
  6
CONTINUOUS
 62
     7
 10
186.85
 20
184.8
 40
1.030668528585347
 50
150.0214543835138
 51
209.9785456164862
  0
ARC
  8
1
  6
CONTINUOUS
 62
     7
 10
186.85
 20
184.8
 40
1.030668528585346
 50
60.02145438351389
 51
119.9785456164861
  0
CIRCLE
  8
1
  6
CONTINUOUS
 62
     7
 10
140.85
 20
184.8
 40
4.200000000000002
  0
ARC
  8
1
  6
CONTINUOUS
 62
     7
 10
140.85
 20
184.8
 40
2.250000000000003
 50
76.76833517570074
 51
103.2316648242993
  0
LINE
  8
1
  6
CONTINUOUS
 62
     7
 10
140.3349999999999
 20
186.9902682484116
 11
140.3349999999999
 21
185.315
  0
LINE
  8
1
  6
CONTINUOUS
 62
     7
 10
140.3349999999999
 20
185.315
 11
138.6597317515883
 21
185.315
  0
ARC
  8
1
  6
CONTINUOUS
 62
     7
 10
140.85
 20
184.8
 40
2.250000000000003
 50
166.7683351757008
 51
193.2316648242993
  0
LINE
  8
1
  6
CONTINUOUS
 62
     7
 10
138.6597317515883
 20
184.285
 11
140.335
 21
184.285
  0
LINE
  8
1
  6
CONTINUOUS
 62
     7
 10
140.3349999999999
 20
184.285
 11
140.3349999999999
 21
182.6097317515884
  0
ARC
  8
1
  6
CONTINUOUS
 62
     7
 10
140.85
 20
184.8
 40
2.250000000000003
 50
256.7683351757007
 51
283.2316648242992
  0
LINE
  8
1
  6
CONTINUOUS
 62
     7
 10
141.365
 20
182.6097317515884
 11
141.365
 21
184.285
  0
LINE
  8
1
  6
CONTINUOUS
 62
     7
 10
141.365
 20
184.285
 11
143.0402682484116
 21
184.285
  0
ARC
  8
1
  6
CONTINUOUS
 62
     7
 10
140.85
 20
184.8
 40
2.250000000000003
 50
346.7683351757008
 51
13.23166482429929
  0
LINE
  8
1
  6
CONTINUOUS
 62
     7
 10
143.0402682484115
 20
185.315
 11
141.3649999999999
 21
185.315
  0
LINE
  8
1
  6
CONTINUOUS
 62
     7
 10
141.365
 20
185.315
 11
141.365
 21
186.9902682484116
  0
ARC
  8
1
  6
CONTINUOUS
 62
     7
 10
140.85
 20
184.8
 40
1.030668528585347
 50
330.0214543835138
 51
29.97854561648614
  0
ARC
  8
1
  6
CONTINUOUS
 62
     7
 10
140.85
 20
184.8
 40
1.030668528585347
 50
150.0214543835138
 51
209.9785456164862
  0
ARC
  8
1
  6
CONTINUOUS
 62
     7
 10
140.85
 20
184.8
 40
1.030668528585347
 50
60.02145438351382
 51
119.9785456164862
  0
ARC
  8
1
  6
CONTINUOUS
 62
     7
 10
140.85
 20
184.8
 40
1.030668528585347
 50
240.0214543835138
 51
299.9785456164861
  0
LINE
  8
1
  6
CONTINUOUS
 62
     7
 10
134.5999999999999
 20
100.7
 11
133.1499999999999
 21
100.7
  0
ARC
  8
1
  6
CONTINUOUS
 62
     7
 10
133.1499999999999
 20
101.5
 40
0.800000000000002
 50
180.0
 51
269.9999999999995
  0
LINE
  8
1
  6
CONTINUOUS
 62
     7
 10
132.35
 20
101.5
 11
132.35
 21
102.393741096848
  0
ARC
  8
1
  6
CONTINUOUS
 62
     7
 10
131.85
 20
100.2
 40
2.249999999999998
 50
77.16041159309584
 51
102.8395884069042
  0
LINE
  8
1
  6
CONTINUOUS
 62
     7
 10
131.35
 20
102.393741096848
 11
131.35
 21
101.5
  0
ARC
  8
1
  6
CONTINUOUS
 62
     7
 10
130.55
 20
101.5
 40
0.800000000000002
 50
270.0
 51
359.9999999999996
  0
LINE
  8
1
  6
CONTINUOUS
 62
     7
 10
130.55
 20
100.7
 11
129.0999999999999
 21
100.7
  0
LINE
  8
1
  6
CONTINUOUS
 62
     7
 10
129.0999999999999
 20
100.7
 11
129.0999999999999
 21
99.69999999999997
  0
LINE
  8
1
  6
CONTINUOUS
 62
     7
 10
129.0999999999999
 20
99.69999999999997
 11
130.55
 21
99.69999999999997
  0
ARC
  8
1
  6
CONTINUOUS
 62
     7
 10
130.55
 20
98.89999999999999
 40
0.800000000000002
 50
0.0
 51
89.99999999999949
  0
LINE
  8
1
  6
CONTINUOUS
 62
     7
 10
131.35
 20
98.89999999999999
 11
131.35
 21
98.00625890315196
  0
ARC
  8
1
  6
CONTINUOUS
 62
     7
 10
131.85
 20
100.2
 40
2.250000000000005
 50
257.1604115930959
 51
282.8395884069041
  0
LINE
  8
1
  6
CONTINUOUS
 62
     7
 10
132.35
 20
98.00625890315196
 11
132.35
 21
98.89999999999999
  0
ARC
  8
1
  6
CONTINUOUS
 62
     7
 10
133.1499999999999
 20
98.89999999999999
 40
0.800000000000002
 50
90.0
 51
180.0
  0
LINE
  8
1
  6
CONTINUOUS
 62
     7
 10
133.1499999999999
 20
99.69999999999997
 11
134.5999999999999
 21
99.69999999999997
  0
LINE
  8
1
  6
CONTINUOUS
 62
     7
 10
134.5999999999999
 20
99.69999999999997
 11
134.5999999999999
 21
100.7
  0
CIRCLE
  8
1
  6
CONTINUOUS
 62
     7
 10
131.85
 20
100.2
 40
3.999999999999996
  0
ARC
  8
1
  6
CONTINUOUS
 62
     7
 10
131.85
 20
100.2
 40
1.801276552751914
 50
163.8841207182081
 51
196.1158792817919
  0
ARC
  8
1
  6
CONTINUOUS
 62
     7
 10
131.85
 20
100.2
 40
1.801276552751914
 50
343.8841207182081
 51
16.11587928179193
  0
LINE
  8
1
  6
CONTINUOUS
 62
     7
 10
226.6
 20
100.7
 11
225.1499999999999
 21
100.7
  0
ARC
  8
1
  6
CONTINUOUS
 62
     7
 10
225.1499999999999
 20
101.5
 40
0.800000000000002
 50
180.0
 51
269.9999999999995
  0
LINE
  8
1
  6
CONTINUOUS
 62
     7
 10
224.3499999999999
 20
101.5
 11
224.3499999999999
 21
102.393741096848
  0
ARC
  8
1
  6
CONTINUOUS
 62
     7
 10
223.8499999999999
 20
100.2
 40
2.249999999999998
 50
77.16041159309584
 51
102.8395884069042
  0
LINE
  8
1
  6
CONTINUOUS
 62
     7
 10
223.3499999999999
 20
102.393741096848
 11
223.3499999999999
 21
101.5
  0
ARC
  8
1
  6
CONTINUOUS
 62
     7
 10
222.55
 20
101.5
 40
0.800000000000002
 50
270.0
 51
359.9999999999996
  0
LINE
  8
1
  6
CONTINUOUS
 62
     7
 10
222.55
 20
100.7
 11
221.1
 21
100.7
  0
LINE
  8
1
  6
CONTINUOUS
 62
     7
 10
221.1
 20
100.7
 11
221.1
 21
99.69999999999996
  0
LINE
  8
1
  6
CONTINUOUS
 62
     7
 10
221.1
 20
99.69999999999996
 11
222.55
 21
99.69999999999996
  0
ARC
  8
1
  6
CONTINUOUS
 62
     7
 10
222.55
 20
98.89999999999998
 40
0.800000000000002
 50
0.0
 51
89.99999999999949
  0
LINE
  8
1
  6
CONTINUOUS
 62
     7
 10
223.3499999999999
 20
98.89999999999998
 11
223.3499999999999
 21
98.00625890315193
  0
ARC
  8
1
  6
CONTINUOUS
 62
     7
 10
223.8499999999999
 20
100.2
 40
2.250000000000005
 50
257.1604115930959
 51
282.8395884069041
  0
LINE
  8
1
  6
CONTINUOUS
 62
     7
 10
224.3499999999999
 20
98.00625890315193
 11
224.3499999999999
 21
98.89999999999996
  0
ARC
  8
1
  6
CONTINUOUS
 62
     7
 10
225.1499999999999
 20
98.89999999999996
 40
0.800000000000002
 50
90.0
 51
180.0
  0
LINE
  8
1
  6
CONTINUOUS
 62
     7
 10
225.1499999999999
 20
99.69999999999996
 11
226.6
 21
99.69999999999996
  0
LINE
  8
1
  6
CONTINUOUS
 62
     7
 10
226.6
 20
99.69999999999996
 11
226.6
 21
100.7
  0
CIRCLE
  8
1
  6
CONTINUOUS
 62
     7
 10
223.8499999999999
 20
100.2
 40
3.999999999999996
  0
ARC
  8
1
  6
CONTINUOUS
 62
     7
 10
223.8499999999999
 20
100.2
 40
1.801276552751914
 50
163.8841207182081
 51
196.1158792817919
  0
ARC
  8
1
  6
CONTINUOUS
 62
     7
 10
223.8499999999999
 20
100.2
 40
1.801276552751914
 50
343.8841207182081
 51
16.11587928179193
  0
LINE
  8
1
  6
CONTINUOUS
 62
     7
 10
239.0999999999999
 20
185.4
 11
240.5499999999999
 21
185.4
  0
ARC
  8
1
  6
CONTINUOUS
 62
     7
 10
240.5499999999999
 20
184.6
 40
0.800000000000002
 50
0.0
 51
89.99999999999949
  0
LINE
  8
1
  6
CONTINUOUS
 62
     7
 10
241.3499999999999
 20
184.6
 11
241.3499999999999
 21
183.706258903152
  0
ARC
  8
1
  6
CONTINUOUS
 62
     7
 10
241.8499999999999
 20
185.9
 40
2.250000000000005
 50
257.1604115930959
 51
282.8395884069041
  0
LINE
  8
1
  6
CONTINUOUS
 62
     7
 10
242.3499999999999
 20
183.706258903152
 11
242.3499999999999
 21
184.6
  0
ARC
  8
1
  6
CONTINUOUS
 62
     7
 10
243.1499999999999
 20
184.6
 40
0.800000000000002
 50
90.0
 51
179.9999999999995
  0
LINE
  8
1
  6
CONTINUOUS
 62
     7
 10
243.1499999999999
 20
185.4
 11
244.5999999999999
 21
185.4
  0
LINE
  8
1
  6
CONTINUOUS
 62
     7
 10
244.5999999999999
 20
185.4
 11
244.5999999999999
 21
186.4
  0
LINE
  8
1
  6
CONTINUOUS
 62
     7
 10
244.6
 20
186.4
 11
243.15
 21
186.4
  0
ARC
  8
1
  6
CONTINUOUS
 62
     7
 10
243.15
 20
187.2
 40
0.800000000000002
 50
180.0
 51
269.9999999999995
  0
LINE
  8
1
  6
CONTINUOUS
 62
     7
 10
242.3499999999999
 20
187.2
 11
242.3499999999999
 21
188.093741096848
  0
ARC
  8
1
  6
CONTINUOUS
 62
     7
 10
241.8499999999999
 20
185.9
 40
2.250000000000005
 50
77.16041159309587
 51
102.8395884069042
  0
LINE
  8
1
  6
CONTINUOUS
 62
     7
 10
241.3499999999999
 20
188.093741096848
 11
241.3499999999999
 21
187.2
  0
ARC
  8
1
  6
CONTINUOUS
 62
     7
 10
240.55
 20
187.2
 40
0.800000000000002
 50
270.0
 51
0.0
  0
LINE
  8
1
  6
CONTINUOUS
 62
     7
 10
240.55
 20
186.4
 11
239.1
 21
186.4
  0
LINE
  8
1
  6
CONTINUOUS
 62
     7
 10
239.0999999999999
 20
186.4
 11
239.0999999999999
 21
185.4
  0
CIRCLE
  8
1
  6
CONTINUOUS
 62
     7
 10
241.8499999999999
 20
185.9
 40
4.000000000000004
  0
ARC
  8
1
  6
CONTINUOUS
 62
     7
 10
241.8499999999999
 20
185.9
 40
1.801276552751914
 50
343.8841207182081
 51
16.11587928179193
  0
ARC
  8
1
  6
CONTINUOUS
 62
     7
 10
241.8499999999999
 20
185.9
 40
1.801276552751914
 50
163.8841207182081
 51
196.1158792817919
  0
LINE
  8
1
  6
CONTINUOUS
 62
     7
 10
147.0999999999999
 20
185.4
 11
148.55
 21
185.4
  0
ARC
  8
1
  6
CONTINUOUS
 62
     7
 10
148.55
 20
184.6
 40
0.800000000000002
 50
0.0
 51
89.99999999999949
  0
LINE
  8
1
  6
CONTINUOUS
 62
     7
 10
149.3499999999999
 20
184.6
 11
149.3499999999999
 21
183.706258903152
  0
ARC
  8
1
  6
CONTINUOUS
 62
     7
 10
149.85
 20
185.9
 40
2.250000000000005
 50
257.1604115930959
 51
282.8395884069041
  0
LINE
  8
1
  6
CONTINUOUS
 62
     7
 10
150.3499999999999
 20
183.706258903152
 11
150.3499999999999
 21
184.6
  0
ARC
  8
1
  6
CONTINUOUS
 62
     7
 10
151.1499999999999
 20
184.6
 40
0.800000000000002
 50
90.0
 51
179.9999999999995
  0
LINE
  8
1
  6
CONTINUOUS
 62
     7
 10
151.1499999999999
 20
185.4
 11
152.6
 21
185.4
  0
LINE
  8
1
  6
CONTINUOUS
 62
     7
 10
152.6
 20
185.4
 11
152.6
 21
186.4
  0
LINE
  8
1
  6
CONTINUOUS
 62
     7
 10
152.6
 20
186.4
 11
151.1499999999999
 21
186.4
  0
ARC
  8
1
  6
CONTINUOUS
 62
     7
 10
151.1499999999999
 20
187.2
 40
0.800000000000002
 50
180.0
 51
269.9999999999995
  0
LINE
  8
1
  6
CONTINUOUS
 62
     7
 10
150.3499999999999
 20
187.2
 11
150.3499999999999
 21
188.093741096848
  0
ARC
  8
1
  6
CONTINUOUS
 62
     7
 10
149.85
 20
185.9
 40
2.250000000000005
 50
77.16041159309587
 51
102.8395884069042
  0
LINE
  8
1
  6
CONTINUOUS
 62
     7
 10
149.3499999999999
 20
188.093741096848
 11
149.3499999999999
 21
187.2
  0
ARC
  8
1
  6
CONTINUOUS
 62
     7
 10
148.55
 20
187.2
 40
0.800000000000002
 50
270.0
 51
0.0
  0
LINE
  8
1
  6
CONTINUOUS
 62
     7
 10
148.55
 20
186.4
 11
147.0999999999999
 21
186.4
  0
LINE
  8
1
  6
CONTINUOUS
 62
     7
 10
147.0999999999999
 20
186.4
 11
147.0999999999999
 21
185.4
  0
CIRCLE
  8
1
  6
CONTINUOUS
 62
     7
 10
149.85
 20
185.9
 40
4.000000000000004
  0
ARC
  8
1
  6
CONTINUOUS
 62
     7
 10
149.85
 20
185.9
 40
1.801276552751914
 50
163.8841207182081
 51
196.1158792817919
  0
ARC
  8
1
  6
CONTINUOUS
 62
     7
 10
149.85
 20
185.9
 40
1.801276552751914
 50
343.8841207182081
 51
16.11587928179193
  0
LINE
  8
1
  6
CONTINUOUS
 62
     7
 10
123.4739388813229
 20
104.7
 11
123.3499999999999
 21
104.7
  0
LINE
  8
1
  6
CONTINUOUS
 62
     7
 10
250.226061118677
 20
181.4
 11
250.35
 21
181.4
  0
LINE
  8
1
  6
CONTINUOUS
 62
     7
 10
115.35
 20
170.05
 11
116.1313835338625
 21
170.05
  0
ARC
  8
1
  6
CONTINUOUS
 62
     7
 10
140.85
 20
167.05
 40
24.9
 50
173.0800831969697
 51
180.0
  0
LINE
  8
1
  6
CONTINUOUS
 62
     7
 10
115.35
 20
175.9241196746494
 11
115.35
 21
170.05
  0
LINE
  8
1
  6
CONTINUOUS
 62
     7
 10
258.3499999999999
 20
116.05
 11
257.5686164661374
 21
116.05
  0
ARC
  8
1
  6
CONTINUOUS
 62
     7
 10
232.8499999999999
 20
119.05
 40
24.9
 50
353.0800831969696
 51
0.0
  0
LINE
  8
1
  6
CONTINUOUS
 62
     7
 10
258.3499999999999
 20
110.1758803253506
 11
258.3499999999999
 21
116.05
  0
ARC
  8
1
  6
CONTINUOUS
 62
     7
 10
140.85
 20
119.05
 40
24.89999999999999
 50
180.0
 51
186.9199168030303
  0
LINE
  8
1
  6
CONTINUOUS
 62
     7
 10
116.1313835338625
 20
116.05
 11
115.3499999999999
 21
116.05
  0
LINE
  8
1
  6
CONTINUOUS
 62
     7
 10
115.35
 20
116.05
 11
115.35
 21
110.1758803253506
  0
ARC
  8
1
  6
CONTINUOUS
 62
     7
 10
232.8499999999999
 20
167.05
 40
24.89999999999999
 50
0.000000000000008
 51
6.919916803030357
  0
LINE
  8
1
  6
CONTINUOUS
 62
     7
 10
257.5686164661374
 20
170.05
 11
258.35
 21
170.05
  0
LINE
  8
1
  6
CONTINUOUS
 62
     7
 10
258.3499999999999
 20
170.05
 11
258.3499999999999
 21
175.9241196746494
  0
LINE
  8
1
  6
CONTINUOUS
 62
     7
 10
115.9499999999999
 20
167.05
 11
115.9499999999998
 21
148.0500000000001
  0
LINE
  8
1
  6
CONTINUOUS
 62
     7
 10
115.9499999999999
 20
148.0500000000001
 11
113.8499999999999
 21
148.0500000000001
  0
LINE
  8
1
  6
CONTINUOUS
 62
     7
 10
257.75
 20
119.05
 11
257.7500000000001
 21
138.0499999999999
  0
LINE
  8
1
  6
CONTINUOUS
 62
     7
 10
257.75
 20
138.0499999999999
 11
259.85
 21
138.0499999999999
  0
LINE
  8
1
  6
CONTINUOUS
 62
     7
 10
115.9499999999998
 20
138.0499999999999
 11
115.9499999999999
 21
119.05
  0
LINE
  8
1
  6
CONTINUOUS
 62
     7
 10
113.85
 20
138.0499999999999
 11
115.95
 21
138.0499999999999
  0
LINE
  8
1
  6
CONTINUOUS
 62
     7
 10
257.7500000000001
 20
148.0500000000001
 11
257.75
 21
167.05
  0
LINE
  8
1
  6
CONTINUOUS
 62
     7
 10
259.85
 20
148.0500000000001
 11
257.75
 21
148.0500000000001
  0
LINE
  8
1
  6
CONTINUOUS
 62
     7
 10
261.8500000000001
 20
122.5499999999999
 11
262.8500000000001
 21
122.5499999999999
  0
ARC
  8
1
  6
CONTINUOUS
 62
     7
 10
261.8500000000001
 20
121.5499999999999
 40
1.000000000000001
 50
90.0
 51
180.0000000000002
  0
LINE
  8
1
  6
CONTINUOUS
 62
     7
 10
260.8500000000001
 20
120.5499999999999
 11
260.8500000000001
 21
121.5499999999999
  0
ARC
  8
1
  6
CONTINUOUS
 62
     7
 10
261.8500000000001
 20
120.5499999999999
 40
1.000000000000001
 50
180.0
 51
270.0
  0
LINE
  8
1
  6
CONTINUOUS
 62
     7
 10
262.8500000000001
 20
119.5499999999999
 11
261.8500000000001
 21
119.5499999999999
  0
LINE
  8
1
  6
CONTINUOUS
 62
     7
 10
262.8500000000001
 20
109.0499999999999
 11
262.8500000000001
 21
119.5499999999999
  0
ARC
  8
1
  6
CONTINUOUS
 62
     7
 10
260.8500000000001
 20
109.0499999999999
 40
2.000000000000002
 50
270.0
 51
0.0
  0
LINE
  8
1
  6
CONTINUOUS
 62
     7
 10
258.3499999999999
 20
107.05
 11
260.85
 21
107.0499999999999
  0
ARC
  8
1
  6
CONTINUOUS
 62
     7
 10
261.8500000000001
 20
137.0499999999999
 40
1.000000000000001
 50
0.0
 51
90.0
  0
LINE
  8
1
  6
CONTINUOUS
 62
     7
 10
262.8500000000001
 20
122.5499999999999
 11
262.8500000000001
 21
137.0499999999999
  0
LINE
  8
1
  6
CONTINUOUS
 62
     7
 10
261.8500000000001
 20
138.0499999999999
 11
259.85
 21
138.0499999999999
  0
LINE
  8
1
  6
CONTINUOUS
 62
     7
 10
258.3499999999999
 20
110.1758803253506
 11
258.3499999999999
 21
107.05
  0
LINE
  8
1
  6
CONTINUOUS
 62
     7
 10
258.3499999999999
 20
179.05
 11
260.85
 21
179.05
  0
ARC
  8
1
  6
CONTINUOUS
 62
     7
 10
260.8500000000001
 20
177.05
 40
2.000000000000002
 50
0.0
 51
90.0
  0
LINE
  8
1
  6
CONTINUOUS
 62
     7
 10
262.8500000000001
 20
177.05
 11
262.8500000000001
 21
166.55
  0
LINE
  8
1
  6
CONTINUOUS
 62
     7
 10
262.8500000000001
 20
166.55
 11
261.8500000000001
 21
166.5500000000001
  0
ARC
  8
1
  6
CONTINUOUS
 62
     7
 10
261.8500000000001
 20
165.55
 40
1.000000000000001
 50
90.0
 51
180.0
  0
LINE
  8
1
  6
CONTINUOUS
 62
     7
 10
260.8500000000001
 20
165.55
 11
260.8500000000001
 21
164.55
  0
ARC
  8
1
  6
CONTINUOUS
 62
     7
 10
261.8500000000001
 20
164.55
 40
1.000000000000001
 50
179.9999999999998
 51
270.0
  0
LINE
  8
1
  6
CONTINUOUS
 62
     7
 10
261.8500000000001
 20
163.55
 11
262.8500000000001
 21
163.55
  0
LINE
  8
1
  6
CONTINUOUS
 62
     7
 10
262.8500000000001
 20
163.55
 11
262.8500000000001
 21
149.0500000000001
  0
ARC
  8
1
  6
CONTINUOUS
 62
     7
 10
261.8500000000001
 20
149.0500000000001
 40
1.000000000000001
 50
270.0
 51
0.0
  0
LINE
  8
1
  6
CONTINUOUS
 62
     7
 10
261.8500000000001
 20
148.0500000000001
 11
259.85
 21
148.0500000000001
  0
LINE
  8
1
  6
CONTINUOUS
 62
     7
 10
258.3499999999999
 20
175.9241196746494
 11
258.3499999999999
 21
179.05
  0
ARC
  8
1
  6
CONTINUOUS
 62
     7
 10
111.8499999999998
 20
164.55
 40
1.000000000000001
 50
269.9999999999999
 51
0.0000000000001705
  0
ARC
  8
1
  6
CONTINUOUS
 62
     7
 10
111.8499999999998
 20
149.0500000000001
 40
1.000000000000001
 50
180.0
 51
270.0
  0
LINE
  8
1
  6
CONTINUOUS
 62
     7
 10
110.8499999999998
 20
163.55
 11
110.8499999999998
 21
149.0500000000001
  0
LINE
  8
1
  6
CONTINUOUS
 62
     7
 10
111.8499999999998
 20
163.55
 11
110.8499999999998
 21
163.55
  0
LINE
  8
1
  6
CONTINUOUS
 62
     7
 10
112.8499999999998
 20
165.55
 11
112.8499999999998
 21
164.55
  0
ARC
  8
1
  6
CONTINUOUS
 62
     7
 10
111.8499999999998
 20
165.55
 40
1.000000000000001
 50
0.0
 51
90.0
  0
LINE
  8
1
  6
CONTINUOUS
 62
     7
 10
110.8499999999998
 20
166.55
 11
111.8499999999998
 21
166.5500000000001
  0
ARC
  8
1
  6
CONTINUOUS
 62
     7
 10
112.8499999999998
 20
177.05
 40
2.000000000000002
 50
90.0
 51
180.0
  0
LINE
  8
1
  6
CONTINUOUS
 62
     7
 10
115.35
 20
179.05
 11
112.8499999999999
 21
179.05
  0
LINE
  8
1
  6
CONTINUOUS
 62
     7
 10
110.8499999999998
 20
177.05
 11
110.8499999999998
 21
166.55
  0
LINE
  8
1
  6
CONTINUOUS
 62
     7
 10
111.8499999999998
 20
148.0500000000001
 11
113.8499999999999
 21
148.0500000000001
  0
LINE
  8
1
  6
CONTINUOUS
 62
     7
 10
115.35
 20
175.9241196746494
 11
115.35
 21
179.05
  0
ARC
  8
1
  6
CONTINUOUS
 62
     7
 10
111.8499999999998
 20
137.0499999999999
 40
1.000000000000001
 50
90.0
 51
180.0
  0
LINE
  8
1
  6
CONTINUOUS
 62
     7
 10
110.8499999999998
 20
122.5499999999999
 11
110.8499999999998
 21
137.0499999999999
  0
ARC
  8
1
  6
CONTINUOUS
 62
     7
 10
111.8499999999998
 20
120.5499999999999
 40
1.000000000000001
 50
270.0
 51
0.0
  0
LINE
  8
1
  6
CONTINUOUS
 62
     7
 10
110.8499999999998
 20
109.0499999999999
 11
110.8499999999998
 21
119.5499999999999
  0
ARC
  8
1
  6
CONTINUOUS
 62
     7
 10
112.8499999999998
 20
109.0499999999999
 40
2.000000000000002
 50
180.0
 51
270.0
  0
LINE
  8
1
  6
CONTINUOUS
 62
     7
 10
115.35
 20
107.05
 11
112.8499999999999
 21
107.0499999999999
  0
LINE
  8
1
  6
CONTINUOUS
 62
     7
 10
111.8499999999998
 20
122.5499999999999
 11
110.8499999999998
 21
122.5499999999999
  0
ARC
  8
1
  6
CONTINUOUS
 62
     7
 10
111.8499999999998
 20
121.5499999999999
 40
1.000000000000001
 50
359.9999999999998
 51
90.0
  0
LINE
  8
1
  6
CONTINUOUS
 62
     7
 10
112.8499999999998
 20
120.5499999999999
 11
112.8499999999998
 21
121.5499999999999
  0
LINE
  8
1
  6
CONTINUOUS
 62
     7
 10
110.8499999999998
 20
119.5499999999999
 11
111.8499999999998
 21
119.5499999999999
  0
LINE
  8
1
  6
CONTINUOUS
 62
     7
 10
111.8499999999998
 20
138.0499999999999
 11
113.8499999999999
 21
138.0499999999999
  0
LINE
  8
1
  6
CONTINUOUS
 62
     7
 10
115.35
 20
110.1758803253506
 11
115.35
 21
107.05
  0
LINE
  8
1
  6
CONTINUOUS
 62
     7
 10
259.3499999999999
 20
146.45
 11
259.35
 21
148.05
  0
LINE
  8
1
  6
CONTINUOUS
 62
     7
 10
257.75
 20
148.0500000000001
 11
257.75
 21
146.4500000000001
  0
LINE
  8
1
  6
CONTINUOUS
 62
     7
 10
114.35
 20
139.6499999999999
 11
114.3499999999999
 21
138.0499999999999
  0
LINE
  8
1
  6
CONTINUOUS
 62
     7
 10
115.9499999999999
 20
138.0499999999999
 11
115.9499999999999
 21
139.6499999999999
  0
LINE
  8
1
  6
CONTINUOUS
 62
     7
 10
259.3499999999999
 20
138.0499999999999
 11
259.3499999999999
 21
139.6499999999999
  0
LINE
  8
1
  6
CONTINUOUS
 62
     7
 10
257.75
 20
139.6499999999999
 11
257.7500000000001
 21
138.0499999999999
  0
LINE
  8
1
  6
CONTINUOUS
 62
     7
 10
114.35
 20
148.0500000000001
 11
114.35
 21
146.4500000000001
  0
LINE
  8
1
  6
CONTINUOUS
 62
     7
 10
115.9499999999999
 20
146.4500000000001
 11
115.9499999999998
 21
148.0500000000001
  0
LINE
  8
1
  6
CONTINUOUS
 62
     7
 10
170.8499999999999
 20
106.3
 11
202.85
 21
106.3
  0
LINE
  8
1
  6
CONTINUOUS
 62
     7
 10
202.85
 20
106.3
 11
202.85
 21
103.7
  0
LINE
  8
1
  6
CONTINUOUS
 62
     7
 10
170.8499999999999
 20
103.7
 11
170.8499999999999
 21
106.3
  0
LINE
  8
1
  6
CONTINUOUS
 62
     7
 10
248.85
 20
179.8
 11
248.85
 21
182.4
  0
LINE
  8
1
  6
CONTINUOUS
 62
     7
 10
248.85
 20
179.8
 11
244.8878953450595
 21
179.8
  0
LINE
  8
1
  6
CONTINUOUS
 62
     7
 10
238.8121046549404
 20
179.8
 11
216.85
 21
179.8
  0
LINE
  8
1
  6
CONTINUOUS
 62
     7
 10
216.85
 20
179.8
 11
216.85
 21
182.4
  0
LINE
  8
1
  6
CONTINUOUS
 62
     7
 10
134.8878953450595
 20
106.3
 11
156.8499999999999
 21
106.3
  0
LINE
  8
1
  6
CONTINUOUS
 62
     7
 10
156.8499999999999
 20
106.3
 11
156.8499999999999
 21
103.7
  0
LINE
  8
1
  6
CONTINUOUS
 62
     7
 10
124.8499999999999
 20
106.3
 11
128.8121046549404
 21
106.3
  0
LINE
  8
1
  6
CONTINUOUS
 62
     7
 10
124.8499999999999
 20
106.3
 11
124.8499999999999
 21
103.7
  0
ARC
  8
1
  6
CONTINUOUS
 62
     7
 10
140.8499999999999
 20
118.5499999999998
 40
26.99999999999992
 50
294.8505023402286
 51
306.3412030937851
  0
LINE
  8
1
  6
CONTINUOUS
 62
     7
 10
152.1968057179101
 20
94.04999999999981
 11
129.5031942820896
 21
94.04999999999981
  0
ARC
  8
1
  6
CONTINUOUS
 62
     7
 10
140.8499999999999
 20
118.5499999999998
 40
26.99999999999992
 50
233.6587969062151
 51
245.1494976597715
  0
LINE
  8
1
  6
CONTINUOUS
 62
     7
 10
156.8499999999999
 20
103.7
 11
156.8499999999999
 21
96.80143682906835
  0
LINE
  8
1
  6
CONTINUOUS
 62
     7
 10
124.8499999999999
 20
103.7
 11
124.8499999999999
 21
96.80143682906831
  0
ARC
  8
1
  6
CONTINUOUS
 62
     7
 10
232.8500000000001
 20
167.5500000000002
 40
26.99999999999992
 50
114.8505023402285
 51
126.3412030937851
  0
LINE
  8
1
  6
CONTINUOUS
 62
     7
 10
221.5031942820899
 20
192.0500000000002
 11
244.1968057179103
 21
192.0500000000002
  0
ARC
  8
1
  6
CONTINUOUS
 62
     7
 10
232.8500000000001
 20
167.5500000000002
 40
26.99999999999992
 50
53.65879690621512
 51
65.14949765977155
  0
LINE
  8
1
  6
CONTINUOUS
 62
     7
 10
248.85
 20
182.4
 11
248.85
 21
189.2985631709317
  0
LINE
  8
1
  6
CONTINUOUS
 62
     7
 10
216.85
 20
182.4
 11
216.8500000000001
 21
189.2985631709316
  0
LINE
  8
1
  6
CONTINUOUS
 62
     7
 10
170.8499999999999
 20
182.4
 11
170.8499999999999
 21
189.2985631709315
  0
ARC
  8
1
  6
CONTINUOUS
 62
     7
 10
186.85
 20
167.55
 40
26.99999999999999
 50
114.8505023402284
 51
126.3412030937849
  0
LINE
  8
1
  6
CONTINUOUS
 62
     7
 10
198.1968057179102
 20
192.05
 11
175.5031942820897
 21
192.05
  0
ARC
  8
1
  6
CONTINUOUS
 62
     7
 10
186.85
 20
167.55
 40
26.99999999999998
 50
53.65879690621495
 51
65.14949765977146
  0
LINE
  8
1
  6
CONTINUOUS
 62
     7
 10
202.85
 20
189.2985631709315
 11
202.85
 21
182.4
  0
LINE
  8
1
  6
CONTINUOUS
 62
     7
 10
202.85
 20
179.8
 11
170.8499999999999
 21
179.8
  0
LINE
  8
1
  6
CONTINUOUS
 62
     7
 10
170.8499999999999
 20
179.8
 11
170.8499999999999
 21
182.4
  0
LINE
  8
1
  6
CONTINUOUS
 62
     7
 10
202.85
 20
182.4
 11
202.85
 21
179.8
  0
LINE
  8
1
  6
CONTINUOUS
 62
     7
 10
198.1968057179102
 20
94.04999999999997
 11
175.5031942820897
 21
94.04999999999995
  0
ARC
  8
1
  6
CONTINUOUS
 62
     7
 10
186.85
 20
118.5499999999999
 40
26.99999999999998
 50
294.8505023402286
 51
306.341203093785
  0
ARC
  8
1
  6
CONTINUOUS
 62
     7
 10
186.85
 20
118.5499999999999
 40
26.99999999999999
 50
233.658796906215
 51
245.1494976597715
  0
LINE
  8
1
  6
CONTINUOUS
 62
     7
 10
202.85
 20
103.7
 11
202.85
 21
96.80143682906844
  0
LINE
  8
1
  6
CONTINUOUS
 62
     7
 10
170.8499999999999
 20
96.80143682906841
 11
170.8499999999999
 21
103.7
  0
LINE
  8
1
  6
CONTINUOUS
 62
     7
 10
216.85
 20
106.3
 11
220.8121046549404
 21
106.3
  0
LINE
  8
1
  6
CONTINUOUS
 62
     7
 10
216.85
 20
103.7
 11
216.85
 21
106.3
  0
LINE
  8
1
  6
CONTINUOUS
 62
     7
 10
226.8878953450595
 20
106.3
 11
248.85
 21
106.3
  0
LINE
  8
1
  6
CONTINUOUS
 62
     7
 10
248.85
 20
103.7
 11
248.85
 21
106.3
  0
LINE
  8
1
  6
CONTINUOUS
 62
     7
 10
146.8121046549404
 20
179.8
 11
124.8499999999999
 21
179.8
  0
LINE
  8
1
  6
CONTINUOUS
 62
     7
 10
124.8499999999999
 20
182.4
 11
124.8499999999999
 21
179.8
  0
LINE
  8
1
  6
CONTINUOUS
 62
     7
 10
156.8499999999999
 20
179.8
 11
152.8878953450595
 21
179.8
  0
LINE
  8
1
  6
CONTINUOUS
 62
     7
 10
156.8499999999999
 20
182.4
 11
156.8499999999999
 21
179.8
  0
LINE
  8
1
  6
CONTINUOUS
 62
     7
 10
152.8878953450595
 20
179.8
 11
146.8121046549404
 21
179.8
  0
ARC
  8
1
  6
CONTINUOUS
 62
     7
 10
232.8500000000001
 20
118.5499999999998
 40
26.99999999999992
 50
294.8505023402284
 51
306.3412030937848
  0
LINE
  8
1
  6
CONTINUOUS
 62
     7
 10
221.5031942820899
 20
94.04999999999981
 11
244.1968057179103
 21
94.04999999999981
  0
ARC
  8
1
  6
CONTINUOUS
 62
     7
 10
232.8500000000001
 20
118.5499999999998
 40
26.99999999999992
 50
233.6587969062149
 51
245.1494976597715
  0
LINE
  8
1
  6
CONTINUOUS
 62
     7
 10
248.85
 20
96.8014368290683
 11
248.85
 21
103.7
  0
LINE
  8
1
  6
CONTINUOUS
 62
     7
 10
216.8500000000001
 20
96.80143682906835
 11
216.85
 21
103.7
  0
LINE
  8
1
  6
CONTINUOUS
 62
     7
 10
220.8121046549404
 20
106.3
 11
226.8878953450595
 21
106.3
  0
ARC
  8
1
  6
CONTINUOUS
 62
     7
 10
140.8499999999999
 20
167.5500000000002
 40
26.99999999999992
 50
114.8505023402285
 51
126.3412030937849
  0
LINE
  8
1
  6
CONTINUOUS
 62
     7
 10
152.1968057179101
 20
192.0500000000002
 11
129.5031942820896
 21
192.0500000000002
  0
ARC
  8
1
  6
CONTINUOUS
 62
     7
 10
140.8499999999999
 20
167.5500000000002
 40
26.99999999999992
 50
53.65879690621488
 51
65.14949765977148
  0
LINE
  8
1
  6
CONTINUOUS
 62
     7
 10
156.8499999999999
 20
189.2985631709316
 11
156.8499999999999
 21
182.4
  0
LINE
  8
1
  6
CONTINUOUS
 62
     7
 10
124.8499999999999
 20
189.2985631709317
 11
124.8499999999999
 21
182.4
  0
LINE
  8
1
  6
CONTINUOUS
 62
     7
 10
115.4334699457223
 20
174.55
 11
117.1063692751087
 21
174.55
  0
LINE
  8
1
  6
CONTINUOUS
 62
     7
 10
117.1063692751087
 20
174.55
 11
116.6590926172663
 21
172.95
  0
ARC
  8
1
  6
CONTINUOUS
 62
     7
 10
140.8499999999999
 20
167.05
 40
24.89999999999999
 50
166.2935337414017
 51
173.0800831969698
  0
ARC
  8
1
  6
CONTINUOUS
 62
     7
 10
232.85
 20
167.05
 40
24.89999999999999
 50
6.91991680303022
 51
13.70646625859831
  0
ARC
  8
1
  6
CONTINUOUS
 62
     7
 10
232.85
 20
119.05
 40
24.89999999999999
 50
346.2935337414016
 51
353.0800831969697
  0
ARC
  8
1
  6
CONTINUOUS
 62
     7
 10
140.8499999999999
 20
119.05
 40
24.89999999999999
 50
186.9199168030302
 51
193.7064662585983
  0
LINE
  8
1
  6
CONTINUOUS
 62
     7
 10
256.5936307248912
 20
174.55
 11
258.2665300542776
 21
174.55
  0
LINE
  8
1
  6
CONTINUOUS
 62
     7
 10
257.0409073827337
 20
172.95
 11
256.5936307248913
 21
174.55
  0
LINE
  8
1
  6
CONTINUOUS
 62
     7
 10
117.1063692751087
 20
111.55
 11
115.4334699457223
 21
111.55
  0
LINE
  8
1
  6
CONTINUOUS
 62
     7
 10
116.6590926172662
 20
113.15
 11
117.1063692751086
 21
111.55
  0
LINE
  8
1
  6
CONTINUOUS
 62
     7
 10
258.2665300542776
 20
111.55
 11
256.5936307248913
 21
111.55
  0
LINE
  8
1
  6
CONTINUOUS
 62
     7
 10
256.5936307248912
 20
111.55
 11
257.0409073827337
 21
113.15
  0
LINE
  8
1
  6
CONTINUOUS
 62
     7
 10
128.8121046549404
 20
106.3
 11
134.8878953450595
 21
106.3
  0
LINE
  8
1
  6
CONTINUOUS
 62
     7
 10
244.8878953450595
 20
179.8
 11
238.8121046549404
 21
179.8
  0
LINE
  8
1
  6
CONTINUOUS
 62
     7
 10
114.35
 20
139.6499999999999
 11
114.35
 21
146.45
  0
LINE
  8
1
  6
CONTINUOUS
 62
     7
 10
115.9499999999999
 20
146.4500000000001
 11
115.9499999999999
 21
139.6499999999999
  0
LINE
  8
1
  6
CONTINUOUS
 62
     7
 10
259.35
 20
139.6499999999999
 11
259.35
 21
146.45
  0
LINE
  8
1
  6
CONTINUOUS
 62
     7
 10
257.75
 20
146.4500000000001
 11
257.75
 21
139.6499999999999
  0
LINE
  8
1
  6
CONTINUOUS
 62
     7
 10
216.85
 20
104.7
 11
202.85
 21
104.7
  0
LINE
  8
1
  6
CONTINUOUS
 62
     7
 10
202.85
 20
106.3
 11
216.85
 21
106.3
  0
LINE
  8
1
  6
CONTINUOUS
 62
     7
 10
170.8499999999999
 20
181.4
 11
156.85
 21
181.4
  0
LINE
  8
1
  6
CONTINUOUS
 62
     7
 10
156.8499999999999
 20
179.8
 11
170.8499999999999
 21
179.8
  0
LINE
  8
1
  6
CONTINUOUS
 62
     7
 10
216.85
 20
181.4
 11
202.85
 21
181.4
  0
LINE
  8
1
  6
CONTINUOUS
 62
     7
 10
202.85
 20
179.8
 11
216.85
 21
179.8
  0
LINE
  8
1
  6
CONTINUOUS
 62
     7
 10
170.8499999999999
 20
104.7
 11
156.85
 21
104.7
  0
LINE
  8
1
  6
CONTINUOUS
 62
     7
 10
156.8499999999999
 20
106.3
 11
170.8499999999999
 21
106.3
  0
ARC
  8
1
  6
CONTINUOUS
 62
     7
 10
250.226061118677
 20
112.7
 40
7.999999999999996
 50
269.9999999999999
 51
339.925406362798
  0
ARC
  8
1
  6
CONTINUOUS
 62
     7
 10
250.226061118677
 20
112.7
 40
6.399999999999992
 50
269.9999999999999
 51
339.9254063627981
  0
LINE
  8
1
  6
CONTINUOUS
 62
     7
 10
250.226061118677
 20
104.7
 11
248.8500000000001
 21
104.7
  0
LINE
  8
1
  6
CONTINUOUS
 62
     7
 10
250.226061118677
 20
106.3
 11
248.85
 21
106.3
  0
ARC
  8
1
  6
CONTINUOUS
 62
     7
 10
232.85
 20
119.05
 40
26.49999999999998
 50
339.9254063627981
 51
343.5595368833613
  0
ARC
  8
1
  6
CONTINUOUS
 62
     7
 10
232.85
 20
119.05
 40
24.89999999999998
 50
339.925406362798
 51
342.470018266927
  0
ARC
  8
1
  6
CONTINUOUS
 62
     7
 10
250.226061118677
 20
173.4
 40
7.999999999999995
 50
20.07459363720193
 51
90.00000000000011
  0
ARC
  8
1
  6
CONTINUOUS
 62
     7
 10
250.226061118677
 20
173.4
 40
6.399999999999992
 50
20.07459363720193
 51
90.00000000000011
  0
LINE
  8
1
  6
CONTINUOUS
 62
     7
 10
248.85
 20
181.4
 11
250.2260611186769
 21
181.4
  0
LINE
  8
1
  6
CONTINUOUS
 62
     7
 10
248.85
 20
179.8
 11
250.226061118677
 21
179.8
  0
ARC
  8
1
  6
CONTINUOUS
 62
     7
 10
232.85
 20
167.05
 40
26.49999999999998
 50
16.44046311663873
 51
20.07459363720181
  0
ARC
  8
1
  6
CONTINUOUS
 62
     7
 10
232.85
 20
167.05
 40
24.89999999999998
 50
17.52998173307298
 51
20.07459363720199
  0
ARC
  8
1
  6
CONTINUOUS
 62
     7
 10
123.4739388813229
 20
112.7
 40
7.999999999999995
 50
200.0745936372019
 51
270.0000000000001
  0
ARC
  8
1
  6
CONTINUOUS
 62
     7
 10
123.4739388813229
 20
112.7
 40
6.399999999999992
 50
200.0745936372018
 51
270.0000000000001
  0
LINE
  8
1
  6
CONTINUOUS
 62
     7
 10
124.8499999999999
 20
104.7
 11
123.4739388813229
 21
104.7
  0
LINE
  8
1
  6
CONTINUOUS
 62
     7
 10
124.8499999999999
 20
106.3
 11
123.4739388813229
 21
106.3
  0
ARC
  8
1
  6
CONTINUOUS
 62
     7
 10
140.8499999999999
 20
119.05
 40
26.49999999999998
 50
196.4404631166387
 51
200.0745936372018
  0
ARC
  8
1
  6
CONTINUOUS
 62
     7
 10
140.8499999999999
 20
119.05
 40
24.89999999999999
 50
197.5299817330729
 51
200.0745936372019
  0
ARC
  8
1
  6
CONTINUOUS
 62
     7
 10
123.4739388813229
 20
173.4
 40
7.999999999999996
 50
89.9999999999999
 51
159.925406362798
  0
ARC
  8
1
  6
CONTINUOUS
 62
     7
 10
123.4739388813229
 20
173.4
 40
6.399999999999992
 50
89.9999999999999
 51
159.9254063627982
  0
LINE
  8
1
  6
CONTINUOUS
 62
     7
 10
123.473938881323
 20
181.4
 11
124.8499999999999
 21
181.4
  0
LINE
  8
1
  6
CONTINUOUS
 62
     7
 10
123.4739388813229
 20
179.8
 11
124.8499999999999
 21
179.8
  0
ARC
  8
1
  6
CONTINUOUS
 62
     7
 10
140.8499999999999
 20
167.05
 40
26.49999999999998
 50
159.9254063627981
 51
163.5595368833613
  0
ARC
  8
1
  6
CONTINUOUS
 62
     7
 10
140.8499999999999
 20
167.05
 40
24.89999999999999
 50
159.9254063627981
 51
162.4700182669271
  0
CIRCLE
  8
1
  6
CONTINUOUS
 62
     7
 10
232.8499999999999
 20
128.05
 40
10.64999999999998
  0
CIRCLE
  8
1
  6
CONTINUOUS
 62
     7
 10
140.8499999999999
 20
158.05
 40
10.64999999999998
  0
CIRCLE
  8
1
  6
CONTINUOUS
 62
     7
 10
186.85
 20
158.05
 40
10.64999999999998
  0
CIRCLE
  8
1
  6
CONTINUOUS
 62
     7
 10
232.8499999999999
 20
158.05
 40
10.64999999999998
  0
CIRCLE
  8
1
  6
CONTINUOUS
 62
     7
 10
140.8499999999999
 20
128.05
 40
10.64999999999998
  0
CIRCLE
  8
1
  6
CONTINUOUS
 62
     7
 10
186.85
 20
128.05
 40
10.64999999999998
  0
ENDBLK
  8
0
  0
BLOCK
  8
0
  2
D_FRAME_DRAWING_17
 70
     0
 10
0.0
 20
0.0
  0
LINE
  8
図面枠
  6
CONTINUOUS
 62
     7
 10
0.0
 20
0.0
 11
297.0
 21
0.0
  0
LINE
  8
図面枠
  6
CONTINUOUS
 62
     7
 10
297.0
 20
0.0
 11
297.0
 21
210.0
  0
LINE
  8
図面枠
  6
CONTINUOUS
 62
     7
 10
297.0
 20
210.0
 11
0.0
 21
210.0
  0
LINE
  8
図面枠
  6
CONTINUOUS
 62
     7
 10
0.0
 20
210.0
 11
0.0
 21
0.0
  0
ENDBLK
  8
0
  0
ENDSEC
  0
SECTION
  2
ENTITIES
  0
INSERT
  8
1
  6
CONTINUOUS
 62
     7
  2
D_FRAME_VIEW_5686
 10
0.0
 20
0.0
 30
0.0
  0
INSERT
  8
1
  6
CONTINUOUS
 62
     7
  2
D_FRAME_VIEW_6057
 10
0.0
 20
0.0
 30
0.0
  0
INSERT
  8
1
  6
CONTINUOUS
 62
     7
  2
D_FRAME_VIEW_5009
 10
0.0
 20
0.0
 30
0.0
  0
LINE
  8
1
  6
CONTINUOUS
 62
     7
 10
68.20194701887449
 20
104.7
 11
27.70194701887452
 21
104.7
  0
LINE
  8
1
  6
CONTINUOUS
 62
     7
 10
216.85
 20
64.30194701887454
 11
248.85
 21
64.30194701887454
  0
LINE
  8
1
  6
CONTINUOUS
 62
     7
 10
27.70194701887452
 20
190.3
 11
66.10194701887445
 21
190.3
  0
LINE
  8
1
  6
CONTINUOUS
 62
     7
 10
156.8499999999999
 20
64.30194701887454
 11
124.8499999999999
 21
64.30194701887454
  0
LINE
  8
1
  6
CONTINUOUS
 62
     7
 10
27.70194701887452
 20
181.4
 11
68.20194701887449
 21
181.4
  0
LINE
  8
1
  6
CONTINUOUS
 62
     7
 10
250.75
 20
18.90194701887454
 11
122.9499999999999
 21
18.90194701887454
  0
TEXT
  8
1
  6
CONTINUOUS
 62
     7
 10
42.93479429786165
 20
44.70684006502436
 40
6.0
  1
SBP-3FGY
  0
INSERT
  8
図面枠
 62
     7
  2
D_FRAME_DRAWING_17
 10
0.0
 20
0.0
 30
0.0
  0
ENDSEC
  0
EOF
