  0
SECTION
  2
HEADER
  9
$ACADVER
  1
AC1006
  9
$DWGCODEPAGE
  3
ansi_932
  9
$INSBASE
 10
0.0
 20
0.0
 30
0.0
  9
$EXTMIN
 10
-46.21047523100022
 20
87.48306061204545
  9
$EXTMAX
 10
153.7895247701999
 20
291.0633768935996
  9
$LIMMIN
 10
0.0
 20
0.0
  9
$LIMMAX
 10
12.0
 20
9.0
  9
$ORTHOMODE
 70
     0
  9
$REGENMODE
 70
     1
  9
$FILLMODE
 70
     1
  9
$QTEXTMODE
 70
     0
  9
$MIRRTEXT
 70
     1
  9
$DRAGMODE
 70
     2
  9
$LTSCALE
 40
1.0
  9
$OSMODE
 70
    37
  9
$ATTMODE
 70
     1
  9
$TEXTSIZE
 40
0.2
  9
$TRACEWID
 40
0.05
  9
$TEXTSTYLE
  7
STANDARD
  9
$CLAYER
  8
0
  9
$CELTYPE
  6
BYLAYER
  9
$CECOLOR
 62
   256
  9
$DIMSCALE
 40
1.0
  9
$DIMASZ
 40
3.0
  9
$DIMEXO
 40
0.0625
  9
$DIMDLI
 40
0.38
  9
$DIMRND
 40
0.0
  9
$DIMDLE
 40
0.0
  9
$DIMEXE
 40
1.5
  9
$DIMTP
 40
0.0
  9
$DIMTM
 40
0.0
  9
$DIMTXT
 40
3.0
  9
$DIMCEN
 40
0.09
  9
$DIMTSZ
 40
0.0
  9
$DIMTOL
 70
     0
  9
$DIMLIM
 70
     0
  9
$DIMTIH
 70
     1
  9
$DIMTOH
 70
     1
  9
$DIMSE1
 70
     0
  9
$DIMSE2
 70
     0
  9
$DIMTAD
 70
     1
  9
$DIMZIN
 70
     0
  9
$DIMBLK
  1

  9
$DIMASO
 70
     1
  9
$DIMSHO
 70
     1
  9
$DIMPOST
  1

  9
$DIMAPOST
  1

  9
$DIMALT
 70
     0
  9
$DIMALTD
 70
     2
  9
$DIMALTF
 40
25.4
  9
$DIMLFAC
 40
1.0
  9
$DIMTOFL
 70
     0
  9
$DIMTVP
 40
0.0
  9
$DIMTIX
 70
     0
  9
$DIMSOXD
 70
     0
  9
$DIMSAH
 70
     0
  9
$DIMBLK1
  1

  9
$DIMBLK2
  1

  9
$LUNITS
 70
     2
  9
$LUPREC
 70
     4
  9
$SKETCHINC
 40
0.1
  9
$FILLETRAD
 40
0.5
  9
$AUNITS
 70
     0
  9
$AUPREC
 70
     0
  9
$MENU
  1
.
  9
$ELEVATION
 40
0.0
  9
$THICKNESS
 40
0.0
  9
$LIMCHECK
 70
     0
  9
$CHAMFERA
 40
0.0
  9
$CHAMFERB
 40
0.0
  9
$SKPOLY
 70
     0
  9
$TDCREATE
 40
2460445.77404559
  9
$TDUPDATE
 40
2460445.774046053
  9
$TDINDWG
 40
0.0000000116
  9
$TDUSRTIMER
 40
0.0000000116
  9
$USRTIMER
 70
     1
  9
$ANGBASE
 50
0.0
  9
$ANGDIR
 70
     0
  9
$PDMODE
 70
     0
  9
$PDSIZE
 40
0.0
  9
$PLINEWID
 40
0.0
  9
$COORDS
 70
     1
  9
$SPLFRAME
 70
     0
  9
$SPLINETYPE
 70
     6
  9
$SPLINESEGS
 70
     8
  9
$ATTDIA
 70
     0
  9
$ATTREQ
 70
     1
  9
$HANDLING
 70
     1
  9
$HANDSEED
  5
597
  9
$SURFTAB1
 70
     6
  9
$SURFTAB2
 70
     6
  9
$SURFTYPE
 70
     6
  9
$SURFU
 70
     6
  9
$SURFV
 70
     6
  9
$UCSNAME
  2

  9
$UCSORG
 10
0.0
 20
0.0
 30
0.0
  9
$UCSXDIR
 10
1.0
 20
0.0
 30
0.0
  9
$UCSYDIR
 10
0.0
 20
1.0
 30
0.0
  9
$USERI1
 70
     0
  9
$USERI2
 70
     0
  9
$USERI3
 70
     0
  9
$USERI4
 70
     0
  9
$USERI5
 70
     0
  9
$USERR1
 40
0.0
  9
$USERR2
 40
0.0
  9
$USERR3
 40
0.0
  9
$USERR4
 40
0.0
  9
$USERR5
 40
0.0
  9
$WORLDVIEW
 70
     1
  0
ENDSEC
  0
SECTION
  2
TABLES
  0
TABLE
  2
VPORT
 70
     1
  0
VPORT
  2
*ACTIVE
 70
     0
 10
0.0
 20
0.0
 11
1.0
 21
1.0
 12
53.78952476959983
 22
189.2732187528225
 13
0.0
 23
0.0
 14
0.5
 24
0.5
 15
0.5
 25
0.5
 16
0.0
 26
0.0
 36
1.0
 17
0.0
 27
0.0
 37
0.0
 40
203.5803162815541
 41
1.6
 42
50.0
 43
0.0
 44
0.0
 50
0.0
 51
0.0
 71
     0
 72
   100
 73
     1
 74
     3
 75
     0
 76
     0
 77
     0
 78
     0
  0
ENDTAB
  0
TABLE
  2
LTYPE
 70
     3
  0
LTYPE
  2
CONTINUOUS
 70
     0
  3
Solid line
 72
    65
 73
     0
 40
0.0
  0
LTYPE
  2
DOT
 70
     0
  3

 72
    65
 73
     0
 40
0.0
  0
LTYPE
  2
CENTER
 70
     0
  3

 72
    65
 73
     0
 40
0.0
  0
ENDTAB
  0
TABLE
  2
LAYER
 70
     3
  0
LAYER
  2
0
 70
     0
 62
     7
  6
CONTINUOUS
  0
LAYER
  2
1
 70
     0
 62
     7
  6
CONTINUOUS
  0
LAYER
  2
2
 70
     0
 62
     7
  6
CONTINUOUS
  0
ENDTAB
  0
TABLE
  2
STYLE
 70
     2
  0
STYLE
  2
STANDARD
 70
     0
 40
0.0
 41
1.0
 50
0.0
 71
     0
 42
0.2
  3
txt
  4

  0
STYLE
  2
ＭＳ_ゴシック
 70
     0
 40
0.0
 41
1.0
 50
0.0
 71
     0
 42
0.2
  3
ＭＳ ゴシック.shx
  4

  0
ENDTAB
  0
TABLE
  2
VIEW
 70
     0
  0
ENDTAB
  0
TABLE
  2
UCS
 70
     0
  0
ENDTAB
  0
ENDSEC
  0
SECTION
  2
BLOCKS
  0
ENDSEC
  0
SECTION
  2
ENTITIES
  0
TEXT
  5
71
  8
0
  6
CONTINUOUS
 62
     7
 10
130.5786326122296
 20
87.1694242484091
 30
0.0
 40
3.0
  1
ＳＢＰ－４Ｗ
  0
LINE
  5
72
  8
1
  6
CONTINUOUS
 62
     7
 10
34.2895247718
 20
208.8633768931999
 30
0.0
 11
27.28952477179944
 21
208.8633768931999
 31
0.0
  0
ARC
  5
73
  8
1
  6
CONTINUOUS
 62
     7
 10
27.28952477179944
 20
241.3633768931997
 30
0.0
 40
0.4999999999999449
 50
180.0
 51
270.0
  0
ARC
  5
74
  8
1
  6
CONTINUOUS
 62
     7
 10
76.78952477000009
 20
241.9633768935997
 30
0.0
 40
10.65000000000005
 50
5.3878223067
 51
174.6121776933001
  0
ARC
  5
75
  8
1
  6
CONTINUOUS
 62
     7
 10
80.2895247717993
 20
242.5633768931999
 30
0.0
 40
0.4999999999999449
 50
0.0
 51
90.0
  0
ARC
  5
76
  8
1
  6
CONTINUOUS
 62
     7
 10
27.28952477179944
 20
242.5633768931999
 30
0.0
 40
0.4999999999999449
 50
90.0
 51
180.0
  0
LINE
  5
77
  8
1
  6
CONTINUOUS
 62
     7
 10
80.2895247717993
 20
243.0633768932
 30
0.0
 11
73.2895247717997
 21
243.0633768932
 31
0.0
  0
LINE
  5
78
  8
1
  6
CONTINUOUS
 62
     7
 10
87.39247247339988
 20
240.9633768935998
 30
0.0
 11
86.35847431319951
 21
240.7152965109996
 31
0.0
  0
LINE
  5
79
  8
1
  6
CONTINUOUS
 62
     7
 10
34.78952477179972
 20
241.3633768931997
 30
0.0
 11
34.78952477179972
 21
242.5633768931999
 31
0.0
  0
LINE
  5
7A
  8
1
  6
CONTINUOUS
 62
     7
 10
80.2895247717993
 20
208.8633768931999
 30
0.0
 11
73.2895247717997
 21
208.8633768931999
 31
0.0
  0
LINE
  5
7B
  8
1
  6
CONTINUOUS
 62
     7
 10
66.18657706680011
 20
210.9633768935995
 30
0.0
 11
67.2205752269997
 21
211.2114572762001
 31
0.0
  0
LINE
  5
7C
  8
1
  6
CONTINUOUS
 62
     7
 10
-25.81342293320035
 20
210.9633768935995
 30
0.0
 11
-24.77942477300002
 21
211.2114572762001
 31
0.0
  0
LINE
  5
7D
  8
1
  6
CONTINUOUS
 62
     7
 10
123.1895247699995
 20
186.2133768936
 30
0.0
 11
123.1895247699995
 21
185.3633768935997
 31
0.0
  0
LINE
  5
7E
  8
1
  6
CONTINUOUS
 62
     7
 10
93.43952476999951
 20
180.7133768936
 30
0.0
 11
93.43952476999951
 21
179.8633768935997
 31
0.0
  0
LINE
  5
7F
  8
1
  6
CONTINUOUS
 62
     7
 10
95.0395247699993
 20
182.2633768935999
 30
0.0
 11
95.0395247699993
 21
181.4633768935999
 31
0.0
  0
ARC
  5
80
  8
1
  6
CONTINUOUS
 62
     7
 10
121.6395247700003
 20
183.0633768935998
 30
0.0
 40
0.7500000000000284
 50
0.0
 51
90.0
  0
LINE
  5
81
  8
1
  6
CONTINUOUS
 62
     7
 10
92.63952477000048
 20
183.8633768935997
 30
0.0
 11
93.43952476999951
 21
183.8633768935997
 31
0.0
  0
LINE
  5
82
  8
1
  6
CONTINUOUS
 62
     7
 10
121.6395247700003
 20
267.3133768935996
 30
0.0
 11
120.7895247699997
 21
267.3133768935996
 31
0.0
  0
ARC
  5
83
  8
1
  6
CONTINUOUS
 62
     7
 10
121.6395247700003
 20
185.3633768935997
 30
0.0
 40
0.7500000000000284
 50
270.0
 51
0.0
  0
LINE
  5
84
  8
1
  6
CONTINUOUS
 62
     7
 10
91.03952476999969
 20
182.2633768935999
 30
0.0
 11
91.88952477000048
 21
182.2633768935999
 31
0.0
  0
ARC
  5
85
  8
1
  6
CONTINUOUS
 62
     7
 10
123.9395247699995
 20
183.0633768935998
 30
0.0
 40
0.7500000000000284
 50
90.0
 51
180.0
  0
LINE
  5
86
  8
1
  6
CONTINUOUS
 62
     7
 10
92.63952477000048
 20
179.8633768935997
 30
0.0
 11
92.63952477000048
 21
180.7133768936
 31
0.0
  0
LINE
  5
87
  8
1
  6
CONTINUOUS
 62
     7
 10
77.1895247699991
 20
186.2133768936
 30
0.0
 11
77.1895247699991
 21
185.3633768935997
 31
0.0
  0
LINE
  5
88
  8
1
  6
CONTINUOUS
 62
     7
 10
77.1895247699991
 20
183.0633768935998
 30
0.0
 11
77.1895247699991
 21
182.2133768936
 31
0.0
  0
ARC
  5
89
  8
1
  6
CONTINUOUS
 62
     7
 10
94.18952476999951
 20
183.0133768935999
 30
0.0
 40
0.7500000000000284
 50
180.0
 51
270.0
  0
ARC
  5
8A
  8
1
  6
CONTINUOUS
 62
     7
 10
121.6395247700003
 20
268.8633768936
 30
0.0
 40
0.7500000000000284
 50
270.0
 51
0.0
  0
LINE
  5
8B
  8
1
  6
CONTINUOUS
 62
     7
 10
77.1895247699991
 20
182.2133768936
 30
0.0
 11
76.38952477000008
 21
182.2133768936
 31
0.0
  0
ARC
  5
8C
  8
1
  6
CONTINUOUS
 62
     7
 10
123.9395247699995
 20
268.8633768936
 30
0.0
 40
0.7500000000000284
 50
180.0
 51
270.0
  0
LINE
  5
8D
  8
1
  6
CONTINUOUS
 62
     7
 10
122.3895247700005
 20
185.3633768935997
 30
0.0
 11
122.3895247700005
 21
186.2133768936
 31
0.0
  0
ARC
  5
8E
  8
1
  6
CONTINUOUS
 62
     7
 10
75.63952477000008
 20
185.3633768935997
 30
0.0
 40
0.7500000000000284
 50
270.0
 51
0.0
  0
ARC
  5
8F
  8
1
  6
CONTINUOUS
 62
     7
 10
91.88952477000048
 20
183.0133768935999
 30
0.0
 40
0.7500000000000284
 50
270.0
 51
0.0
  0
ARC
  5
90
  8
1
  6
CONTINUOUS
 62
     7
 10
77.9395247699991
 20
185.3633768935997
 30
0.0
 40
0.7500000000000284
 50
180.0
 51
270.0
  0
LINE
  5
91
  8
1
  6
CONTINUOUS
 62
     7
 10
120.7895247699997
 20
267.3133768935996
 30
0.0
 11
120.7895247699997
 21
268.1133768936
 31
0.0
  0
ARC
  5
92
  8
1
  6
CONTINUOUS
 62
     7
 10
75.63952477000008
 20
183.0633768935998
 30
0.0
 40
0.7500000000000284
 50
0.0
 51
90.0
  0
LINE
  5
93
  8
1
  6
CONTINUOUS
 62
     7
 10
94.18952476999951
 20
182.2633768935999
 30
0.0
 11
95.0395247699993
 21
182.2633768935999
 31
0.0
  0
LINE
  5
94
  8
1
  6
CONTINUOUS
 62
     7
 10
93.43952476999951
 20
179.8633768935997
 30
0.0
 11
92.63952477000048
 21
179.8633768935997
 31
0.0
  0
LINE
  5
95
  8
1
  6
CONTINUOUS
 62
     7
 10
120.7895247699997
 20
183.8133768936
 30
0.0
 11
120.7895247699997
 21
184.6133768935997
 31
0.0
  0
LINE
  5
96
  8
1
  6
CONTINUOUS
 62
     7
 10
74.7895247699995
 20
183.8133768936
 30
0.0
 11
74.7895247699995
 21
184.6133768935997
 31
0.0
  0
LINE
  5
97
  8
1
  6
CONTINUOUS
 62
     7
 10
75.63952477000008
 20
183.8133768936
 30
0.0
 11
74.7895247699995
 21
183.8133768936
 31
0.0
  0
LINE
  5
98
  8
1
  6
CONTINUOUS
 62
     7
 10
122.3895247700005
 20
186.2133768936
 30
0.0
 11
123.1895247699995
 21
186.2133768936
 31
0.0
  0
LINE
  5
99
  8
1
  6
CONTINUOUS
 62
     7
 10
76.38952477000008
 20
182.2133768936
 30
0.0
 11
76.38952477000008
 21
183.0633768935998
 31
0.0
  0
LINE
  5
9A
  8
1
  6
CONTINUOUS
 62
     7
 10
30.38952476999987
 20
186.2133768936
 30
0.0
 11
31.18952476999889
 21
186.2133768936
 31
0.0
  0
ARC
  5
9B
  8
1
  6
CONTINUOUS
 62
     7
 10
77.9395247699991
 20
183.0633768935998
 30
0.0
 40
0.7500000000000284
 50
90.0
 51
180.0
  0
LINE
  5
9C
  8
1
  6
CONTINUOUS
 62
     7
 10
91.03952476999969
 20
181.4633768935999
 30
0.0
 11
91.03952476999969
 21
182.2633768935999
 31
0.0
  0
LINE
  5
9D
  8
1
  6
CONTINUOUS
 62
     7
 10
123.1895247699995
 20
269.7133768935998
 30
0.0
 11
123.1895247699995
 21
268.8633768936
 31
0.0
  0
ARC
  5
9E
  8
1
  6
CONTINUOUS
 62
     7
 10
123.9395247699995
 20
266.5633768935996
 30
0.0
 40
0.7500000000000284
 50
90.0
 51
180.0
  0
LINE
  5
9F
  8
1
  6
CONTINUOUS
 62
     7
 10
91.88952477000048
 20
181.4633768935999
 30
0.0
 11
91.03952476999969
 21
181.4633768935999
 31
0.0
  0
LINE
  5
A0
  8
1
  6
CONTINUOUS
 62
     7
 10
78.7895247699999
 20
184.6133768935997
 30
0.0
 11
78.7895247699999
 21
183.8133768936
 31
0.0
  0
LINE
  5
A1
  8
1
  6
CONTINUOUS
 62
     7
 10
1.439524769998951
 20
179.8633768935997
 30
0.0
 11
0.6395247699999274
 21
179.8633768935997
 31
0.0
  0
LINE
  5
A2
  8
1
  6
CONTINUOUS
 62
     7
 10
1.439524769998951
 20
183.8633768935997
 30
0.0
 11
1.439524769998951
 21
183.0133768935999
 31
0.0
  0
LINE
  5
A3
  8
1
  6
CONTINUOUS
 62
     7
 10
122.3895247700005
 20
268.8633768936
 30
0.0
 11
122.3895247700005
 21
269.7133768935998
 31
0.0
  0
LINE
  5
A4
  8
1
  6
CONTINUOUS
 62
     7
 10
121.6395247700003
 20
183.8133768936
 30
0.0
 11
120.7895247699997
 21
183.8133768936
 31
0.0
  0
LINE
  5
A5
  8
1
  6
CONTINUOUS
 62
     7
 10
92.63952477000048
 20
183.0133768935999
 30
0.0
 11
92.63952477000048
 21
183.8633768935997
 31
0.0
  0
ARC
  5
A6
  8
1
  6
CONTINUOUS
 62
     7
 10
123.9395247699995
 20
185.3633768935997
 30
0.0
 40
0.7500000000000284
 50
180.0
 51
270.0
  0
LINE
  5
A7
  8
1
  6
CONTINUOUS
 62
     7
 10
122.3895247700005
 20
182.2133768936
 30
0.0
 11
122.3895247700005
 21
183.0633768935998
 31
0.0
  0
LINE
  5
A8
  8
1
  6
CONTINUOUS
 62
     7
 10
124.7895247699993
 20
184.6133768935997
 30
0.0
 11
124.7895247699993
 21
183.8133768936
 31
0.0
  0
LINE
  5
A9
  8
1
  6
CONTINUOUS
 62
     7
 10
123.1895247699995
 20
183.0633768935998
 30
0.0
 11
123.1895247699995
 21
182.2133768936
 31
0.0
  0
ARC
  5
AA
  8
1
  6
CONTINUOUS
 62
     7
 10
121.6395247700003
 20
266.5633768935996
 30
0.0
 40
0.7500000000000284
 50
0.0
 51
90.0
  0
LINE
  5
AB
  8
1
  6
CONTINUOUS
 62
     7
 10
74.7895247699995
 20
184.6133768935997
 30
0.0
 11
75.63952477000008
 21
184.6133768935997
 31
0.0
  0
LINE
  5
AC
  8
1
  6
CONTINUOUS
 62
     7
 10
123.9395247699995
 20
268.1133768936
 30
0.0
 11
124.7895247699993
 21
268.1133768936
 31
0.0
  0
LINE
  5
AD
  8
1
  6
CONTINUOUS
 62
     7
 10
124.7895247699993
 20
267.3133768935996
 30
0.0
 11
123.9395247699995
 21
267.3133768935996
 31
0.0
  0
LINE
  5
AE
  8
1
  6
CONTINUOUS
 62
     7
 10
95.0395247699993
 20
181.4633768935999
 30
0.0
 11
94.18952476999951
 21
181.4633768935999
 31
0.0
  0
ARC
  5
AF
  8
1
  6
CONTINUOUS
 62
     7
 10
94.18952476999951
 20
180.7133768936
 30
0.0
 40
0.7500000000000284
 50
90.0
 51
180.0
  0
LINE
  5
B0
  8
1
  6
CONTINUOUS
 62
     7
 10
123.1895247699995
 20
182.2133768936
 30
0.0
 11
122.3895247700005
 21
182.2133768936
 31
0.0
  0
LINE
  5
B1
  8
1
  6
CONTINUOUS
 62
     7
 10
77.9395247699991
 20
184.6133768935997
 30
0.0
 11
78.7895247699999
 21
184.6133768935997
 31
0.0
  0
ARC
  5
B2
  8
1
  6
CONTINUOUS
 62
     7
 10
91.88952477000048
 20
180.7133768936
 30
0.0
 40
0.7500000000000284
 50
0.0
 51
90.0
  0
LINE
  5
B3
  8
1
  6
CONTINUOUS
 62
     7
 10
93.43952476999951
 20
183.8633768935997
 30
0.0
 11
93.43952476999951
 21
183.0133768935999
 31
0.0
  0
LINE
  5
B4
  8
1
  6
CONTINUOUS
 62
     7
 10
76.38952477000008
 20
185.3633768935997
 30
0.0
 11
76.38952477000008
 21
186.2133768936
 31
0.0
  0
LINE
  5
B5
  8
1
  6
CONTINUOUS
 62
     7
 10
123.1895247699995
 20
266.5633768935996
 30
0.0
 11
123.1895247699995
 21
265.7133768935998
 31
0.0
  0
LINE
  5
B6
  8
1
  6
CONTINUOUS
 62
     7
 10
120.7895247699997
 20
268.1133768936
 30
0.0
 11
121.6395247700003
 21
268.1133768936
 31
0.0
  0
LINE
  5
B7
  8
1
  6
CONTINUOUS
 62
     7
 10
123.9395247699995
 20
184.6133768935997
 30
0.0
 11
124.7895247699993
 21
184.6133768935997
 31
0.0
  0
LINE
  5
B8
  8
1
  6
CONTINUOUS
 62
     7
 10
78.7895247699999
 20
183.8133768936
 30
0.0
 11
77.9395247699991
 21
183.8133768936
 31
0.0
  0
LINE
  5
B9
  8
1
  6
CONTINUOUS
 62
     7
 10
122.3895247700005
 20
265.7133768935998
 30
0.0
 11
122.3895247700005
 21
266.5633768935996
 31
0.0
  0
LINE
  5
BA
  8
1
  6
CONTINUOUS
 62
     7
 10
123.1895247699995
 20
265.7133768935998
 30
0.0
 11
122.3895247700005
 21
265.7133768935998
 31
0.0
  0
LINE
  5
BB
  8
1
  6
CONTINUOUS
 62
     7
 10
120.7895247699997
 20
184.6133768935997
 30
0.0
 11
121.6395247700003
 21
184.6133768935997
 31
0.0
  0
ARC
  5
BC
  8
1
  6
CONTINUOUS
 62
     7
 10
2.189524769998979
 20
183.0133768935999
 30
0.0
 40
0.7500000000000284
 50
180.0
 51
270.0
  0
LINE
  5
BD
  8
1
  6
DOT
 62
     3
 10
2.53952476999994
 20
276.9461591121997
 30
0.0
 11
2.53952476999994
 21
285.6518341616
 31
0.0
  0
LINE
  5
BF
  8
1
  6
DOT
 62
     3
 10
-2.960475230000564
 20
162.9689332657998
 30
0.0
 11
-2.960475230000564
 21
176.8633768935999
 31
0.0
  0
ARC
  5
C0
  8
1
  6
CONTINUOUS
 62
     7
 10
10.42230698860044
 20
265.0633768935996
 30
0.0
 40
1.000000000000112
 50
90.7662694809
 51
172.874983651
  0
ARC
  5
C1
  8
1
  6
CONTINUOUS
 62
     7
 10
29.63952476999984
 20
185.3633768935997
 30
0.0
 40
0.7500000000000284
 50
270.0
 51
0.0
  0
LINE
  5
C2
  8
1
  6
CONTINUOUS
 62
     7
 10
3.039524769999663
 20
182.2633768935999
 30
0.0
 11
3.039524769999663
 21
181.4633768935999
 31
0.0
  0
LINE
  5
C3
  8
1
  6
CONTINUOUS
 62
     7
 10
-0.9604752299998964
 20
182.2633768935999
 30
0.0
 11
-0.1104752300001011
 21
182.2633768935999
 31
0.0
  0
LINE
  5
C4
  8
1
  6
DOT
 62
     3
 10
13.03952476999945
 20
174.9805946750001
 30
0.0
 11
13.03952476999945
 21
166.2749196253995
 31
0.0
  0
CIRCLE
  5
C5
  8
1
  6
DOT
 62
     3
 10
106.5395247700001
 20
285.0633768935996
 30
0.0
 40
0.4999999999999449
  0
ARC
  5
C6
  8
1
  6
DOT
 62
     3
 10
95.53952477019969
 20
276.9461591121997
 30
0.0
 40
1.000000000000112
 50
180.0
 51
262.8749836511
  0
LINE
  5
C7
  8
1
  6
CONTINUOUS
 62
     7
 10
2.189524769998979
 20
182.2633768935999
 30
0.0
 11
3.039524769999663
 21
182.2633768935999
 31
0.0
  0
ARC
  5
C8
  8
1
  6
CONTINUOUS
 62
     7
 10
-0.1104752300001011
 20
183.0133768935999
 30
0.0
 40
0.7500000000000284
 50
270.0
 51
0.0
  0
LINE
  5
C9
  8
1
  6
CONTINUOUS
 62
     7
 10
-14.81047523000048
 20
182.2133768936
 30
0.0
 11
-15.61047523000038
 21
182.2133768936
 31
0.0
  0
ARC
  5
CA
  8
1
  6
CONTINUOUS
 62
     7
 10
2.189524769998979
 20
180.7133768936
 30
0.0
 40
0.7500000000000284
 50
90.0
 51
180.0
  0
LINE
  5
CB
  8
1
  6
DOT
 62
     3
 10
89.0395247699999
 20
172.8633768935999
 30
0.0
 11
105.0395247699999
 21
172.8633768935999
 31
0.0
  0
LINE
  5
CC
  8
1
  6
CONTINUOUS
 62
     7
 10
0.6395247699999274
 20
183.8633768935997
 30
0.0
 11
1.439524769998951
 21
183.8633768935997
 31
0.0
  0
LINE
  5
CD
  8
1
  6
CONTINUOUS
 62
     7
 10
0.6395247699999274
 20
183.0133768935999
 30
0.0
 11
0.6395247699999274
 21
183.8633768935997
 31
0.0
  0
ARC
  5
CE
  8
1
  6
CONTINUOUS
 62
     7
 10
-16.36047522999953
 20
185.3633768935997
 30
0.0
 40
0.7500000000000284
 50
270.0
 51
0.0
  0
CIRCLE
  5
CF
  8
1
  6
DOT
 62
     3
 10
14.53952476999951
 20
285.0633768935996
 30
0.0
 40
0.4999999999999449
  0
ARC
  5
D0
  8
1
  6
DOT
 62
     3
 10
10.03952476999934
 20
166.2749196253995
 30
0.0
 40
3.000000000000114
 50
300.0
 51
0.0
  0
ARC
  5
D1
  8
1
  6
CONTINUOUS
 62
     7
 10
31.93952476999892
 20
183.0633768935998
 30
0.0
 40
0.7500000000000284
 50
90.0
 51
180.0
  0
LINE
  5
D2
  8
1
  6
CONTINUOUS
 62
     7
 10
-17.21047523000023
 20
183.8133768936
 30
0.0
 11
-17.21047523000023
 21
184.6133768935997
 31
0.0
  0
LINE
  5
D3
  8
1
  6
CONTINUOUS
 62
     7
 10
-15.61047523000038
 20
185.3633768935997
 30
0.0
 11
-15.61047523000038
 21
186.2133768936
 31
0.0
  0
LINE
  5
D4
  8
1
  6
DOT
 62
     3
 10
89.0395247699999
 20
162.9689332657998
 30
0.0
 11
89.0395247699999
 21
176.8633768935999
 31
0.0
  0
ARC
  5
D5
  8
1
  6
DOT
 62
     3
 10
102.0395247699999
 20
166.2749196253995
 30
0.0
 40
3.000000000000114
 50
300.0
 51
0.0
  0
ARC
  5
D6
  8
1
  6
CONTINUOUS
 62
     7
 10
-1.048932498000116
 20
261.0633768935996
 30
0.0
 40
3.000000000000114
 50
210.0
 51
270.0
  0
LINE
  5
D7
  8
1
  6
CONTINUOUS
 62
     7
 10
31.18952476999889
 20
183.0633768935998
 30
0.0
 11
31.18952476999889
 21
182.2133768936
 31
0.0
  0
LINE
  5
D8
  8
1
  6
CONTINUOUS
 62
     7
 10
9.430029111999499
 20
265.1874116281996
 30
0.0
 11
8.64902042820012
 21
258.9393421590002
 31
0.0
  0
ARC
  5
D9
  8
1
  6
DOT
 62
     3
 10
14.53952476999951
 20
270.0633768935994
 30
0.0
 40
21.00000000000013
 50
83.9576715809
 51
120.0
  0
LINE
  5
DA
  8
1
  6
DOT
 62
     3
 10
94.53952476999949
 20
276.9461591121997
 30
0.0
 11
94.53952476999949
 21
285.6518341616
 31
0.0
  0
ARC
  5
DB
  8
1
  6
CONTINUOUS
 62
     7
 10
7.656742551599177
 20
259.0633768935999
 30
0.0
 40
1.000000000000112
 50
270.0
 51
352.8749836511
  0
ARC
  5
DC
  8
1
  6
CONTINUOUS
 62
     7
 10
-14.06047523000044
 20
185.3633768935997
 30
0.0
 40
0.7500000000000284
 50
180.0
 51
270.0
  0
CIRCLE
  5
DD
  8
1
  6
DOT
 62
     3
 10
5.039524769999443
 20
166.8633768935998
 30
0.0
 40
0.4999999999999449
  0
ARC
  5
DE
  8
1
  6
CONTINUOUS
 62
     7
 10
-14.06047523000044
 20
183.0633768935998
 30
0.0
 40
0.7500000000000284
 50
90.0
 51
180.0
  0
LINE
  5
DF
  8
1
  6
CONTINUOUS
 62
     7
 10
1.439524769998951
 20
180.7133768936
 30
0.0
 11
1.439524769998951
 21
179.8633768935997
 31
0.0
  0
CIRCLE
  5
E0
  8
1
  6
DOT
 62
     3
 10
9.03952476999989
 20
166.8633768935998
 30
0.0
 40
0.4999999999999449
  0
ARC
  5
E1
  8
1
  6
CONTINUOUS
 62
     7
 10
-0.1104752300001011
 20
180.7133768936
 30
0.0
 40
0.7500000000000284
 50
0.0
 51
90.0
  0
LINE
  5
E2
  8
1
  6
CONTINUOUS
 62
     7
 10
-17.21047523000023
 20
184.6133768935997
 30
0.0
 11
-16.36047522999953
 21
184.6133768935997
 31
0.0
  0
LINE
  5
E3
  8
1
  6
DOT
 62
     3
 10
18.53952476999995
 20
288.9578205211998
 30
0.0
 11
18.53952476999995
 21
275.0633768935998
 31
0.0
  0
LINE
  5
E4
  8
1
  6
CONTINUOUS
 62
     7
 10
28.78952477000005
 20
183.8133768936
 30
0.0
 11
28.78952477000005
 21
184.6133768935997
 31
0.0
  0
LINE
  5
E5
  8
1
  6
CONTINUOUS
 62
     7
 10
29.63952476999984
 20
183.8133768936
 30
0.0
 11
28.78952477000005
 21
183.8133768936
 31
0.0
  0
LINE
  5
E6
  8
1
  6
CONTINUOUS
 62
     7
 10
28.78952477000005
 20
184.6133768935997
 30
0.0
 11
29.63952476999984
 21
184.6133768935997
 31
0.0
  0
LINE
  5
E7
  8
1
  6
CONTINUOUS
 62
     7
 10
-13.21047523000067
 20
183.8133768936
 30
0.0
 11
-14.06047523000044
 21
183.8133768936
 31
0.0
  0
LINE
  5
E8
  8
1
  6
DOT
 62
     3
 10
18.53952476999995
 20
279.0633768935998
 30
0.0
 11
2.53952477019978
 21
279.0633768933994
 31
0.0
  0
LINE
  5
E9
  8
1
  6
CONTINUOUS
 62
     7
 10
31.18952476999889
 20
182.2133768936
 30
0.0
 11
30.38952476999987
 21
182.2133768936
 31
0.0
  0
LINE
  5
EA
  8
1
  6
CONTINUOUS
 62
     7
 10
31.18952476999889
 20
186.2133768936
 30
0.0
 11
31.18952476999889
 21
185.3633768935997
 31
0.0
  0
LINE
  5
EB
  8
1
  6
CONTINUOUS
 62
     7
 10
0.6395247699999274
 20
179.8633768935997
 30
0.0
 11
0.6395247699999274
 21
180.7133768936
 31
0.0
  0
ARC
  5
EC
  8
1
  6
CONTINUOUS
 62
     7
 10
31.93952476999892
 20
185.3633768935997
 30
0.0
 40
0.7500000000000284
 50
180.0
 51
270.0
  0
ARC
  5
ED
  8
1
  6
CONTINUOUS
 62
     7
 10
29.63952476999984
 20
183.0633768935998
 30
0.0
 40
0.7500000000000284
 50
0.0
 51
90.0
  0
LINE
  5
EE
  8
1
  6
CONTINUOUS
 62
     7
 10
30.38952476999987
 20
185.3633768935997
 30
0.0
 11
30.38952476999987
 21
186.2133768936
 31
0.0
  0
LINE
  5
EF
  8
1
  6
CONTINUOUS
 62
     7
 10
3.039524769999663
 20
181.4633768935999
 30
0.0
 11
2.189524769998979
 21
181.4633768935999
 31
0.0
  0
LINE
  5
F0
  8
1
  6
CONTINUOUS
 62
     7
 10
-0.9604752299998964
 20
181.4633768935999
 30
0.0
 11
-0.9604752299998964
 21
182.2633768935999
 31
0.0
  0
LINE
  5
F1
  8
1
  6
CONTINUOUS
 62
     7
 10
31.93952476999892
 20
184.6133768935997
 30
0.0
 11
32.7895247699996
 21
184.6133768935997
 31
0.0
  0
LINE
  5
F2
  8
1
  6
CONTINUOUS
 62
     7
 10
-13.21047523000067
 20
184.6133768935997
 30
0.0
 11
-13.21047523000067
 21
183.8133768936
 31
0.0
  0
LINE
  5
F3
  8
1
  6
CONTINUOUS
 62
     7
 10
-16.36047522999953
 20
183.8133768936
 30
0.0
 11
-17.21047523000023
 21
183.8133768936
 31
0.0
  0
LINE
  5
F4
  8
1
  6
CONTINUOUS
 62
     7
 10
-0.1104752300001011
 20
181.4633768935999
 30
0.0
 11
-0.9604752299998964
 21
181.4633768935999
 31
0.0
  0
LINE
  5
F5
  8
1
  6
CONTINUOUS
 62
     7
 10
-15.61047523000038
 20
186.2133768936
 30
0.0
 11
-14.81047523000048
 21
186.2133768936
 31
0.0
  0
LINE
  5
F6
  8
1
  6
CONTINUOUS
 62
     7
 10
-14.81047523000048
 20
183.0633768935998
 30
0.0
 11
-14.81047523000048
 21
182.2133768936
 31
0.0
  0
LINE
  5
F7
  8
1
  6
CONTINUOUS
 62
     7
 10
-14.06047523000044
 20
184.6133768935997
 30
0.0
 11
-13.21047523000067
 21
184.6133768935997
 31
0.0
  0
LINE
  5
F8
  8
1
  6
CONTINUOUS
 62
     7
 10
32.7895247699996
 20
183.8133768936
 30
0.0
 11
31.93952476999892
 21
183.8133768936
 31
0.0
  0
LINE
  5
F9
  8
1
  6
CONTINUOUS
 62
     7
 10
32.7895247699996
 20
184.6133768935997
 30
0.0
 11
32.7895247699996
 21
183.8133768936
 31
0.0
  0
LINE
  5
FA
  8
1
  6
CONTINUOUS
 62
     7
 10
30.38952476999987
 20
182.2133768936
 30
0.0
 11
30.38952476999987
 21
183.0633768935998
 31
0.0
  0
LINE
  5
FB
  8
1
  6
CONTINUOUS
 62
     7
 10
-15.61047523000038
 20
182.2133768936
 30
0.0
 11
-15.61047523000038
 21
183.0633768935998
 31
0.0
  0
ARC
  5
FC
  8
1
  6
CONTINUOUS
 62
     7
 10
-16.36047522999953
 20
183.0633768935998
 30
0.0
 40
0.7500000000000284
 50
0.0
 51
90.0
  0
LINE
  5
FD
  8
1
  6
CONTINUOUS
 62
     7
 10
-14.81047523000048
 20
186.2133768936
 30
0.0
 11
-14.81047523000048
 21
185.3633768935997
 31
0.0
  0
LINE
  5
FE
  8
1
  6
CONTINUOUS
 62
     7
 10
101.4300291120001
 20
265.1874116281996
 30
0.0
 11
100.6490204281997
 21
258.9393421590002
 31
0.0
  0
ARC
  5
FF
  8
1
  6
CONTINUOUS
 62
     7
 10
99.6567425515997
 20
259.0633768935999
 30
0.0
 40
1.000000000000112
 50
270.0
 51
352.8749836511
  0
CIRCLE
  5
100
  8
1
  6
CONTINUOUS
 62
     7
 10
-0.4604752300001735
 20
266.0633768935994
 30
0.0
 40
0.4999999999999449
  0
LINE
  5
101
  8
1
  6
DOT
 62
     3
 10
110.5395247699995
 20
288.9578205211998
 30
0.0
 11
110.5395247699995
 21
275.0633768935998
 31
0.0
  0
LINE
  5
102
  8
1
  6
CONTINUOUS
 62
     7
 10
5.539524770000054
 20
272.4133768935998
 30
0.0
 11
5.539524770000054
 21
258.0633768935994
 31
0.0
  0
CIRCLE
  5
103
  8
1
  6
DOT
 62
     3
 10
97.03952476999989
 20
166.8633768935998
 30
0.0
 40
0.4999999999999449
  0
ARC
  5
104
  8
1
  6
DOT
 62
     3
 10
108.5395247699999
 20
288.9578205211998
 30
0.0
 40
2.000000000000002
 50
0.0
 51
83.9576715809
  0
CIRCLE
  5
105
  8
1
  6
CONTINUOUS
 62
     7
 10
-0.4604752300001735
 20
262.0633768935994
 30
0.0
 40
0.4999999999999449
  0
LINE
  5
106
  8
1
  6
CONTINUOUS
 62
     7
 10
10.03952476999934
 20
179.5133768936001
 30
0.0
 11
10.03952476999934
 21
193.8633768935999
 31
0.0
  0
ARC
  5
107
  8
1
  6
DOT
 62
     3
 10
98.0395247699995
 20
177.7461591119998
 30
0.0
 40
1.000000000000112
 50
241.9798238759
 51
262.8749836509
  0
ARC
  5
108
  8
1
  6
CONTINUOUS
 62
     7
 10
106.5395247700001
 20
270.0633768935994
 30
0.0
 40
21.00000000000013
 50
173.5748715804
 51
210.0
  0
ARC
  5
109
  8
1
  6
CONTINUOUS
 62
     7
 10
90.95106750199949
 20
261.0633768935996
 30
0.0
 40
3.000000000000114
 50
210.0
 51
270.0
  0
LINE
  5
10A
  8
1
  6
CONTINUOUS
 62
     7
 10
99.6567425515997
 20
258.0633768935994
 30
0.0
 11
90.95106750199949
 21
258.0633768935994
 31
0.0
  0
LINE
  5
10B
  8
1
  6
CONTINUOUS
 62
     7
 10
102.0395247699999
 20
179.5133768936001
 30
0.0
 11
102.0395247699999
 21
193.8633768935999
 31
0.0
  0
LINE
  5
10C
  8
1
  6
CONTINUOUS
 62
     7
 10
98.14902042819928
 20
186.7393421589997
 30
0.0
 11
98.93002911199969
 21
192.9874116281998
 31
0.0
  0
CIRCLE
  5
10D
  8
1
  6
DOT
 62
     3
 10
10.53952476999995
 20
285.0633768935996
 30
0.0
 40
0.4999999999999449
  0
ARC
  5
10E
  8
1
  6
CONTINUOUS
 62
     7
 10
7.922306988600053
 20
192.8633768936001
 30
0.0
 40
1.000000000000112
 50
90.0
 51
172.8749836511
  0
ARC
  5
10F
  8
1
  6
DOT
 62
     3
 10
1.039524769999883
 20
181.8633768935999
 30
0.0
 40
21.00000000000012
 50
263.9576715809
 51
300.0
  0
CIRCLE
  5
110
  8
1
  6
CONTINUOUS
 62
     7
 10
108.0395247701999
 20
181.8633768935999
 30
0.0
 40
0.4999999999999449
  0
CIRCLE
  5
111
  8
1
  6
CONTINUOUS
 62
     7
 10
91.53952476999949
 20
262.0633768935994
 30
0.0
 40
0.4999999999999449
  0
CIRCLE
  5
112
  8
1
  6
DOT
 62
     3
 10
102.5395247699995
 20
285.0633768935996
 30
0.0
 40
0.4999999999999449
  0
LINE
  5
113
  8
1
  6
DOT
 62
     3
 10
110.5395247699995
 20
279.0633768935998
 30
0.0
 11
94.5395247701995
 21
279.0633768933994
 31
0.0
  0
ARC
  5
114
  8
1
  6
CONTINUOUS
 62
     7
 10
97.15674255159931
 20
186.8633768935999
 30
0.0
 40
1.000000000000112
 50
270.7662694809
 51
352.8749836511
  0
CIRCLE
  5
115
  8
1
  6
CONTINUOUS
 62
     7
 10
91.53952476999949
 20
270.0633768935994
 30
0.0
 40
0.4999999999999449
  0
ARC
  5
116
  8
1
  6
DOT
 62
     3
 10
3.539524770200114
 20
276.9461591121997
 30
0.0
 40
1.000000000000112
 50
180.0
 51
262.8749836511
  0
LINE
  5
117
  8
1
  6
CONTINUOUS
 62
     7
 10
99.92230698859969
 20
193.8633768935998
 30
0.0
 11
108.6279820381999
 21
193.8633768935998
 31
0.0
  0
LINE
  5
118
  8
1
  6
DOT
 62
     3
 10
101.6635595047997
 20
275.1728725517996
 30
0.0
 11
95.41549003559929
 21
275.9538812354002
 31
0.0
  0
ARC
  5
119
  8
1
  6
CONTINUOUS
 62
     7
 10
1.039524769999883
 20
181.8633768935999
 30
0.0
 40
21.00000000000012
 50
353.5748715803999
 51
30.0
  0
CIRCLE
  5
11A
  8
1
  6
CONTINUOUS
 62
     7
 10
108.0395247701999
 20
185.8633768935999
 30
0.0
 40
0.4999999999999449
  0
CIRCLE
  5
11B
  8
1
  6
CONTINUOUS
 62
     7
 10
16.0395247701994
 20
181.8633768935999
 30
0.0
 40
0.4999999999999449
  0
ARC
  5
11C
  8
1
  6
DOT
 62
     3
 10
97.53952476999969
 20
285.6518341616
 30
0.0
 40
3.000000000000114
 50
120.0
 51
180.0
  0
ARC
  5
11D
  8
1
  6
DOT
 62
     3
 10
104.0395247699997
 20
174.9805946750001
 30
0.0
 40
1.000000000000112
 50
0.0
 51
82.8749836509
  0
ARC
  5
11E
  8
1
  6
DOT
 62
     3
 10
6.039524769999777
 20
177.7461591119998
 30
0.0
 40
1.000000000000112
 50
241.9798238759
 51
262.8749836511
  0
CIRCLE
  5
11F
  8
1
  6
DOT
 62
     3
 10
93.03952476999949
 20
166.8633768935998
 30
0.0
 40
0.4999999999999449
  0
ARC
  5
120
  8
1
  6
DOT
 62
     3
 10
106.5395247700001
 20
270.0633768935994
 30
0.0
 40
21.00000000000013
 50
83.9576715809
 51
120.0
  0
LINE
  5
121
  8
1
  6
DOT
 62
     3
 10
97.9154900353997
 20
176.7538812353997
 30
0.0
 11
104.1635595046001
 21
175.9728725515998
 31
0.0
  0
ARC
  5
122
  8
1
  6
DOT
 62
     3
 10
12.03952477
 20
174.9805946750001
 30
0.0
 40
1.000000000000112
 50
0.0
 51
82.8749836511
  0
ARC
  5
123
  8
1
  6
DOT
 62
     3
 10
-0.9604752299998964
 20
162.9689332657998
 30
0.0
 40
2.000000000000002
 50
180.0
 51
263.9576715809
  0
ARC
  5
124
  8
1
  6
DOT
 62
     3
 10
91.03952476999969
 20
162.9689332657998
 30
0.0
 40
2.000000000000002
 50
180.0
 51
263.9576715810001
  0
LINE
  5
125
  8
1
  6
DOT
 62
     3
 10
5.915490035399235
 20
176.7538812353997
 30
0.0
 11
12.16355950459966
 21
175.9728725515998
 31
0.0
  0
CIRCLE
  5
126
  8
1
  6
CONTINUOUS
 62
     7
 10
16.0395247701994
 20
185.8633768935999
 30
0.0
 40
0.4999999999999449
  0
LINE
  5
127
  8
1
  6
CONTINUOUS
 62
     7
 10
97.53952476999969
 20
272.4133768935998
 30
0.0
 11
97.53952476999969
 21
258.0633768935994
 31
0.0
  0
LINE
  5
128
  8
1
  6
DOT
 62
     3
 10
9.663559504799995
 20
275.1728725517996
 30
0.0
 11
3.415490035599572
 21
275.9538812354002
 31
0.0
  0
CIRCLE
  5
129
  8
1
  6
DOT
 62
     3
 10
101.0395247699995
 20
166.8633768935998
 30
0.0
 40
0.4999999999999449
  0
LINE
  5
12A
  8
1
  6
CONTINUOUS
 62
     7
 10
54.83952476999973
 20
180.5133768935999
 30
0.0
 11
54.83952476999973
 21
271.4133768935995
 31
0.0
  0
ARC
  5
12B
  8
1
  6
CONTINUOUS
 62
     7
 10
102.4223069886001
 20
265.0633768935996
 30
0.0
 40
1.000000000000112
 50
90.7662694809
 51
172.874983651
  0
CIRCLE
  5
12C
  8
1
  6
CONTINUOUS
 62
     7
 10
91.53952476999949
 20
266.0633768935994
 30
0.0
 40
0.4999999999999449
  0
ARC
  5
12D
  8
1
  6
CONTINUOUS
 62
     7
 10
99.92230698859969
 20
192.8633768936001
 30
0.0
 40
1.000000000000112
 50
90.0
 51
172.8749836511
  0
LINE
  5
12E
  8
1
  6
CONTINUOUS
 62
     7
 10
52.73952476999929
 20
271.4133768935994
 30
0.0
 11
52.73952476999929
 21
180.5133768935998
 31
0.0
  0
ARC
  5
12F
  8
1
  6
CONTINUOUS
 62
     7
 10
5.156742551599675
 20
186.8633768935999
 30
0.0
 40
1.000000000000112
 50
270.7662694809
 51
352.874983651
  0
CIRCLE
  5
130
  8
1
  6
CONTINUOUS
 62
     7
 10
16.03952476999956
 20
189.8633768935999
 30
0.0
 40
0.4999999999999449
  0
ARC
  5
131
  8
1
  6
CONTINUOUS
 62
     7
 10
108.6279820381999
 20
190.8633768935998
 30
0.0
 40
3.000000000000114
 50
30.0
 51
90.0
  0
LINE
  5
132
  8
1
  6
CONTINUOUS
 62
     7
 10
6.149020428199731
 20
186.7393421589997
 30
0.0
 11
6.930029111999997
 21
192.9874116281998
 31
0.0
  0
CIRCLE
  5
133
  8
1
  6
DOT
 62
     3
 10
98.53952477000009
 20
285.0633768935996
 30
0.0
 40
0.4999999999999449
  0
CIRCLE
  5
134
  8
1
  6
CONTINUOUS
 62
     7
 10
-0.4604752300001735
 20
270.0633768935994
 30
0.0
 40
0.4999999999999449
  0
ARC
  5
135
  8
1
  6
CONTINUOUS
 62
     7
 10
14.53952476999951
 20
270.0633768935994
 30
0.0
 40
21.00000000000013
 50
173.5748715804
 51
210.0
  0
LINE
  5
136
  8
1
  6
DOT
 62
     3
 10
105.0395247699999
 20
174.9805946750001
 30
0.0
 11
105.0395247699999
 21
166.2749196253995
 31
0.0
  0
ARC
  5
137
  8
1
  6
DOT
 62
     3
 10
16.53952476999929
 20
288.9578205211998
 30
0.0
 40
2.000000000000002
 50
0.0
 51
83.9576715809
  0
CIRCLE
  5
138
  8
1
  6
DOT
 62
     3
 10
6.5395247699995
 20
285.0633768935996
 30
0.0
 40
0.4999999999999449
  0
LINE
  5
139
  8
1
  6
DOT
 62
     3
 10
-2.960475230000564
 20
172.8633768935999
 30
0.0
 11
13.03952476999945
 21
172.8633768935999
 31
0.0
  0
CIRCLE
  5
13A
  8
1
  6
DOT
 62
     3
 10
1.039524769999883
 20
166.8633768935998
 30
0.0
 40
0.4999999999999449
  0
ARC
  5
13B
  8
1
  6
DOT
 62
     3
 10
5.539524770000054
 20
285.6518341616
 30
0.0
 40
3.000000000000114
 50
120.0
 51
180.0
  0
ARC
  5
13C
  8
1
  6
DOT
 62
     3
 10
93.03952476999949
 20
181.8633768935999
 30
0.0
 40
21.0000000000001
 50
263.9576715809
 51
300.0
  0
LINE
  5
13D
  8
1
  6
CONTINUOUS
 62
     7
 10
7.656742551599177
 20
258.0633768935994
 30
0.0
 11
-1.048932498000116
 21
258.0633768935994
 31
0.0
  0
LINE
  5
13E
  8
1
  6
CONTINUOUS
 62
     7
 10
-39.96047523099968
 20
103.0101147641999
 30
0.0
 11
147.5395247701993
 21
103.0101147641999
 31
0.0
  0
LINE
  5
13F
  8
1
  6
CONTINUOUS
 62
     7
 10
52.73952476999929
 20
223.4633768935997
 30
0.0
 11
52.73952476999929
 21
228.4633768935997
 31
0.0
  0
LINE
  5
140
  8
1
  6
CONTINUOUS
 62
     7
 10
153.7895247701999
 20
138.0101147641995
 30
0.0
 11
147.7895247701996
 21
138.0101147641995
 31
0.0
  0
LINE
  5
141
  8
1
  6
CONTINUOUS
 62
     7
 10
5.289524777399163
 20
108.8101147641997
 30
0.0
 11
5.289524777399163
 21
134.0101147641995
 31
0.0
  0
LINE
  5
142
  8
1
  6
CONTINUOUS
 62
     7
 10
151.7895247702
 20
139.6101147641997
 30
0.0
 11
153.7895247701999
 21
139.1101147642001
 31
0.0
  0
LINE
  5
143
  8
1
  6
CONTINUOUS
 62
     7
 10
147.7895247701996
 20
138.0101147641995
 30
0.0
 11
147.7895247701996
 21
139.6101147641997
 31
0.0
  0
LINE
  5
144
  8
1
  6
CONTINUOUS
 62
     7
 10
-40.21047523099998
 20
139.6101147641997
 30
0.0
 11
-44.21047523099953
 21
139.6101147641997
 31
0.0
  0
ARC
  5
145
  8
1
  6
CONTINUOUS
 62
     7
 10
-42.46047523100007
 20
137.0101147641997
 30
0.0
 40
1.000000000000112
 50
0.0
 51
90.0
  0
ARC
  5
146
  8
1
  6
CONTINUOUS
 62
     7
 10
150.0395247701997
 20
137.0101147641997
 30
0.0
 40
1.000000000000112
 50
90.0
 51
180.0
  0
LINE
  5
147
  8
1
  6
CONTINUOUS
 62
     7
 10
-40.21047523099998
 20
138.0101147641995
 30
0.0
 11
-40.21047523099998
 21
139.6101147641997
 31
0.0
  0
LINE
  5
148
  8
1
  6
CONTINUOUS
 62
     7
 10
140.7895247699993
 20
202.9633768936001
 30
0.0
 11
140.7895247699993
 21
200.4633754099997
 31
0.0
  0
LINE
  5
149
  8
1
  6
CONTINUOUS
 62
     7
 10
100.8895247699999
 20
223.4633768935997
 30
0.0
 11
100.8895247699999
 21
228.4633768935997
 31
0.0
  0
LINE
  5
14A
  8
1
  6
CONTINUOUS
 62
     7
 10
147.5395247701993
 20
103.0101147641999
 30
0.0
 11
148.8688140919997
 21
101.6808254421999
 31
0.0
  0
LINE
  5
14B
  8
1
  6
CONTINUOUS
 62
     7
 10
141.2895247699999
 20
208.4633768935998
 30
0.0
 11
142.7895247697992
 21
208.4633768935998
 31
0.0
  0
LINE
  5
14C
  8
1
  6
CONTINUOUS
 62
     7
 10
141.2895247699999
 20
203.4633768935998
 30
0.0
 11
142.7895247699999
 21
203.4633768935998
 31
0.0
  0
ARC
  5
14D
  8
1
  6
CONTINUOUS
 62
     7
 10
141.2895247701996
 20
200.4633754099997
 30
0.0
 40
0.4999999999999449
 50
180.0
 51
269.8604046262001
  0
LINE
  5
14E
  8
1
  6
CONTINUOUS
 62
     7
 10
141.2895247701996
 20
251.9633768937998
 30
0.0
 11
142.2894797473995
 21
251.9633768931998
 31
0.0
  0
ARC
  5
14F
  8
1
  6
CONTINUOUS
 62
     7
 10
141.2895247699999
 20
211.4633767451999
 30
0.0
 40
0.4999999999999449
 50
90.0000000242
 51
180.0
  0
ARC
  5
150
  8
1
  6
CONTINUOUS
 62
     7
 10
9.389524769999962
 20
223.4633768935997
 30
0.0
 40
0.4999999999999449
 50
180.0
 51
0.0
  0
LINE
  5
151
  8
1
  6
CONTINUOUS
 62
     7
 10
142.2894797473995
 20
199.9633768943997
 30
0.0
 11
142.2894920261997
 21
196.9633891721997
 31
0.0
  0
ARC
  5
152
  8
1
  6
CONTINUOUS
 62
     7
 10
99.78952476999969
 20
180.5133768935999
 30
0.0
 40
1.000000000000112
 50
180.0
 51
270.0
  0
LINE
  5
153
  8
1
  6
CONTINUOUS
 62
     7
 10
147.7895247701996
 20
139.6101147641997
 30
0.0
 11
151.7895247702
 21
139.6101147641997
 31
0.0
  0
ARC
  5
154
  8
1
  6
CONTINUOUS
 62
     7
 10
138.2895247699997
 20
196.9633768935997
 30
0.0
 40
5.000000000000115
 50
270.0
 51
0.0
  0
ARC
  5
155
  8
1
  6
CONTINUOUS
 62
     7
 10
-39.71047523100027
 20
138.5101147641997
 30
0.0
 40
0.4999999999999449
 50
180.0
 51
270.0
  0
ARC
  5
156
  8
1
  6
CONTINUOUS
 62
     7
 10
99.78952476999969
 20
271.4133768935994
 30
0.0
 40
1.000000000000112
 50
0.0
 51
90.0
  0
LINE
  5
157
  8
1
  6
CONTINUOUS
 62
     7
 10
97.68952476999931
 20
228.4633768935997
 30
0.0
 11
97.68952476999931
 21
223.4633768935997
 31
0.0
  0
LINE
  5
158
  8
1
  6
CONTINUOUS
 62
     7
 10
140.7895247699993
 20
242.9633768935997
 30
0.0
 11
140.7895247699993
 21
240.4633767969996
 31
0.0
  0
CIRCLE
  5
159
  8
1
  6
CONTINUOUS
 62
     7
 10
76.78952477000009
 20
225.9633768935997
 30
0.0
 40
2.000000000000002
  0
ARC
  5
15A
  8
1
  6
CONTINUOUS
 62
     7
 10
141.2895247699999
 20
208.9633768935998
 30
0.0
 40
0.4999999999999449
 50
180.0
 51
270.0
  0
LINE
  5
15B
  8
1
  6
CENTER
 62
     3
 10
76.78952476899991
 20
138.0101147641995
 30
0.0
 11
76.78952476899991
 21
103.0101147641999
 31
0.0
  0
LINE
  5
15D
  8
1
  6
CONTINUOUS
 62
     7
 10
-3.210475222600567
 20
105.5101147641997
 30
0.0
 11
24.03952436199971
 21
105.5101147641997
 31
0.0
  0
LINE
  5
15E
  8
1
  6
CONTINUOUS
 62
     7
 10
-44.21047523099953
 20
139.6101147641997
 30
0.0
 11
-46.21047523100022
 21
139.1101147642001
 31
0.0
  0
LINE
  5
15F
  8
1
  6
CONTINUOUS
 62
     7
 10
-39.96047523099968
 20
103.0101147641999
 30
0.0
 11
-41.28976455299996
 21
101.6808254421999
 31
0.0
  0
LINE
  5
160
  8
1
  6
CENTER
 62
     3
 10
1.039524777399298
 20
138.0101147641995
 30
0.0
 11
1.039524777399298
 21
103.0101147641999
 31
0.0
  0
LINE
  5
161
  8
1
  6
CONTINUOUS
 62
     7
 10
-3.210475222600567
 20
134.0101147641995
 30
0.0
 11
-3.210475222600567
 21
105.5101147641997
 31
0.0
  0
LINE
  5
162
  8
1
  6
CONTINUOUS
 62
     7
 10
101.8895247700003
 20
228.4633768935997
 30
0.0
 11
101.8895247700003
 21
223.4633768935997
 31
0.0
  0
ARC
  5
163
  8
1
  6
CONTINUOUS
 62
     7
 10
101.3895247700005
 20
228.4633768935997
 30
0.0
 40
0.4999999999999449
 50
0.0
 51
180.0
  0
LINE
  5
164
  8
1
  6
CONTINUOUS
 62
     7
 10
5.289524777399163
 20
134.0101147641995
 30
0.0
 11
-3.210475222600567
 21
134.0101147641995
 31
0.0
  0
ARC
  5
165
  8
1
  6
CONTINUOUS
 62
     7
 10
16.62798203819935
 20
190.8633768935998
 30
0.0
 40
3.000000000000114
 50
30.0
 51
90.0
  0
LINE
  5
166
  8
1
  6
CENTER
 62
     3
 10
53.78952477579931
 20
138.0101147518001
 30
0.0
 11
53.78952477040008
 21
103.0101147593997
 31
0.0
  0
CIRCLE
  5
167
  8
1
  6
CONTINUOUS
 62
     7
 10
30.78952476999983
 20
225.9633768935997
 30
0.0
 40
2.000000000000002
  0
LINE
  5
168
  8
1
  6
CONTINUOUS
 62
     7
 10
55.83952477000006
 20
228.4633768935997
 30
0.0
 11
55.83952477000006
 21
223.4633768935997
 31
0.0
  0
ARC
  5
169
  8
1
  6
CONTINUOUS
 62
     7
 10
141.2895247699999
 20
202.9633768936001
 30
0.0
 40
0.4999999999999449
 50
90.0
 51
180.0
  0
LINE
  5
16A
  8
1
  6
CONTINUOUS
 62
     7
 10
54.83952476999973
 20
223.4633768935997
 30
0.0
 11
54.83952476999973
 21
228.4633768935997
 31
0.0
  0
LINE
  5
16B
  8
1
  6
CONTINUOUS
 62
     7
 10
51.73952476999985
 20
228.4633768935997
 30
0.0
 11
51.73952476999985
 21
223.4633768935997
 31
0.0
  0
LINE
  5
16C
  8
1
  6
CONTINUOUS
 62
     7
 10
147.2895247701999
 20
138.0101147641995
 30
0.0
 11
-39.71047523100027
 21
138.0101147641995
 31
0.0
  0
LINE
  5
16D
  8
1
  6
CONTINUOUS
 62
     7
 10
141.2883065719997
 20
199.9633768937997
 30
0.0
 11
142.2894797473995
 21
199.9633768943997
 31
0.0
  0
ARC
  5
16E
  8
1
  6
CONTINUOUS
 62
     7
 10
138.2894920261993
 20
196.9633768935997
 30
0.0
 40
4.000000000000004
 50
270.0
 51
0.000175879999972
  0
LINE
  5
16F
  8
1
  6
CONTINUOUS
 62
     7
 10
153.7895247701999
 20
139.1101147642001
 30
0.0
 11
153.7895247701999
 21
138.0101147641995
 31
0.0
  0
ARC
  5
170
  8
1
  6
CONTINUOUS
 62
     7
 10
7.789524769999251
 20
271.4133768935994
 30
0.0
 40
1.000000000000112
 50
0.0
 51
90.0
  0
ARC
  5
171
  8
1
  6
CONTINUOUS
 62
     7
 10
52.23952476999957
 20
223.4633768935997
 30
0.0
 40
0.4999999999999449
 50
180.0
 51
0.0
  0
LINE
  5
172
  8
1
  6
CONTINUOUS
 62
     7
 10
7.922306988600053
 20
193.8633768935998
 30
0.0
 11
16.62798203819935
 21
193.8633768935998
 31
0.0
  0
LINE
  5
173
  8
1
  6
CONTINUOUS
 62
     7
 10
-46.21047523100022
 20
139.1101147642001
 30
0.0
 11
-46.21047523100022
 21
138.0101147641995
 31
0.0
  0
ARC
  5
174
  8
1
  6
CONTINUOUS
 62
     7
 10
147.2895247701999
 20
138.5101147641997
 30
0.0
 40
0.4999999999999449
 50
270.0
 51
0.0
  0
CIRCLE
  5
175
  8
1
  6
CONTINUOUS
 62
     7
 10
108.0395247700001
 20
189.8633768935999
 30
0.0
 40
0.4999999999999449
  0
ARC
  5
176
  8
1
  6
CONTINUOUS
 62
     7
 10
138.2895247699997
 20
254.9633768935996
 30
0.0
 40
5.000000000000115
 50
0.0
 51
90.0
  0
ARC
  5
177
  8
1
  6
CONTINUOUS
 62
     7
 10
142.7895247699999
 20
202.9633768936001
 30
0.0
 40
0.4999999999999449
 50
0.0
 51
90.0
  0
ARC
  5
178
  8
1
  6
CONTINUOUS
 62
     7
 10
93.03952476999949
 20
181.8633768935999
 30
0.0
 40
21.0000000000001
 50
353.5748715803999
 51
30.0
  0
LINE
  5
179
  8
1
  6
CONTINUOUS
 62
     7
 10
-41.46047523099976
 20
137.0101147641997
 30
0.0
 11
-41.46047523099976
 21
101.7515361203999
 31
0.0
  0
LINE
  5
17A
  8
1
  6
CONTINUOUS
 62
     7
 10
-46.21047523100022
 20
138.0101147641995
 30
0.0
 11
-40.21047523099998
 21
138.0101147641995
 31
0.0
  0
LINE
  5
17B
  8
1
  6
CONTINUOUS
 62
     7
 10
149.0395247701993
 20
137.0101147641997
 30
0.0
 11
149.0395247701993
 21
101.7515361203999
 31
0.0
  0
ARC
  5
17C
  8
1
  6
CONTINUOUS
 62
     7
 10
55.33952476999945
 20
223.4633768935997
 30
0.0
 40
0.4999999999999449
 50
180.0
 51
0.0
  0
LINE
  5
17D
  8
1
  6
CONTINUOUS
 62
     7
 10
141.2895247698001
 20
239.9633768937997
 30
0.0
 11
142.2895335186003
 21
239.9633768931998
 31
0.0
  0
ARC
  5
17E
  8
1
  6
CONTINUOUS
 62
     7
 10
148.9395247701997
 20
101.7515361203999
 30
0.0
 40
0.099999999999989
 50
225.0
 51
0.0
  0
LINE
  5
17F
  8
1
  6
CONTINUOUS
 62
     7
 10
15.68952476999949
 20
270.4633768935998
 30
0.0
 11
16.53952476999929
 21
270.4633768935998
 31
0.0
  0
ARC
  5
180
  8
1
  6
CONTINUOUS
 62
     7
 10
29.63952476999984
 20
268.8633768936
 30
0.0
 40
0.7500000000000284
 50
270.0
 51
0.0
  0
LINE
  5
181
  8
1
  6
CONTINUOUS
 62
     7
 10
141.2895247699999
 20
243.4633768935997
 30
0.0
 11
142.7895247697992
 21
243.4633768935997
 31
0.0
  0
ARC
  5
182
  8
1
  6
CONTINUOUS
 62
     7
 10
142.7895247697992
 20
242.9633768935997
 30
0.0
 40
0.4999999999999449
 50
0.0
 51
90.0
  0
LINE
  5
183
  8
1
  6
CONTINUOUS
 62
     7
 10
31.18952476999889
 20
269.7133768935998
 30
0.0
 11
31.18952476999889
 21
268.8633768936
 31
0.0
  0
LINE
  5
184
  8
1
  6
CONTINUOUS
 62
     7
 10
14.93952476999946
 20
272.0633768935996
 30
0.0
 11
14.93952476999946
 21
271.2133768935998
 31
0.0
  0
LINE
  5
185
  8
1
  6
CONTINUOUS
 62
     7
 10
77.1895247699991
 20
269.7133768935998
 30
0.0
 11
77.1895247699991
 21
268.8633768936
 31
0.0
  0
LINE
  5
186
  8
1
  6
CONTINUOUS
 62
     7
 10
13.38952477000041
 20
269.6633768935994
 30
0.0
 11
12.53952476999973
 21
269.6633768935994
 31
0.0
  0
LINE
  5
187
  8
1
  6
CONTINUOUS
 62
     7
 10
28.78952477000005
 20
268.1133768936
 30
0.0
 11
29.63952476999984
 21
268.1133768936
 31
0.0
  0
ARC
  5
188
  8
1
  6
CONTINUOUS
 62
     7
 10
138.2895343550001
 20
254.9633768935996
 30
0.0
 40
4.000000000000004
 50
0.1260804677
 51
90.0
  0
ARC
  5
189
  8
1
  6
CONTINUOUS
 62
     7
 10
98.1895247699991
 20
223.4633768935997
 30
0.0
 40
0.4999999999999449
 50
180.0
 51
0.0
  0
ARC
  5
18A
  8
1
  6
CONTINUOUS
 62
     7
 10
142.7895247699999
 20
248.9633768935998
 30
0.0
 40
0.4999999999999449
 50
270.0
 51
0.0
  0
ARC
  5
18B
  8
1
  6
CONTINUOUS
 62
     7
 10
13.38952477000041
 20
268.9133768935994
 30
0.0
 40
0.7500000000000284
 50
0.0
 51
90.0
  0
LINE
  5
18C
  8
1
  6
CONTINUOUS
 62
     7
 10
31.18952476999889
 20
265.7133768935998
 30
0.0
 11
30.38952476999987
 21
265.7133768935998
 31
0.0
  0
LINE
  5
18D
  8
1
  6
CONTINUOUS
 62
     7
 10
140.7895247699993
 20
248.9633768935998
 30
0.0
 11
140.7895247699993
 21
251.4633772216
 31
0.0
  0
ARC
  5
18E
  8
1
  6
CONTINUOUS
 62
     7
 10
52.23952476999957
 20
228.4633768935997
 30
0.0
 40
0.4999999999999449
 50
0.0
 51
180.0
  0
LINE
  5
18F
  8
1
  6
CONTINUOUS
 62
     7
 10
141.2895247698001
 20
211.9633768935999
 30
0.0
 11
142.2895335186003
 21
211.9633768941995
 31
0.0
  0
LINE
  5
190
  8
1
  6
CENTER
 62
     3
 10
99.78952476999969
 20
274.9633768935997
 30
0.0
 11
99.78952476999969
 21
176.9633768935996
 31
0.0
  0
ARC
  5
191
  8
1
  6
CONTINUOUS
 62
     7
 10
55.33952476999945
 20
228.4633768935997
 30
0.0
 40
0.4999999999999449
 50
0.0
 51
180.0
  0
ARC
  5
192
  8
1
  6
CONTINUOUS
 62
     7
 10
141.2895247701996
 20
240.4633767969996
 30
0.0
 40
0.4999999999999449
 50
180.0
 51
269.9999999754
  0
ARC
  5
193
  8
1
  6
CONTINUOUS
 62
     7
 10
141.2895247699999
 20
251.4633772216
 30
0.0
 40
0.4999999999999449
 50
89.9999999758
 51
180.0
  0
LINE
  5
194
  8
1
  6
CONTINUOUS
 62
     7
 10
140.7895247699993
 20
208.9633768935998
 30
0.0
 11
140.7895247699993
 21
211.4633767451999
 31
0.0
  0
ARC
  5
195
  8
1
  6
CONTINUOUS
 62
     7
 10
9.389524769999962
 20
228.4633768935997
 30
0.0
 40
0.4999999999999449
 50
0.0
 51
180.0
  0
LINE
  5
196
  8
1
  6
CONTINUOUS
 62
     7
 10
98.68952476999971
 20
223.4633768935997
 30
0.0
 11
98.68952476999971
 21
228.4633768935997
 31
0.0
  0
LINE
  5
197
  8
1
  6
CONTINUOUS
 62
     7
 10
14.13952477000044
 20
271.2133768935998
 30
0.0
 11
14.13952477000044
 21
272.0633768935996
 31
0.0
  0
LINE
  5
198
  8
1
  6
CONTINUOUS
 62
     7
 10
-17.21047523000023
 20
268.1133768936
 30
0.0
 11
-16.36047522999953
 21
268.1133768936
 31
0.0
  0
LINE
  5
199
  8
1
  6
CONTINUOUS
 62
     7
 10
30.38952476999987
 20
269.7133768935998
 30
0.0
 11
31.18952476999889
 21
269.7133768935998
 31
0.0
  0
ARC
  5
19A
  8
1
  6
CONTINUOUS
 62
     7
 10
31.93952476999892
 20
268.8633768936
 30
0.0
 40
0.7500000000000284
 50
180.0
 51
270.0
  0
LINE
  5
19B
  8
1
  6
CONTINUOUS
 62
     7
 10
29.63952476999984
 20
267.3133768935996
 30
0.0
 11
28.78952477000005
 21
267.3133768935996
 31
0.0
  0
LINE
  5
19C
  8
1
  6
CONTINUOUS
 62
     7
 10
76.38952477000008
 20
265.7133768935998
 30
0.0
 11
76.38952477000008
 21
266.5633768935996
 31
0.0
  0
ARC
  5
19D
  8
1
  6
CONTINUOUS
 62
     7
 10
98.1895247699991
 20
228.4633768935997
 30
0.0
 40
0.4999999999999449
 50
0.0
 51
180.0
  0
ARC
  5
19E
  8
1
  6
CONTINUOUS
 62
     7
 10
15.68952476999949
 20
268.9133768935994
 30
0.0
 40
0.7500000000000284
 50
90.0
 51
180.0
  0
ARC
  5
19F
  8
1
  6
CONTINUOUS
 62
     7
 10
77.9395247699991
 20
268.8633768936
 30
0.0
 40
0.7500000000000284
 50
180.0
 51
270.0
  0
LINE
  5
1A0
  8
1
  6
CONTINUOUS
 62
     7
 10
-14.06047523000044
 20
268.1133768936
 30
0.0
 11
-13.21047523000067
 21
268.1133768936
 31
0.0
  0
LINE
  5
1A1
  8
1
  6
CONTINUOUS
 62
     7
 10
14.93952476999946
 20
268.0633768935996
 30
0.0
 11
14.13952477000044
 21
268.0633768935996
 31
0.0
  0
LINE
  5
1A2
  8
1
  6
CONTINUOUS
 62
     7
 10
141.2895247699999
 20
248.4633768935997
 30
0.0
 11
142.7895247699999
 21
248.4633768935997
 31
0.0
  0
LINE
  5
1A3
  8
1
  6
CONTINUOUS
 62
     7
 10
20.00052284740003
 20
268.2633768936
 30
0.0
 11
20.28952476999943
 21
268.2633768936
 31
0.0
  0
LINE
  5
1A4
  8
1
  6
CONTINUOUS
 62
     7
 10
31.93952476999892
 20
268.1133768936
 30
0.0
 11
32.7895247699996
 21
268.1133768936
 31
0.0
  0
LINE
  5
1A5
  8
1
  6
CONTINUOUS
 62
     7
 10
14.13952477000044
 20
272.0633768935996
 30
0.0
 11
14.93952476999946
 21
272.0633768935996
 31
0.0
  0
ARC
  5
1A6
  8
1
  6
CONTINUOUS
 62
     7
 10
142.7895247697992
 20
208.9633768935998
 30
0.0
 40
0.4999999999999449
 50
270.0
 51
0.0
  0
ARC
  5
1A7
  8
1
  6
CONTINUOUS
 62
     7
 10
141.2895247699999
 20
242.9633768935997
 30
0.0
 40
0.4999999999999449
 50
90.0
 51
180.0000000001
  0
LINE
  5
1A8
  8
1
  6
CONTINUOUS
 62
     7
 10
30.38952476999987
 20
268.8633768936
 30
0.0
 11
30.38952476999987
 21
269.7133768935998
 31
0.0
  0
LINE
  5
1A9
  8
1
  6
CONTINUOUS
 62
     7
 10
-13.21047523000067
 20
267.3133768935996
 30
0.0
 11
-14.06047523000044
 21
267.3133768935996
 31
0.0
  0
LINE
  5
1AA
  8
1
  6
CONTINUOUS
 62
     7
 10
30.38952476999987
 20
265.7133768935998
 30
0.0
 11
30.38952476999987
 21
266.5633768935996
 31
0.0
  0
LINE
  5
1AB
  8
1
  6
CONTINUOUS
 62
     7
 10
8.88952477000024
 20
223.4633768935997
 30
0.0
 11
8.88952477000024
 21
228.4633768935997
 31
0.0
  0
ARC
  5
1AC
  8
1
  6
CONTINUOUS
 62
     7
 10
6.189524769999427
 20
228.4633768935997
 30
0.0
 40
0.4999999999999449
 50
0.0
 51
180.0
  0
LINE
  5
1AD
  8
1
  6
CONTINUOUS
 62
     7
 10
87.28952476999969
 20
183.6633768935997
 30
0.0
 11
87.5785266927997
 21
183.6633768935997
 31
0.0
  0
ARC
  5
1AE
  8
1
  6
CONTINUOUS
 62
     7
 10
7.789524769999251
 20
180.5133768935999
 30
0.0
 40
1.000000000000112
 50
180.0
 51
270.0
  0
CIRCLE
  5
1AF
  8
1
  6
CONTINUOUS
 62
     7
 10
-15.21047523000044
 20
225.9633768935997
 30
0.0
 40
2.000000000000002
  0
ARC
  5
1B0
  8
1
  6
CONTINUOUS
 62
     7
 10
6.189524769999427
 20
223.4633768935997
 30
0.0
 40
0.4999999999999449
 50
180.0
 51
0.0
  0
LINE
  5
1B1
  8
1
  6
CONTINUOUS
 62
     7
 10
76.38952477000008
 20
269.7133768935998
 30
0.0
 11
77.1895247699991
 21
269.7133768935998
 31
0.0
  0
LINE
  5
1B2
  8
1
  6
CONTINUOUS
 62
     7
 10
-15.61047523000038
 20
268.8633768936
 30
0.0
 11
-15.61047523000038
 21
269.7133768935998
 31
0.0
  0
CIRCLE
  5
1B3
  8
1
  6
CONTINUOUS
 62
     7
 10
122.7895247699995
 20
225.9633768935997
 30
0.0
 40
2.000000000000002
  0
LINE
  5
1B4
  8
1
  6
CONTINUOUS
 62
     7
 10
5.689524769999704
 20
228.4633768935997
 30
0.0
 11
5.689524769999704
 21
223.4633768935997
 31
0.0
  0
LINE
  5
1B5
  8
1
  6
CONTINUOUS
 62
     7
 10
32.7895247699996
 20
267.3133768935996
 30
0.0
 11
31.93952476999892
 21
267.3133768935996
 31
0.0
  0
LINE
  5
1B6
  8
1
  6
CONTINUOUS
 62
     7
 10
76.38952477000008
 20
268.8633768936
 30
0.0
 11
76.38952477000008
 21
269.7133768935998
 31
0.0
  0
ARC
  5
1B7
  8
1
  6
CONTINUOUS
 62
     7
 10
75.63952477000008
 20
266.5633768935996
 30
0.0
 40
0.7500000000000284
 50
0.0
 51
90.0
  0
ARC
  5
1B8
  8
1
  6
CONTINUOUS
 62
     7
 10
-14.06047523000044
 20
268.8633768936
 30
0.0
 40
0.7500000000000284
 50
180.0
 51
270.0
  0
ARC
  5
1B9
  8
1
  6
CONTINUOUS
 62
     7
 10
101.3895247700005
 20
223.4633768935997
 30
0.0
 40
0.4999999999999449
 50
180.0
 51
0.0
  0
ARC
  5
1BA
  8
1
  6
CONTINUOUS
 62
     7
 10
141.2895247699999
 20
248.9633768935998
 30
0.0
 40
0.4999999999999449
 50
180.0
 51
270.0
  0
LINE
  5
1BB
  8
1
  6
CONTINUOUS
 62
     7
 10
9.889524769999685
 20
228.4633768935997
 30
0.0
 11
9.889524769999685
 21
223.4633768935997
 31
0.0
  0
LINE
  5
1BC
  8
1
  6
CONTINUOUS
 62
     7
 10
6.68952476999915
 20
223.4633768935997
 30
0.0
 11
6.68952476999915
 21
228.4633768935997
 31
0.0
  0
LINE
  5
1BD
  8
1
  6
CONTINUOUS
 62
     7
 10
-17.21047523000023
 20
267.3133768935996
 30
0.0
 11
-17.21047523000023
 21
268.1133768936
 31
0.0
  0
ARC
  5
1BE
  8
1
  6
CONTINUOUS
 62
     7
 10
29.63952476999984
 20
266.5633768935996
 30
0.0
 40
0.7500000000000284
 50
0.0
 51
90.0
  0
LINE
  5
1BF
  8
1
  6
CONTINUOUS
 62
     7
 10
53.78952476999951
 20
259.1829295153998
 30
0.0
 11
54.83952476999973
 21
260.2329295153996
 31
0.0
  0
LINE
  5
1C0
  8
1
  6
CONTINUOUS
 62
     7
 10
53.78952476999951
 20
267.6682108896
 30
0.0
 11
54.83952476999973
 21
268.7182108895994
 31
0.0
  0
LINE
  5
1C1
  8
1
  6
CONTINUOUS
 62
     7
 10
53.78952476999951
 20
256.3545023905994
 30
0.0
 11
54.83952476999973
 21
257.4045023905996
 31
0.0
  0
LINE
  5
1C2
  8
1
  6
CONTINUOUS
 62
     7
 10
53.78952476999951
 20
239.383939642
 30
0.0
 11
54.83952476999973
 21
240.4339396419998
 31
0.0
  0
LINE
  5
1C3
  8
1
  6
CONTINUOUS
 62
     7
 10
52.73952476999929
 20
238.3339396419996
 30
0.0
 11
53.78952476999951
 21
239.383939642
 31
0.0
  0
LINE
  5
1C4
  8
1
  6
CONTINUOUS
 62
     7
 10
53.78952476999951
 20
236.5555125173998
 30
0.0
 11
54.83952476999973
 21
237.6055125174001
 31
0.0
  0
LINE
  5
1C5
  8
1
  6
CONTINUOUS
 62
     7
 10
53.78952476999951
 20
230.8986582678003
 30
0.0
 11
54.83952476999973
 21
231.9486582677998
 31
0.0
  0
LINE
  5
1C6
  8
1
  6
CONTINUOUS
 62
     7
 10
52.73952476999929
 20
260.9613566399998
 30
0.0
 11
53.78952476999951
 21
262.0113566399996
 31
0.0
  0
LINE
  5
1C7
  8
1
  6
CONTINUOUS
 62
     7
 10
52.73952476999929
 20
227.0202311429998
 30
0.0
 11
53.78952476999951
 21
228.0702311429997
 31
0.0
  0
LINE
  5
1C8
  8
1
  6
CONTINUOUS
 62
     7
 10
53.78952476999951
 20
211.0996683945996
 30
0.0
 11
54.83952476999973
 21
212.1496683945999
 31
0.0
  0
LINE
  5
1C9
  8
1
  6
CONTINUOUS
 62
     7
 10
53.78952476999951
 20
262.0113566399996
 30
0.0
 11
54.83952476999973
 21
263.0613566399999
 31
0.0
  0
LINE
  5
1CA
  8
1
  6
CONTINUOUS
 62
     7
 10
52.73952476999929
 20
269.4466380143994
 30
0.0
 11
53.78952476999951
 21
270.4966380143996
 31
0.0
  0
LINE
  5
1CB
  8
1
  6
CONTINUOUS
 62
     7
 10
53.78952476999951
 20
245.0407938915997
 30
0.0
 11
54.83952476999973
 21
246.0907938915998
 31
0.0
  0
LINE
  5
1CC
  8
1
  6
CONTINUOUS
 62
     7
 10
53.78952476999951
 20
216.7565226439999
 30
0.0
 11
54.83952476999973
 21
217.8065226440001
 31
0.0
  0
LINE
  5
1CD
  8
1
  6
CONTINUOUS
 62
     7
 10
52.73952476999929
 20
235.5055125173997
 30
0.0
 11
53.78952476999951
 21
236.5555125173998
 31
0.0
  0
LINE
  5
1CE
  8
1
  6
CONTINUOUS
 62
     7
 10
52.73952476999929
 20
232.6770853925995
 30
0.0
 11
53.78952476999951
 21
233.7270853925999
 31
0.0
  0
LINE
  5
1CF
  8
1
  6
CONTINUOUS
 62
     7
 10
52.73952476999929
 20
263.7897837647998
 30
0.0
 11
53.78952476999951
 21
264.8397837647996
 31
0.0
  0
LINE
  5
1D0
  8
1
  6
CONTINUOUS
 62
     7
 10
52.73952476999929
 20
210.0496683945999
 30
0.0
 11
53.78952476999951
 21
211.0996683945996
 31
0.0
  0
LINE
  5
1D1
  8
1
  6
CONTINUOUS
 62
     7
 10
53.78952476999951
 20
208.2712412697997
 30
0.0
 11
54.83952476999973
 21
209.3212412697995
 31
0.0
  0
LINE
  5
1D2
  8
1
  6
CONTINUOUS
 62
     7
 10
52.73952476999929
 20
207.2212412697999
 30
0.0
 11
53.78952476999951
 21
208.2712412697997
 31
0.0
  0
LINE
  5
1D3
  8
1
  6
CONTINUOUS
 62
     7
 10
53.78952476999951
 20
205.4428141450001
 30
0.0
 11
54.83952476999973
 21
206.4928141449999
 31
0.0
  0
LINE
  5
1D4
  8
1
  6
CONTINUOUS
 62
     7
 10
52.73952476999929
 20
204.3928141449999
 30
0.0
 11
53.78952476999951
 21
205.4428141450001
 31
0.0
  0
LINE
  5
1D5
  8
1
  6
CONTINUOUS
 62
     7
 10
52.73952476999929
 20
249.6476481409994
 30
0.0
 11
53.78952476999951
 21
250.6976481409998
 31
0.0
  0
LINE
  5
1D6
  8
1
  6
CONTINUOUS
 62
     7
 10
52.73952476999929
 20
221.3633768935997
 30
0.0
 11
53.78952476999951
 21
222.4133768935995
 31
0.0
  0
LINE
  5
1D7
  8
1
  6
CONTINUOUS
 62
     7
 10
52.73952476999929
 20
258.1329295153996
 30
0.0
 11
53.78952476999951
 21
259.1829295153998
 31
0.0
  0
LINE
  5
1D8
  8
1
  6
CONTINUOUS
 62
     7
 10
53.78952476999951
 20
253.5260752657998
 30
0.0
 11
54.83952476999973
 21
254.5760752658001
 31
0.0
  0
LINE
  5
1D9
  8
1
  6
CONTINUOUS
 62
     7
 10
52.73952476999929
 20
266.6182108895998
 30
0.0
 11
53.78952476999951
 21
267.6682108896
 31
0.0
  0
LINE
  5
1DA
  8
1
  6
CONTINUOUS
 62
     7
 10
53.78952476999951
 20
264.8397837647996
 30
0.0
 11
54.83952476999973
 21
265.8897837647998
 31
0.0
  0
LINE
  5
1DB
  8
1
  6
CONTINUOUS
 62
     7
 10
52.73952476999929
 20
255.3045023906
 30
0.0
 11
53.78952476999951
 21
256.3545023905994
 31
0.0
  0
LINE
  5
1DC
  8
1
  6
CONTINUOUS
 62
     7
 10
52.73952476999929
 20
241.1623667667998
 30
0.0
 11
53.78952476999951
 21
242.2123667668001
 31
0.0
  0
LINE
  5
1DD
  8
1
  6
CONTINUOUS
 62
     7
 10
52.73952476999929
 20
252.4760752658
 30
0.0
 11
53.78952476999951
 21
253.5260752657998
 31
0.0
  0
LINE
  5
1DE
  8
1
  6
CONTINUOUS
 62
     7
 10
52.73952476999929
 20
212.8780955191997
 30
0.0
 11
53.78952476999951
 21
213.9280955191999
 31
0.0
  0
LINE
  5
1DF
  8
1
  6
CONTINUOUS
 62
     7
 10
53.78952476999951
 20
225.2418040181997
 30
0.0
 11
54.51109764539949
 21
225.9633768935997
 31
0.0
  0
LINE
  5
1E0
  8
1
  6
CONTINUOUS
 62
     7
 10
52.73952476999929
 20
224.1918040181995
 30
0.0
 11
53.78952476999951
 21
225.2418040181997
 31
0.0
  0
LINE
  5
1E1
  8
1
  6
CONTINUOUS
 62
     7
 10
53.78952476999951
 20
199.7859598955999
 30
0.0
 11
54.83952476999973
 21
200.8359598955997
 31
0.0
  0
LINE
  5
1E2
  8
1
  6
CONTINUOUS
 62
     7
 10
53.78952476999951
 20
242.2123667668001
 30
0.0
 11
54.83952476999973
 21
243.2623667667997
 31
0.0
  0
LINE
  5
1E3
  8
1
  6
CONTINUOUS
 62
     7
 10
53.78952476999951
 20
228.0702311429997
 30
0.0
 11
54.83952476999973
 21
229.1202311429999
 31
0.0
  0
LINE
  5
1E4
  8
1
  6
CONTINUOUS
 62
     7
 10
53.78952476999951
 20
213.9280955191999
 30
0.0
 11
54.83952476999973
 21
214.9780955191997
 31
0.0
  0
LINE
  5
1E5
  8
1
  6
CONTINUOUS
 62
     7
 10
54.51109764539949
 20
225.9633768935997
 30
0.0
 11
54.83952476999973
 21
226.2918040183997
 31
0.0
  0
LINE
  5
1E6
  8
1
  6
CONTINUOUS
 62
     7
 10
52.73952476999929
 20
198.7359598955997
 30
0.0
 11
53.78952476999951
 21
199.7859598955999
 31
0.0
  0
LINE
  5
1E7
  8
1
  6
CONTINUOUS
 62
     7
 10
52.73952476999929
 20
246.8192210163999
 30
0.0
 11
53.78952476999951
 21
247.8692210163996
 31
0.0
  0
LINE
  5
1E8
  8
1
  6
CONTINUOUS
 62
     7
 10
52.73952476999929
 20
218.5349497688001
 30
0.0
 11
53.78952476999951
 21
219.5849497687999
 31
0.0
  0
LINE
  5
1E9
  8
1
  6
CONTINUOUS
 62
     7
 10
53.78952476999951
 20
247.8692210163996
 30
0.0
 11
54.83952476999973
 21
248.9192210163998
 31
0.0
  0
LINE
  5
1EA
  8
1
  6
CONTINUOUS
 62
     7
 10
53.78952476999951
 20
219.5849497687999
 30
0.0
 11
54.83952476999973
 21
220.6349497687997
 31
0.0
  0
LINE
  5
1EB
  8
1
  6
CONTINUOUS
 62
     7
 10
53.78952476999951
 20
194.1291056459999
 30
0.0
 11
54.83952476999973
 21
195.1791056460001
 31
0.0
  0
LINE
  5
1EC
  8
1
  6
CONTINUOUS
 62
     7
 10
52.73952476999929
 20
193.0791056460001
 30
0.0
 11
53.78952476999951
 21
194.1291056459999
 31
0.0
  0
LINE
  5
1ED
  8
1
  6
CONTINUOUS
 62
     7
 10
53.78952476999951
 20
233.7270853925999
 30
0.0
 11
54.83952476999973
 21
234.7770853925994
 31
0.0
  0
LINE
  5
1EE
  8
1
  6
CONTINUOUS
 62
     7
 10
53.78952476999951
 20
270.4966380143996
 30
0.0
 11
54.83952476999973
 21
271.5466380143998
 31
0.0
  0
LINE
  5
1EF
  8
1
  6
CONTINUOUS
 62
     7
 10
52.73952476999929
 20
229.8486582678
 30
0.0
 11
53.78952476999951
 21
230.8986582678003
 31
0.0
  0
LINE
  5
1F0
  8
1
  6
CONTINUOUS
 62
     7
 10
52.73952476999929
 20
201.5643870201999
 30
0.0
 11
53.78952476999951
 21
202.6143870201997
 31
0.0
  0
LINE
  5
1F1
  8
1
  6
CONTINUOUS
 62
     7
 10
52.73952476999929
 20
243.9907938915994
 30
0.0
 11
53.78952476999951
 21
245.0407938915997
 31
0.0
  0
LINE
  5
1F2
  8
1
  6
CONTINUOUS
 62
     7
 10
52.73952476999929
 20
215.7065226439996
 30
0.0
 11
53.78952476999951
 21
216.7565226439999
 31
0.0
  0
LINE
  5
1F3
  8
1
  6
CONTINUOUS
 62
     7
 10
53.78952476999951
 20
202.6143870201997
 30
0.0
 11
54.83952476999973
 21
203.6643870201999
 31
0.0
  0
LINE
  5
1F4
  8
1
  6
CONTINUOUS
 62
     7
 10
53.78952476999951
 20
196.9575327707999
 30
0.0
 11
54.83952476999973
 21
198.0075327707997
 31
0.0
  0
LINE
  5
1F5
  8
1
  6
CONTINUOUS
 62
     7
 10
52.73952476999929
 20
195.9075327707997
 30
0.0
 11
53.78952476999951
 21
196.9575327707999
 31
0.0
  0
LINE
  5
1F6
  8
1
  6
CONTINUOUS
 62
     7
 10
52.73952476999929
 20
272.2750651389997
 30
0.0
 11
52.87783652459984
 21
272.4133768935998
 31
0.0
  0
LINE
  5
1F7
  8
1
  6
CONTINUOUS
 62
     7
 10
53.78952476999951
 20
250.6976481409998
 30
0.0
 11
54.83952476999973
 21
251.7476481409996
 31
0.0
  0
LINE
  5
1F8
  8
1
  6
CONTINUOUS
 62
     7
 10
53.78952476999951
 20
222.4133768935995
 30
0.0
 11
54.83952476999973
 21
223.4633768935997
 31
0.0
  0
LINE
  5
1F9
  8
1
  6
CONTINUOUS
 62
     7
 10
53.78952476999951
 20
191.3006785212
 30
0.0
 11
54.83952476999973
 21
192.3506785212001
 31
0.0
  0
LINE
  5
1FA
  8
1
  6
CONTINUOUS
 62
     7
 10
52.73952476999929
 20
181.765397147
 30
0.0
 11
53.78952476999951
 21
182.8153971470001
 31
0.0
  0
LINE
  5
1FB
  8
1
  6
CONTINUOUS
 62
     7
 10
53.78952476999951
 20
179.9869700222002
 30
0.0
 11
54.83952476999973
 21
181.0369700221997
 31
0.0
  0
LINE
  5
1FC
  8
1
  6
CONTINUOUS
 62
     7
 10
53.78952476999951
 20
182.8153971470001
 30
0.0
 11
54.83952476999973
 21
183.8653971469998
 31
0.0
  0
LINE
  5
1FD
  8
1
  6
CONTINUOUS
 62
     7
 10
52.73952476999929
 20
187.4222513963995
 30
0.0
 11
53.78952476999951
 21
188.4722513966001
 31
0.0
  0
ARC
  5
1FE
  8
1
  6
CONTINUOUS
 62
     7
 10
58.28952476999968
 20
200.4633754099997
 30
0.0
 40
0.4999999999999449
 50
270.1395953738
 51
0.0
  0
LINE
  5
1FF
  8
1
  6
CONTINUOUS
 62
     7
 10
119.7895247699993
 20
259.9633768935998
 30
0.0
 11
107.2895247700001
 21
259.9633768935998
 31
0.0
  0
ARC
  5
200
  8
1
  6
CONTINUOUS
 62
     7
 10
96.78952476999969
 20
248.9633768935998
 30
0.0
 40
0.4999999999999449
 50
270.0
 51
0.0
  0
LINE
  5
201
  8
1
  6
CONTINUOUS
 62
     7
 10
70.78952477039951
 20
257.9620830099998
 30
0.0
 11
70.78952476980008
 21
258.9633856419998
 31
0.0
  0
LINE
  5
202
  8
1
  6
CONTINUOUS
 62
     7
 10
94.78952476999989
 20
208.9633768935998
 30
0.0
 11
94.78952476999989
 21
211.4633767451999
 31
0.0
  0
ARC
  5
203
  8
1
  6
CONTINUOUS
 62
     7
 10
95.2895247701995
 20
240.4633767969996
 30
0.0
 40
0.4999999999999449
 50
180.0
 51
269.9999999754
  0
LINE
  5
204
  8
1
  6
CONTINUOUS
 62
     7
 10
102.2895247699993
 20
254.9633768935996
 30
0.0
 11
102.2895247699993
 21
248.9633768935998
 31
0.0
  0
LINE
  5
205
  8
1
  6
CONTINUOUS
 62
     7
 10
102.2895247699993
 20
242.9633768935997
 30
0.0
 11
102.2895247699993
 21
208.9633768935997
 31
0.0
  0
LINE
  5
206
  8
1
  6
CONTINUOUS
 62
     7
 10
102.2895247699993
 20
202.9633768936001
 30
0.0
 11
102.2895247699993
 21
196.9633768935997
 31
0.0
  0
LINE
  5
207
  8
1
  6
CONTINUOUS
 62
     7
 10
53.78952476999951
 20
185.6438242717998
 30
0.0
 11
54.83952476999973
 21
186.6938242717999
 31
0.0
  0
LINE
  5
208
  8
1
  6
CONTINUOUS
 62
     7
 10
138.2895247699997
 20
259.9633768935998
 30
0.0
 11
125.7895247701995
 21
259.9633768935998
 31
0.0
  0
LINE
  5
209
  8
1
  6
CONTINUOUS
 62
     7
 10
73.78952476999989
 20
194.4633768935999
 30
0.0
 11
71.2895244831997
 21
194.4633768935999
 31
0.0
  0
LINE
  5
20A
  8
1
  6
CONTINUOUS
 62
     7
 10
96.2894797474001
 20
199.9633768943997
 30
0.0
 11
96.2894920261993
 21
196.9633891721997
 31
0.0
  0
ARC
  5
20B
  8
1
  6
CONTINUOUS
 62
     7
 10
79.78952476999929
 20
259.4633768935997
 30
0.0
 40
0.4999999999999449
 50
90.0
 51
180.0
  0
LINE
  5
20C
  8
1
  6
CONTINUOUS
 62
     7
 10
70.78952477039951
 20
193.9646707770001
 30
0.0
 11
70.78952476980008
 21
192.9633681452001
 31
0.0
  0
LINE
  5
20D
  8
1
  6
CONTINUOUS
 62
     7
 10
95.28952476999969
 20
243.4633768935997
 30
0.0
 11
96.78952476979988
 21
243.4633768935997
 31
0.0
  0
LINE
  5
20E
  8
1
  6
CONTINUOUS
 62
     7
 10
95.28952476999969
 20
248.4633768935997
 30
0.0
 11
96.78952476999969
 21
248.4633768935997
 31
0.0
  0
ARC
  5
20F
  8
1
  6
CONTINUOUS
 62
     7
 10
79.78952476999929
 20
193.9633768934
 30
0.0
 40
0.4999999999999449
 50
90.0
 51
180.0
  0
LINE
  5
210
  8
1
  6
CONTINUOUS
 62
     7
 10
52.73952476999929
 20
184.5938242717999
 30
0.0
 11
53.78952476999951
 21
185.6438242717998
 31
0.0
  0
ARC
  5
211
  8
1
  6
CONTINUOUS
 62
     7
 10
73.78952476999989
 20
192.4633768935997
 30
0.0
 40
0.4999999999999449
 50
270.0
 51
0.0
  0
ARC
  5
212
  8
1
  6
CONTINUOUS
 62
     7
 10
58.28952477019952
 20
251.4633772216
 30
0.0
 40
0.4999999999999449
 50
0.0
 51
90.0000000246
  0
ARC
  5
213
  8
1
  6
CONTINUOUS
 62
     7
 10
79.78952476999929
 20
192.4633768935997
 30
0.0
 40
0.4999999999999449
 50
180.0
 51
270.0
  0
LINE
  5
214
  8
1
  6
CONTINUOUS
 62
     7
 10
95.2883065719993
 20
199.9633768937997
 30
0.0
 11
96.2894797474001
 21
199.9633768943997
 31
0.0
  0
LINE
  5
215
  8
1
  6
CONTINUOUS
 62
     7
 10
94.78952476999989
 20
248.9633768935998
 30
0.0
 11
94.78952476999989
 21
251.4633772216
 31
0.0
  0
ARC
  5
216
  8
1
  6
CONTINUOUS
 62
     7
 10
92.28952476999949
 20
254.9633768935996
 30
0.0
 40
5.000000000000115
 50
0.0
 51
38.3161344739
  0
LINE
  5
217
  8
1
  6
CONTINUOUS
 62
     7
 10
95.2895247701995
 20
251.9633768937998
 30
0.0
 11
96.2894797474001
 21
251.9633768931998
 31
0.0
  0
ARC
  5
218
  8
1
  6
CONTINUOUS
 62
     7
 10
95.28952476999969
 20
248.9633768935998
 30
0.0
 40
0.4999999999999449
 50
180.0
 51
270.0
  0
LINE
  5
219
  8
1
  6
CONTINUOUS
 62
     7
 10
52.73952476999929
 20
190.2506785211997
 30
0.0
 11
53.78952476999951
 21
191.3006785212
 31
0.0
  0
LINE
  5
21A
  8
1
  6
CONTINUOUS
 62
     7
 10
96.2895247697993
 20
254.9721789637998
 30
0.0
 11
96.28952440299929
 21
251.9633760004002
 31
0.0
  0
ARC
  5
21B
  8
1
  6
CONTINUOUS
 62
     7
 10
58.28952477019952
 20
211.4633767451999
 30
0.0
 40
0.4999999999999449
 50
0.0
 51
89.9999999754
  0
LINE
  5
21C
  8
1
  6
CONTINUOUS
 62
     7
 10
94.78952476999989
 20
242.9633768935997
 30
0.0
 11
94.78952476999989
 21
240.4633767969996
 31
0.0
  0
ARC
  5
21D
  8
1
  6
CONTINUOUS
 62
     7
 10
92.28952476999949
 20
196.9633768935997
 30
0.0
 40
5.000000000000115
 50
270.0
 51
0.0
  0
ARC
  5
21E
  8
1
  6
CONTINUOUS
 62
     7
 10
95.28952476999969
 20
242.9633768935997
 30
0.0
 40
0.4999999999999449
 50
90.0
 51
180.0000000001
  0
LINE
  5
21F
  8
1
  6
CONTINUOUS
 62
     7
 10
82.78952477039991
 20
193.9633768934
 30
0.0
 11
82.7895247697995
 21
192.9634219161997
 31
0.0
  0
ARC
  5
220
  8
1
  6
CONTINUOUS
 62
     7
 10
95.28952476999969
 20
208.9633768935998
 30
0.0
 40
0.4999999999999449
 50
180.0
 51
270.0
  0
LINE
  5
221
  8
1
  6
CONTINUOUS
 62
     7
 10
125.7895247699995
 20
191.9633768935999
 30
0.0
 11
138.2895247699997
 21
191.9633768935999
 31
0.0
  0
LINE
  5
222
  8
1
  6
CONTINUOUS
 62
     7
 10
53.78952476999951
 20
188.4722513966001
 30
0.0
 11
54.83952476999973
 21
189.5222513966
 31
0.0
  0
LINE
  5
223
  8
1
  6
CONTINUOUS
 62
     7
 10
95.28952476979968
 20
239.9633768937997
 30
0.0
 11
96.28953351860011
 21
239.9633768931998
 31
0.0
  0
LINE
  5
224
  8
1
  6
CONTINUOUS
 62
     7
 10
79.2895247699995
 20
193.9633768934
 30
0.0
 11
79.2895247699995
 21
192.4633768935997
 31
0.0
  0
ARC
  5
225
  8
1
  6
CONTINUOUS
 62
     7
 10
73.78952476999989
 20
257.9633768938
 30
0.0
 40
0.4999999999999449
 50
270.0
 51
0.0
  0
ARC
  5
226
  8
1
  6
CONTINUOUS
 62
     7
 10
71.2895230959999
 20
257.9633768921994
 30
0.0
 40
0.4999999999999449
 50
180.1482681326
 51
270.0
  0
ARC
  5
227
  8
1
  6
CONTINUOUS
 62
     7
 10
71.2895244831997
 20
193.9633768931995
 30
0.0
 40
0.4999999999999449
 50
90.0
 51
179.9999999756
  0
ARC
  5
228
  8
1
  6
CONTINUOUS
 62
     7
 10
73.78952476999989
 20
193.9633768934
 30
0.0
 40
0.4999999999999449
 50
0.0
 51
90.0
  0
LINE
  5
229
  8
1
  6
CONTINUOUS
 62
     7
 10
94.78952476999989
 20
202.9633768936001
 30
0.0
 11
94.78952476999989
 21
200.4633754099997
 31
0.0
  0
ARC
  5
22A
  8
1
  6
CONTINUOUS
 62
     7
 10
82.28952458079911
 20
193.9633768935997
 30
0.0
 40
0.4999999999999449
 50
0.0
 51
90.0
  0
ARC
  5
22B
  8
1
  6
CONTINUOUS
 62
     7
 10
58.28952476999968
 20
240.4633767969996
 30
0.0
 40
0.4999999999999449
 50
270.0000000246001
 51
0.0
  0
ARC
  5
22C
  8
1
  6
CONTINUOUS
 62
     7
 10
92.28953435499987
 20
254.9633768935996
 30
0.0
 40
4.000000000000004
 50
0.1260804677
 51
50.80503257400001
  0
ARC
  5
22D
  8
1
  6
CONTINUOUS
 62
     7
 10
96.78952476979988
 20
208.9633768935998
 30
0.0
 40
0.4999999999999449
 50
270.0
 51
0.0
  0
LINE
  5
22E
  8
1
  6
CONTINUOUS
 62
     7
 10
95.28952476999969
 20
203.4633768935998
 30
0.0
 11
96.78952476999969
 21
203.4633768935998
 31
0.0
  0
ARC
  5
22F
  8
1
  6
CONTINUOUS
 62
     7
 10
96.78952476979988
 20
242.9633768935997
 30
0.0
 40
0.4999999999999449
 50
0.0
 51
90.0
  0
LINE
  5
230
  8
1
  6
CONTINUOUS
 62
     7
 10
53.31593164140044
 20
179.5133768936001
 30
0.0
 11
53.78952476999951
 21
179.9869700222002
 31
0.0
  0
LINE
  5
231
  8
1
  6
CONTINUOUS
 62
     7
 10
111.4512058448001
 20
191.9633768935999
 30
0.0
 11
119.7895247699993
 21
191.9633768935999
 31
0.0
  0
LINE
  5
232
  8
1
  6
CONTINUOUS
 62
     7
 10
95.28952476999969
 20
208.4633768935998
 30
0.0
 11
96.78952476979988
 21
208.4633768935998
 31
0.0
  0
ARC
  5
233
  8
1
  6
CONTINUOUS
 62
     7
 10
95.28952476999969
 20
202.9633768936001
 30
0.0
 40
0.4999999999999449
 50
90.0
 51
180.0
  0
ARC
  5
234
  8
1
  6
CONTINUOUS
 62
     7
 10
119.7895247699993
 20
257.9633768938
 30
0.0
 40
0.4999999999999449
 50
270.0
 51
0.0
  0
ARC
  5
235
  8
1
  6
CONTINUOUS
 62
     7
 10
107.2895247700001
 20
196.9633768935997
 30
0.0
 40
5.000000000000115
 50
180.0
 51
218.3161344737
  0
ARC
  5
236
  8
1
  6
CONTINUOUS
 62
     7
 10
104.2895247701997
 20
242.9633768935997
 30
0.0
 40
0.4999999999999449
 50
0.0
 51
90.0
  0
ARC
  5
237
  8
1
  6
CONTINUOUS
 62
     7
 10
79.78952476999929
 20
257.9633768938
 30
0.0
 40
0.4999999999999449
 50
180.0
 51
270.0
  0
LINE
  5
238
  8
1
  6
CONTINUOUS
 62
     7
 10
116.7895247703999
 20
257.9620830099998
 30
0.0
 11
116.7895247697995
 21
258.9633856419998
 31
0.0
  0
ARC
  5
239
  8
1
  6
CONTINUOUS
 62
     7
 10
107.2895247700001
 20
254.9633768935996
 30
0.0
 40
5.000000000000115
 50
90.0
 51
180.0
  0
LINE
  5
23A
  8
1
  6
CONTINUOUS
 62
     7
 10
96.28952077699928
 20
239.9633760004002
 30
0.0
 11
96.28953351860011
 21
211.9633768935999
 31
0.0
  0
LINE
  5
23B
  8
1
  6
CONTINUOUS
 62
     7
 10
125.2895247699999
 20
257.9633768938
 30
0.0
 11
125.2895247699999
 21
259.4633768935997
 31
0.0
  0
LINE
  5
23C
  8
1
  6
CONTINUOUS
 62
     7
 10
79.78952476999929
 20
194.4633768935999
 30
0.0
 11
82.28952458079911
 21
194.4633768935999
 31
0.0
  0
ARC
  5
23D
  8
1
  6
CONTINUOUS
 62
     7
 10
96.78952476999969
 20
202.9633768936001
 30
0.0
 40
0.4999999999999449
 50
0.0
 51
90.0
  0
LINE
  5
23E
  8
1
  6
CONTINUOUS
 62
     7
 10
128.7895247704002
 20
193.9633768934
 30
0.0
 11
128.7895247697999
 21
192.9634219161997
 31
0.0
  0
ARC
  5
23F
  8
1
  6
CONTINUOUS
 62
     7
 10
117.2895230960003
 20
257.9633768921994
 30
0.0
 40
0.4999999999999449
 50
180.1482681326
 51
270.0
  0
LINE
  5
240
  8
1
  6
CONTINUOUS
 62
     7
 10
104.2895247701997
 20
203.4633768935998
 30
0.0
 11
102.7895247699999
 21
203.4633768935998
 31
0.0
  0
LINE
  5
241
  8
1
  6
CONTINUOUS
 62
     7
 10
143.2895247699997
 20
254.9633768935996
 30
0.0
 11
143.2895247699997
 21
248.9633768935998
 31
0.0
  0
ARC
  5
242
  8
1
  6
CONTINUOUS
 62
     7
 10
104.2895247701997
 20
211.4633767451999
 30
0.0
 40
0.4999999999999449
 50
0.0
 51
89.9999999754
  0
LINE
  5
243
  8
1
  6
CONTINUOUS
 62
     7
 10
97.28952477020009
 20
242.9633768935997
 30
0.0
 11
97.28952477020009
 21
208.9633768935997
 31
0.0
  0
ARC
  5
244
  8
1
  6
CONTINUOUS
 62
     7
 10
104.2895247699999
 20
240.4633767969996
 30
0.0
 40
0.4999999999999449
 50
270.0000000246001
 51
0.0
  0
LINE
  5
245
  8
1
  6
CONTINUOUS
 62
     7
 10
95.28952476979968
 20
211.9633768935999
 30
0.0
 11
96.28953351860011
 21
211.9633768941995
 31
0.0
  0
LINE
  5
246
  8
1
  6
CONTINUOUS
 62
     7
 10
104.7895247699997
 20
202.9633768936001
 30
0.0
 11
104.7895247699997
 21
200.4633754099997
 31
0.0
  0
LINE
  5
247
  8
1
  6
CONTINUOUS
 62
     7
 10
128.7895247704002
 20
257.9633768943995
 30
0.0
 11
128.7895247697999
 21
258.9633318707998
 31
0.0
  0
ARC
  5
248
  8
1
  6
CONTINUOUS
 62
     7
 10
128.2895238777999
 20
257.9633768941996
 30
0.0
 40
0.4999999999999449
 50
270.0
 51
0.0000000243999807
  0
ARC
  5
249
  8
1
  6
CONTINUOUS
 62
     7
 10
82.2895238777997
 20
257.9633768941996
 30
0.0
 40
0.4999999999999449
 50
270.0
 51
0.0000000243999807
  0
LINE
  5
24A
  8
1
  6
CONTINUOUS
 62
     7
 10
143.2895247701995
 20
242.9633768935997
 30
0.0
 11
143.2895247701995
 21
208.9633768935997
 31
0.0
  0
ARC
  5
24B
  8
1
  6
CONTINUOUS
 62
     7
 10
125.7895247699995
 20
192.4633768935997
 30
0.0
 40
0.4999999999999449
 50
180.0
 51
270.0
  0
ARC
  5
24C
  8
1
  6
CONTINUOUS
 62
     7
 10
104.2895247699999
 20
200.4633754099997
 30
0.0
 40
0.4999999999999449
 50
270.1395953738
 51
0.0
  0
ARC
  5
24D
  8
1
  6
CONTINUOUS
 62
     7
 10
104.2895247701997
 20
208.9633768935998
 30
0.0
 40
0.4999999999999449
 50
270.0
 51
0.0
  0
LINE
  5
24E
  8
1
  6
CONTINUOUS
 62
     7
 10
104.2895247703997
 20
211.9633768935999
 30
0.0
 11
103.2895160216003
 21
211.9633768941995
 31
0.0
  0
ARC
  5
24F
  8
1
  6
CONTINUOUS
 62
     7
 10
125.7895247699995
 20
257.9633768938
 30
0.0
 40
0.4999999999999449
 50
180.0
 51
270.0
  0
LINE
  5
250
  8
1
  6
CONTINUOUS
 62
     7
 10
104.7895247699997
 20
242.9633768935997
 30
0.0
 11
104.7895247699997
 21
240.4633767969996
 31
0.0
  0
ARC
  5
251
  8
1
  6
CONTINUOUS
 62
     7
 10
95.2895247701995
 20
200.4633754099997
 30
0.0
 40
0.4999999999999449
 50
180.0
 51
269.8604046262001
  0
ARC
  5
252
  8
1
  6
CONTINUOUS
 62
     7
 10
95.28952476999969
 20
251.4633772216
 30
0.0
 40
0.4999999999999449
 50
89.9999999758
 51
180.0
  0
ARC
  5
253
  8
1
  6
CONTINUOUS
 62
     7
 10
73.78952476999989
 20
259.4633768935997
 30
0.0
 40
0.4999999999999449
 50
0.0
 51
90.0
  0
LINE
  5
254
  8
1
  6
CONTINUOUS
 62
     7
 10
125.2895247699999
 20
193.9633768934
 30
0.0
 11
125.2895247699999
 21
192.4633768935997
 31
0.0
  0
ARC
  5
255
  8
1
  6
CONTINUOUS
 62
     7
 10
119.7895247699993
 20
193.9633768934
 30
0.0
 40
0.4999999999999449
 50
0.0
 51
90.0
  0
LINE
  5
256
  8
1
  6
CONTINUOUS
 62
     7
 10
116.7895256989993
 20
258.9633768935997
 30
0.0
 11
107.2895151851995
 21
258.9633768935997
 31
0.0
  0
LINE
  5
257
  8
1
  6
CONTINUOUS
 62
     7
 10
74.2895247699997
 20
193.9633768934
 30
0.0
 11
74.2895247699997
 21
192.4633768935997
 31
0.0
  0
ARC
  5
258
  8
1
  6
CONTINUOUS
 62
     7
 10
119.7895247699993
 20
259.4633768935997
 30
0.0
 40
0.4999999999999449
 50
0.0
 51
90.0
  0
LINE
  5
259
  8
1
  6
CONTINUOUS
 62
     7
 10
120.2895247699998
 20
257.9633768938
 30
0.0
 11
120.2895247699998
 21
259.4633768935997
 31
0.0
  0
ARC
  5
25A
  8
1
  6
CONTINUOUS
 62
     7
 10
125.7895247699995
 20
193.9633768934
 30
0.0
 40
0.4999999999999449
 50
90.0
 51
180.0
  0
ARC
  5
25B
  8
1
  6
CONTINUOUS
 62
     7
 10
119.7895247699993
 20
192.4633768935997
 30
0.0
 40
0.4999999999999449
 50
270.0
 51
0.0
  0
ARC
  5
25C
  8
1
  6
CONTINUOUS
 62
     7
 10
104.2895247701997
 20
248.9633768935998
 30
0.0
 40
0.4999999999999449
 50
270.0
 51
0.0
  0
LINE
  5
25D
  8
1
  6
CONTINUOUS
 62
     7
 10
116.7895247703999
 20
193.9646707770001
 30
0.0
 11
116.7895247697995
 21
192.9633681452001
 31
0.0
  0
ARC
  5
25E
  8
1
  6
CONTINUOUS
 62
     7
 10
104.2895247701997
 20
251.4633772216
 30
0.0
 40
0.4999999999999449
 50
0.0
 51
90.0000000246
  0
ARC
  5
25F
  8
1
  6
CONTINUOUS
 62
     7
 10
92.28949202619988
 20
196.9633768935997
 30
0.0
 40
4.000000000000004
 50
270.0
 51
0.000175879999972
  0
ARC
  5
260
  8
1
  6
CONTINUOUS
 62
     7
 10
102.7895247703995
 20
242.9633768935997
 30
0.0
 40
0.4999999999999449
 50
90.0
 51
180.0000000001
  0
LINE
  5
261
  8
1
  6
CONTINUOUS
 62
     7
 10
103.2895247704001
 20
254.9721789637998
 30
0.0
 11
103.2895251372001
 21
251.9633760004002
 31
0.0
  0
LINE
  5
262
  8
1
  6
CONTINUOUS
 62
     7
 10
104.2895247701997
 20
248.4633768935997
 30
0.0
 11
102.7895247699999
 21
248.4633768935997
 31
0.0
  0
LINE
  5
263
  8
1
  6
CONTINUOUS
 62
     7
 10
97.2895247699993
 20
254.9633768935996
 30
0.0
 11
97.2895247699993
 21
248.9633768935998
 31
0.0
  0
LINE
  5
264
  8
1
  6
CONTINUOUS
 62
     7
 10
103.2895697927993
 20
199.9633768943997
 30
0.0
 11
103.2895575140001
 21
196.9633891721997
 31
0.0
  0
ARC
  5
265
  8
1
  6
CONTINUOUS
 62
     7
 10
102.7895247699999
 20
248.9633768935998
 30
0.0
 40
0.4999999999999449
 50
180.0
 51
270.0
  0
LINE
  5
266
  8
1
  6
CONTINUOUS
 62
     7
 10
138.2895343550001
 20
258.9633768935997
 30
0.0
 11
128.7895256996001
 21
258.9633768935997
 31
0.0
  0
LINE
  5
267
  8
1
  6
CONTINUOUS
 62
     7
 10
97.2895247699993
 20
202.9633768936001
 30
0.0
 11
97.2895247699993
 21
196.9633768935997
 31
0.0
  0
ARC
  5
268
  8
1
  6
CONTINUOUS
 62
     7
 10
102.7895247703995
 20
208.9633768935998
 30
0.0
 40
0.4999999999999449
 50
180.0000000001
 51
270.0
  0
ARC
  5
269
  8
1
  6
CONTINUOUS
 62
     7
 10
95.28952476999969
 20
211.4633767451999
 30
0.0
 40
0.4999999999999449
 50
90.0000000242
 51
180.0
  0
ARC
  5
26A
  8
1
  6
CONTINUOUS
 62
     7
 10
107.2895575139995
 20
196.9633768935997
 30
0.0
 40
4.000000000000004
 50
179.99982412
 51
230.8050325741
  0
ARC
  5
26B
  8
1
  6
CONTINUOUS
 62
     7
 10
102.7895247699999
 20
202.9633768936001
 30
0.0
 40
0.4999999999999449
 50
90.0
 51
180.0
  0
ARC
  5
26C
  8
1
  6
CONTINUOUS
 62
     7
 10
125.7895247699995
 20
259.4633768935997
 30
0.0
 40
0.4999999999999449
 50
90.0
 51
180.0
  0
LINE
  5
26D
  8
1
  6
CONTINUOUS
 62
     7
 10
120.2895247699998
 20
193.9633768934
 30
0.0
 11
120.2895247699998
 21
192.4633768935997
 31
0.0
  0
LINE
  5
26E
  8
1
  6
CONTINUOUS
 62
     7
 10
143.2895247699997
 20
202.9633768936001
 30
0.0
 11
143.2895247699997
 21
196.9633768935997
 31
0.0
  0
LINE
  5
26F
  8
1
  6
CONTINUOUS
 62
     7
 10
125.7895247699995
 20
257.4633768936001
 30
0.0
 11
128.2895238777999
 21
257.4633768936001
 31
0.0
  0
ARC
  5
270
  8
1
  6
CONTINUOUS
 62
     7
 10
128.2895245807993
 20
193.9633768935997
 30
0.0
 40
0.4999999999999449
 50
0.0
 51
90.0
  0
ARC
  5
271
  8
1
  6
CONTINUOUS
 62
     7
 10
117.2895244831999
 20
193.9633768931995
 30
0.0
 40
0.4999999999999449
 50
90.0
 51
179.9999999756
  0
LINE
  5
272
  8
1
  6
CONTINUOUS
 62
     7
 10
104.7895247699997
 20
208.9633768935998
 30
0.0
 11
104.7895247699997
 21
211.4633767451999
 31
0.0
  0
LINE
  5
273
  8
1
  6
CONTINUOUS
 62
     7
 10
104.2895247699999
 20
251.9633768937998
 30
0.0
 11
103.2895697927993
 21
251.9633768931998
 31
0.0
  0
ARC
  5
274
  8
1
  6
CONTINUOUS
 62
     7
 10
82.2895247699997
 20
184.9633768935998
 30
0.0
 40
5.000000000000115
 50
0.0
 51
90.0
  0
LINE
  5
275
  8
1
  6
CONTINUOUS
 62
     7
 10
119.7895247699993
 20
257.4633768936001
 30
0.0
 11
117.2895230960003
 21
257.4633768936001
 31
0.0
  0
ARC
  5
276
  8
1
  6
CONTINUOUS
 62
     7
 10
122.7895247699995
 20
241.9633768935997
 30
0.0
 40
9.649999999999936
 50
7.4311520359
 51
172.5688479641
  0
LINE
  5
277
  8
1
  6
CONTINUOUS
 62
     7
 10
20.18657706679991
 20
210.9633768935995
 30
0.0
 11
21.22057522700024
 21
211.2114572762001
 31
0.0
  0
LINE
  5
278
  8
1
  6
CONTINUOUS
 62
     7
 10
-12.4604747967996
 20
261.9633768935997
 30
0.0
 11
-23.46047479679972
 21
261.9633768935997
 31
0.0
  0
ARC
  5
279
  8
1
  6
CONTINUOUS
 62
     7
 10
71.2895247699995
 20
266.9633768935997
 30
0.0
 40
5.000000000000115
 50
180.0
 51
270.0
  0
LINE
  5
27A
  8
1
  6
CONTINUOUS
 62
     7
 10
118.7895247717993
 20
241.3633768931997
 30
0.0
 11
118.7895247717993
 21
242.5633768931999
 31
0.0
  0
ARC
  5
27B
  8
1
  6
CONTINUOUS
 62
     7
 10
30.78952476999983
 20
209.9633768935998
 30
0.0
 40
9.649999999999936
 50
187.4311520359
 51
352.5688479641
  0
LINE
  5
27C
  8
1
  6
CONTINUOUS
 62
     7
 10
126.2895247717997
 20
240.8633768931995
 30
0.0
 11
119.2895247717999
 21
240.8633768931995
 31
0.0
  0
LINE
  5
27D
  8
1
  6
CONTINUOUS
 62
     7
 10
104.2895247701997
 20
243.4633768935997
 30
0.0
 11
102.7895247703995
 21
243.4633768935997
 31
0.0
  0
ARC
  5
27E
  8
1
  6
CONTINUOUS
 62
     7
 10
34.2895247718
 20
209.3633768931997
 30
0.0
 40
0.4999999999999449
 50
270.0
 51
0.0
  0
ARC
  5
27F
  8
1
  6
CONTINUOUS
 62
     7
 10
25.28952476999932
 20
184.9633768935998
 30
0.0
 40
5.000000000000115
 50
90.0
 51
145.282567669
  0
ARC
  5
280
  8
1
  6
CONTINUOUS
 62
     7
 10
25.28952476999932
 20
266.9633768935997
 30
0.0
 40
5.000000000000115
 50
180.0
 51
270.0
  0
LINE
  5
281
  8
1
  6
CONTINUOUS
 62
     7
 10
126.7895247717993
 20
241.3633768931997
 30
0.0
 11
126.7895247717993
 21
242.5633768931999
 31
0.0
  0
LINE
  5
282
  8
1
  6
CONTINUOUS
 62
     7
 10
41.39247247339958
 20
210.9633768935995
 30
0.0
 11
40.35847431319925
 21
211.2114572762001
 31
0.0
  0
LINE
  5
283
  8
1
  6
CONTINUOUS
 62
     7
 10
36.28952476999944
 20
189.9633768935998
 30
0.0
 11
25.28952476999932
 21
189.9633768935998
 31
0.0
  0
LINE
  5
284
  8
1
  6
CONTINUOUS
 62
     7
 10
-7.460474796799704
 20
184.9633768935998
 30
0.0
 11
-7.460474796799704
 21
179.5133768936001
 31
0.0
  0
ARC
  5
285
  8
1
  6
CONTINUOUS
 62
     7
 10
30.78952476999983
 20
209.9633768935998
 30
0.0
 40
9.649999999999936
 50
7.4311520359
 51
172.5688479641
  0
ARC
  5
286
  8
1
  6
CONTINUOUS
 62
     7
 10
120.0395243370003
 20
266.9633768935997
 30
0.0
 40
5.000000000000115
 50
180.0
 51
270.0
  0
ARC
  5
287
  8
1
  6
CONTINUOUS
 62
     7
 10
-12.4604747967996
 20
266.9633768935997
 30
0.0
 40
5.000000000000115
 50
270.0
 51
0.0
  0
ARC
  5
288
  8
1
  6
CONTINUOUS
 62
     7
 10
-23.46047479679972
 20
184.9633768935998
 30
0.0
 40
5.000000000000115
 50
90.0
 51
180.0
  0
ARC
  5
289
  8
1
  6
CONTINUOUS
 62
     7
 10
-23.46047479679972
 20
266.9633768935997
 30
0.0
 40
5.000000000000115
 50
180.0
 51
270.0
  0
LINE
  5
28A
  8
1
  6
CONTINUOUS
 62
     7
 10
115.0395243370003
 20
184.9633768935998
 30
0.0
 11
115.0395243370003
 21
179.5133768936001
 31
0.0
  0
LINE
  5
28B
  8
1
  6
CONTINUOUS
 62
     7
 10
110.7704105668001
 20
192.9633768935997
 30
0.0
 11
116.7895238833999
 21
192.9633768935997
 31
0.0
  0
LINE
  5
28C
  8
1
  6
CONTINUOUS
 62
     7
 10
142.2895247697995
 20
254.9721789637998
 30
0.0
 11
142.2895244029995
 21
251.9633760004002
 31
0.0
  0
ARC
  5
28D
  8
1
  6
CONTINUOUS
 62
     7
 10
122.7895247699995
 20
241.9633768935997
 30
0.0
 40
9.649999999999936
 50
187.4311520359
 51
352.5688479641
  0
LINE
  5
28E
  8
1
  6
CONTINUOUS
 62
     7
 10
136.0395243370003
 20
184.9633768935998
 30
0.0
 11
136.0395243370003
 21
179.5133768936001
 31
0.0
  0
ARC
  5
28F
  8
1
  6
CONTINUOUS
 62
     7
 10
126.2895247717997
 20
242.5633768931999
 30
0.0
 40
0.4999999999999449
 50
0.0
 51
90.0
  0
ARC
  5
290
  8
1
  6
CONTINUOUS
 62
     7
 10
71.2895247699995
 20
184.9633768935998
 30
0.0
 40
5.000000000000115
 50
90.0
 51
180.0
  0
LINE
  5
291
  8
1
  6
CONTINUOUS
 62
     7
 10
41.28952476999933
 20
266.9633768935997
 30
0.0
 11
41.28952476999933
 21
272.4133768935998
 31
0.0
  0
LINE
  5
292
  8
1
  6
CONTINUOUS
 62
     7
 10
128.7895238831997
 20
192.9633768935997
 30
0.0
 11
138.2894920261993
 21
192.9633768935997
 31
0.0
  0
ARC
  5
293
  8
1
  6
CONTINUOUS
 62
     7
 10
36.28952476999944
 20
266.9633768935997
 30
0.0
 40
5.000000000000115
 50
270.0
 51
0.0
  0
LINE
  5
294
  8
1
  6
CONTINUOUS
 62
     7
 10
41.39247247339958
 20
208.9633768935998
 30
0.0
 11
40.35847431319925
 21
208.7152965109997
 31
0.0
  0
LINE
  5
295
  8
1
  6
CONTINUOUS
 62
     7
 10
41.28952476999933
 20
184.9633768935998
 30
0.0
 11
41.28952476999933
 21
179.5133768936001
 31
0.0
  0
LINE
  5
296
  8
1
  6
CONTINUOUS
 62
     7
 10
136.0395243370003
 20
266.9633768935997
 30
0.0
 11
136.0395243370003
 21
272.4133768935998
 31
0.0
  0
ARC
  5
297
  8
1
  6
CONTINUOUS
 62
     7
 10
122.7895247699995
 20
241.9633768935997
 30
0.0
 40
10.65000000000005
 50
5.3878223067
 51
174.6121776933001
  0
ARC
  5
298
  8
1
  6
CONTINUOUS
 62
     7
 10
82.2895247699997
 20
266.9633768935997
 30
0.0
 40
5.000000000000115
 50
270.0
 51
325.282567669
  0
LINE
  5
299
  8
1
  6
CONTINUOUS
 62
     7
 10
112.1865770667995
 20
242.9633768935997
 30
0.0
 11
113.2205752269999
 21
243.2114572761997
 31
0.0
  0
ARC
  5
29A
  8
1
  6
CONTINUOUS
 62
     7
 10
-12.4604747967996
 20
184.9633768935998
 30
0.0
 40
5.000000000000115
 50
0.0
 51
90.0
  0
ARC
  5
29B
  8
1
  6
CONTINUOUS
 62
     7
 10
27.28952477179944
 20
209.3633768931997
 30
0.0
 40
0.4999999999999449
 50
180.0
 51
270.0
  0
ARC
  5
29C
  8
1
  6
CONTINUOUS
 62
     7
 10
120.0395243370003
 20
184.9633768935998
 30
0.0
 40
5.000000000000115
 50
90.0
 51
180.0
  0
LINE
  5
29D
  8
1
  6
CONTINUOUS
 62
     7
 10
119.7895247699993
 20
194.4633768935999
 30
0.0
 11
117.2895244831999
 21
194.4633768935999
 31
0.0
  0
LINE
  5
29E
  8
1
  6
CONTINUOUS
 62
     7
 10
104.2907429682001
 20
199.9633768937997
 30
0.0
 11
103.2895697927993
 21
199.9633768943997
 31
0.0
  0
LINE
  5
29F
  8
1
  6
CONTINUOUS
 62
     7
 10
-7.460474796799704
 20
266.9633768935997
 30
0.0
 11
-7.460474796799704
 21
272.4133768935998
 31
0.0
  0
LINE
  5
2A0
  8
1
  6
CONTINUOUS
 62
     7
 10
104.2895247701997
 20
239.9633768937997
 30
0.0
 11
103.2895160216003
 21
239.9633768931998
 31
0.0
  0
LINE
  5
2A1
  8
1
  6
CONTINUOUS
 62
     7
 10
66.28952476999969
 20
184.9633768935998
 30
0.0
 11
66.28952476999969
 21
179.5133768936001
 31
0.0
  0
LINE
  5
2A2
  8
1
  6
CONTINUOUS
 62
     7
 10
142.2895207769997
 20
239.9633760004002
 30
0.0
 11
142.2895335186003
 21
211.9633768935999
 31
0.0
  0
ARC
  5
2A3
  8
1
  6
CONTINUOUS
 62
     7
 10
122.7895247699995
 20
241.9633768935997
 30
0.0
 40
10.65000000000005
 50
185.3878223067
 51
354.6121776932999
  0
LINE
  5
2A4
  8
1
  6
CONTINUOUS
 62
     7
 10
104.2895247701997
 20
208.4633768935998
 30
0.0
 11
102.7895247703995
 21
208.4633768935998
 31
0.0
  0
LINE
  5
2A5
  8
1
  6
CONTINUOUS
 62
     7
 10
-12.4604747967996
 20
189.9633768935998
 30
0.0
 11
-23.46047479679972
 21
189.9633768935998
 31
0.0
  0
LINE
  5
2A6
  8
1
  6
CONTINUOUS
 62
     7
 10
115.0395243370003
 20
266.9633768935997
 30
0.0
 11
115.0395243370003
 21
272.4133768935998
 31
0.0
  0
ARC
  5
2A7
  8
1
  6
CONTINUOUS
 62
     7
 10
131.0395243370003
 20
184.9633768935998
 30
0.0
 40
5.000000000000115
 50
0.0
 51
90.0
  0
LINE
  5
2A8
  8
1
  6
CONTINUOUS
 62
     7
 10
82.2895247699997
 20
261.9633768935997
 30
0.0
 11
71.2895247699995
 21
261.9633768935997
 31
0.0
  0
ARC
  5
2A9
  8
1
  6
CONTINUOUS
 62
     7
 10
107.2895151851995
 20
254.9633768935996
 30
0.0
 40
4.000000000000004
 50
90.0
 51
179.8739195323
  0
LINE
  5
2AA
  8
1
  6
CONTINUOUS
 62
     7
 10
104.7895247699997
 20
248.9633768935998
 30
0.0
 11
104.7895247699997
 21
251.4633772216
 31
0.0
  0
LINE
  5
2AB
  8
1
  6
CONTINUOUS
 62
     7
 10
20.18657706679991
 20
208.9633768935998
 30
0.0
 11
21.22057522700024
 21
208.7152965109997
 31
0.0
  0
LINE
  5
2AC
  8
1
  6
CONTINUOUS
 62
     7
 10
120.0395243370003
 20
261.9633768935997
 30
0.0
 11
131.0395243370003
 21
261.9633768935997
 31
0.0
  0
LINE
  5
2AD
  8
1
  6
CONTINUOUS
 62
     7
 10
125.7895247699995
 20
194.4633768935999
 30
0.0
 11
128.2895245807993
 21
194.4633768935999
 31
0.0
  0
LINE
  5
2AE
  8
1
  6
CONTINUOUS
 62
     7
 10
103.2895287632001
 20
239.9633760004002
 30
0.0
 11
103.2895160216003
 21
211.9633768935999
 31
0.0
  0
ARC
  5
2AF
  8
1
  6
CONTINUOUS
 62
     7
 10
104.2895247701997
 20
202.9633768936001
 30
0.0
 40
0.4999999999999449
 50
0.0
 51
90.0
  0
LINE
  5
2B0
  8
1
  6
CONTINUOUS
 62
     7
 10
82.2895247699997
 20
189.9633768935998
 30
0.0
 11
71.2895247699995
 21
189.9633768935998
 31
0.0
  0
LINE
  5
2B1
  8
1
  6
CONTINUOUS
 62
     7
 10
112.1865770667995
 20
240.9633768935998
 30
0.0
 11
113.2205752269999
 21
240.7152965109996
 31
0.0
  0
LINE
  5
2B2
  8
1
  6
CONTINUOUS
 62
     7
 10
-28.46047479679961
 20
184.9633768935998
 30
0.0
 11
-28.46047479679961
 21
179.5133768936001
 31
0.0
  0
LINE
  5
2B3
  8
1
  6
CONTINUOUS
 62
     7
 10
-28.46047479679961
 20
266.9633768935997
 30
0.0
 11
-28.46047479679961
 21
272.4133768935998
 31
0.0
  0
ARC
  5
2B4
  8
1
  6
CONTINUOUS
 62
     7
 10
34.2895247718
 20
210.5633768931999
 30
0.0
 40
0.4999999999999449
 50
0.0
 51
90.0
  0
ARC
  5
2B5
  8
1
  6
CONTINUOUS
 62
     7
 10
-30.71047523000073
 20
196.9633768935997
 30
0.0
 40
5.000000000000115
 50
180.0
 51
270.0
  0
LINE
  5
2B6
  8
1
  6
CONTINUOUS
 62
     7
 10
126.2895247717997
 20
208.8633768931999
 30
0.0
 11
119.2895247717999
 21
208.8633768931999
 31
0.0
  0
LINE
  5
2B7
  8
1
  6
CONTINUOUS
 62
     7
 10
133.3924724733993
 20
210.9633768935995
 30
0.0
 11
132.3584743131997
 21
211.2114572762001
 31
0.0
  0
ARC
  5
2B8
  8
1
  6
CONTINUOUS
 62
     7
 10
122.7895247699995
 20
209.9633768935998
 30
0.0
 40
10.65000000000005
 50
5.3878223067
 51
174.6121776933001
  0
ARC
  5
2B9
  8
1
  6
CONTINUOUS
 62
     7
 10
-33.7104752298001
 20
242.9633768935997
 30
0.0
 40
0.4999999999999449
 50
0.0
 51
90.0
  0
LINE
  5
2BA
  8
1
  6
CONTINUOUS
 62
     7
 10
133.3924724733993
 20
240.9633768935998
 30
0.0
 11
132.3584743131997
 21
240.7152965109996
 31
0.0
  0
LINE
  5
2BB
  8
1
  6
CONTINUOUS
 62
     7
 10
-21.21047430100069
 20
258.9633768935997
 30
0.0
 11
-30.71048481480035
 21
258.9633768935997
 31
0.0
  0
ARC
  5
2BC
  8
1
  6
CONTINUOUS
 62
     7
 10
-30.71047523000073
 20
254.9633768935996
 30
0.0
 40
5.000000000000115
 50
90.0
 51
180.0
  0
LINE
  5
2BD
  8
1
  6
CONTINUOUS
 62
     7
 10
-33.21047523000023
 20
202.9633768936001
 30
0.0
 11
-33.21047523000023
 21
200.4633754099997
 31
0.0
  0
ARC
  5
2BE
  8
1
  6
CONTINUOUS
 62
     7
 10
119.2895247717999
 20
209.3633768931997
 30
0.0
 40
0.4999999999999449
 50
180.0
 51
270.0
  0
ARC
  5
2BF
  8
1
  6
CONTINUOUS
 62
     7
 10
-33.7104752298001
 20
248.9633768935998
 30
0.0
 40
0.4999999999999449
 50
270.0
 51
0.0
  0
LINE
  5
2C0
  8
1
  6
CONTINUOUS
 62
     7
 10
-35.7104752300006
 20
202.9633768936001
 30
0.0
 11
-35.7104752300006
 21
196.9633768935997
 31
0.0
  0
LINE
  5
2C1
  8
1
  6
CONTINUOUS
 62
     7
 10
126.2895247717997
 20
211.0633768932
 30
0.0
 11
119.2895247717999
 21
211.0633768932
 31
0.0
  0
LINE
  5
2C2
  8
1
  6
CONTINUOUS
 62
     7
 10
126.2895247717997
 20
243.0633768932
 30
0.0
 11
119.2895247717999
 21
243.0633768932
 31
0.0
  0
LINE
  5
2C3
  8
1
  6
CONTINUOUS
 62
     7
 10
-12.21047523000034
 20
257.4633768936001
 30
0.0
 11
-9.710476122200024
 21
257.4633768936001
 31
0.0
  0
LINE
  5
2C4
  8
1
  6
CONTINUOUS
 62
     7
 10
-33.21047523000023
 20
208.9633768935998
 30
0.0
 11
-33.21047523000023
 21
211.4633767451999
 31
0.0
  0
ARC
  5
2C5
  8
1
  6
CONTINUOUS
 62
     7
 10
-30.71044248600033
 20
196.9633768935997
 30
0.0
 40
4.000000000000004
 50
179.99982412
 51
270.0
  0
LINE
  5
2C6
  8
1
  6
CONTINUOUS
 62
     7
 10
-17.71047522999993
 20
257.9633768938
 30
0.0
 11
-17.71047522999993
 21
259.4633768935997
 31
0.0
  0
LINE
  5
2C7
  8
1
  6
CONTINUOUS
 62
     7
 10
-18.21047523000055
 20
259.9633768935998
 30
0.0
 11
-30.71047523000073
 21
259.9633768935998
 31
0.0
  0
LINE
  5
2C8
  8
1
  6
CONTINUOUS
 62
     7
 10
-33.21047523000023
 20
242.9633768935997
 30
0.0
 11
-33.21047523000023
 21
240.4633767969996
 31
0.0
  0
LINE
  5
2C9
  8
1
  6
CONTINUOUS
 62
     7
 10
-33.7104752298001
 20
203.4633768935998
 30
0.0
 11
-35.21047523000001
 21
203.4633768935998
 31
0.0
  0
ARC
  5
2CA
  8
1
  6
CONTINUOUS
 62
     7
 10
122.7895247699995
 20
209.9633768935998
 30
0.0
 40
9.649999999999936
 50
187.4311520359
 51
352.5688479641
  0
ARC
  5
2CB
  8
1
  6
CONTINUOUS
 62
     7
 10
-33.7104752298001
 20
202.9633768936001
 30
0.0
 40
0.4999999999999449
 50
0.0
 51
90.0
  0
LINE
  5
2CC
  8
1
  6
CONTINUOUS
 62
     7
 10
-9.21047522960053
 20
257.9633768943995
 30
0.0
 11
-9.21047523020005
 21
258.9633318707998
 31
0.0
  0
LINE
  5
2CD
  8
1
  6
CONTINUOUS
 62
     7
 10
66.28952476999969
 20
266.9633768935997
 30
0.0
 11
66.28952476999969
 21
272.4133768935998
 31
0.0
  0
LINE
  5
2CE
  8
1
  6
CONTINUOUS
 62
     7
 10
112.1865770667995
 20
210.9633768935995
 30
0.0
 11
113.2205752269999
 21
211.2114572762001
 31
0.0
  0
LINE
  5
2CF
  8
1
  6
CONTINUOUS
 62
     7
 10
118.7895247717993
 20
209.3633768931997
 30
0.0
 11
118.7895247717993
 21
210.5633768931999
 31
0.0
  0
LINE
  5
2D0
  8
1
  6
CONTINUOUS
 62
     7
 10
-18.21047523000055
 20
257.4633768936001
 30
0.0
 11
-20.71047690399966
 21
257.4633768936001
 31
0.0
  0
ARC
  5
2D1
  8
1
  6
CONTINUOUS
 62
     7
 10
119.2895247717999
 20
241.3633768931997
 30
0.0
 40
0.4999999999999449
 50
180.0
 51
270.0
  0
LINE
  5
2D2
  8
1
  6
CONTINUOUS
 62
     7
 10
133.3924724733993
 20
242.9633768935997
 30
0.0
 11
132.3584743131997
 21
243.2114572761997
 31
0.0
  0
LINE
  5
2D3
  8
1
  6
CONTINUOUS
 62
     7
 10
-33.21047523000023
 20
248.9633768935998
 30
0.0
 11
-33.21047523000023
 21
251.4633772216
 31
0.0
  0
LINE
  5
2D4
  8
1
  6
CONTINUOUS
 62
     7
 10
-33.70925703179984
 20
199.9633768937997
 30
0.0
 11
-34.71043020720059
 21
199.9633768943997
 31
0.0
  0
LINE
  5
2D5
  8
1
  6
CONTINUOUS
 62
     7
 10
-35.7104752300006
 20
254.9633768935996
 30
0.0
 11
-35.7104752300006
 21
248.9633768935998
 31
0.0
  0
LINE
  5
2D6
  8
1
  6
CONTINUOUS
 62
     7
 10
-9.210476116800177
 20
192.9633768935997
 30
0.0
 11
0.289492026199295
 21
192.9633768935997
 31
0.0
  0
LINE
  5
2D7
  8
1
  6
CONTINUOUS
 62
     7
 10
-34.71047123679985
 20
239.9633760004002
 30
0.0
 11
-34.71048397839962
 21
211.9633768935999
 31
0.0
  0
ARC
  5
2D8
  8
1
  6
CONTINUOUS
 62
     7
 10
131.0395243370003
 20
266.9633768935997
 30
0.0
 40
5.000000000000115
 50
270.0
 51
0.0
  0
ARC
  5
2D9
  8
1
  6
CONTINUOUS
 62
     7
 10
126.2895247717997
 20
241.3633768931997
 30
0.0
 40
0.4999999999999449
 50
270.0
 51
0.0
  0
ARC
  5
2DA
  8
1
  6
CONTINUOUS
 62
     7
 10
30.78952476999983
 20
209.9633768935998
 30
0.0
 40
10.65000000000005
 50
185.3878223067
 51
354.6121776932999
  0
ARC
  5
2DB
  8
1
  6
CONTINUOUS
 62
     7
 10
36.28952476999944
 20
184.9633768935998
 30
0.0
 40
5.000000000000115
 50
0.0
 51
90.0
  0
LINE
  5
2DC
  8
1
  6
CONTINUOUS
 62
     7
 10
36.28952476999944
 20
261.9633768935997
 30
0.0
 11
25.28952476999932
 21
261.9633768935997
 31
0.0
  0
ARC
  5
2DD
  8
1
  6
CONTINUOUS
 62
     7
 10
-35.21047522960033
 20
242.9633768935997
 30
0.0
 40
0.4999999999999449
 50
90.0
 51
180.0000000001
  0
ARC
  5
2DE
  8
1
  6
CONTINUOUS
 62
     7
 10
-35.21047523000001
 20
248.9633768935998
 30
0.0
 40
0.4999999999999449
 50
180.0
 51
270.0
  0
ARC
  5
2DF
  8
1
  6
CONTINUOUS
 62
     7
 10
-35.21047522960033
 20
208.9633768935998
 30
0.0
 40
0.4999999999999449
 50
180.0
 51
270.0
  0
LINE
  5
2E0
  8
1
  6
CONTINUOUS
 62
     7
 10
-12.71047523000004
 20
257.9633768938
 30
0.0
 11
-12.71047523000004
 21
259.4633768935997
 31
0.0
  0
ARC
  5
2E1
  8
1
  6
CONTINUOUS
 62
     7
 10
122.7895247699995
 20
209.9633768935998
 30
0.0
 40
9.649999999999936
 50
7.4311520359
 51
172.5688479641
  0
LINE
  5
2E2
  8
1
  6
CONTINUOUS
 62
     7
 10
133.3924724733993
 20
208.9633768935998
 30
0.0
 11
132.3584743131997
 21
208.7152965109997
 31
0.0
  0
ARC
  5
2E3
  8
1
  6
CONTINUOUS
 62
     7
 10
-30.71048481480035
 20
254.9633768935996
 30
0.0
 40
4.000000000000004
 50
90.0
 51
179.8739195323
  0
LINE
  5
2E4
  8
1
  6
CONTINUOUS
 62
     7
 10
-33.7104752298001
 20
239.9633768937997
 30
0.0
 11
-34.71048397839962
 21
239.9633768931998
 31
0.0
  0
LINE
  5
2E5
  8
1
  6
CONTINUOUS
 62
     7
 10
-33.7104752298001
 20
243.4633768935997
 30
0.0
 11
-35.21047522960033
 21
243.4633768935997
 31
0.0
  0
LINE
  5
2E6
  8
1
  6
CONTINUOUS
 62
     7
 10
-12.21047523000034
 20
191.9633768935999
 30
0.0
 11
0.289524770199695
 21
191.9633768935999
 31
0.0
  0
LINE
  5
2E7
  8
1
  6
CONTINUOUS
 62
     7
 10
-34.71043020720059
 20
199.9633768943997
 30
0.0
 11
-34.71044248599988
 21
196.9633891721997
 31
0.0
  0
LINE
  5
2E8
  8
1
  6
CONTINUOUS
 62
     7
 10
-33.7104752298001
 20
248.4633768935997
 30
0.0
 11
-35.21047523000001
 21
248.4633768935997
 31
0.0
  0
LINE
  5
2E9
  8
1
  6
CONTINUOUS
 62
     7
 10
-21.21047522960011
 20
257.9620830099998
 30
0.0
 11
-21.2104752302005
 21
258.9633856419998
 31
0.0
  0
LINE
  5
2EA
  8
1
  6
CONTINUOUS
 62
     7
 10
-3.191361026600364
 20
258.9633768935997
 30
0.0
 11
-9.210474300400673
 21
258.9633768935997
 31
0.0
  0
LINE
  5
2EB
  8
1
  6
CONTINUOUS
 62
     7
 10
-35.7104752300006
 20
242.9633768935997
 30
0.0
 11
-35.7104752300006
 21
208.9633768935997
 31
0.0
  0
ARC
  5
2EC
  8
1
  6
CONTINUOUS
 62
     7
 10
30.78952476999983
 20
209.9633768935998
 30
0.0
 40
10.65000000000005
 50
5.3878223067
 51
174.6121776933001
  0
ARC
  5
2ED
  8
1
  6
CONTINUOUS
 62
     7
 10
122.7895247699995
 20
209.9633768935998
 30
0.0
 40
10.65000000000005
 50
185.3878223067
 51
354.6121776932999
  0
ARC
  5
2EE
  8
1
  6
CONTINUOUS
 62
     7
 10
-33.7104752298001
 20
208.9633768935998
 30
0.0
 40
0.4999999999999449
 50
270.0
 51
0.0000000000999876
  0
ARC
  5
2EF
  8
1
  6
CONTINUOUS
 62
     7
 10
-35.21047523000001
 20
202.9633768936001
 30
0.0
 40
0.4999999999999449
 50
90.0
 51
180.0
  0
LINE
  5
2F0
  8
1
  6
CONTINUOUS
 62
     7
 10
-33.71047522999995
 20
251.9633768937998
 30
0.0
 11
-34.71043020720059
 21
251.9633768931998
 31
0.0
  0
LINE
  5
2F1
  8
1
  6
CONTINUOUS
 62
     7
 10
120.0395243370003
 20
189.9633768935998
 30
0.0
 11
131.0395243370003
 21
189.9633768935998
 31
0.0
  0
ARC
  5
2F2
  8
1
  6
CONTINUOUS
 62
     7
 10
119.2895247717999
 20
242.5633768931999
 30
0.0
 40
0.4999999999999449
 50
90.0
 51
180.0
  0
LINE
  5
2F3
  8
1
  6
CONTINUOUS
 62
     7
 10
126.7895247717993
 20
209.3633768931997
 30
0.0
 11
126.7895247717993
 21
210.5633768931999
 31
0.0
  0
LINE
  5
2F4
  8
1
  6
CONTINUOUS
 62
     7
 10
27.78952476999971
 20
259.9633768935998
 30
0.0
 11
15.28952476999953
 21
259.9633768935998
 31
0.0
  0
LINE
  5
2F5
  8
1
  6
CONTINUOUS
 62
     7
 10
-30.71047523000073
 20
191.9633768935999
 30
0.0
 11
-18.21047523000055
 21
191.9633768935999
 31
0.0
  0
LINE
  5
2F6
  8
1
  6
CONTINUOUS
 62
     7
 10
2.789524770200086
 20
208.9633768935998
 30
0.0
 11
2.789524770200086
 21
211.4633767451999
 31
0.0
  0
LINE
  5
2F7
  8
1
  6
CONTINUOUS
 62
     7
 10
46.28952477000011
 20
259.9633768935998
 30
0.0
 11
33.78952477019978
 21
259.9633768935998
 31
0.0
  0
ARC
  5
2F8
  8
1
  6
CONTINUOUS
 62
     7
 10
-18.21047523000055
 20
259.4633768935997
 30
0.0
 40
0.4999999999999449
 50
0.0
 51
90.0
  0
ARC
  5
2F9
  8
1
  6
CONTINUOUS
 62
     7
 10
-33.71047522999995
 20
200.4633754099997
 30
0.0
 40
0.4999999999999449
 50
270.1395953738
 51
0.0
  0
ARC
  5
2FA
  8
1
  6
CONTINUOUS
 62
     7
 10
3.289524769999968
 20
202.9633768936001
 30
0.0
 40
0.4999999999999449
 50
90.0
 51
180.0
  0
LINE
  5
2FB
  8
1
  6
CONTINUOUS
 62
     7
 10
-34.7104752295997
 20
254.9721789637998
 30
0.0
 11
-34.71047486279979
 21
251.9633760004002
 31
0.0
  0
LINE
  5
2FC
  8
1
  6
CONTINUOUS
 62
     7
 10
112.1865770667995
 20
208.9633768935998
 30
0.0
 11
113.2205752269999
 21
208.7152965109997
 31
0.0
  0
ARC
  5
2FD
  8
1
  6
CONTINUOUS
 62
     7
 10
4.789524770199866
 20
248.9633768935998
 30
0.0
 40
0.4999999999999449
 50
270.0
 51
0.0
  0
LINE
  5
2FE
  8
1
  6
CONTINUOUS
 62
     7
 10
4.289524769799574
 20
254.9721789637998
 30
0.0
 11
4.289524402999651
 21
251.9633760004002
 31
0.0
  0
ARC
  5
2FF
  8
1
  6
CONTINUOUS
 62
     7
 10
3.289524769999968
 20
208.9633768935998
 30
0.0
 40
0.4999999999999449
 50
179.9999999999
 51
270.0
  0
LINE
  5
300
  8
1
  6
CONTINUOUS
 62
     7
 10
4.289479747399544
 20
199.9633768943997
 30
0.0
 11
4.289492026199743
 21
196.9633891721997
 31
0.0
  0
ARC
  5
301
  8
1
  6
CONTINUOUS
 62
     7
 10
3.289524770199808
 20
200.4633754099997
 30
0.0
 40
0.4999999999999449
 50
180.0
 51
269.8604046262001
  0
LINE
  5
302
  8
1
  6
CONTINUOUS
 62
     7
 10
-17.71047522999993
 20
193.9633768934
 30
0.0
 11
-17.71047522999993
 21
192.4633768935997
 31
0.0
  0
LINE
  5
303
  8
1
  6
CONTINUOUS
 62
     7
 10
-9.21047522960053
 20
193.9633768934
 30
0.0
 11
-9.21047523020005
 21
192.9634219161997
 31
0.0
  0
ARC
  5
304
  8
1
  6
CONTINUOUS
 62
     7
 10
0.289524770199695
 20
254.9633768935996
 30
0.0
 40
5.000000000000115
 50
0.0
 51
38.3161344739
  0
LINE
  5
305
  8
1
  6
CONTINUOUS
 62
     7
 10
2.789524770200086
 20
202.9633768936001
 30
0.0
 11
2.789524770200086
 21
200.4633754099997
 31
0.0
  0
ARC
  5
306
  8
1
  6
CONTINUOUS
 62
     7
 10
-9.710476122200024
 20
257.9633768941996
 30
0.0
 40
0.4999999999999449
 50
270.0
 51
0.0000000243999807
  0
ARC
  5
307
  8
1
  6
CONTINUOUS
 62
     7
 10
126.2895247717997
 20
210.5633768931999
 30
0.0
 40
0.4999999999999449
 50
0.0
 51
90.0
  0
ARC
  5
308
  8
1
  6
CONTINUOUS
 62
     7
 10
119.2895247717999
 20
210.5633768931999
 30
0.0
 40
0.4999999999999449
 50
90.0
 51
180.0
  0
LINE
  5
309
  8
1
  6
CONTINUOUS
 62
     7
 10
-30.71044248600033
 20
192.9633768935997
 30
0.0
 11
-21.21047611659992
 21
192.9633768935997
 31
0.0
  0
LINE
  5
30A
  8
1
  6
CONTINUOUS
 62
     7
 10
-33.71047522960027
 20
211.9633768935999
 30
0.0
 11
-34.71048397839962
 21
211.9633768941995
 31
0.0
  0
LINE
  5
30B
  8
1
  6
CONTINUOUS
 62
     7
 10
5.289524770199589
 20
254.9633768935996
 30
0.0
 11
5.289524770199589
 21
248.9633768935998
 31
0.0
  0
LINE
  5
30C
  8
1
  6
CONTINUOUS
 62
     7
 10
2.789524770200086
 20
248.9633768935998
 30
0.0
 11
2.789524770200086
 21
251.4633772216
 31
0.0
  0
ARC
  5
30D
  8
1
  6
CONTINUOUS
 62
     7
 10
-33.7104752298001
 20
211.4633767451999
 30
0.0
 40
0.4999999999999449
 50
0.0
 51
89.9999999758
  0
LINE
  5
30E
  8
1
  6
CONTINUOUS
 62
     7
 10
5.289524770199589
 20
202.9633768936001
 30
0.0
 11
5.289524770199589
 21
196.9633768935997
 31
0.0
  0
LINE
  5
30F
  8
1
  6
CONTINUOUS
 62
     7
 10
3.289524769999968
 20
243.4633768935997
 30
0.0
 11
4.789524769799297
 21
243.4633768935997
 31
0.0
  0
LINE
  5
310
  8
1
  6
CONTINUOUS
 62
     7
 10
19.45120584479951
 20
191.9633768935999
 30
0.0
 11
27.78952476999971
 21
191.9633768935999
 31
0.0
  0
ARC
  5
311
  8
1
  6
CONTINUOUS
 62
     7
 10
3.289524770199808
 20
240.4633767969996
 30
0.0
 40
0.4999999999999449
 50
180.0
 51
269.9999999758
  0
LINE
  5
312
  8
1
  6
CONTINUOUS
 62
     7
 10
10.28952476999964
 20
254.9633768935996
 30
0.0
 11
10.28952476999964
 21
248.9633768935998
 31
0.0
  0
LINE
  5
313
  8
1
  6
CONTINUOUS
 62
     7
 10
10.28952476999964
 20
202.9633768936001
 30
0.0
 11
10.28952476999964
 21
196.9633768935997
 31
0.0
  0
ARC
  5
314
  8
1
  6
CONTINUOUS
 62
     7
 10
126.2895247717997
 20
209.3633768931997
 30
0.0
 40
0.4999999999999449
 50
270.0
 51
0.0
  0
ARC
  5
315
  8
1
  6
CONTINUOUS
 62
     7
 10
-12.21047523000034
 20
259.4633768935997
 30
0.0
 40
0.4999999999999449
 50
90.0
 51
180.0
  0
ARC
  5
316
  8
1
  6
CONTINUOUS
 62
     7
 10
-20.71047690399966
 20
257.9633768921994
 30
0.0
 40
0.4999999999999449
 50
180.1482681326
 51
270.0
  0
ARC
  5
317
  8
1
  6
CONTINUOUS
 62
     7
 10
3.289524769999968
 20
248.9633768935998
 30
0.0
 40
0.4999999999999449
 50
180.0
 51
270.0
  0
ARC
  5
318
  8
1
  6
CONTINUOUS
 62
     7
 10
3.289524769999968
 20
242.9633768935997
 30
0.0
 40
0.4999999999999449
 50
90.0
 51
180.0000000001
  0
ARC
  5
319
  8
1
  6
CONTINUOUS
 62
     7
 10
-12.21047523000034
 20
193.9633768934
 30
0.0
 40
0.4999999999999449
 50
90.0
 51
180.0
  0
LINE
  5
31A
  8
1
  6
CONTINUOUS
 62
     7
 10
-12.71047523000004
 20
193.9633768934
 30
0.0
 11
-12.71047523000004
 21
192.4633768935997
 31
0.0
  0
ARC
  5
31B
  8
1
  6
CONTINUOUS
 62
     7
 10
-20.71047551679997
 20
193.9633768931995
 30
0.0
 40
0.4999999999999449
 50
90.0
 51
179.9999999757
  0
LINE
  5
31C
  8
1
  6
CONTINUOUS
 62
     7
 10
4.289520776999706
 20
239.9633760004002
 30
0.0
 11
4.289533518600369
 21
211.9633768935999
 31
0.0
  0
LINE
  5
31D
  8
1
  6
CONTINUOUS
 62
     7
 10
-33.7104752298001
 20
208.4633768935998
 30
0.0
 11
-35.21047522960033
 21
208.4633768935998
 31
0.0
  0
LINE
  5
31E
  8
1
  6
CONTINUOUS
 62
     7
 10
3.289524769999968
 20
248.4633768935997
 30
0.0
 11
4.789524770199866
 21
248.4633768935997
 31
0.0
  0
LINE
  5
31F
  8
1
  6
CONTINUOUS
 62
     7
 10
-12.21047523000034
 20
194.4633768935999
 30
0.0
 11
-9.710475419200588
 21
194.4633768935999
 31
0.0
  0
ARC
  5
320
  8
1
  6
CONTINUOUS
 62
     7
 10
0.289524770199695
 20
196.9633768935997
 30
0.0
 40
5.000000000000115
 50
270.0
 51
0.0
  0
ARC
  5
321
  8
1
  6
CONTINUOUS
 62
     7
 10
4.789524769799297
 20
208.9633768935998
 30
0.0
 40
0.4999999999999449
 50
270.0
 51
0.0
  0
LINE
  5
322
  8
1
  6
CONTINUOUS
 62
     7
 10
3.289524770199808
 20
251.9633768937998
 30
0.0
 11
4.289479747399544
 21
251.9633768931998
 31
0.0
  0
ARC
  5
323
  8
1
  6
CONTINUOUS
 62
     7
 10
3.289524769999968
 20
211.4633767451999
 30
0.0
 40
0.4999999999999449
 50
90.0000000242
 51
180.0
  0
LINE
  5
324
  8
1
  6
CONTINUOUS
 62
     7
 10
3.289524769999968
 20
239.9633768937997
 30
0.0
 11
4.289533518600369
 21
239.9633768931998
 31
0.0
  0
ARC
  5
325
  8
1
  6
CONTINUOUS
 62
     7
 10
0.289492026199295
 20
196.9633768935997
 30
0.0
 40
4.000000000000004
 50
270.0
 51
0.000175879999972
  0
LINE
  5
326
  8
1
  6
CONTINUOUS
 62
     7
 10
33.78952476999994
 20
191.9633768935999
 30
0.0
 11
46.28952477000011
 21
191.9633768935999
 31
0.0
  0
LINE
  5
327
  8
1
  6
CONTINUOUS
 62
     7
 10
3.288306571999716
 20
199.9633768937997
 30
0.0
 11
4.289479747399544
 21
199.9633768943997
 31
0.0
  0
ARC
  5
328
  8
1
  6
CONTINUOUS
 62
     7
 10
-9.710475419200588
 20
193.9633768935997
 30
0.0
 40
0.4999999999999449
 50
0.0
 51
90.0
  0
LINE
  5
329
  8
1
  6
CONTINUOUS
 62
     7
 10
2.789524770200086
 20
242.9633768935997
 30
0.0
 11
2.789524770200086
 21
240.4633767969996
 31
0.0
  0
ARC
  5
32A
  8
1
  6
CONTINUOUS
 62
     7
 10
4.789524769799297
 20
242.9633768935997
 30
0.0
 40
0.4999999999999449
 50
0.0
 51
90.0
  0
ARC
  5
32B
  8
1
  6
CONTINUOUS
 62
     7
 10
3.289524769999968
 20
251.4633772216
 30
0.0
 40
0.4999999999999449
 50
89.9999999758
 51
180.0
  0
LINE
  5
32C
  8
1
  6
CONTINUOUS
 62
     7
 10
-3.872156304800117
 20
259.9633768935998
 30
0.0
 11
-12.21047522980048
 21
259.9633768935998
 31
0.0
  0
ARC
  5
32D
  8
1
  6
CONTINUOUS
 62
     7
 10
-18.21047523000055
 20
192.4633768935997
 30
0.0
 40
0.4999999999999449
 50
270.0
 51
0.0
  0
LINE
  5
32E
  8
1
  6
CONTINUOUS
 62
     7
 10
3.289524769999968
 20
208.4633768935998
 30
0.0
 11
4.789524769799297
 21
208.4633768935998
 31
0.0
  0
ARC
  5
32F
  8
1
  6
CONTINUOUS
 62
     7
 10
4.789524770199866
 20
202.9633768936001
 30
0.0
 40
0.4999999999999449
 50
0.0
 51
90.0
  0
LINE
  5
330
  8
1
  6
CONTINUOUS
 62
     7
 10
11.28952477039966
 20
254.9721789637998
 30
0.0
 11
11.28952513719958
 21
251.9633760004002
 31
0.0
  0
ARC
  5
331
  8
1
  6
CONTINUOUS
 62
     7
 10
0.2895343549993157
 20
254.9633768935996
 30
0.0
 40
4.000000000000004
 50
0.1260804677
 51
50.80503257400001
  0
LINE
  5
332
  8
1
  6
CONTINUOUS
 62
     7
 10
3.289524769999968
 20
203.4633768935998
 30
0.0
 11
4.789524770199866
 21
203.4633768935998
 31
0.0
  0
ARC
  5
333
  8
1
  6
CONTINUOUS
 62
     7
 10
-12.21047523000034
 20
192.4633768935997
 30
0.0
 40
0.4999999999999449
 50
180.0
 51
270.0
  0
LINE
  5
334
  8
1
  6
CONTINUOUS
 62
     7
 10
46.28953435499957
 20
258.9633768935997
 30
0.0
 11
36.78952569959956
 21
258.9633768935997
 31
0.0
  0
LINE
  5
335
  8
1
  6
CONTINUOUS
 62
     7
 10
27.78952476999971
 20
194.4633768935999
 30
0.0
 11
25.2895244831994
 21
194.4633768935999
 31
0.0
  0
LINE
  5
336
  8
1
  6
CONTINUOUS
 62
     7
 10
33.78952476999994
 20
194.4633768935999
 30
0.0
 11
36.28952458079967
 21
194.4633768935999
 31
0.0
  0
ARC
  5
337
  8
1
  6
CONTINUOUS
 62
     7
 10
-33.71047522999995
 20
240.4633767969996
 30
0.0
 40
0.4999999999999449
 50
270.0000000242
 51
0.0
  0
LINE
  5
338
  8
1
  6
CONTINUOUS
 62
     7
 10
-21.21047522960011
 20
193.9646707770001
 30
0.0
 11
-21.2104752302005
 21
192.9633681452001
 31
0.0
  0
LINE
  5
339
  8
1
  6
CONTINUOUS
 62
     7
 10
11.28952876319952
 20
239.9633760004002
 30
0.0
 11
11.28951602159975
 21
211.9633768935999
 31
0.0
  0
ARC
  5
33A
  8
1
  6
CONTINUOUS
 62
     7
 10
-12.21047523000034
 20
257.9633768938
 30
0.0
 40
0.4999999999999449
 50
180.0
 51
270.0
  0
ARC
  5
33B
  8
1
  6
CONTINUOUS
 62
     7
 10
-33.7104752298001
 20
251.4633772216
 30
0.0
 40
0.4999999999999449
 50
0.0
 51
90.0000000242
  0
ARC
  5
33C
  8
1
  6
CONTINUOUS
 62
     7
 10
33.78952476999994
 20
259.4633768935997
 30
0.0
 40
0.4999999999999449
 50
90.0
 51
180.0
  0
ARC
  5
33D
  8
1
  6
CONTINUOUS
 62
     7
 10
27.78952476999971
 20
193.9633768934
 30
0.0
 40
0.4999999999999449
 50
0.0
 51
90.0
  0
ARC
  5
33E
  8
1
  6
CONTINUOUS
 62
     7
 10
12.28952476999942
 20
240.4633767969996
 30
0.0
 40
0.4999999999999449
 50
270.0000000246001
 51
0.0
  0
ARC
  5
33F
  8
1
  6
CONTINUOUS
 62
     7
 10
12.28952477020015
 20
211.4633767451999
 30
0.0
 40
0.4999999999999449
 50
0.0
 51
89.9999999754
  0
ARC
  5
340
  8
1
  6
CONTINUOUS
 62
     7
 10
12.28952477020015
 20
251.4633772216
 30
0.0
 40
0.4999999999999449
 50
0.0
 51
90.0000000246
  0
ARC
  5
341
  8
1
  6
CONTINUOUS
 62
     7
 10
12.28952476999942
 20
200.4633754099997
 30
0.0
 40
0.4999999999999449
 50
270.1395953738
 51
0.0
  0
LINE
  5
342
  8
1
  6
CONTINUOUS
 62
     7
 10
12.78952477000003
 20
248.9633768935998
 30
0.0
 11
12.78952477000003
 21
251.4633772216
 31
0.0
  0
LINE
  5
343
  8
1
  6
CONTINUOUS
 62
     7
 10
50.28952077699996
 20
239.9633760004002
 30
0.0
 11
50.28953351860063
 21
211.9633768935999
 31
0.0
  0
LINE
  5
344
  8
1
  6
CONTINUOUS
 62
     7
 10
33.78952476999994
 20
257.4633768936001
 30
0.0
 11
36.28952387780024
 21
257.4633768936001
 31
0.0
  0
ARC
  5
345
  8
1
  6
CONTINUOUS
 62
     7
 10
15.28952476999953
 20
254.9633768935996
 30
0.0
 40
5.000000000000115
 50
90.0
 51
180.0
  0
ARC
  5
346
  8
1
  6
CONTINUOUS
 62
     7
 10
15.28952476999953
 20
196.9633768935997
 30
0.0
 40
5.000000000000115
 50
180.0
 51
218.3161344738
  0
LINE
  5
347
  8
1
  6
CONTINUOUS
 62
     7
 10
11.28956979279969
 20
199.9633768943997
 30
0.0
 11
11.28955751399949
 21
196.9633891721997
 31
0.0
  0
LINE
  5
348
  8
1
  6
CONTINUOUS
 62
     7
 10
12.78952477000003
 20
208.9633768935998
 30
0.0
 11
12.78952477000003
 21
211.4633767451999
 31
0.0
  0
ARC
  5
349
  8
1
  6
CONTINUOUS
 62
     7
 10
27.78952476999971
 20
259.4633768935997
 30
0.0
 40
0.4999999999999449
 50
0.0
 51
90.0
  0
LINE
  5
34A
  8
1
  6
CONTINUOUS
 62
     7
 10
12.29074296819951
 20
199.9633768937997
 30
0.0
 11
11.28956979279969
 21
199.9633768943997
 31
0.0
  0
LINE
  5
34B
  8
1
  6
CONTINUOUS
 62
     7
 10
50.28952476979983
 20
254.9721789637998
 30
0.0
 11
50.28952440299991
 21
251.9633760004002
 31
0.0
  0
LINE
  5
34C
  8
1
  6
CONTINUOUS
 62
     7
 10
24.78952477040017
 20
257.9620830099998
 30
0.0
 11
24.78952476979976
 21
258.9633856419998
 31
0.0
  0
LINE
  5
34D
  8
1
  6
CONTINUOUS
 62
     7
 10
12.28952477020015
 20
239.9633768937997
 30
0.0
 11
11.28951602159975
 21
239.9633768931998
 31
0.0
  0
LINE
  5
34E
  8
1
  6
CONTINUOUS
 62
     7
 10
33.28952476999932
 20
257.9633768938
 30
0.0
 11
33.28952476999932
 21
259.4633768935997
 31
0.0
  0
ARC
  5
34F
  8
1
  6
CONTINUOUS
 62
     7
 10
-18.21047523000055
 20
257.9633768938
 30
0.0
 40
0.4999999999999449
 50
270.0
 51
0.0
  0
LINE
  5
350
  8
1
  6
CONTINUOUS
 62
     7
 10
28.28952476999943
 20
193.9633768934
 30
0.0
 11
28.28952476999943
 21
192.4633768935997
 31
0.0
  0
LINE
  5
351
  8
1
  6
CONTINUOUS
 62
     7
 10
51.28952477000001
 20
254.9633768935996
 30
0.0
 11
51.28952477000001
 21
248.9633768935998
 31
0.0
  0
ARC
  5
352
  8
1
  6
CONTINUOUS
 62
     7
 10
-18.21047523000055
 20
193.9633768934
 30
0.0
 40
0.4999999999999449
 50
0.0
 51
90.0
  0
ARC
  5
353
  8
1
  6
CONTINUOUS
 62
     7
 10
36.28952387780024
 20
257.9633768941996
 30
0.0
 40
0.4999999999999449
 50
270.0
 51
0.0000000243999807
  0
ARC
  5
354
  8
1
  6
CONTINUOUS
 62
     7
 10
36.28952458079967
 20
193.9633768935997
 30
0.0
 40
0.4999999999999449
 50
0.0
 51
90.0
  0
LINE
  5
355
  8
1
  6
CONTINUOUS
 62
     7
 10
36.78952477039973
 20
257.9633768943995
 30
0.0
 11
36.78952476979932
 21
258.9633318707998
 31
0.0
  0
LINE
  5
356
  8
1
  6
CONTINUOUS
 62
     7
 10
51.28952477000001
 20
202.9633768936001
 30
0.0
 11
51.28952477000001
 21
196.9633768935997
 31
0.0
  0
ARC
  5
357
  8
1
  6
CONTINUOUS
 62
     7
 10
10.78952477039993
 20
208.9633768935998
 30
0.0
 40
0.4999999999999449
 50
180.0000000001
 51
270.0
  0
LINE
  5
358
  8
1
  6
CONTINUOUS
 62
     7
 10
33.28952476999932
 20
193.9633768934
 30
0.0
 11
33.28952476999932
 21
192.4633768935997
 31
0.0
  0
LINE
  5
359
  8
1
  6
CONTINUOUS
 62
     7
 10
50.2894797473998
 20
199.9633768943997
 30
0.0
 11
50.28949202619911
 21
196.9633891721997
 31
0.0
  0
LINE
  5
35A
  8
1
  6
CONTINUOUS
 62
     7
 10
12.78952477000003
 20
242.9633768935997
 30
0.0
 11
12.78952477000003
 21
240.4633767969996
 31
0.0
  0
ARC
  5
35B
  8
1
  6
CONTINUOUS
 62
     7
 10
12.28952477020015
 20
208.9633768935998
 30
0.0
 40
0.4999999999999449
 50
270.0
 51
0.0
  0
LINE
  5
35C
  8
1
  6
CONTINUOUS
 62
     7
 10
24.78952477040017
 20
193.9646707770001
 30
0.0
 11
24.78952476979976
 21
192.9633681452001
 31
0.0
  0
ARC
  5
35D
  8
1
  6
CONTINUOUS
 62
     7
 10
10.78952476999936
 20
202.9633768936001
 30
0.0
 40
0.4999999999999449
 50
90.0
 51
180.0
  0
LINE
  5
35E
  8
1
  6
CONTINUOUS
 62
     7
 10
51.28952477019985
 20
242.9633768935997
 30
0.0
 11
51.28952477019985
 21
208.9633768935997
 31
0.0
  0
LINE
  5
35F
  8
1
  6
CONTINUOUS
 62
     7
 10
12.78952477000003
 20
202.9633768936001
 30
0.0
 11
12.78952477000003
 21
200.4633754099997
 31
0.0
  0
LINE
  5
360
  8
1
  6
CONTINUOUS
 62
     7
 10
12.28952477020015
 20
248.4633768935997
 30
0.0
 11
10.78952476999936
 21
248.4633768935997
 31
0.0
  0
ARC
  5
361
  8
1
  6
CONTINUOUS
 62
     7
 10
10.78952476999936
 20
248.9633768935998
 30
0.0
 40
0.4999999999999449
 50
180.0
 51
270.0
  0
LINE
  5
362
  8
1
  6
CONTINUOUS
 62
     7
 10
28.28952476999943
 20
257.9633768938
 30
0.0
 11
28.28952476999943
 21
259.4633768935997
 31
0.0
  0
LINE
  5
363
  8
1
  6
CONTINUOUS
 62
     7
 10
3.28952476979924
 20
211.9633768935999
 30
0.0
 11
4.289533518600369
 21
211.9633768941995
 31
0.0
  0
ARC
  5
364
  8
1
  6
CONTINUOUS
 62
     7
 10
27.78952476999971
 20
192.4633768935997
 30
0.0
 40
0.4999999999999449
 50
270.0
 51
0.0
  0
ARC
  5
365
  8
1
  6
CONTINUOUS
 62
     7
 10
12.28952477020015
 20
202.9633768936001
 30
0.0
 40
0.4999999999999449
 50
0.0
 51
90.0
  0
ARC
  5
366
  8
1
  6
CONTINUOUS
 62
     7
 10
25.2895244831994
 20
193.9633768931995
 30
0.0
 40
0.4999999999999449
 50
90.0
 51
179.9999999756
  0
LINE
  5
367
  8
1
  6
CONTINUOUS
 62
     7
 10
10.28952476999964
 20
242.9633768935997
 30
0.0
 11
10.28952476999964
 21
208.9633768935997
 31
0.0
  0
ARC
  5
368
  8
1
  6
CONTINUOUS
 62
     7
 10
33.78952476999994
 20
193.9633768934
 30
0.0
 40
0.4999999999999449
 50
90.0
 51
180.0
  0
ARC
  5
369
  8
1
  6
CONTINUOUS
 62
     7
 10
27.78952476999971
 20
257.9633768938
 30
0.0
 40
0.4999999999999449
 50
270.0
 51
0.0
  0
LINE
  5
36A
  8
1
  6
CONTINUOUS
 62
     7
 10
36.78952388319919
 20
192.9633768935997
 30
0.0
 11
46.28949202619955
 21
192.9633768935997
 31
0.0
  0
ARC
  5
36B
  8
1
  6
CONTINUOUS
 62
     7
 10
25.28952309599972
 20
257.9633768921994
 30
0.0
 40
0.4999999999999449
 50
180.1482681326
 51
270.0
  0
LINE
  5
36C
  8
1
  6
CONTINUOUS
 62
     7
 10
12.28952477020015
 20
208.4633768935998
 30
0.0
 11
10.78952477039993
 21
208.4633768935998
 31
0.0
  0
ARC
  5
36D
  8
1
  6
CONTINUOUS
 62
     7
 10
33.78952476999994
 20
192.4633768935997
 30
0.0
 40
0.4999999999999449
 50
180.0
 51
270.0
  0
LINE
  5
36E
  8
1
  6
CONTINUOUS
 62
     7
 10
5.289524770199589
 20
242.9633768935997
 30
0.0
 11
5.289524770199589
 21
208.9633768935997
 31
0.0
  0
LINE
  5
36F
  8
1
  6
CONTINUOUS
 62
     7
 10
-18.21047523000055
 20
194.4633768935999
 30
0.0
 11
-20.71047551679997
 21
194.4633768935999
 31
0.0
  0
ARC
  5
370
  8
1
  6
CONTINUOUS
 62
     7
 10
15.28951518519991
 20
254.9633768935996
 30
0.0
 40
4.000000000000004
 50
90.0
 51
179.8739195323
  0
LINE
  5
371
  8
1
  6
CONTINUOUS
 62
     7
 10
27.78952476999971
 20
257.4633768936001
 30
0.0
 11
25.28952309599972
 21
257.4633768936001
 31
0.0
  0
LINE
  5
372
  8
1
  6
CONTINUOUS
 62
     7
 10
36.78952477039973
 20
193.9633768934
 30
0.0
 11
36.78952476979932
 21
192.9634219161997
 31
0.0
  0
LINE
  5
373
  8
1
  6
CONTINUOUS
 62
     7
 10
12.28952477039999
 20
211.9633768935999
 30
0.0
 11
11.28951602159975
 21
211.9633768941995
 31
0.0
  0
ARC
  5
374
  8
1
  6
CONTINUOUS
 62
     7
 10
49.28952476999934
 20
248.9633768935998
 30
0.0
 40
0.4999999999999449
 50
180.0
 51
270.0
  0
ARC
  5
375
  8
1
  6
CONTINUOUS
 62
     7
 10
56.78952477040019
 20
208.9633768935998
 30
0.0
 40
0.4999999999999449
 50
180.0000000001
 51
270.0
  0
ARC
  5
376
  8
1
  6
CONTINUOUS
 62
     7
 10
49.28952476999934
 20
202.9633768936001
 30
0.0
 40
0.4999999999999449
 50
90.0
 51
180.0
  0
ARC
  5
377
  8
1
  6
CONTINUOUS
 62
     7
 10
58.28952477019952
 20
242.9633768935997
 30
0.0
 40
0.4999999999999449
 50
0.0
 51
90.0
  0
ARC
  5
378
  8
1
  6
CONTINUOUS
 62
     7
 10
58.28952477019952
 20
208.9633768935998
 30
0.0
 40
0.4999999999999449
 50
270.0
 51
0.0
  0
ARC
  5
379
  8
1
  6
CONTINUOUS
 62
     7
 10
15.28955751399993
 20
196.9633768935997
 30
0.0
 40
4.000000000000004
 50
179.99982412
 51
230.8050325742
  0
ARC
  5
37A
  8
1
  6
CONTINUOUS
 62
     7
 10
50.78952476979956
 20
242.9633768935997
 30
0.0
 40
0.4999999999999449
 50
0.0
 51
90.0
  0
ARC
  5
37B
  8
1
  6
CONTINUOUS
 62
     7
 10
50.7895247699994
 20
202.9633768936001
 30
0.0
 40
0.4999999999999449
 50
0.0
 51
90.0
  0
LINE
  5
37C
  8
1
  6
CONTINUOUS
 62
     7
 10
82.7895238831995
 20
192.9633768935997
 30
0.0
 11
92.28949202619988
 21
192.9633768935997
 31
0.0
  0
LINE
  5
37D
  8
1
  6
CONTINUOUS
 62
     7
 10
24.78952569899959
 20
258.9633768935997
 30
0.0
 11
15.28951518519991
 21
258.9633768935997
 31
0.0
  0
LINE
  5
37E
  8
1
  6
CONTINUOUS
 62
     7
 10
73.78952476999989
 20
259.9633768935998
 30
0.0
 11
61.28952476999979
 21
259.9633768935998
 31
0.0
  0
LINE
  5
37F
  8
1
  6
CONTINUOUS
 62
     7
 10
56.2895247699999
 20
254.9633768935996
 30
0.0
 11
56.2895247699999
 21
248.9633768935998
 31
0.0
  0
LINE
  5
380
  8
1
  6
CONTINUOUS
 62
     7
 10
58.28952477019952
 20
248.4633768935997
 30
0.0
 11
56.78952476999962
 21
248.4633768935997
 31
0.0
  0
LINE
  5
381
  8
1
  6
CONTINUOUS
 62
     7
 10
56.2895247699999
 20
202.9633768936001
 30
0.0
 11
56.2895247699999
 21
196.9633768935997
 31
0.0
  0
LINE
  5
382
  8
1
  6
CONTINUOUS
 62
     7
 10
12.28952477020015
 20
203.4633768935998
 30
0.0
 11
10.78952476999936
 21
203.4633768935998
 31
0.0
  0
LINE
  5
383
  8
1
  6
CONTINUOUS
 62
     7
 10
79.78952476999929
 20
191.9633768935999
 30
0.0
 11
92.28952476999949
 21
191.9633768935999
 31
0.0
  0
LINE
  5
384
  8
1
  6
CONTINUOUS
 62
     7
 10
49.28952476999934
 20
203.4633768935998
 30
0.0
 11
50.7895247699994
 21
203.4633768935998
 31
0.0
  0
ARC
  5
385
  8
1
  6
CONTINUOUS
 62
     7
 10
12.28952477020015
 20
248.9633768935998
 30
0.0
 40
0.4999999999999449
 50
270.0
 51
0.0
  0
LINE
  5
386
  8
1
  6
CONTINUOUS
 62
     7
 10
49.28952476999934
 20
248.4633768935997
 30
0.0
 11
50.7895247699994
 21
248.4633768935997
 31
0.0
  0
ARC
  5
387
  8
1
  6
CONTINUOUS
 62
     7
 10
12.28952477020015
 20
242.9633768935997
 30
0.0
 40
0.4999999999999449
 50
0.0
 51
90.0
  0
ARC
  5
388
  8
1
  6
CONTINUOUS
 62
     7
 10
49.28952476999934
 20
208.9633768935998
 30
0.0
 40
0.4999999999999449
 50
180.0
 51
270.0
  0
LINE
  5
389
  8
1
  6
CONTINUOUS
 62
     7
 10
70.78952569899991
 20
258.9633768935997
 30
0.0
 11
61.28951518519928
 21
258.9633768935997
 31
0.0
  0
LINE
  5
38A
  8
1
  6
CONTINUOUS
 62
     7
 10
58.7895247699994
 20
208.9633768935998
 30
0.0
 11
58.7895247699994
 21
211.4633767451999
 31
0.0
  0
LINE
  5
38B
  8
1
  6
CONTINUOUS
 62
     7
 10
61.28955751400019
 20
192.9633768935997
 30
0.0
 11
70.78952388339971
 21
192.9633768935997
 31
0.0
  0
LINE
  5
38C
  8
1
  6
CONTINUOUS
 62
     7
 10
58.28952477019952
 20
203.4633768935998
 30
0.0
 11
56.78952476999962
 21
203.4633768935998
 31
0.0
  0
ARC
  5
38D
  8
1
  6
CONTINUOUS
 62
     7
 10
61.28951518519928
 20
254.9633768935996
 30
0.0
 40
4.000000000000004
 50
90.0
 51
179.8739195323
  0
ARC
  5
38E
  8
1
  6
CONTINUOUS
 62
     7
 10
61.28955751400019
 20
196.9633768935997
 30
0.0
 40
4.000000000000004
 50
179.99982412
 51
270.0
  0
LINE
  5
38F
  8
1
  6
CONTINUOUS
 62
     7
 10
49.2895247697995
 20
239.9633768937997
 30
0.0
 11
50.28953351860063
 21
239.9633768931998
 31
0.0
  0
LINE
  5
390
  8
1
  6
CONTINUOUS
 62
     7
 10
56.2895247699999
 20
242.9633768935997
 30
0.0
 11
56.2895247699999
 21
208.9633768935997
 31
0.0
  0
ARC
  5
391
  8
1
  6
CONTINUOUS
 62
     7
 10
46.28949202619955
 20
196.9633768935997
 30
0.0
 40
4.000000000000004
 50
270.0
 51
0.000175879999972
  0
LINE
  5
392
  8
1
  6
CONTINUOUS
 62
     7
 10
61.28952476999979
 20
191.9633768935999
 30
0.0
 11
73.78952476999989
 21
191.9633768935999
 31
0.0
  0
ARC
  5
393
  8
1
  6
CONTINUOUS
 62
     7
 10
61.28952476999979
 20
196.9633768935997
 30
0.0
 40
5.000000000000115
 50
180.0
 51
270.0
  0
LINE
  5
394
  8
1
  6
CONTINUOUS
 62
     7
 10
57.28952477039991
 20
254.9721789637998
 30
0.0
 11
57.28952513719984
 21
251.9633760004002
 31
0.0
  0
LINE
  5
395
  8
1
  6
CONTINUOUS
 62
     7
 10
12.28952477020015
 20
243.4633768935997
 30
0.0
 11
10.78952477039993
 21
243.4633768935997
 31
0.0
  0
ARC
  5
396
  8
1
  6
CONTINUOUS
 62
     7
 10
33.78952476999994
 20
257.9633768938
 30
0.0
 40
0.4999999999999449
 50
180.0
 51
270.0
  0
LINE
  5
397
  8
1
  6
CONTINUOUS
 62
     7
 10
58.7895247699994
 20
242.9633768935997
 30
0.0
 11
58.7895247699994
 21
240.4633767969996
 31
0.0
  0
ARC
  5
398
  8
1
  6
CONTINUOUS
 62
     7
 10
49.28952477020007
 20
200.4633754099997
 30
0.0
 40
0.4999999999999449
 50
180.0
 51
269.8604046262001
  0
LINE
  5
399
  8
1
  6
CONTINUOUS
 62
     7
 10
12.28952476999942
 20
251.9633768937998
 30
0.0
 11
11.28956979279969
 21
251.9633768931998
 31
0.0
  0
ARC
  5
39A
  8
1
  6
CONTINUOUS
 62
     7
 10
61.28952476999979
 20
254.9633768935996
 30
0.0
 40
5.000000000000115
 50
90.0
 51
180.0
  0
LINE
  5
39B
  8
1
  6
CONTINUOUS
 62
     7
 10
49.28830657199997
 20
199.9633768937997
 30
0.0
 11
50.2894797473998
 21
199.9633768943997
 31
0.0
  0
LINE
  5
39C
  8
1
  6
CONTINUOUS
 62
     7
 10
57.28952876319978
 20
239.9633760004002
 30
0.0
 11
57.28951602160001
 21
211.9633768935999
 31
0.0
  0
LINE
  5
39D
  8
1
  6
CONTINUOUS
 62
     7
 10
49.28952476999934
 20
208.4633768935998
 30
0.0
 11
50.78952476979956
 21
208.4633768935998
 31
0.0
  0
LINE
  5
39E
  8
1
  6
CONTINUOUS
 62
     7
 10
48.78952476999962
 20
248.9633768935998
 30
0.0
 11
48.78952476999962
 21
251.4633772216
 31
0.0
  0
ARC
  5
39F
  8
1
  6
CONTINUOUS
 62
     7
 10
10.78952477039993
 20
242.9633768935997
 30
0.0
 40
0.4999999999999449
 50
90.0
 51
180.0000000001
  0
ARC
  5
3A0
  8
1
  6
CONTINUOUS
 62
     7
 10
46.28952477000011
 20
196.9633768935997
 30
0.0
 40
5.000000000000115
 50
270.0
 51
0.0
  0
LINE
  5
3A1
  8
1
  6
CONTINUOUS
 62
     7
 10
57.28956979279994
 20
199.9633768943997
 30
0.0
 11
57.28955751399975
 21
196.9633891721997
 31
0.0
  0
LINE
  5
3A2
  8
1
  6
CONTINUOUS
 62
     7
 10
49.28952477020007
 20
251.9633768937998
 30
0.0
 11
50.2894797473998
 21
251.9633768931998
 31
0.0
  0
LINE
  5
3A3
  8
1
  6
CONTINUOUS
 62
     7
 10
49.28952476999934
 20
243.4633768935997
 30
0.0
 11
50.78952476979956
 21
243.4633768935997
 31
0.0
  0
LINE
  5
3A4
  8
1
  6
CONTINUOUS
 62
     7
 10
18.77041056679959
 20
192.9633768935997
 30
0.0
 11
24.78952388339947
 21
192.9633768935997
 31
0.0
  0
LINE
  5
3A5
  8
1
  6
CONTINUOUS
 62
     7
 10
49.2895247697995
 20
211.9633768935999
 30
0.0
 11
50.28953351860063
 21
211.9633768941995
 31
0.0
  0
ARC
  5
3A6
  8
1
  6
CONTINUOUS
 62
     7
 10
46.28953435499957
 20
254.9633768935996
 30
0.0
 40
4.000000000000004
 50
0.1260804677
 51
90.0
  0
LINE
  5
3A7
  8
1
  6
CONTINUOUS
 62
     7
 10
58.28952477019952
 20
243.4633768935997
 30
0.0
 11
56.78952477040019
 21
243.4633768935997
 31
0.0
  0
LINE
  5
3A8
  8
1
  6
CONTINUOUS
 62
     7
 10
48.78952476999962
 20
208.9633768935998
 30
0.0
 11
48.78952476999962
 21
211.4633767451999
 31
0.0
  0
LINE
  5
3A9
  8
1
  6
CONTINUOUS
 62
     7
 10
58.28952477040025
 20
211.9633768935999
 30
0.0
 11
57.28951602160001
 21
211.9633768941995
 31
0.0
  0
ARC
  5
3AA
  8
1
  6
CONTINUOUS
 62
     7
 10
50.7895247699994
 20
248.9633768935998
 30
0.0
 40
0.4999999999999449
 50
270.0
 51
0.0
  0
LINE
  5
3AB
  8
1
  6
CONTINUOUS
 62
     7
 10
88.8086389733993
 20
258.9633768935997
 30
0.0
 11
82.78952569959988
 21
258.9633768935997
 31
0.0
  0
LINE
  5
3AC
  8
1
  6
CONTINUOUS
 62
     7
 10
58.29074296819977
 20
199.9633768937997
 30
0.0
 11
57.28956979279994
 21
199.9633768943997
 31
0.0
  0
ARC
  5
3AD
  8
1
  6
CONTINUOUS
 62
     7
 10
56.78952476999962
 20
248.9633768935998
 30
0.0
 40
0.4999999999999449
 50
180.0
 51
270.0
  0
LINE
  5
3AE
  8
1
  6
CONTINUOUS
 62
     7
 10
48.78952476999962
 20
242.9633768935997
 30
0.0
 11
48.78952476999962
 21
240.4633767969996
 31
0.0
  0
ARC
  5
3AF
  8
1
  6
CONTINUOUS
 62
     7
 10
49.28952476999934
 20
242.9633768935997
 30
0.0
 40
0.4999999999999449
 50
90.0
 51
180.0000000001
  0
ARC
  5
3B0
  8
1
  6
CONTINUOUS
 62
     7
 10
56.78952476999962
 20
202.9633768936001
 30
0.0
 40
0.4999999999999449
 50
90.0
 51
180.0
  0
LINE
  5
3B1
  8
1
  6
CONTINUOUS
 62
     7
 10
58.7895247699994
 20
248.9633768935998
 30
0.0
 11
58.7895247699994
 21
251.4633772216
 31
0.0
  0
ARC
  5
3B2
  8
1
  6
CONTINUOUS
 62
     7
 10
56.78952477040019
 20
242.9633768935997
 30
0.0
 40
0.4999999999999449
 50
90.0
 51
180.0000000001
  0
ARC
  5
3B3
  8
1
  6
CONTINUOUS
 62
     7
 10
58.28952477019952
 20
248.9633768935998
 30
0.0
 40
0.4999999999999449
 50
270.0
 51
0.0
  0
LINE
  5
3B4
  8
1
  6
CONTINUOUS
 62
     7
 10
88.12784369519949
 20
259.9633768935998
 30
0.0
 11
79.7895247702001
 21
259.9633768935998
 31
0.0
  0
LINE
  5
3B5
  8
1
  6
CONTINUOUS
 62
     7
 10
48.78952476999962
 20
202.9633768936001
 30
0.0
 11
48.78952476999962
 21
200.4633754099997
 31
0.0
  0
LINE
  5
3B6
  8
1
  6
CONTINUOUS
 62
     7
 10
58.28952476999968
 20
251.9633768937998
 30
0.0
 11
57.28956979279994
 21
251.9633768931998
 31
0.0
  0
ARC
  5
3B7
  8
1
  6
CONTINUOUS
 62
     7
 10
49.28952476999934
 20
251.4633772216
 30
0.0
 40
0.4999999999999449
 50
89.9999999758
 51
180.0
  0
ARC
  5
3B8
  8
1
  6
CONTINUOUS
 62
     7
 10
58.28952477019952
 20
202.9633768936001
 30
0.0
 40
0.4999999999999449
 50
0.0
 51
90.0
  0
LINE
  5
3B9
  8
1
  6
CONTINUOUS
 62
     7
 10
79.78952476999929
 20
257.4633768936001
 30
0.0
 11
82.2895238777997
 21
257.4633768936001
 31
0.0
  0
ARC
  5
3BA
  8
1
  6
CONTINUOUS
 62
     7
 10
46.28952477000011
 20
254.9633768935996
 30
0.0
 40
5.000000000000115
 50
0.0
 51
90.0
  0
LINE
  5
3BB
  8
1
  6
CONTINUOUS
 62
     7
 10
74.2895247699997
 20
257.9633768938
 30
0.0
 11
74.2895247699997
 21
259.4633768935997
 31
0.0
  0
ARC
  5
3BC
  8
1
  6
CONTINUOUS
 62
     7
 10
49.28952476999934
 20
211.4633767451999
 30
0.0
 40
0.4999999999999449
 50
90.0000000242
 51
180.0
  0
LINE
  5
3BD
  8
1
  6
CONTINUOUS
 62
     7
 10
82.78952477039991
 20
257.9633768943995
 30
0.0
 11
82.7895247697995
 21
258.9633318707998
 31
0.0
  0
LINE
  5
3BE
  8
1
  6
CONTINUOUS
 62
     7
 10
79.2895247699995
 20
257.9633768938
 30
0.0
 11
79.2895247699995
 21
259.4633768935997
 31
0.0
  0
ARC
  5
3BF
  8
1
  6
CONTINUOUS
 62
     7
 10
49.28952477020007
 20
240.4633767969996
 30
0.0
 40
0.4999999999999449
 50
180.0
 51
269.9999999754
  0
LINE
  5
3C0
  8
1
  6
CONTINUOUS
 62
     7
 10
58.7895247699994
 20
202.9633768936001
 30
0.0
 11
58.7895247699994
 21
200.4633754099997
 31
0.0
  0
LINE
  5
3C1
  8
1
  6
CONTINUOUS
 62
     7
 10
76.38952477000008
 20
186.2133768936
 30
0.0
 11
77.1895247699991
 21
186.2133768936
 31
0.0
  0
LINE
  5
3C2
  8
1
  6
CONTINUOUS
 62
     7
 10
124.7895247699993
 20
183.8133768936
 30
0.0
 11
123.9395247699995
 21
183.8133768936
 31
0.0
  0
LINE
  5
3C3
  8
1
  6
CONTINUOUS
 62
     7
 10
124.7895247699993
 20
268.1133768936
 30
0.0
 11
124.7895247699993
 21
267.3133768935996
 31
0.0
  0
LINE
  5
3C4
  8
1
  6
CONTINUOUS
 62
     7
 10
58.28952477019952
 20
208.4633768935998
 30
0.0
 11
56.78952477040019
 21
208.4633768935998
 31
0.0
  0
ARC
  5
3C5
  8
1
  6
CONTINUOUS
 62
     7
 10
50.78952476979956
 20
208.9633768935998
 30
0.0
 40
0.4999999999999449
 50
270.0
 51
0.0
  0
LINE
  5
3C6
  8
1
  6
CONTINUOUS
 62
     7
 10
58.28952477019952
 20
239.9633768937997
 30
0.0
 11
57.28951602160001
 21
239.9633768931998
 31
0.0
  0
LINE
  5
3C7
  8
1
  6
CONTINUOUS
 62
     7
 10
73.78952476999989
 20
257.4633768936001
 30
0.0
 11
71.2895230959999
 21
257.4633768936001
 31
0.0
  0
LINE
  5
3C8
  8
1
  6
CONTINUOUS
 62
     7
 10
116.0395243369997
 20
112.0101147641997
 30
0.0
 11
116.0395243369997
 21
112.8178070717999
 31
0.0
  0
ARC
  5
3C9
  8
1
  6
CONTINUOUS
 62
     7
 10
11.03952477739908
 20
109.5775996845997
 30
0.0
 40
1.000000000000112
 50
94.00000000009999
 51
180.0
  0
LINE
  5
3CA
  8
1
  6
CONTINUOUS
 62
     7
 10
22.0560197717998
 20
111.3503899563999
 30
0.0
 11
22.19553271939964
 21
109.3552618559999
 31
0.0
  0
LINE
  5
3CB
  8
1
  6
CONTINUOUS
 62
     7
 10
102.9697683035997
 20
110.5751637347999
 30
0.0
 11
114.0560197717995
 21
111.3503899563999
 31
0.0
  0
LINE
  5
3CC
  8
2
  6
CONTINUOUS
 62
     7
 10
91.4185247773997
 20
134.0101147737999
 30
0.0
 11
91.4185247773997
 21
108.0101147710001
 31
0.0
  0
LINE
  5
3CD
  8
1
  6
CONTINUOUS
 62
     7
 10
124.289524337
 20
124.6614883624001
 30
0.0
 11
124.5395243370005
 21
125.9614883623997
 31
0.0
  0
LINE
  5
3CE
  8
1
  6
CONTINUOUS
 62
     7
 10
-27.16047481560005
 20
112.7601147641997
 30
0.0
 11
-28.46047481559969
 21
113.0101147641995
 31
0.0
  0
LINE
  5
3CF
  8
1
  6
CONTINUOUS
 62
     7
 10
97.13952477820028
 20
108.8101147383999
 30
0.0
 11
99.03952477739908
 21
108.8101147641997
 31
0.0
  0
LINE
  5
3D0
  8
1
  6
CONTINUOUS
 62
     7
 10
88.7895247773991
 20
134.0101147641995
 30
0.0
 11
88.7895247773991
 21
105.5101147641997
 31
0.0
  0
LINE
  5
3D1
  8
1
  6
CONTINUOUS
 62
     7
 10
99.03952477739908
 20
112.0101147641997
 30
0.0
 11
99.03952477739908
 21
108.8101147641997
 31
0.0
  0
LINE
  5
3D2
  8
1
  6
CONTINUOUS
 62
     7
 10
102.0395247773993
 20
109.5775996845997
 30
0.0
 11
102.0395247773993
 21
108.5101147707999
 31
0.0
  0
LINE
  5
3D3
  8
1
  6
CONTINUOUS
 62
     7
 10
89.0395247773993
 20
106.0101147707999
 30
0.0
 11
89.0395247773993
 21
108.0101147707997
 31
0.0
  0
ARC
  5
3D4
  8
1
  6
CONTINUOUS
 62
     7
 10
9.539524777399027
 20
108.5101147707999
 30
0.0
 40
2.500000000000169
 50
270.0
 51
3.088955590900014
  0
LINE
  5
3D5
  8
1
  6
CONTINUOUS
 62
     7
 10
108.0565318105999
 20
111.4320858389997
 30
0.0
 11
108.5901920725995
 21
110.9681820507995
 31
0.0
  0
LINE
  5
3D6
  8
1
  6
CONTINUOUS
 62
     7
 10
7.039524777399525
 20
112.0101147641997
 30
0.0
 11
7.039524777399525
 21
108.8101147641997
 31
0.0
  0
LINE
  5
3D7
  8
1
  6
CENTER
 62
     3
 10
122.7895247699995
 20
138.0101147641995
 30
0.0
 11
122.7895247699995
 21
103.0101147641999
 31
0.0
  0
LINE
  5
3D8
  8
2
  6
CONTINUOUS
 62
     7
 10
95.03952477739969
 20
134.0101147737999
 30
0.0
 11
95.03952477739969
 21
108.5220851705997
 31
0.0
  0
LINE
  5
3D9
  8
1
  6
CONTINUOUS
 62
     7
 10
88.7895247773991
 20
105.5101147641997
 30
0.0
 11
116.0395243619993
 21
105.5101147641997
 31
0.0
  0
LINE
  5
3DA
  8
1
  6
CONTINUOUS
 62
     7
 10
16.05653181060027
 20
111.4320858389997
 30
0.0
 11
16.5901920725999
 21
110.9681820507995
 31
0.0
  0
LINE
  5
3DB
  8
1
  6
CONTINUOUS
 62
     7
 10
126.5395243370001
 20
125.9614883623997
 30
0.0
 11
126.7895243370004
 21
124.6614883624001
 31
0.0
  0
LINE
  5
3DC
  8
1
  6
CONTINUOUS
 62
     7
 10
22.19553271939964
 20
109.3552618559999
 30
0.0
 11
12.03589246759981
 21
108.6448306025997
 31
0.0
  0
LINE
  5
3DD
  8
1
  6
CONTINUOUS
 62
     7
 10
97.28952477739969
 20
134.0101147641995
 30
0.0
 11
88.7895247773991
 21
134.0101147641995
 31
0.0
  0
LINE
  5
3DE
  8
1
  6
CONTINUOUS
 62
     7
 10
97.28952477739969
 20
108.8101147641997
 30
0.0
 11
97.28952477739969
 21
134.0101147641995
 31
0.0
  0
LINE
  5
3DF
  8
1
  6
CONTINUOUS
 62
     7
 10
10.03952477739964
 20
109.5775996845997
 30
0.0
 11
10.03952477739964
 21
108.5101147707999
 31
0.0
  0
LINE
  5
3E0
  8
1
  6
CONTINUOUS
 62
     7
 10
97.13952477820028
 20
108.8101147383999
 30
0.0
 11
91.3067899049999
 21
108.0101146885997
 31
0.0
  0
ARC
  5
3E1
  8
1
  6
CONTINUOUS
 62
     7
 10
125.5395243369999
 20
115.5101147641995
 30
0.0
 40
10.49999999999995
 50
0.0
 51
180.0
  0
LINE
  5
3E2
  8
1
  6
CENTER
 62
     3
 10
125.5395243369999
 20
126.0101147641995
 30
0.0
 11
125.5395243369999
 21
103.0101147641999
 31
0.0
  0
LINE
  5
3E3
  8
1
  6
CONTINUOUS
 62
     7
 10
115.0395243370003
 20
103.0101147641999
 30
0.0
 11
115.0395243370003
 21
105.5101147641997
 31
0.0
  0
LINE
  5
3E4
  8
1
  6
CONTINUOUS
 62
     7
 10
10.96976830360005
 20
110.5751637347999
 30
0.0
 11
22.0560197717998
 21
111.3503899563999
 31
0.0
  0
ARC
  5
3E5
  8
1
  6
CONTINUOUS
 62
     7
 10
9.539524777399027
 20
108.5101147707999
 30
0.0
 40
0.4999999999999449
 50
270.0
 51
0.0
  0
LINE
  5
3E6
  8
1
  6
CONTINUOUS
 62
     7
 10
9.539524777399027
 20
106.0101147707999
 30
0.0
 11
-2.960475222600262
 21
106.0101147707999
 31
0.0
  0
ARC
  5
3E7
  8
1
  6
CONTINUOUS
 62
     7
 10
101.5395247773995
 20
108.5101147707999
 30
0.0
 40
0.4999999999999449
 50
270.0
 51
0.0
  0
LINE
  5
3E8
  8
2
  6
CONTINUOUS
 62
     7
 10
94.66052477739909
 20
134.0101147737999
 30
0.0
 11
94.66052477739909
 21
108.4701026913995
 31
0.0
  0
LINE
  5
3E9
  8
1
  6
CONTINUOUS
 62
     7
 10
116.3395243369991
 20
112.7601147641997
 30
0.0
 11
115.0395243370003
 21
113.0101147641995
 31
0.0
  0
LINE
  5
3EA
  8
1
  6
CONTINUOUS
 62
     7
 10
101.5395247773995
 20
108.0101146885997
 30
0.0
 11
89.0395247773993
 21
108.0101146885997
 31
0.0
  0
LINE
  5
3EB
  8
1
  6
CONTINUOUS
 62
     7
 10
135.0395243369999
 20
103.0101147641999
 30
0.0
 11
135.0395243369999
 21
112.8178070717999
 31
0.0
  0
ARC
  5
3EC
  8
1
  6
CONTINUOUS
 62
     7
 10
125.5395243369999
 20
115.5101147641995
 30
0.0
 40
9.000000000000119
 50
0.0
 51
180.0
  0
LINE
  5
3ED
  8
2
  6
CONTINUOUS
 62
     7
 10
-0.960475222600482
 20
106.0101147752001
 30
0.0
 11
-0.9604752298000563
 21
105.5101147639999
 31
0.0
  0
LINE
  5
3EE
  8
1
  6
CONTINUOUS
 62
     7
 10
115.0395243370003
 20
115.0101147641999
 30
0.0
 11
116.3395243369991
 21
115.2601147641997
 31
0.0
  0
LINE
  5
3EF
  8
1
  6
CONTINUOUS
 62
     7
 10
99.03952477739908
 20
108.8101147641997
 30
0.0
 11
95.6247627487995
 21
108.0101146885997
 31
0.0
  0
LINE
  5
3F0
  8
1
  6
CONTINUOUS
 62
     7
 10
115.0395243370003
 20
112.0101147641997
 30
0.0
 11
99.03952477739908
 21
112.0101147641997
 31
0.0
  0
LINE
  5
3F1
  8
1
  6
CONTINUOUS
 62
     7
 10
136.0395243370003
 20
105.5101147641997
 30
0.0
 11
135.0395243369999
 21
105.5101147641997
 31
0.0
  0
ARC
  5
3F2
  8
1
  6
CONTINUOUS
 62
     7
 10
125.5395243369999
 20
115.5101147641995
 30
0.0
 40
9.500000000000064
 50
0.0
 51
82.7582724643
  0
LINE
  5
3F3
  8
1
  6
CONTINUOUS
 62
     7
 10
116.5395243370005
 20
115.5101147641995
 30
0.0
 11
116.5395243370005
 21
103.0101147641999
 31
0.0
  0
LINE
  5
3F4
  8
1
  6
CONTINUOUS
 62
     7
 10
15.59262802219982
 20
110.8984255769997
 30
0.0
 11
16.05653181060027
 21
111.4320858389997
 31
0.0
  0
ARC
  5
3F5
  8
1
  6
CONTINUOUS
 62
     7
 10
101.5395247773995
 20
108.5101147707999
 30
0.0
 40
2.500000000000169
 50
270.0
 51
3.088955590900014
  0
LINE
  5
3F6
  8
1
  6
CONTINUOUS
 62
     7
 10
101.5395247773995
 20
106.0101147707999
 30
0.0
 11
89.0395247773993
 21
106.0101147707999
 31
0.0
  0
LINE
  5
3F7
  8
1
  6
CONTINUOUS
 62
     7
 10
136.0395243370003
 20
113.0101147641995
 30
0.0
 11
134.7395243369997
 21
112.7601147641997
 31
0.0
  0
LINE
  5
3F8
  8
1
  6
CENTER
 62
     3
 10
-15.21047523000044
 20
138.0101147641995
 30
0.0
 11
-15.21047523000044
 21
103.0101147641999
 31
0.0
  0
LINE
  5
3F9
  8
1
  6
CONTINUOUS
 62
     7
 10
134.5395243370001
 20
103.0101147641999
 30
0.0
 11
134.5395243370001
 21
115.5101147641995
 31
0.0
  0
LINE
  5
3FA
  8
2
  6
CONTINUOUS
 62
     7
 10
91.0395247773991
 20
134.0101147737999
 30
0.0
 11
91.0395247773991
 21
108.0101147710001
 31
0.0
  0
LINE
  5
3FB
  8
1
  6
CONTINUOUS
 62
     7
 10
136.0395243370003
 20
103.0101147641999
 30
0.0
 11
136.0395243370003
 21
115.5101147641995
 31
0.0
  0
LINE
  5
3FC
  8
1
  6
CONTINUOUS
 62
     7
 10
135.0395243369999
 20
115.2024224563997
 30
0.0
 11
135.0395243369999
 21
115.5101147641995
 31
0.0
  0
LINE
  5
3FD
  8
1
  6
CONTINUOUS
 62
     7
 10
134.7395243369997
 20
112.7601147641997
 30
0.0
 11
134.7395243369997
 21
115.2601147641997
 31
0.0
  0
LINE
  5
3FE
  8
1
  6
CONTINUOUS
 62
     7
 10
114.1955327194001
 20
109.3552618559999
 30
0.0
 11
104.0358924676003
 21
108.6448306025997
 31
0.0
  0
LINE
  5
3FF
  8
1
  6
CONTINUOUS
 62
     7
 10
114.0560197717995
 20
111.3503899563999
 30
0.0
 11
114.1955327194001
 21
109.3552618559999
 31
0.0
  0
LINE
  5
400
  8
1
  6
CONTINUOUS
 62
     7
 10
126.7895243370004
 20
124.6614883624001
 30
0.0
 11
124.289524337
 21
124.6614883624001
 31
0.0
  0
LINE
  5
401
  8
1
  6
CONTINUOUS
 62
     7
 10
107.5926280222003
 20
110.8984255769997
 30
0.0
 11
108.0565318105999
 21
111.4320858389997
 31
0.0
  0
ARC
  5
402
  8
1
  6
CONTINUOUS
 62
     7
 10
125.5395243369999
 20
115.5101147641995
 30
0.0
 40
9.500000000000064
 50
97.24172753569998
 51
180.0
  0
LINE
  5
403
  8
1
  6
CONTINUOUS
 62
     7
 10
5.139524778199761
 20
108.8101147383999
 30
0.0
 11
-0.6932100949997022
 21
108.0101146885997
 31
0.0
  0
LINE
  5
404
  8
1
  6
CONTINUOUS
 62
     7
 10
116.0395246332001
 20
112.0101147641997
 30
0.0
 11
116.0395824973999
 21
103.0101147641999
 31
0.0
  0
LINE
  5
405
  8
1
  6
CENTER
 62
     3
 10
93.03952477739888
 20
138.0101147641995
 30
0.0
 11
93.03952477739888
 21
103.0101147641999
 31
0.0
  0
LINE
  5
406
  8
1
  6
CONTINUOUS
 62
     7
 10
134.7395243369997
 20
115.2601147641997
 30
0.0
 11
136.0395243370003
 21
115.0101147641999
 31
0.0
  0
LINE
  5
407
  8
1
  6
CONTINUOUS
 62
     7
 10
-9.710475229999933
 20
267.7133768935996
 30
0.0
 11
-9.710475229999933
 21
271.4133768935994
 31
0.0
  0
LINE
  5
408
  8
1
  6
CONTINUOUS
 62
     7
 10
54.83952476999973
 20
271.4133768935994
 30
0.0
 11
54.83952476999973
 21
272.4133768935998
 31
0.0
  0
CIRCLE
  5
409
  8
1
  6
CONTINUOUS
 62
     7
 10
122.7895247699995
 20
267.7133768935996
 30
0.0
 40
4.000000000000004
  0
LINE
  5
40A
  8
1
  6
CONTINUOUS
 62
     7
 10
-38.91047523000027
 20
180.0133768935997
 30
0.0
 11
-38.91047523000027
 21
271.9133768935997
 31
0.0
  0
ARC
  5
40B
  8
1
  6
CONTINUOUS
 62
     7
 10
-15.21047523000044
 20
267.7133768935996
 30
0.0
 40
5.50000000000006
 50
180.0
 51
0.0
  0
LINE
  5
40C
  8
1
  6
CONTINUOUS
 62
     7
 10
25.28952476999932
 20
267.7133768935996
 30
0.0
 11
25.28952476999932
 21
271.4133768935994
 31
0.0
  0
LINE
  5
40D
  8
1
  6
CONTINUOUS
 62
     7
 10
116.2895247699995
 20
179.5133768936001
 30
0.0
 11
99.78952476999969
 21
179.5133768936001
 31
0.0
  0
LINE
  5
40E
  8
1
  6
CONTINUOUS
 62
     7
 10
71.2895247699995
 20
184.2133768935998
 30
0.0
 11
71.2895247699995
 21
180.5133768935999
 31
0.0
  0
LINE
  5
40F
  8
1
  6
CONTINUOUS
 62
     7
 10
-8.710475230000487
 20
272.4133768935998
 30
0.0
 11
7.789524769999248
 21
272.4133768935998
 31
0.0
  0
LINE
  5
410
  8
1
  6
CONTINUOUS
 62
     7
 10
51.73952476999985
 20
271.4133768935994
 30
0.0
 11
52.73952476999929
 21
271.4133768935994
 31
0.0
  0
CIRCLE
  5
411
  8
1
  6
CONTINUOUS
 62
     7
 10
-15.21047523000044
 20
267.7133768935996
 30
0.0
 40
4.000000000000004
  0
LINE
  5
412
  8
1
  6
CONTINUOUS
 62
     7
 10
24.28952476999988
 20
179.5133768936001
 30
0.0
 11
7.789524769999251
 21
179.5133768936001
 31
0.0
  0
ARC
  5
413
  8
1
  6
CONTINUOUS
 62
     7
 10
145.9895247699995
 20
271.9133768935996
 30
0.0
 40
0.4999999999999449
 50
0.0
 51
90.0
  0
LINE
  5
414
  8
1
  6
CONTINUOUS
 62
     7
 10
129.2895247699995
 20
272.4133768935998
 30
0.0
 11
145.9895247699995
 21
272.4133768935998
 31
0.0
  0
ARC
  5
415
  8
1
  6
CONTINUOUS
 62
     7
 10
30.78952476999983
 20
184.2133768935998
 30
0.0
 40
5.50000000000006
 50
0.0
 51
180.0
  0
CIRCLE
  5
416
  8
1
  6
CONTINUOUS
 62
     7
 10
76.78952477000009
 20
184.2133768935998
 30
0.0
 40
4.000000000000004
  0
LINE
  5
417
  8
1
  6
CONTINUOUS
 62
     7
 10
37.28952476999977
 20
272.4133768935998
 30
0.0
 11
70.2895247699993
 21
272.4133768935998
 31
0.0
  0
LINE
  5
418
  8
1
  6
CONTINUOUS
 62
     7
 10
99.78952476999969
 20
272.4133768935998
 30
0.0
 11
83.2895247700001
 21
272.4133768935998
 31
0.0
  0
LINE
  5
419
  8
1
  6
CONTINUOUS
 62
     7
 10
87.28952476999969
 20
179.5133768936001
 30
0.0
 11
83.2895247700001
 21
179.5133768936001
 31
0.0
  0
ARC
  5
41A
  8
1
  6
CONTINUOUS
 62
     7
 10
145.9895247699995
 20
180.0133768935997
 30
0.0
 40
0.4999999999999449
 50
270.0
 51
0.0
  0
LINE
  5
41B
  8
1
  6
CONTINUOUS
 62
     7
 10
117.2895247699999
 20
267.7133768935996
 30
0.0
 11
117.2895247699999
 21
271.4133768935994
 31
0.0
  0
LINE
  5
41C
  8
1
  6
CONTINUOUS
 62
     7
 10
-20.71047523000005
 20
184.2133768935998
 30
0.0
 11
-20.71047523000005
 21
180.5133768935999
 31
0.0
  0
LINE
  5
41D
  8
1
  6
CONTINUOUS
 62
     7
 10
71.2895247699995
 20
267.7133768935996
 30
0.0
 11
71.2895247699995
 21
271.4133768935994
 31
0.0
  0
LINE
  5
41E
  8
1
  6
CONTINUOUS
 62
     7
 10
-38.41047523000054
 20
272.4133768935998
 30
0.0
 11
-21.71047523000039
 21
272.4133768935998
 31
0.0
  0
LINE
  5
41F
  8
1
  6
CONTINUOUS
 62
     7
 10
70.2895247699993
 20
179.5133768936001
 30
0.0
 11
37.28952476999977
 21
179.5133768936001
 31
0.0
  0
LINE
  5
420
  8
1
  6
CONTINUOUS
 62
     7
 10
-41.46047523000054
 20
177.4633768935999
 30
0.0
 11
-41.46047523000054
 21
188.7983133840001
 31
0.0
  0
LINE
  5
421
  8
1
  6
CONTINUOUS
 62
     7
 10
36.28952476999944
 20
184.2133768935998
 30
0.0
 11
36.28952476999944
 21
180.5133768935999
 31
0.0
  0
LINE
  5
422
  8
1
  6
CONTINUOUS
 62
     7
 10
55.83952477000006
 20
271.4133768935994
 30
0.0
 11
54.83952476999973
 21
271.4133768935994
 31
0.0
  0
ARC
  5
423
  8
1
  6
CONTINUOUS
 62
     7
 10
14.53952476999951
 20
270.0633768935994
 30
0.0
 40
5.750000000000144
 50
180.0
 51
341.7572593047
  0
CIRCLE
  5
424
  8
1
  6
CONTINUOUS
 62
     7
 10
76.78952477000009
 20
267.7133768935996
 30
0.0
 40
4.000000000000004
  0
LINE
  5
425
  8
1
  6
CONTINUOUS
 62
     7
 10
52.73952476999929
 20
271.4133768935994
 30
0.0
 11
52.73952476999929
 21
272.4133768935998
 31
0.0
  0
LINE
  5
426
  8
1
  6
CENTER
 62
     3
 10
128.2895247699998
 20
184.2133768935998
 30
0.0
 11
-20.71047523000002
 21
184.2133768935998
 31
0.0
  0
LINE
  5
427
  8
1
  6
CENTER
 62
     3
 10
-20.71047523000005
 20
267.7133768935996
 30
0.0
 11
128.2895247699998
 21
267.7133768935996
 31
0.0
  0
ARC
  5
428
  8
1
  6
CONTINUOUS
 62
     7
 10
122.7895247699995
 20
267.7133768935996
 30
0.0
 40
5.50000000000006
 50
180.0
 51
0.0
  0
LINE
  5
429
  8
1
  6
CONTINUOUS
 62
     7
 10
128.2895247699998
 20
267.7133768935996
 30
0.0
 11
128.2895247699998
 21
271.4133768935994
 31
0.0
  0
LINE
  5
42A
  8
1
  6
CONTINUOUS
 62
     7
 10
20.28952476999943
 20
272.4133768935998
 30
0.0
 11
20.28952476999943
 21
266.9633768935997
 31
0.0
  0
LINE
  5
42B
  8
1
  6
CONTINUOUS
 62
     7
 10
146.4895247699993
 20
180.0133768935997
 30
0.0
 11
146.4895247699993
 21
271.9133768935997
 31
0.0
  0
LINE
  5
42C
  8
1
  6
CONTINUOUS
 62
     7
 10
20.28952476999943
 20
272.4133768935998
 30
0.0
 11
24.28952476999988
 21
272.4133768935998
 31
0.0
  0
LINE
  5
42D
  8
1
  6
CONTINUOUS
 62
     7
 10
116.0395243369997
 20
115.2024224563997
 30
0.0
 11
116.0395243369997
 21
115.5101147641995
 31
0.0
  0
LINE
  5
42E
  8
1
  6
CONTINUOUS
 62
     7
 10
95.6247627487995
 20
106.0101147707999
 30
0.0
 11
95.6247627487995
 21
105.5101147641997
 31
0.0
  0
LINE
  5
42F
  8
1
  6
CONTINUOUS
 62
     7
 10
82.2895247699997
 20
267.7133768935996
 30
0.0
 11
82.2895247699997
 21
271.4133768935994
 31
0.0
  0
LINE
  5
430
  8
1
  6
CONTINUOUS
 62
     7
 10
-21.71047523000039
 20
179.5133768936001
 30
0.0
 11
-38.41047523000054
 21
179.5133768936001
 31
0.0
  0
LINE
  5
431
  8
2
  6
CONTINUOUS
 62
     7
 10
95.03952477739969
 20
106.0101147752001
 30
0.0
 11
95.03952477739969
 21
105.5101147639999
 31
0.0
  0
CIRCLE
  5
432
  8
1
  6
CONTINUOUS
 62
     7
 10
14.53952476999951
 20
270.0633768935994
 30
0.0
 40
4.000000000000004
  0
LINE
  5
433
  8
1
  6
CONTINUOUS
 62
     7
 10
149.0395247699994
 20
177.4633768935999
 30
0.0
 11
149.0395247699994
 21
188.7983133840001
 31
0.0
  0
LINE
  5
434
  8
1
  6
CONTINUOUS
 62
     7
 10
82.2895247699997
 20
184.2133768935998
 30
0.0
 11
82.2895247699997
 21
180.5133768935999
 31
0.0
  0
LINE
  5
435
  8
1
  6
CONTINUOUS
 62
     7
 10
51.73952476999985
 20
272.4133768935998
 30
0.0
 11
51.73952476999985
 21
271.4133768935994
 31
0.0
  0
LINE
  5
436
  8
1
  6
CONTINUOUS
 62
     7
 10
145.9895247699995
 20
179.5133768936001
 30
0.0
 11
129.2895247699995
 21
179.5133768936001
 31
0.0
  0
LINE
  5
437
  8
1
  6
CONTINUOUS
 62
     7
 10
148.5395247699998
 20
176.9633768935998
 30
0.0
 11
-40.96047522999993
 21
176.9633768935998
 31
0.0
  0
LINE
  5
438
  8
1
  6
CONTINUOUS
 62
     7
 10
-5.710475230000372
 20
179.5133768936001
 30
0.0
 11
-8.710475230000487
 21
179.5133768936001
 31
0.0
  0
CIRCLE
  5
439
  8
1
  6
CONTINUOUS
 62
     7
 10
30.78952476999983
 20
267.7133768935996
 30
0.0
 40
4.000000000000004
  0
ARC
  5
43A
  8
1
  6
CONTINUOUS
 62
     7
 10
76.78952477000009
 20
184.2133768935998
 30
0.0
 40
5.50000000000006
 50
0.0
 51
180.0
  0
LINE
  5
43B
  8
1
  6
CONTINUOUS
 62
     7
 10
55.83952477000006
 20
272.4133768935998
 30
0.0
 11
55.83952477000006
 21
271.4133768935994
 31
0.0
  0
LINE
  5
43C
  8
1
  6
CONTINUOUS
 62
     7
 10
116.3395243369991
 20
115.2601147641997
 30
0.0
 11
116.3395243369991
 21
112.7601147641997
 31
0.0
  0
ARC
  5
43D
  8
1
  6
CONTINUOUS
 62
     7
 10
-38.41047523000054
 20
180.0133768935997
 30
0.0
 40
0.4999999999999449
 50
180.0
 51
270.0
  0
ARC
  5
43E
  8
1
  6
CONTINUOUS
 62
     7
 10
122.7895247699995
 20
184.2133768935998
 30
0.0
 40
5.50000000000006
 50
0.0
 51
180.0
  0
LINE
  5
43F
  8
1
  6
CONTINUOUS
 62
     7
 10
25.28952476999932
 20
184.2133768935998
 30
0.0
 11
25.28952476999932
 21
180.5133768935999
 31
0.0
  0
LINE
  5
440
  8
1
  6
CONTINUOUS
 62
     7
 10
-41.46047523000054
 20
274.4633768935998
 30
0.0
 11
-41.46047523000054
 21
263.128440403
 31
0.0
  0
CIRCLE
  5
441
  8
1
  6
CONTINUOUS
 62
     7
 10
-15.21047523000044
 20
184.2133768935998
 30
0.0
 40
4.000000000000004
  0
ARC
  5
442
  8
1
  6
CONTINUOUS
 62
     7
 10
-38.41047523000054
 20
271.9133768935996
 30
0.0
 40
0.4999999999999449
 50
90.0
 51
180.0
  0
LINE
  5
443
  8
1
  6
CONTINUOUS
 62
     7
 10
8.789524769999584
 20
271.4133768935994
 30
0.0
 11
8.789524769999584
 21
270.0633768935994
 31
0.0
  0
LINE
  5
444
  8
1
  6
CONTINUOUS
 62
     7
 10
115.0395243370003
 20
112.0101147641997
 30
0.0
 11
115.0395243370003
 21
115.5101147641995
 31
0.0
  0
ARC
  5
445
  8
1
  6
CONTINUOUS
 62
     7
 10
103.0395247773997
 20
109.5775996845997
 30
0.0
 40
1.000000000000112
 50
94.00000000009999
 51
180.0
  0
CIRCLE
  5
446
  8
1
  6
CONTINUOUS
 62
     7
 10
30.78952476999983
 20
184.2133768935998
 30
0.0
 40
4.000000000000004
  0
ARC
  5
447
  8
1
  6
CONTINUOUS
 62
     7
 10
152.0395247699997
 20
203.9633768935999
 30
0.0
 40
1.249999999999973
 50
90.0
 51
270.0
  0
LINE
  5
448
  8
1
  6
CONTINUOUS
 62
     7
 10
6.789524769999805
 20
180.5133768935999
 30
0.0
 11
6.789524769999805
 21
181.8633768935999
 31
0.0
  0
ARC
  5
449
  8
1
  6
CONTINUOUS
 62
     7
 10
-15.21047523000044
 20
184.2133768935998
 30
0.0
 40
5.50000000000006
 50
0.0
 51
180.0
  0
LINE
  5
44A
  8
1
  6
CONTINUOUS
 62
     7
 10
-41.46047523000054
 20
223.6342206959999
 30
0.0
 11
-41.46047523000054
 21
228.2925330911999
 31
0.0
  0
ARC
  5
44B
  8
1
  6
CONTINUOUS
 62
     7
 10
30.78952476999983
 20
267.7133768935996
 30
0.0
 40
5.50000000000006
 50
180.0
 51
0.0
  0
LINE
  5
44C
  8
1
  6
CONTINUOUS
 62
     7
 10
117.2895247699999
 20
184.2133768935998
 30
0.0
 11
117.2895247699999
 21
180.5133768935999
 31
0.0
  0
LINE
  5
44D
  8
1
  6
CONTINUOUS
 62
     7
 10
153.7895247700001
 20
246.7133768935997
 30
0.0
 11
152.0395247699997
 21
246.7133768935997
 31
0.0
  0
ARC
  5
44E
  8
1
  6
CONTINUOUS
 62
     7
 10
-44.21047523000035
 20
260.3210277627994
 30
0.0
 40
2.000000000000002
 50
105.0000000019
 51
180.0
  0
LINE
  5
44F
  8
1
  6
CONTINUOUS
 62
     7
 10
-46.21047523000013
 20
229.4633768936001
 30
0.0
 11
-46.21047523000013
 21
246.7133768935997
 31
0.0
  0
LINE
  5
450
  8
1
  6
CONTINUOUS
 62
     7
 10
87.28952476999969
 20
179.5133768936001
 30
0.0
 11
87.28952476999969
 21
184.9633768935998
 31
0.0
  0
ARC
  5
451
  8
1
  6
CONTINUOUS
 62
     7
 10
1.039524769999883
 20
181.8633768935999
 30
0.0
 40
5.750000000000144
 50
0.0
 51
180.0
  0
LINE
  5
452
  8
1
  6
CONTINUOUS
 62
     7
 10
147.7895247701996
 20
188.4633768935998
 30
0.0
 11
147.7895247699999
 21
263.4633768935998
 31
0.0
  0
LINE
  5
453
  8
1
  6
CONTINUOUS
 62
     7
 10
-40.2104752299999
 20
188.4633768935998
 30
0.0
 11
-40.2104752299999
 21
263.4633768935998
 31
0.0
  0
LINE
  5
454
  8
1
  6
CONTINUOUS
 62
     7
 10
-4.710475230000038
 20
180.5133768935999
 30
0.0
 11
-4.710475230000038
 21
181.8633768935999
 31
0.0
  0
ARC
  5
455
  8
1
  6
CONTINUOUS
 62
     7
 10
151.7895247699993
 20
260.3210277627994
 30
0.0
 40
2.000000000000002
 50
0.0
 51
74.9999999981
  0
LINE
  5
456
  8
1
  6
CONTINUOUS
 62
     7
 10
98.7895247699995
 20
180.5133768935999
 30
0.0
 11
98.7895247699995
 21
181.8633768935999
 31
0.0
  0
LINE
  5
457
  8
1
  6
CONTINUOUS
 62
     7
 10
-44.21047523000035
 20
246.7133768935997
 30
0.0
 11
-44.21047523000035
 21
231.4633768935997
 31
0.0
  0
ARC
  5
458
  8
1
  6
CONTINUOUS
 62
     7
 10
-45.71047523000041
 20
229.4633768936001
 30
0.0
 40
0.4999999999999449
 50
180.0
 51
270.0
  0
CIRCLE
  5
459
  8
1
  6
CONTINUOUS
 62
     7
 10
1.039524769999883
 20
181.8633768935999
 30
0.0
 40
4.000000000000004
  0
CIRCLE
  5
45A
  8
1
  6
CONTINUOUS
 62
     7
 10
106.5395247700001
 20
270.0633768935994
 30
0.0
 40
4.000000000000004
  0
LINE
  5
45B
  8
1
  6
CONTINUOUS
 62
     7
 10
113.2895247699995
 20
272.4133768935998
 30
0.0
 11
116.2895247699995
 21
272.4133768935998
 31
0.0
  0
LINE
  5
45C
  8
1
  6
CONTINUOUS
 62
     7
 10
-44.21047523000035
 20
262.3915801236
 30
0.0
 11
-44.21047523000035
 21
249.188121765
 31
0.0
  0
LINE
  5
45D
  8
1
  6
CONTINUOUS
 62
     7
 10
-20.71047523000005
 20
267.7133768935996
 30
0.0
 11
-20.71047523000005
 21
271.4133768935994
 31
0.0
  0
ARC
  5
45E
  8
1
  6
CONTINUOUS
 62
     7
 10
-44.46047523000067
 20
203.9633768935999
 30
0.0
 40
1.249999999999973
 50
270.0
 51
90.00000000019998
  0
LINE
  5
45F
  8
1
  6
CONTINUOUS
 62
     7
 10
-46.21047523000013
 20
231.4633768935997
 30
0.0
 11
-40.2104752299999
 21
231.4633768935997
 31
0.0
  0
LINE
  5
460
  8
1
  6
CONTINUOUS
 62
     7
 10
-44.46047523000067
 20
202.7133768935997
 30
0.0
 11
-46.21047523000013
 21
202.7133768935997
 31
0.0
  0
LINE
  5
461
  8
1
  6
CONTINUOUS
 62
     7
 10
-44.7281133202009
 20
189.6738743715997
 30
0.0
 11
-40.2104752299999
 21
188.4633768935998
 31
0.0
  0
LINE
  5
462
  8
1
  6
CONTINUOUS
 62
     7
 10
52.73952476999929
 20
180.5133768935999
 30
0.0
 11
52.73952476999929
 21
179.5133768936001
 31
0.0
  0
LINE
  5
463
  8
1
  6
CONTINUOUS
 62
     7
 10
54.83952476999973
 20
180.5133768935999
 30
0.0
 11
54.83952476999973
 21
179.5133768936001
 31
0.0
  0
CIRCLE
  5
464
  8
1
  6
CONTINUOUS
 62
     7
 10
93.03952476999949
 20
181.8633768935999
 30
0.0
 40
4.000000000000004
  0
LINE
  5
465
  8
1
  6
CONTINUOUS
 62
     7
 10
151.7895247699993
 20
262.3915801236
 30
0.0
 11
151.7895247699993
 21
249.188121765
 31
0.0
  0
LINE
  5
466
  8
1
  6
CONTINUOUS
 62
     7
 10
-44.21047523000035
 20
205.2133768935997
 30
0.0
 11
-44.21047523000035
 21
220.4633768935997
 31
0.0
  0
LINE
  5
467
  8
1
  6
CONTINUOUS
 62
     7
 10
151.7895247699993
 20
246.7133768935997
 30
0.0
 11
151.7895247699993
 21
231.4633768935997
 31
0.0
  0
LINE
  5
468
  8
1
  6
CONTINUOUS
 62
     7
 10
-9.710475229999933
 20
184.2133768935998
 30
0.0
 11
-9.710475229999933
 21
180.5133768935999
 31
0.0
  0
LINE
  5
469
  8
1
  6
CONTINUOUS
 62
     7
 10
-46.21047523000013
 20
222.4633768935999
 30
0.0
 11
-46.21047523000013
 21
205.2133768935997
 31
0.0
  0
ARC
  5
46A
  8
1
  6
CONTINUOUS
 62
     7
 10
-44.21047523000035
 20
191.6057260241998
 30
0.0
 40
2.000000000000002
 50
180.0
 51
254.9999999981
  0
LINE
  5
46B
  8
1
  6
CONTINUOUS
 62
     7
 10
-46.21047523000013
 20
191.6057260241998
 30
0.0
 11
-46.21047523000013
 21
202.7133768935997
 31
0.0
  0
ARC
  5
46C
  8
1
  6
CONTINUOUS
 62
     7
 10
-42.71047523000029
 20
227.4633768935997
 30
0.0
 40
1.500000000000057
 50
359.9999776927
 51
90.0
  0
LINE
  5
46D
  8
1
  6
CONTINUOUS
 62
     7
 10
153.7895247700001
 20
229.4633768936001
 30
0.0
 11
153.7895247700001
 21
246.7133768935997
 31
0.0
  0
LINE
  5
46E
  8
1
  6
CONTINUOUS
 62
     7
 10
-46.21047523000013
 20
260.321026628
 30
0.0
 11
-46.21047523000013
 21
249.2133768935997
 31
0.0
  0
LINE
  5
46F
  8
1
  6
CONTINUOUS
 62
     7
 10
153.7895247700001
 20
260.3210277627994
 30
0.0
 11
153.7895247700001
 21
249.2133768935997
 31
0.0
  0
ARC
  5
470
  8
1
  6
CONTINUOUS
 62
     7
 10
76.78952477000009
 20
267.7133768935996
 30
0.0
 40
5.50000000000006
 50
180.0
 51
0.0
  0
LINE
  5
471
  8
1
  6
CONTINUOUS
 62
     7
 10
100.7895247700001
 20
271.4133768935994
 30
0.0
 11
100.7895247700001
 21
270.0633768935994
 31
0.0
  0
LINE
  5
472
  8
1
  6
CONTINUOUS
 62
     7
 10
-40.96047522999991
 20
274.9633768935997
 30
0.0
 11
148.5395247699999
 21
274.9633768935997
 31
0.0
  0
LINE
  5
473
  8
1
  6
CONTINUOUS
 62
     7
 10
-45.71047523000041
 20
222.9633768935997
 30
0.0
 11
-42.71047523000029
 21
222.9633768935997
 31
0.0
  0
LINE
  5
474
  8
1
  6
CONTINUOUS
 62
     7
 10
153.7895247700001
 20
231.4633768935997
 30
0.0
 11
147.7895247699999
 21
231.4633768935997
 31
0.0
  0
ARC
  5
475
  8
1
  6
CONTINUOUS
 62
     7
 10
150.2895247699993
 20
227.4633768935997
 30
0.0
 40
1.500000000000057
 50
90.0
 51
180.0000223073
  0
ARC
  5
476
  8
1
  6
CONTINUOUS
 62
     7
 10
153.2895247699995
 20
229.4633768936001
 30
0.0
 40
0.4999999999999449
 50
270.0
 51
0.0
  0
LINE
  5
477
  8
1
  6
CONTINUOUS
 62
     7
 10
128.2895247699998
 20
184.2133768935998
 30
0.0
 11
128.2895247699998
 21
180.5133768935999
 31
0.0
  0
LINE
  5
478
  8
1
  6
CONTINUOUS
 62
     7
 10
152.0395247699997
 20
249.2133768935997
 30
0.0
 11
153.7895247700001
 21
249.2133768935997
 31
0.0
  0
CIRCLE
  5
479
  8
1
  6
CONTINUOUS
 62
     7
 10
122.7895247699995
 20
184.2133768935998
 30
0.0
 40
4.000000000000004
  0
LINE
  5
47A
  8
1
  6
CONTINUOUS
 62
     7
 10
152.3071628603997
 20
262.2528794153998
 30
0.0
 11
147.7895247699999
 21
263.4633768935997
 31
0.0
  0
LINE
  5
47B
  8
1
  6
CONTINUOUS
 62
     7
 10
153.2895247699995
 20
228.9633768935998
 30
0.0
 11
150.2895247699993
 21
228.9633768935998
 31
0.0
  0
LINE
  5
47C
  8
1
  6
CONTINUOUS
 62
     7
 10
51.73952476999985
 20
180.5133768935999
 30
0.0
 11
52.73952476999929
 21
180.5133768935999
 31
0.0
  0
LINE
  5
47D
  8
1
  6
CONTINUOUS
 62
     7
 10
149.0395247699994
 20
223.6342206959999
 30
0.0
 11
149.0395247699994
 21
228.2925330911999
 31
0.0
  0
LINE
  5
47E
  8
1
  6
CONTINUOUS
 62
     7
 10
51.73952476999985
 20
179.5133768936001
 30
0.0
 11
51.73952476999985
 21
180.5133768935999
 31
0.0
  0
LINE
  5
47F
  8
1
  6
CONTINUOUS
 62
     7
 10
149.0395247699994
 20
274.4633768935998
 30
0.0
 11
149.0395247699994
 21
263.128440403
 31
0.0
  0
LINE
  5
480
  8
1
  6
CONTINUOUS
 62
     7
 10
-44.21047523000035
 20
189.5351736634001
 30
0.0
 11
-44.21047523000035
 21
202.7386320221997
 31
0.0
  0
ARC
  5
481
  8
1
  6
CONTINUOUS
 62
     7
 10
-45.71047523000041
 20
222.4633768935999
 30
0.0
 40
0.4999999999999449
 50
90.0
 51
180.0
  0
LINE
  5
482
  8
1
  6
CONTINUOUS
 62
     7
 10
-44.46047523000067
 20
249.2133768935997
 30
0.0
 11
-46.21047523000013
 21
249.2133768935997
 31
0.0
  0
ARC
  5
483
  8
1
  6
CONTINUOUS
 62
     7
 10
93.03952476999949
 20
181.8633768935999
 30
0.0
 40
5.750000000000144
 50
0.0
 51
161.7572593047
  0
LINE
  5
484
  8
1
  6
CONTINUOUS
 62
     7
 10
-46.21047523000013
 20
205.2133768935997
 30
0.0
 11
-44.46047523000067
 21
205.2133768935997
 31
0.0
  0
ARC
  5
485
  8
1
  6
CONTINUOUS
 62
     7
 10
152.0395247699997
 20
247.9633768935998
 30
0.0
 40
1.249999999999973
 50
90.0
 51
270.0
  0
ARC
  5
486
  8
1
  6
CONTINUOUS
 62
     7
 10
-44.46047523000067
 20
247.9633768935998
 30
0.0
 40
1.249999999999973
 50
270.0
 51
90.0
  0
LINE
  5
487
  8
1
  6
CONTINUOUS
 62
     7
 10
55.83952477000006
 20
179.5133768936001
 30
0.0
 11
55.83952477000006
 21
180.5133768935999
 31
0.0
  0
ARC
  5
488
  8
1
  6
CONTINUOUS
 62
     7
 10
24.28952476999988
 20
180.5133768935999
 30
0.0
 40
1.000000000000112
 50
270.0
 51
0.0
  0
ARC
  5
489
  8
1
  6
CONTINUOUS
 62
     7
 10
-42.71047523000029
 20
224.4633768935997
 30
0.0
 40
1.500000000000057
 50
270.0
 51
0.0000223073000143
  0
LINE
  5
48A
  8
1
  6
CONTINUOUS
 62
     7
 10
-4.60752752660068
 20
242.9633768935997
 30
0.0
 11
-5.641525686800125
 21
243.2114572761997
 31
0.0
  0
ARC
  5
48B
  8
1
  6
CONTINUOUS
 62
     7
 10
116.2895247699995
 20
271.4133768935994
 30
0.0
 40
1.000000000000112
 50
0.0
 51
90.0
  0
LINE
  5
48C
  8
1
  6
CENTER
 62
     3
 10
76.78952477000009
 20
274.9633768935997
 30
0.0
 11
76.78952477000009
 21
176.9633768935996
 31
0.0
  0
LINE
  5
48D
  8
1
  6
CONTINUOUS
 62
     7
 10
151.7895247699993
 20
205.2133768935997
 30
0.0
 11
151.7895247699993
 21
220.4633768935997
 31
0.0
  0
LINE
  5
48E
  8
1
  6
CONTINUOUS
 62
     7
 10
153.7895247700001
 20
220.4633768935997
 30
0.0
 11
147.7895247699999
 21
220.4633768935997
 31
0.0
  0
LINE
  5
48F
  8
1
  6
CENTER
 62
     3
 10
-26.52301446559993
 20
209.9633768935998
 30
0.0
 11
133.8648916372001
 21
209.9633768935998
 31
0.0
  0
LINE
  5
490
  8
1
  6
CONTINUOUS
 62
     7
 10
-44.7281133202009
 20
262.2528794153998
 30
0.0
 11
-40.2104752299999
 21
263.4633768935997
 31
0.0
  0
LINE
  5
491
  8
1
  6
CONTINUOUS
 62
     7
 10
55.83952477000006
 20
180.5133768935999
 30
0.0
 11
54.83952476999973
 21
180.5133768935999
 31
0.0
  0
LINE
  5
492
  8
1
  6
CONTINUOUS
 62
     7
 10
-11.71047522820028
 20
243.0633768932
 30
0.0
 11
-18.71047522820082
 21
243.0633768932
 31
0.0
  0
ARC
  5
493
  8
1
  6
CONTINUOUS
 62
     7
 10
-18.71047522820082
 20
241.3633768931997
 30
0.0
 40
0.4999999999999449
 50
180.0
 51
270.0
  0
ARC
  5
494
  8
1
  6
CONTINUOUS
 62
     7
 10
-15.21047523000044
 20
241.9633768935997
 30
0.0
 40
9.649999999999936
 50
187.4311520359
 51
352.5688479641
  0
LINE
  5
495
  8
1
  6
CONTINUOUS
 62
     7
 10
-41.21047523000023
 20
227.4633763095998
 30
0.0
 11
-41.21047523000023
 21
224.4633774776001
 31
0.0
  0
ARC
  5
496
  8
1
  6
CONTINUOUS
 62
     7
 10
-5.710475230000372
 20
180.5133768935999
 30
0.0
 40
1.000000000000112
 50
270.0
 51
0.0
  0
ARC
  5
497
  8
1
  6
CONTINUOUS
 62
     7
 10
129.2895247699995
 20
271.4133768935994
 30
0.0
 40
1.000000000000112
 50
90.0
 51
180.0
  0
LINE
  5
498
  8
1
  6
CONTINUOUS
 62
     7
 10
153.7895247700001
 20
222.4633768935999
 30
0.0
 11
153.7895247700001
 21
205.2133768935997
 31
0.0
  0
LINE
  5
499
  8
1
  6
CONTINUOUS
 62
     7
 10
-19.21047522820055
 20
209.3633768931997
 30
0.0
 11
-19.21047522820055
 21
210.5633768931999
 31
0.0
  0
ARC
  5
49A
  8
1
  6
CONTINUOUS
 62
     7
 10
37.28952476999977
 20
271.4133768935994
 30
0.0
 40
1.000000000000112
 50
90.0
 51
180.0
  0
ARC
  5
49B
  8
1
  6
CONTINUOUS
 62
     7
 10
113.2895247699995
 20
271.4133768935994
 30
0.0
 40
1.000000000000112
 50
90.0
 51
180.0
  0
LINE
  5
49C
  8
1
  6
CONTINUOUS
 62
     7
 10
-46.21047523000013
 20
220.4633768935997
 30
0.0
 11
-40.2104752299999
 21
220.4633768935997
 31
0.0
  0
LINE
  5
49D
  8
1
  6
CONTINUOUS
 62
     7
 10
36.28952476999944
 20
271.4133768935994
 30
0.0
 11
36.28952476999944
 21
267.7133768935996
 31
0.0
  0
LINE
  5
49E
  8
1
  6
CONTINUOUS
 62
     7
 10
112.2895247699999
 20
271.4133768935994
 30
0.0
 11
112.2895247699999
 21
270.0633768935994
 31
0.0
  0
ARC
  5
49F
  8
1
  6
CONTINUOUS
 62
     7
 10
153.2895247699995
 20
222.4633768935999
 30
0.0
 40
0.4999999999999449
 50
0.0
 51
90.0
  0
ARC
  5
4A0
  8
1
  6
CONTINUOUS
 62
     7
 10
-21.71047523000039
 20
180.5133768935999
 30
0.0
 40
1.000000000000112
 50
270.0
 51
0.0
  0
ARC
  5
4A1
  8
1
  6
CONTINUOUS
 62
     7
 10
24.28952476999988
 20
271.4133768935994
 30
0.0
 40
1.000000000000112
 50
0.0
 51
90.0
  0
LINE
  5
4A2
  8
1
  6
CONTINUOUS
 62
     7
 10
153.2895247699995
 20
222.9633768935997
 30
0.0
 11
150.2895247699993
 21
222.9633768935997
 31
0.0
  0
LINE
  5
4A3
  8
1
  6
CENTER
 62
     3
 10
30.78952476999983
 20
274.9633768935997
 30
0.0
 11
30.78952476999983
 21
176.9633768935996
 31
0.0
  0
ARC
  5
4A4
  8
1
  6
CONTINUOUS
 62
     7
 10
-11.71047522820028
 20
242.5633768931999
 30
0.0
 40
0.4999999999999449
 50
0.0
 51
90.0
  0
LINE
  5
4A5
  8
1
  6
CONTINUOUS
 62
     7
 10
-45.71047523000041
 20
228.9633768935998
 30
0.0
 11
-42.71047523000029
 21
228.9633768935998
 31
0.0
  0
ARC
  5
4A6
  8
1
  6
CONTINUOUS
 62
     7
 10
83.2895247700001
 20
271.4133768935994
 30
0.0
 40
1.000000000000112
 50
90.0
 51
180.0
  0
LINE
  5
4A7
  8
1
  6
CONTINUOUS
 62
     7
 10
-11.71047522820028
 20
240.8633768931995
 30
0.0
 11
-18.71047522820082
 21
240.8633768931995
 31
0.0
  0
LINE
  5
4A8
  8
1
  6
CONTINUOUS
 62
     7
 10
-11.21047522820054
 20
241.3633768931997
 30
0.0
 11
-11.21047522820054
 21
242.5633768931999
 31
0.0
  0
LINE
  5
4A9
  8
1
  6
CONTINUOUS
 62
     7
 10
-19.21047522820055
 20
241.3633768931997
 30
0.0
 11
-19.21047522820055
 21
242.5633768931999
 31
0.0
  0
ARC
  5
4AA
  8
1
  6
CONTINUOUS
 62
     7
 10
-8.710475230000487
 20
180.5133768935999
 30
0.0
 40
1.000000000000112
 50
180.0
 51
270.0
  0
LINE
  5
4AB
  8
1
  6
CONTINUOUS
 62
     7
 10
153.7895247700001
 20
205.2133768935997
 30
0.0
 11
152.0395247699997
 21
205.2133768935997
 31
0.0
  0
ARC
  5
4AC
  8
1
  6
CONTINUOUS
 62
     7
 10
-15.21047523000044
 20
241.9633768935997
 30
0.0
 40
9.649999999999936
 50
7.4311520359
 51
172.5688479641
  0
ARC
  5
4AD
  8
1
  6
CONTINUOUS
 62
     7
 10
-21.71047523000039
 20
271.4133768935994
 30
0.0
 40
1.000000000000112
 50
0.0
 51
90.0
  0
ARC
  5
4AE
  8
1
  6
CONTINUOUS
 62
     7
 10
37.28952476999977
 20
180.5133768935999
 30
0.0
 40
1.000000000000112
 50
180.0
 51
270.0
  0
LINE
  5
4AF
  8
1
  6
CONTINUOUS
 62
     7
 10
-25.81342293320035
 20
242.9633768935997
 30
0.0
 11
-24.77942477300002
 21
243.2114572761997
 31
0.0
  0
ARC
  5
4B0
  8
1
  6
CONTINUOUS
 62
     7
 10
150.2895247699993
 20
224.4633768935997
 30
0.0
 40
1.500000000000057
 50
179.9999776927
 51
270.0
  0
LINE
  5
4B1
  8
1
  6
CENTER
 62
     3
 10
7.789524769999251
 20
274.9633768935997
 30
0.0
 11
7.789524769999251
 21
176.9633768935996
 31
0.0
  0
ARC
  5
4B2
  8
1
  6
CONTINUOUS
 62
     7
 10
129.2895247699995
 20
180.5133768935999
 30
0.0
 40
1.000000000000112
 50
180.0
 51
270.0
  0
ARC
  5
4B3
  8
1
  6
CONTINUOUS
 62
     7
 10
-18.71047522820082
 20
242.5633768931999
 30
0.0
 40
0.4999999999999449
 50
90.0
 51
180.0
  0
LINE
  5
4B4
  8
1
  6
CONTINUOUS
 62
     7
 10
-4.60752752660068
 20
240.9633768935998
 30
0.0
 11
-5.641525686800125
 21
240.7152965109996
 31
0.0
  0
ARC
  5
4B5
  8
1
  6
CONTINUOUS
 62
     7
 10
116.2895247699995
 20
180.5133768935999
 30
0.0
 40
1.000000000000112
 50
270.0
 51
0.0
  0
LINE
  5
4B6
  8
1
  6
CENTER
 62
     3
 10
-15.21047523000044
 20
274.9633768935997
 30
0.0
 11
-15.21047523000044
 21
176.9633768935996
 31
0.0
  0
ARC
  5
4B7
  8
1
  6
CONTINUOUS
 62
     7
 10
151.7895247699993
 20
191.6057260241998
 30
0.0
 40
2.000000000000002
 50
285.0000000019
 51
0.0
  0
ARC
  5
4B8
  8
1
  6
CONTINUOUS
 62
     7
 10
-11.71047522820028
 20
241.3633768931997
 30
0.0
 40
0.4999999999999449
 50
270.0
 51
0.0
  0
LINE
  5
4B9
  8
1
  6
CONTINUOUS
 62
     7
 10
152.0395247699997
 20
202.7133768935997
 30
0.0
 11
153.7895247700001
 21
202.7133768935997
 31
0.0
  0
LINE
  5
4BA
  8
1
  6
CENTER
 62
     3
 10
-26.52301446559993
 20
241.9633768935997
 30
0.0
 11
133.8648916372001
 21
241.9633768935997
 31
0.0
  0
ARC
  5
4BB
  8
1
  6
CONTINUOUS
 62
     7
 10
83.2895247700001
 20
180.5133768935999
 30
0.0
 40
1.000000000000112
 50
180.0
 51
270.0
  0
ARC
  5
4BC
  8
1
  6
CONTINUOUS
 62
     7
 10
106.5395247700001
 20
270.0633768935994
 30
0.0
 40
5.750000000000144
 50
180.0
 51
0.0
  0
ARC
  5
4BD
  8
1
  6
CONTINUOUS
 62
     7
 10
70.2895247699993
 20
271.4133768935994
 30
0.0
 40
1.000000000000112
 50
0.0
 51
90.0
  0
LINE
  5
4BE
  8
1
  6
CENTER
 62
     3
 10
153.7895247700001
 20
225.9633768935997
 30
0.0
 11
-46.2104752300001
 21
225.9633768935997
 31
0.0
  0
LINE
  5
4BF
  8
1
  6
CENTER
 62
     3
 10
122.7895247699995
 20
274.9633768935997
 30
0.0
 11
122.7895247699995
 21
176.9633768935996
 31
0.0
  0
ARC
  5
4C0
  8
1
  6
CONTINUOUS
 62
     7
 10
-40.96047522999991
 20
274.4633768935998
 30
0.0
 40
0.4999999999999449
 50
90.0
 51
180.0
  0
LINE
  5
4C1
  8
1
  6
CONTINUOUS
 62
     7
 10
148.7895247699993
 20
227.4633763095998
 30
0.0
 11
148.7895247702
 21
224.4633774776001
 31
0.0
  0
ARC
  5
4C2
  8
1
  6
CONTINUOUS
 62
     7
 10
-40.96047522999991
 20
177.4633768935999
 30
0.0
 40
0.4999999999999449
 50
180.0
 51
270.0
  0
ARC
  5
4C3
  8
1
  6
CONTINUOUS
 62
     7
 10
-15.21047523000044
 20
241.9633768935997
 30
0.0
 40
10.65000000000005
 50
185.3878223067
 51
354.6121776932999
  0
LINE
  5
4C4
  8
1
  6
CONTINUOUS
 62
     7
 10
-46.21047523000013
 20
246.7133768935997
 30
0.0
 11
-44.46047523000067
 21
246.7133768935997
 31
0.0
  0
ARC
  5
4C5
  8
1
  6
CONTINUOUS
 62
     7
 10
70.2895247699993
 20
180.5133768935999
 30
0.0
 40
1.000000000000112
 50
270.0
 51
0.0
  0
ARC
  5
4C6
  8
1
  6
CONTINUOUS
 62
     7
 10
-8.710475230000487
 20
271.4133768935994
 30
0.0
 40
1.000000000000112
 50
90.0
 51
180.0
  0
LINE
  5
4C7
  8
1
  6
CONTINUOUS
 62
     7
 10
72.78952477179989
 20
241.3633768931997
 30
0.0
 11
72.78952477179989
 21
242.5633768931999
 31
0.0
  0
ARC
  5
4C8
  8
1
  6
CONTINUOUS
 62
     7
 10
76.78952477000009
 20
209.9633768935998
 30
0.0
 40
10.65000000000005
 50
185.3878223067
 51
354.6121776932999
  0
ARC
  5
4C9
  8
1
  6
CONTINUOUS
 62
     7
 10
148.5395247699998
 20
274.4633768935998
 30
0.0
 40
0.4999999999999449
 50
0.0
 51
90.0
  0
ARC
  5
4CA
  8
1
  6
CONTINUOUS
 62
     7
 10
148.5395247699998
 20
177.4633768935999
 30
0.0
 40
0.4999999999999449
 50
270.0
 51
0.0
  0
LINE
  5
4CB
  8
1
  6
CONTINUOUS
 62
     7
 10
-11.71047522820028
 20
211.0633768932
 30
0.0
 11
-18.71047522820082
 21
211.0633768932
 31
0.0
  0
ARC
  5
4CC
  8
1
  6
CONTINUOUS
 62
     7
 10
-15.21047523000044
 20
209.9633768935998
 30
0.0
 40
10.65000000000005
 50
185.3878223067
 51
354.6121776932999
  0
ARC
  5
4CD
  8
1
  6
CONTINUOUS
 62
     7
 10
-18.71047522820082
 20
209.3633768931997
 30
0.0
 40
0.4999999999999449
 50
180.0
 51
270.0
  0
LINE
  5
4CE
  8
1
  6
CONTINUOUS
 62
     7
 10
66.18657706680011
 20
242.9633768935997
 30
0.0
 11
67.2205752269997
 21
243.2114572761997
 31
0.0
  0
ARC
  5
4CF
  8
1
  6
CONTINUOUS
 62
     7
 10
73.2895247717997
 20
209.3633768931997
 30
0.0
 40
0.4999999999999449
 50
180.0
 51
270.0
  0
ARC
  5
4D0
  8
1
  6
CONTINUOUS
 62
     7
 10
30.78952476999983
 20
241.9633768935997
 30
0.0
 40
10.65000000000005
 50
185.3878223067
 51
354.6121776932999
  0
ARC
  5
4D1
  8
1
  6
CONTINUOUS
 62
     7
 10
30.78952476999983
 20
241.9633768935997
 30
0.0
 40
9.649999999999936
 50
7.4311520359
 51
172.5688479641
  0
ARC
  5
4D2
  8
1
  6
CONTINUOUS
 62
     7
 10
76.78952477000009
 20
241.9633768935997
 30
0.0
 40
9.649999999999936
 50
187.4311520359
 51
352.5688479641
  0
ARC
  5
4D3
  8
1
  6
CONTINUOUS
 62
     7
 10
80.2895247717993
 20
209.3633768931997
 30
0.0
 40
0.4999999999999449
 50
270.0
 51
0.0
  0
ARC
  5
4D4
  8
1
  6
CONTINUOUS
 62
     7
 10
80.2895247717993
 20
241.3633768931997
 30
0.0
 40
0.4999999999999449
 50
270.0
 51
0.0
  0
ARC
  5
4D5
  8
1
  6
CONTINUOUS
 62
     7
 10
76.78952477000009
 20
209.9633768935998
 30
0.0
 40
9.649999999999936
 50
187.4311520359
 51
352.5688479641
  0
LINE
  5
4D6
  8
1
  6
CONTINUOUS
 62
     7
 10
26.78952477179972
 20
241.3633768931997
 30
0.0
 11
26.78952477179972
 21
242.5633768931999
 31
0.0
  0
ARC
  5
4D7
  8
1
  6
CONTINUOUS
 62
     7
 10
-15.21047523000044
 20
209.9633768935998
 30
0.0
 40
9.649999999999936
 50
7.4311520359
 51
172.5688479641
  0
ARC
  5
4D8
  8
1
  6
CONTINUOUS
 62
     7
 10
-11.71047522820028
 20
210.5633768931999
 30
0.0
 40
0.4999999999999449
 50
0.0
 51
90.0
  0
LINE
  5
4D9
  8
1
  6
CONTINUOUS
 62
     7
 10
87.39247247339988
 20
210.9633768935995
 30
0.0
 11
86.35847431319951
 21
211.2114572762001
 31
0.0
  0
LINE
  5
4DA
  8
1
  6
CONTINUOUS
 62
     7
 10
152.3071628603997
 20
189.6738743715997
 30
0.0
 11
147.7895247699999
 21
188.4633768935998
 31
0.0
  0
ARC
  5
4DB
  8
1
  6
CONTINUOUS
 62
     7
 10
73.2895247717997
 20
241.3633768931997
 30
0.0
 40
0.4999999999999449
 50
180.0
 51
270.0
  0
LINE
  5
4DC
  8
1
  6
CONTINUOUS
 62
     7
 10
80.7895247717999
 20
241.3633768931997
 30
0.0
 11
80.7895247717999
 21
242.5633768931999
 31
0.0
  0
ARC
  5
4DD
  8
1
  6
CONTINUOUS
 62
     7
 10
34.2895247718
 20
242.5633768931999
 30
0.0
 40
0.4999999999999449
 50
0.0
 51
90.0
  0
ARC
  5
4DE
  8
1
  6
CONTINUOUS
 62
     7
 10
30.78952476999983
 20
241.9633768935997
 30
0.0
 40
10.65000000000005
 50
5.3878223067
 51
174.6121776933001
  0
LINE
  5
4DF
  8
1
  6
CONTINUOUS
 62
     7
 10
20.18657706679991
 20
240.9633768935998
 30
0.0
 11
21.22057522700024
 21
240.7152965109996
 31
0.0
  0
ARC
  5
4E0
  8
1
  6
CONTINUOUS
 62
     7
 10
76.78952477000009
 20
241.9633768935997
 30
0.0
 40
10.65000000000005
 50
185.3878223067
 51
354.6121776932999
  0
LINE
  5
4E1
  8
1
  6
CONTINUOUS
 62
     7
 10
80.2895247717993
 20
240.8633768931995
 30
0.0
 11
73.2895247717997
 21
240.8633768931995
 31
0.0
  0
ARC
  5
4E2
  8
1
  6
CONTINUOUS
 62
     7
 10
73.2895247717997
 20
242.5633768931999
 30
0.0
 40
0.4999999999999449
 50
90.0
 51
180.0
  0
LINE
  5
4E3
  8
1
  6
CONTINUOUS
 62
     7
 10
-11.21047522820054
 20
209.3633768931997
 30
0.0
 11
-11.21047522820054
 21
210.5633768931999
 31
0.0
  0
LINE
  5
4E4
  8
1
  6
CONTINUOUS
 62
     7
 10
72.78952477179989
 20
209.3633768931997
 30
0.0
 11
72.78952477179989
 21
210.5633768931999
 31
0.0
  0
LINE
  5
4E5
  8
1
  6
CONTINUOUS
 62
     7
 10
41.39247247339958
 20
242.9633768935997
 30
0.0
 11
40.35847431319925
 21
243.2114572761997
 31
0.0
  0
LINE
  5
4E6
  8
1
  6
CONTINUOUS
 62
     7
 10
80.2895247717993
 20
211.0633768932
 30
0.0
 11
73.2895247717997
 21
211.0633768932
 31
0.0
  0
ARC
  5
4E7
  8
1
  6
CONTINUOUS
 62
     7
 10
30.78952476999983
 20
241.9633768935997
 30
0.0
 40
9.649999999999936
 50
187.4311520359
 51
352.5688479641
  0
ARC
  5
4E8
  8
1
  6
CONTINUOUS
 62
     7
 10
-15.21047523000044
 20
209.9633768935998
 30
0.0
 40
10.65000000000005
 50
5.3878223067
 51
174.6121776933001
  0
LINE
  5
4E9
  8
1
  6
CONTINUOUS
 62
     7
 10
87.39247247339988
 20
242.9633768935997
 30
0.0
 11
86.35847431319951
 21
243.2114572761997
 31
0.0
  0
ARC
  5
4EA
  8
1
  6
CONTINUOUS
 62
     7
 10
76.78952477000009
 20
209.9633768935998
 30
0.0
 40
10.65000000000005
 50
5.3878223067
 51
174.6121776933001
  0
LINE
  5
4EB
  8
1
  6
CONTINUOUS
 62
     7
 10
153.7895247700001
 20
191.6057271589999
 30
0.0
 11
153.7895247700001
 21
202.7133768935997
 31
0.0
  0
LINE
  5
4EC
  8
1
  6
CONTINUOUS
 62
     7
 10
34.2895247718
 20
240.8633768931995
 30
0.0
 11
27.28952477179944
 21
240.8633768931995
 31
0.0
  0
LINE
  5
4ED
  8
1
  6
CONTINUOUS
 62
     7
 10
-4.60752752660068
 20
210.9633768935995
 30
0.0
 11
-5.641525686800125
 21
211.2114572762001
 31
0.0
  0
LINE
  5
4EE
  8
1
  6
CONTINUOUS
 62
     7
 10
-4.60752752660068
 20
208.9633768935998
 30
0.0
 11
-5.641525686800125
 21
208.7152965109997
 31
0.0
  0
LINE
  5
4EF
  8
1
  6
CONTINUOUS
 62
     7
 10
34.2895247718
 20
243.0633768932
 30
0.0
 11
27.28952477179944
 21
243.0633768932
 31
0.0
  0
LINE
  5
4F0
  8
1
  6
CONTINUOUS
 62
     7
 10
151.7895247699993
 20
189.5351736634001
 30
0.0
 11
151.7895247699993
 21
202.7386320221997
 31
0.0
  0
LINE
  5
4F1
  8
1
  6
CONTINUOUS
 62
     7
 10
20.18657706679991
 20
242.9633768935997
 30
0.0
 11
21.22057522700024
 21
243.2114572761997
 31
0.0
  0
ARC
  5
4F2
  8
1
  6
CONTINUOUS
 62
     7
 10
-18.71047522820082
 20
210.5633768931999
 30
0.0
 40
0.4999999999999449
 50
90.0
 51
180.0
  0
LINE
  5
4F3
  8
1
  6
CONTINUOUS
 62
     7
 10
66.18657706680011
 20
208.9633768935998
 30
0.0
 11
67.2205752269997
 21
208.7152965109997
 31
0.0
  0
ARC
  5
4F4
  8
1
  6
CONTINUOUS
 62
     7
 10
80.2895247717993
 20
210.5633768931999
 30
0.0
 40
0.4999999999999449
 50
0.0
 51
90.0
  0
LINE
  5
4F5
  8
1
  6
CONTINUOUS
 62
     7
 10
87.39247247339988
 20
208.9633768935998
 30
0.0
 11
86.35847431319951
 21
208.7152965109997
 31
0.0
  0
ARC
  5
4F6
  8
1
  6
CONTINUOUS
 62
     7
 10
-15.21047523000044
 20
209.9633768935998
 30
0.0
 40
9.649999999999936
 50
187.4311520359
 51
352.5688479641
  0
LINE
  5
4F7
  8
1
  6
CONTINUOUS
 62
     7
 10
26.78952477179972
 20
209.3633768931997
 30
0.0
 11
26.78952477179972
 21
210.5633768931999
 31
0.0
  0
ARC
  5
4F8
  8
1
  6
CONTINUOUS
 62
     7
 10
34.2895247718
 20
241.3633768931997
 30
0.0
 40
0.4999999999999449
 50
270.0
 51
0.0
  0
LINE
  5
4F9
  8
1
  6
CONTINUOUS
 62
     7
 10
34.78952477179972
 20
209.3633768931997
 30
0.0
 11
34.78952477179972
 21
210.5633768931999
 31
0.0
  0
LINE
  5
4FA
  8
1
  6
CONTINUOUS
 62
     7
 10
-25.81342293320035
 20
240.9633768935998
 30
0.0
 11
-24.77942477300002
 21
240.7152965109996
 31
0.0
  0
LINE
  5
4FB
  8
1
  6
CONTINUOUS
 62
     7
 10
-25.81342293320035
 20
208.9633768935998
 30
0.0
 11
-24.77942477300002
 21
208.7152965109997
 31
0.0
  0
LINE
  5
4FC
  8
1
  6
CONTINUOUS
 62
     7
 10
-11.71047522820028
 20
208.8633768931999
 30
0.0
 11
-18.71047522820082
 21
208.8633768931999
 31
0.0
  0
ARC
  5
4FD
  8
1
  6
CONTINUOUS
 62
     7
 10
76.78952477000009
 20
209.9633768935998
 30
0.0
 40
9.649999999999936
 50
7.4311520359
 51
172.5688479641
  0
LINE
  5
4FE
  8
1
  6
CONTINUOUS
 62
     7
 10
34.2895247718
 20
211.0633768932
 30
0.0
 11
27.28952477179944
 21
211.0633768932
 31
0.0
  0
LINE
  5
4FF
  8
1
  6
CONTINUOUS
 62
     7
 10
80.7895247717999
 20
209.3633768931997
 30
0.0
 11
80.7895247717999
 21
210.5633768931999
 31
0.0
  0
ARC
  5
500
  8
1
  6
CONTINUOUS
 62
     7
 10
27.28952477179944
 20
210.5633768931999
 30
0.0
 40
0.4999999999999449
 50
90.0
 51
180.0
  0
ARC
  5
501
  8
1
  6
CONTINUOUS
 62
     7
 10
76.78952477000009
 20
241.9633768935997
 30
0.0
 40
9.649999999999936
 50
7.4311520359
 51
172.5688479641
  0
ARC
  5
502
  8
1
  6
CONTINUOUS
 62
     7
 10
-11.71047522820028
 20
209.3633768931997
 30
0.0
 40
0.4999999999999449
 50
270.0
 51
0.0
  0
LINE
  5
503
  8
1
  6
CONTINUOUS
 62
     7
 10
66.18657706680011
 20
240.9633768935998
 30
0.0
 11
67.2205752269997
 21
240.7152965109996
 31
0.0
  0
ARC
  5
504
  8
1
  6
CONTINUOUS
 62
     7
 10
-15.21047523000044
 20
241.9633768935997
 30
0.0
 40
10.65000000000005
 50
5.3878223067
 51
174.6121776933001
  0
LINE
  5
505
  8
1
  6
CONTINUOUS
 62
     7
 10
41.39247247339958
 20
240.9633768935998
 30
0.0
 11
40.35847431319925
 21
240.7152965109996
 31
0.0
  0
ARC
  5
506
  8
1
  6
CONTINUOUS
 62
     7
 10
73.2895247717997
 20
210.5633768931999
 30
0.0
 40
0.4999999999999449
 50
90.0
 51
180.0
  0
LINE
  5
507
  8
1
  6
CONTINUOUS
 62
     7
 10
32.7895247699996
 20
268.1133768936
 30
0.0
 11
32.7895247699996
 21
267.3133768935996
 31
0.0
  0
LINE
  5
508
  8
1
  6
CONTINUOUS
 62
     7
 10
77.9395247699991
 20
268.1133768936
 30
0.0
 11
78.7895247699999
 21
268.1133768936
 31
0.0
  0
LINE
  5
509
  8
1
  6
CONTINUOUS
 62
     7
 10
105.3895247700001
 20
269.6633768935994
 30
0.0
 11
104.5395247699993
 21
269.6633768935994
 31
0.0
  0
LINE
  5
50A
  8
1
  6
CONTINUOUS
 62
     7
 10
16.53952476999929
 20
269.6633768935994
 30
0.0
 11
15.68952476999949
 21
269.6633768935994
 31
0.0
  0
LINE
  5
50B
  8
1
  6
CONTINUOUS
 62
     7
 10
28.78952477000005
 20
267.3133768935996
 30
0.0
 11
28.78952477000005
 21
268.1133768936
 31
0.0
  0
LINE
  5
50C
  8
1
  6
CENTER
 62
     3
 10
53.78952476999951
 20
274.9633768935997
 30
0.0
 11
53.78952476999951
 21
176.9633768935996
 31
0.0
  0
LINE
  5
50D
  8
1
  6
CONTINUOUS
 62
     7
 10
12.53952476999973
 20
269.6633768935994
 30
0.0
 11
12.53952476999973
 21
270.4633768935998
 31
0.0
  0
LINE
  5
50E
  8
1
  6
CONTINUOUS
 62
     7
 10
74.7895247699995
 20
267.3133768935996
 30
0.0
 11
74.7895247699995
 21
268.1133768936
 31
0.0
  0
LINE
  5
50F
  8
1
  6
CONTINUOUS
 62
     7
 10
74.7895247699995
 20
268.1133768936
 30
0.0
 11
75.63952477000008
 21
268.1133768936
 31
0.0
  0
LINE
  5
510
  8
1
  6
CONTINUOUS
 62
     7
 10
78.7895247699999
 20
268.1133768936
 30
0.0
 11
78.7895247699999
 21
267.3133768935996
 31
0.0
  0
LINE
  5
511
  8
1
  6
CONTINUOUS
 62
     7
 10
-14.81047523000048
 20
265.7133768935998
 30
0.0
 11
-15.61047523000038
 21
265.7133768935998
 31
0.0
  0
LINE
  5
512
  8
1
  6
CONTINUOUS
 62
     7
 10
16.53952476999929
 20
270.4633768935998
 30
0.0
 11
16.53952476999929
 21
269.6633768935994
 31
0.0
  0
LINE
  5
513
  8
1
  6
CONTINUOUS
 62
     7
 10
104.5395247699993
 20
269.6633768935994
 30
0.0
 11
104.5395247699993
 21
270.4633768935998
 31
0.0
  0
ARC
  5
514
  8
1
  6
CONTINUOUS
 62
     7
 10
105.3895247700001
 20
271.2133768935998
 30
0.0
 40
0.7500000000000284
 50
270.0
 51
0.0
  0
LINE
  5
515
  8
1
  6
CONTINUOUS
 62
     7
 10
106.9395247699991
 20
268.0633768935996
 30
0.0
 11
106.1395247700001
 21
268.0633768935996
 31
0.0
  0
LINE
  5
516
  8
1
  6
CONTINUOUS
 62
     7
 10
106.9395247699991
 20
272.0633768935996
 30
0.0
 11
106.9395247699991
 21
271.2133768935998
 31
0.0
  0
LINE
  5
517
  8
1
  6
CONTINUOUS
 62
     7
 10
108.5395247699999
 20
270.4633768935998
 30
0.0
 11
108.5395247699999
 21
269.6633768935994
 31
0.0
  0
LINE
  5
518
  8
1
  6
CONTINUOUS
 62
     7
 10
14.93952476999946
 20
268.9133768935994
 30
0.0
 11
14.93952476999946
 21
268.0633768935996
 31
0.0
  0
LINE
  5
519
  8
1
  6
CONTINUOUS
 62
     7
 10
106.1395247700001
 20
271.2133768935998
 30
0.0
 11
106.1395247700001
 21
272.0633768935996
 31
0.0
  0
LINE
  5
51A
  8
1
  6
CONTINUOUS
 62
     7
 10
85.9895247689999
 20
112.7601147641997
 30
0.0
 11
85.9895247689999
 21
115.2601147641997
 31
0.0
  0
ARC
  5
51B
  8
1
  6
CONTINUOUS
 62
     7
 10
31.93952476999892
 20
266.5633768935996
 30
0.0
 40
0.7500000000000284
 50
90.0
 51
180.0
  0
LINE
  5
51C
  8
1
  6
CONTINUOUS
 62
     7
 10
-14.81047523000048
 20
266.5633768935996
 30
0.0
 11
-14.81047523000048
 21
265.7133768935998
 31
0.0
  0
LINE
  5
51D
  8
1
  6
CONTINUOUS
 62
     7
 10
77.1895247699991
 20
265.7133768935998
 30
0.0
 11
76.38952477000008
 21
265.7133768935998
 31
0.0
  0
ARC
  5
51E
  8
1
  6
CONTINUOUS
 62
     7
 10
105.3895247700001
 20
268.9133768935994
 30
0.0
 40
0.7500000000000284
 50
0.0
 51
90.0
  0
LINE
  5
51F
  8
1
  6
CONTINUOUS
 62
     7
 10
87.28952476900031
 20
105.5101147641997
 30
0.0
 11
86.2895247690001
 21
105.5101147641997
 31
0.0
  0
ARC
  5
520
  8
1
  6
CONTINUOUS
 62
     7
 10
75.63952477000008
 20
268.8633768936
 30
0.0
 40
0.7500000000000284
 50
270.0
 51
0.0
  0
LINE
  5
521
  8
1
  6
CONTINUOUS
 62
     7
 10
108.5395247699999
 20
269.6633768935994
 30
0.0
 11
107.6895247699991
 21
269.6633768935994
 31
0.0
  0
LINE
  5
522
  8
1
  6
CONTINUOUS
 62
     7
 10
67.28952476899991
 20
105.5101147641997
 30
0.0
 11
66.2895247690005
 21
105.5101147641997
 31
0.0
  0
LINE
  5
523
  8
1
  6
CONTINUOUS
 62
     7
 10
85.78952476900031
 20
103.0101147641999
 30
0.0
 11
85.78952476900031
 21
115.5101147641995
 31
0.0
  0
LINE
  5
524
  8
2
  6
CONTINUOUS
 62
     7
 10
91.0395247773991
 20
106.0101147752001
 30
0.0
 11
91.03952477019949
 21
105.5101147639999
 31
0.0
  0
ARC
  5
525
  8
1
  6
CONTINUOUS
 62
     7
 10
107.6895247699991
 20
271.2133768935998
 30
0.0
 40
0.7500000000000284
 50
180.0
 51
270.0
  0
LINE
  5
526
  8
1
  6
CONTINUOUS
 62
     7
 10
-14.81047523000048
 20
269.7133768935998
 30
0.0
 11
-14.81047523000048
 21
268.8633768936
 31
0.0
  0
LINE
  5
527
  8
1
  6
CONTINUOUS
 62
     7
 10
104.5395247699993
 20
270.4633768935998
 30
0.0
 11
105.3895247700001
 21
270.4633768935998
 31
0.0
  0
LINE
  5
528
  8
1
  6
CONTINUOUS
 62
     7
 10
78.7895247699999
 20
267.3133768935996
 30
0.0
 11
77.9395247699991
 21
267.3133768935996
 31
0.0
  0
ARC
  5
529
  8
1
  6
CONTINUOUS
 62
     7
 10
107.6895247699991
 20
268.9133768935994
 30
0.0
 40
0.7500000000000284
 50
90.0
 51
180.0
  0
LINE
  5
52A
  8
1
  6
CONTINUOUS
 62
     7
 10
107.6895247699991
 20
270.4633768935998
 30
0.0
 11
108.5395247699999
 21
270.4633768935998
 31
0.0
  0
LINE
  5
52B
  8
1
  6
CONTINUOUS
 62
     7
 10
-16.36047522999953
 20
267.3133768935996
 30
0.0
 11
-17.21047523000023
 21
267.3133768935996
 31
0.0
  0
ARC
  5
52C
  8
1
  6
CONTINUOUS
 62
     7
 10
-14.06047523000044
 20
266.5633768935996
 30
0.0
 40
0.7500000000000284
 50
90.0
 51
180.0
  0
LINE
  5
52D
  8
1
  6
CONTINUOUS
 62
     7
 10
67.5895247689993
 20
112.7601147641997
 30
0.0
 11
66.2895247690005
 21
113.0101147641995
 31
0.0
  0
LINE
  5
52E
  8
1
  6
CONTINUOUS
 62
     7
 10
67.5895247689993
 20
115.2601147641997
 30
0.0
 11
67.5895247689993
 21
112.7601147641997
 31
0.0
  0
LINE
  5
52F
  8
1
  6
CONTINUOUS
 62
     7
 10
87.28952476900031
 20
103.0101147641999
 30
0.0
 11
87.28952476900031
 21
115.5101147641995
 31
0.0
  0
LINE
  5
530
  8
1
  6
CONTINUOUS
 62
     7
 10
-13.21047523000067
 20
268.1133768936
 30
0.0
 11
-13.21047523000067
 21
267.3133768935996
 31
0.0
  0
LINE
  5
531
  8
1
  6
CONTINUOUS
 62
     7
 10
75.63952477000008
 20
267.3133768935996
 30
0.0
 11
74.7895247699995
 21
267.3133768935996
 31
0.0
  0
LINE
  5
532
  8
1
  6
CONTINUOUS
 62
     7
 10
12.53952476999973
 20
270.4633768935998
 30
0.0
 11
13.38952477000041
 21
270.4633768935998
 31
0.0
  0
LINE
  5
533
  8
1
  6
CONTINUOUS
 62
     7
 10
-15.61047523000038
 20
269.7133768935998
 30
0.0
 11
-14.81047523000048
 21
269.7133768935998
 31
0.0
  0
LINE
  5
534
  8
1
  6
CONTINUOUS
 62
     7
 10
87.28952476900031
 20
113.0101147641995
 30
0.0
 11
85.9895247689999
 21
112.7601147641997
 31
0.0
  0
LINE
  5
535
  8
1
  6
CONTINUOUS
 62
     7
 10
66.2895247690005
 20
103.0101147641999
 30
0.0
 11
66.2895247690005
 21
115.5101147641995
 31
0.0
  0
LINE
  5
536
  8
1
  6
CONTINUOUS
 62
     7
 10
66.2895247690005
 20
115.0101147641999
 30
0.0
 11
67.5895247689993
 21
115.2601147641997
 31
0.0
  0
ARC
  5
537
  8
1
  6
CONTINUOUS
 62
     7
 10
-16.36047522999953
 20
268.8633768936
 30
0.0
 40
0.7500000000000284
 50
270.0
 51
0.0
  0
ARC
  5
538
  8
1
  6
CONTINUOUS
 62
     7
 10
77.9395247699991
 20
266.5633768935996
 30
0.0
 40
0.7500000000000284
 50
90.0
 51
180.0
  0
LINE
  5
539
  8
1
  6
CONTINUOUS
 62
     7
 10
106.1395247700001
 20
268.0633768935996
 30
0.0
 11
106.1395247700001
 21
268.9133768935994
 31
0.0
  0
ARC
  5
53A
  8
1
  6
CONTINUOUS
 62
     7
 10
13.38952477000041
 20
271.2133768935998
 30
0.0
 40
0.7500000000000284
 50
270.0
 51
0.0
  0
LINE
  5
53B
  8
1
  6
CONTINUOUS
 62
     7
 10
106.9395247699991
 20
268.9133768935994
 30
0.0
 11
106.9395247699991
 21
268.0633768935996
 31
0.0
  0
LINE
  5
53C
  8
1
  6
CONTINUOUS
 62
     7
 10
85.9895247689999
 20
115.2601147641997
 30
0.0
 11
87.28952476900031
 21
115.0101147641999
 31
0.0
  0
LINE
  5
53D
  8
1
  6
CONTINUOUS
 62
     7
 10
122.3895247700005
 20
269.7133768935998
 30
0.0
 11
123.1895247699995
 21
269.7133768935998
 31
0.0
  0
ARC
  5
53E
  8
1
  6
CONTINUOUS
 62
     7
 10
-16.36047522999953
 20
266.5633768935996
 30
0.0
 40
0.7500000000000284
 50
0.0
 51
90.0
  0
LINE
  5
53F
  8
1
  6
CONTINUOUS
 62
     7
 10
77.1895247699991
 20
266.5633768935996
 30
0.0
 11
77.1895247699991
 21
265.7133768935998
 31
0.0
  0
LINE
  5
540
  8
1
  6
CONTINUOUS
 62
     7
 10
31.18952476999889
 20
266.5633768935996
 30
0.0
 11
31.18952476999889
 21
265.7133768935998
 31
0.0
  0
LINE
  5
541
  8
1
  6
CONTINUOUS
 62
     7
 10
14.13952477000044
 20
268.0633768935996
 30
0.0
 11
14.13952477000044
 21
268.9133768935994
 31
0.0
  0
LINE
  5
542
  8
1
  6
CONTINUOUS
 62
     7
 10
-15.61047523000038
 20
265.7133768935998
 30
0.0
 11
-15.61047523000038
 21
266.5633768935996
 31
0.0
  0
ARC
  5
543
  8
1
  6
CONTINUOUS
 62
     7
 10
76.78952476899991
 20
115.5101147641995
 30
0.0
 40
9.500000000000064
 50
0.0
 51
82.7582724643
  0
ARC
  5
544
  8
1
  6
CONTINUOUS
 62
     7
 10
15.68952476999949
 20
271.2133768935998
 30
0.0
 40
0.7500000000000284
 50
180.0
 51
270.0
  0
ARC
  5
545
  8
1
  6
CONTINUOUS
 62
     7
 10
76.78952476899991
 20
115.5101147641995
 30
0.0
 40
10.49999999999995
 50
0.0
 51
180.0
  0
LINE
  5
546
  8
1
  6
CONTINUOUS
 62
     7
 10
106.1395247700001
 20
272.0633768935996
 30
0.0
 11
106.9395247699991
 21
272.0633768935996
 31
0.0
  0
LINE
  5
547
  8
1
  6
CONTINUOUS
 62
     7
 10
20.28952476999943
 20
112.0101147641997
 30
0.0
 11
20.28952476999943
 21
115.5101147641995
 31
0.0
  0
LINE
  5
548
  8
2
  6
CONTINUOUS
 62
     7
 10
2.660524777399392
 20
134.0101147737999
 30
0.0
 11
2.660524777399392
 21
108.4701026913995
 31
0.0
  0
LINE
  5
549
  8
1
  6
CONTINUOUS
 62
     7
 10
-7.460474815599777
 20
113.0101147641995
 30
0.0
 11
-8.760474815600272
 21
112.7601147641997
 31
0.0
  0
LINE
  5
54A
  8
1
  6
CONTINUOUS
 62
     7
 10
7.039524777399525
 20
108.8101147641997
 30
0.0
 11
3.624762748799942
 21
108.0101146885997
 31
0.0
  0
LINE
  5
54B
  8
1
  6
CONTINUOUS
 62
     7
 10
67.28952476899991
 20
103.0101147641999
 30
0.0
 11
67.28952476899991
 21
112.8178070717999
 31
0.0
  0
ARC
  5
54C
  8
1
  6
CONTINUOUS
 62
     7
 10
76.78952476899991
 20
115.5101147641995
 30
0.0
 40
9.500000000000064
 50
97.24172753569998
 51
180.0
  0
LINE
  5
54D
  8
1
  6
CONTINUOUS
 62
     7
 10
24.03952436199971
 20
112.0101147641997
 30
0.0
 11
21.28952476999976
 21
112.0101147641997
 31
0.0
  0
ARC
  5
54E
  8
1
  6
CONTINUOUS
 62
     7
 10
-17.96047481560018
 20
115.5101147641995
 30
0.0
 40
9.500000000000064
 50
0.0
 51
82.7582724643
  0
LINE
  5
54F
  8
1
  6
CONTINUOUS
 62
     7
 10
29.53952477000007
 20
124.6614883624001
 30
0.0
 11
29.78952476999949
 21
125.9614883623997
 31
0.0
  0
LINE
  5
550
  8
1
  6
CONTINUOUS
 62
     7
 10
-2.960475222600262
 20
106.0101147707999
 30
0.0
 11
-2.960475222600262
 21
108.0101147707997
 31
0.0
  0
LINE
  5
551
  8
1
  6
CONTINUOUS
 62
     7
 10
20.28952476999943
 20
112.0101147641997
 30
0.0
 11
7.039524777399525
 21
112.0101147641997
 31
0.0
  0
LINE
  5
552
  8
1
  6
CONTINUOUS
 62
     7
 10
-7.460474815599777
 20
103.0101147641999
 30
0.0
 11
-7.460474815599777
 21
115.5101147641995
 31
0.0
  0
LINE
  5
553
  8
1
  6
CONTINUOUS
 62
     7
 10
-19.21047481559993
 20
124.6614883624001
 30
0.0
 11
-18.96047481559961
 21
125.9614883623997
 31
0.0
  0
LINE
  5
554
  8
1
  6
CONTINUOUS
 62
     7
 10
-8.460474815600111
 20
115.2024224563997
 30
0.0
 11
-8.460474815600111
 21
115.5101147641995
 31
0.0
  0
LINE
  5
555
  8
1
  6
CONTINUOUS
 62
     7
 10
21.58952476999995
 20
115.2601147641997
 30
0.0
 11
21.58952476999995
 21
112.7601147641997
 31
0.0
  0
LINE
  5
556
  8
1
  6
CONTINUOUS
 62
     7
 10
-27.46047481560024
 20
105.5101147641997
 30
0.0
 11
-28.46047481559969
 21
105.5101147641997
 31
0.0
  0
LINE
  5
557
  8
1
  6
CONTINUOUS
 62
     7
 10
3.624762748799942
 20
106.0101147707999
 30
0.0
 11
3.624762748799942
 21
105.5101147641997
 31
0.0
  0
LINE
  5
558
  8
1
  6
CONTINUOUS
 62
     7
 10
-8.960474815599834
 20
103.0101147641999
 30
0.0
 11
-8.960474815599834
 21
115.5101147641995
 31
0.0
  0
LINE
  5
559
  8
1
  6
CONTINUOUS
 62
     7
 10
-7.460474815599777
 20
105.5101147641997
 30
0.0
 11
-8.460474815600111
 21
105.5101147641997
 31
0.0
  0
LINE
  5
55A
  8
1
  6
CONTINUOUS
 62
     7
 10
67.7895247690005
 20
115.5101147641995
 30
0.0
 11
67.7895247690005
 21
103.0101147641999
 31
0.0
  0
ARC
  5
55B
  8
1
  6
CONTINUOUS
 62
     7
 10
-17.96047481560018
 20
115.5101147641995
 30
0.0
 40
9.500000000000064
 50
97.24172753569998
 51
180.0
  0
LINE
  5
55C
  8
1
  6
CONTINUOUS
 62
     7
 10
21.28952476999976
 20
112.0101147641997
 30
0.0
 11
21.28952476999976
 21
112.8178070717999
 31
0.0
  0
LINE
  5
55D
  8
1
  6
CONTINUOUS
 62
     7
 10
39.9895247699997
 20
112.7601147641997
 30
0.0
 11
39.9895247699997
 21
115.2601147641997
 31
0.0
  0
LINE
  5
55E
  8
1
  6
CONTINUOUS
 62
     7
 10
-28.46047481559969
 20
103.0101147641999
 30
0.0
 11
-28.46047481559969
 21
115.5101147641995
 31
0.0
  0
LINE
  5
55F
  8
1
  6
CONTINUOUS
 62
     7
 10
-8.760474815600272
 20
115.2601147641997
 30
0.0
 11
-7.460474815599777
 21
115.0101147641999
 31
0.0
  0
LINE
  5
560
  8
1
  6
CONTINUOUS
 62
     7
 10
-27.16047481560005
 20
115.2601147641997
 30
0.0
 11
-27.16047481560005
 21
112.7601147641997
 31
0.0
  0
ARC
  5
561
  8
1
  6
CONTINUOUS
 62
     7
 10
-17.96047481560018
 20
115.5101147641995
 30
0.0
 40
9.000000000000119
 50
0.0
 51
180.0
  0
LINE
  5
562
  8
1
  6
CONTINUOUS
 62
     7
 10
20.28952476999943
 20
103.0101147641999
 30
0.0
 11
20.28952476999943
 21
105.5101147641997
 31
0.0
  0
LINE
  5
563
  8
1
  6
CONTINUOUS
 62
     7
 10
75.53952476900031
 20
124.6614883624001
 30
0.0
 11
75.7895247690005
 21
125.9614883623997
 31
0.0
  0
LINE
  5
564
  8
1
  6
CENTER
 62
     3
 10
-17.96047481560018
 20
126.0101147641995
 30
0.0
 11
-17.96047481560018
 21
103.0101147641999
 31
0.0
  0
LINE
  5
565
  8
1
  6
CONTINUOUS
 62
     7
 10
41.28952476999933
 20
105.5101147641997
 30
0.0
 11
40.28952476999989
 21
105.5101147641997
 31
0.0
  0
LINE
  5
566
  8
2
  6
CONTINUOUS
 62
     7
 10
-0.960475222600482
 20
134.0101147737999
 30
0.0
 11
-0.960475222600482
 21
108.0101147710001
 31
0.0
  0
LINE
  5
567
  8
1
  6
CONTINUOUS
 62
     7
 10
5.139524778199761
 20
108.8101147383999
 30
0.0
 11
7.039524777399525
 21
108.8101147641997
 31
0.0
  0
LINE
  5
568
  8
1
  6
CONTINUOUS
 62
     7
 10
67.28952476899991
 20
115.2024224563997
 30
0.0
 11
67.28952476899991
 21
115.5101147641995
 31
0.0
  0
LINE
  5
569
  8
1
  6
CONTINUOUS
 62
     7
 10
78.0395247689997
 20
124.6614883624001
 30
0.0
 11
75.53952476900031
 21
124.6614883624001
 31
0.0
  0
ARC
  5
56A
  8
1
  6
CONTINUOUS
 62
     7
 10
-41.36047523099997
 20
101.7515361203999
 30
0.0
 40
0.099999999999989
 50
180.0
 51
315.0
  0
LINE
  5
56B
  8
1
  6
CENTER
 62
     3
 10
30.78952476999983
 20
138.0101147641995
 30
0.0
 11
30.78952476999983
 21
103.0101147641999
 31
0.0
  0
ARC
  5
56C
  8
1
  6
CONTINUOUS
 62
     7
 10
30.78952476999983
 20
115.5101147641995
 30
0.0
 40
9.000000000000119
 50
0.0
 51
180.0
  0
ARC
  5
56D
  8
1
  6
CONTINUOUS
 62
     7
 10
30.78952476999983
 20
115.5101147641995
 30
0.0
 40
9.500000000000064
 50
0.0
 51
82.7582724643
  0
LINE
  5
56E
  8
1
  6
CONTINUOUS
 62
     7
 10
-28.46047481559969
 20
115.0101147641999
 30
0.0
 11
-27.16047481560005
 21
115.2601147641997
 31
0.0
  0
LINE
  5
56F
  8
1
  6
CONTINUOUS
 62
     7
 10
-8.460474815600111
 20
103.0101147641999
 30
0.0
 11
-8.460474815600111
 21
112.8178070717999
 31
0.0
  0
LINE
  5
570
  8
1
  6
CONTINUOUS
 62
     7
 10
86.2895247690001
 20
115.2024224563997
 30
0.0
 11
86.2895247690001
 21
115.5101147641995
 31
0.0
  0
LINE
  5
571
  8
1
  6
CONTINUOUS
 62
     7
 10
24.03952463319967
 20
112.0101147641997
 30
0.0
 11
24.03952481879965
 21
105.5101147641997
 31
0.0
  0
ARC
  5
572
  8
1
  6
CONTINUOUS
 62
     7
 10
76.78952476899991
 20
115.5101147641995
 30
0.0
 40
9.000000000000119
 50
0.0
 51
180.0
  0
LINE
  5
573
  8
1
  6
CONTINUOUS
 62
     7
 10
-16.96047481559984
 20
125.9614883623997
 30
0.0
 11
-16.71047481559954
 21
124.6614883624001
 31
0.0
  0
LINE
  5
574
  8
2
  6
CONTINUOUS
 62
     7
 10
-0.5814752225999087
 20
134.0101147737999
 30
0.0
 11
-0.5814752225999087
 21
108.0101147710001
 31
0.0
  0
LINE
  5
575
  8
1
  6
CONTINUOUS
 62
     7
 10
40.28952476999989
 20
115.2024224563997
 30
0.0
 11
40.28952476999989
 21
115.5101147641995
 31
0.0
  0
LINE
  5
576
  8
1
  6
CONTINUOUS
 62
     7
 10
39.78952476999928
 20
103.0101147641999
 30
0.0
 11
39.78952476999928
 21
115.5101147641995
 31
0.0
  0
ARC
  5
577
  8
1
  6
CONTINUOUS
 62
     7
 10
30.78952476999983
 20
115.5101147641995
 30
0.0
 40
9.500000000000064
 50
97.24172753569998
 51
180.0
  0
LINE
  5
578
  8
1
  6
CONTINUOUS
 62
     7
 10
21.58952476999995
 20
112.7601147641997
 30
0.0
 11
20.28952476999943
 21
113.0101147641995
 31
0.0
  0
LINE
  5
579
  8
1
  6
CONTINUOUS
 62
     7
 10
21.78952476999948
 20
115.5101147641995
 30
0.0
 11
21.78952476999948
 21
112.0101147641997
 31
0.0
  0
ARC
  5
57A
  8
1
  6
CONTINUOUS
 62
     7
 10
30.78952476999983
 20
115.5101147641995
 30
0.0
 40
10.49999999999995
 50
0.0
 51
180.0
  0
LINE
  5
57B
  8
1
  6
CONTINUOUS
 62
     7
 10
-16.71047481559954
 20
124.6614883624001
 30
0.0
 11
-19.21047481559993
 21
124.6614883624001
 31
0.0
  0
LINE
  5
57C
  8
1
  6
CONTINUOUS
 62
     7
 10
77.78952476900031
 20
125.9614883623997
 30
0.0
 11
78.0395247689997
 21
124.6614883624001
 31
0.0
  0
LINE
  5
57D
  8
1
  6
CONTINUOUS
 62
     7
 10
40.28952476999989
 20
103.0101147641999
 30
0.0
 11
40.28952476999989
 21
112.8178070717999
 31
0.0
  0
LINE
  5
57E
  8
1
  6
CONTINUOUS
 62
     7
 10
41.28952476999933
 20
113.0101147641995
 30
0.0
 11
39.9895247699997
 21
112.7601147641997
 31
0.0
  0
LINE
  5
57F
  8
2
  6
CONTINUOUS
 62
     7
 10
3.039524777399077
 20
134.0101147737999
 30
0.0
 11
3.039524777399077
 21
108.5220851705997
 31
0.0
  0
LINE
  5
580
  8
1
  6
CONTINUOUS
 62
     7
 10
32.03952476999957
 20
124.6614883624001
 30
0.0
 11
29.53952477000007
 21
124.6614883624001
 31
0.0
  0
LINE
  5
581
  8
1
  6
CONTINUOUS
 62
     7
 10
21.2895247701996
 20
115.2024224563997
 30
0.0
 11
21.28952476999976
 21
115.5101147641995
 31
0.0
  0
ARC
  5
582
  8
1
  6
CONTINUOUS
 62
     7
 10
-17.96047481560018
 20
115.5101147641995
 30
0.0
 40
10.49999999999995
 50
0.0
 51
180.0
  0
LINE
  5
583
  8
1
  6
CONTINUOUS
 62
     7
 10
-8.760474815600272
 20
112.7601147641997
 30
0.0
 11
-8.760474815600272
 21
115.2601147641997
 31
0.0
  0
LINE
  5
584
  8
1
  6
CONTINUOUS
 62
     7
 10
86.2895247690001
 20
103.0101147641999
 30
0.0
 11
86.2895247690001
 21
112.8178070717999
 31
0.0
  0
LINE
  5
585
  8
1
  6
CONTINUOUS
 62
     7
 10
-26.96047481559963
 20
115.5101147641995
 30
0.0
 11
-26.96047481559963
 21
103.0101147641999
 31
0.0
  0
LINE
  5
586
  8
1
  6
CONTINUOUS
 62
     7
 10
9.539524777399027
 20
108.0101146885997
 30
0.0
 11
-2.960475222600262
 21
108.0101146885997
 31
0.0
  0
LINE
  5
587
  8
1
  6
CONTINUOUS
 62
     7
 10
20.28952476999943
 20
115.0101147641999
 30
0.0
 11
21.58952476999995
 21
115.2601147641997
 31
0.0
  0
LINE
  5
588
  8
1
  6
CONTINUOUS
 62
     7
 10
39.9895247699997
 20
115.2601147641997
 30
0.0
 11
41.28952476999933
 21
115.0101147641999
 31
0.0
  0
LINE
  5
589
  8
1
  6
CONTINUOUS
 62
     7
 10
-27.46047481560024
 20
115.2024224563997
 30
0.0
 11
-27.46047481560024
 21
115.5101147641995
 31
0.0
  0
LINE
  5
58A
  8
1
  6
CONTINUOUS
 62
     7
 10
-27.46047481560024
 20
103.0101147641999
 30
0.0
 11
-27.46047481560024
 21
112.8178070717999
 31
0.0
  0
LINE
  5
58B
  8
1
  6
CONTINUOUS
 62
     7
 10
31.78952476999927
 20
125.9614883623997
 30
0.0
 11
32.03952476999957
 21
124.6614883624001
 31
0.0
  0
LINE
  5
58C
  8
1
  6
CONTINUOUS
 62
     7
 10
41.28952477020006
 20
103.0101147641999
 30
0.0
 11
41.28952477020006
 21
115.5101147641995
 31
0.0
  0
POINT
  5
58D
  8
0
 62
     7
 10
30.78952476999983
 20
267.7133768935996
 30
0.0
  0
POINT
  5
58E
  8
0
 62
     7
 10
30.78952476999983
 20
267.7133768935996
 30
0.0
  0
POINT
  5
58F
  8
0
 62
     7
 10
53.78952476999951
 20
251.2081691503997
 30
0.0
  0
ENDSEC
  0
EOF
