  0
SECTION
  2
HEADER
  9
$ACADVER
  1
AC1006
  9
$DWGCODEPAGE
  3
ansi_932
  9
$INSBASE
 10
0.0
 20
0.0
 30
0.0
  9
$EXTMIN
 10
-561.4796885739449
 20
-185.5451873015352
  9
$EXTMAX
 10
-374.843580454235
 20
-61.32922630407864
  9
$LIMMIN
 10
0.0
 20
0.0
  9
$LIMMAX
 10
12.0
 20
9.0
  9
$ORTHOMODE
 70
     0
  9
$REGENMODE
 70
     1
  9
$FILLMODE
 70
     1
  9
$QTEXTMODE
 70
     0
  9
$MIRRTEXT
 70
     1
  9
$DRAGMODE
 70
     2
  9
$LTSCALE
 40
1.0
  9
$OSMODE
 70
    37
  9
$ATTMODE
 70
     1
  9
$TEXTSIZE
 40
0.2
  9
$TRACEWID
 40
0.05
  9
$TEXTSTYLE
  7
STANDARD
  9
$CLAYER
  8
0
  9
$CELTYPE
  6
BYLAYER
  9
$CECOLOR
 62
   256
  9
$DIMSCALE
 40
1.0
  9
$DIMASZ
 40
3.0
  9
$DIMEXO
 40
0.0625
  9
$DIMDLI
 40
0.38
  9
$DIMRND
 40
0.0
  9
$DIMDLE
 40
0.0
  9
$DIMEXE
 40
1.5
  9
$DIMTP
 40
0.0
  9
$DIMTM
 40
0.0
  9
$DIMTXT
 40
3.0
  9
$DIMCEN
 40
0.09
  9
$DIMTSZ
 40
0.0
  9
$DIMTOL
 70
     0
  9
$DIMLIM
 70
     0
  9
$DIMTIH
 70
     1
  9
$DIMTOH
 70
     1
  9
$DIMSE1
 70
     0
  9
$DIMSE2
 70
     0
  9
$DIMTAD
 70
     1
  9
$DIMZIN
 70
     0
  9
$DIMBLK
  1

  9
$DIMASO
 70
     1
  9
$DIMSHO
 70
     1
  9
$DIMPOST
  1

  9
$DIMAPOST
  1

  9
$DIMALT
 70
     0
  9
$DIMALTD
 70
     2
  9
$DIMALTF
 40
25.4
  9
$DIMLFAC
 40
1.0
  9
$DIMTOFL
 70
     0
  9
$DIMTVP
 40
0.0
  9
$DIMTIX
 70
     0
  9
$DIMSOXD
 70
     0
  9
$DIMSAH
 70
     0
  9
$DIMBLK1
  1

  9
$DIMBLK2
  1

  9
$LUNITS
 70
     2
  9
$LUPREC
 70
     4
  9
$SKETCHINC
 40
0.1
  9
$FILLETRAD
 40
0.5
  9
$AUNITS
 70
     0
  9
$AUPREC
 70
     0
  9
$MENU
  1
.
  9
$ELEVATION
 40
0.0
  9
$THICKNESS
 40
0.0
  9
$LIMCHECK
 70
     0
  9
$CHAMFERA
 40
0.0
  9
$CHAMFERB
 40
0.0
  9
$SKPOLY
 70
     0
  9
$TDCREATE
 40
2460112.473081377
  9
$TDUPDATE
 40
2460112.473081771
  9
$TDINDWG
 40
0.0000000116
  9
$TDUSRTIMER
 40
0.0000000116
  9
$USRTIMER
 70
     1
  9
$ANGBASE
 50
0.0
  9
$ANGDIR
 70
     0
  9
$PDMODE
 70
     0
  9
$PDSIZE
 40
0.0
  9
$PLINEWID
 40
0.0
  9
$COORDS
 70
     1
  9
$SPLFRAME
 70
     0
  9
$SPLINETYPE
 70
     6
  9
$SPLINESEGS
 70
     8
  9
$ATTDIA
 70
     0
  9
$ATTREQ
 70
     1
  9
$HANDLING
 70
     1
  9
$HANDSEED
  5
292
  9
$SURFTAB1
 70
     6
  9
$SURFTAB2
 70
     6
  9
$SURFTYPE
 70
     6
  9
$SURFU
 70
     6
  9
$SURFV
 70
     6
  9
$UCSNAME
  2

  9
$UCSORG
 10
0.0
 20
0.0
 30
0.0
  9
$UCSXDIR
 10
1.0
 20
0.0
 30
0.0
  9
$UCSYDIR
 10
0.0
 20
1.0
 30
0.0
  9
$USERI1
 70
     0
  9
$USERI2
 70
     0
  9
$USERI3
 70
     0
  9
$USERI4
 70
     0
  9
$USERI5
 70
     0
  9
$USERR1
 40
0.0
  9
$USERR2
 40
0.0
  9
$USERR3
 40
0.0
  9
$USERR4
 40
0.0
  9
$USERR5
 40
0.0
  9
$WORLDVIEW
 70
     1
  0
ENDSEC
  0
SECTION
  2
TABLES
  0
TABLE
  2
VPORT
 70
     1
  0
VPORT
  2
*ACTIVE
 70
     0
 10
0.0
 20
0.0
 11
1.0
 21
1.0
 12
-468.16163451409
 22
-123.4372068028069
 13
0.0
 23
0.0
 14
0.5
 24
0.5
 15
0.5
 25
0.5
 16
0.0
 26
0.0
 36
1.0
 17
0.0
 27
0.0
 37
0.0
 40
124.2159609974565
 41
1.6
 42
50.0
 43
0.0
 44
0.0
 50
0.0
 51
0.0
 71
     0
 72
   100
 73
     1
 74
     3
 75
     0
 76
     0
 77
     0
 78
     0
  0
ENDTAB
  0
TABLE
  2
LTYPE
 70
     2
  0
LTYPE
  2
CONTINUOUS
 70
     0
  3
Solid line
 72
    65
 73
     0
 40
0.0
  0
LTYPE
  2
CENTER
 70
     0
  3

 72
    65
 73
     0
 40
0.0
  0
ENDTAB
  0
TABLE
  2
LAYER
 70
     1
  0
LAYER
  2
0
 70
     0
 62
     7
  6
CONTINUOUS
  0
ENDTAB
  0
TABLE
  2
STYLE
 70
     2
  0
STYLE
  2
STANDARD
 70
     0
 40
0.0
 41
1.0
 50
0.0
 71
     0
 42
0.2
  3
txt
  4

  0
STYLE
  2
ＭＳ_ゴシック
 70
     0
 40
0.0
 41
1.0
 50
0.0
 71
     0
 42
0.2
  3
ＭＳ ゴシック.shx
  4

  0
ENDTAB
  0
TABLE
  2
VIEW
 70
     0
  0
ENDTAB
  0
TABLE
  2
UCS
 70
     0
  0
ENDTAB
  0
ENDSEC
  0
SECTION
  2
BLOCKS
  0
BLOCK
  8
0
  2
D_FRAME_VIEW_2293
 70
     0
 10
0.0
 20
0.0
 30
0.0
  0
LINE
  5
7B
  8
0
  6
CONTINUOUS
 62
     7
 10
-414.4818220974394
 20
-75.82922630407865
 30
0.0
 11
-414.4818220974394
 21
-82.52963589630393
 31
0.0
  0
LINE
  5
7C
  8
0
  6
CONTINUOUS
 62
     7
 10
-414.7818220974394
 20
-75.82922630407865
 30
0.0
 11
-414.7818220974394
 21
-82.52963589630393
 31
0.0
  0
LINE
  5
7D
  8
0
  6
CONTINUOUS
 62
     7
 10
-414.4818220974394
 20
-82.52963589630393
 30
0.0
 11
-414.4818220974394
 21
-83.82922630407866
 31
0.0
  0
LINE
  5
7E
  8
0
  6
CONTINUOUS
 62
     7
 10
-414.7818220974394
 20
-82.52963589630393
 30
0.0
 11
-414.7818220974394
 21
-83.82922630407866
 31
0.0
  0
LINE
  5
7F
  8
0
  6
CONTINUOUS
 62
     7
 10
-402.7818220974394
 20
-81.82922630407866
 30
0.0
 11
-402.7818220974394
 21
-77.82922630407865
 31
0.0
  0
LINE
  5
80
  8
0
  6
CONTINUOUS
 62
     7
 10
-408.7804130648099
 20
-76.56331908660937
 30
0.0
 11
-408.7804130648099
 21
-81.4621799126326
 31
0.0
  0
LINE
  5
81
  8
0
  6
CONTINUOUS
 62
     7
 10
-408.7804130648099
 20
-81.4621799126326
 30
0.0
 11
-408.7804130648099
 21
-83.09513352154796
 31
0.0
  0
LINE
  5
82
  8
0
  6
CONTINUOUS
 62
     7
 10
-407.9304130648099
 20
-76.35922630396077
 30
0.0
 11
-407.9304130648099
 21
-76.49641530135487
 31
0.0
  0
ARC
  5
83
  8
0
  6
CONTINUOUS
 62
     7
 10
-406.0567187970702
 20
-78.09422630388669
 30
0.0
 40
2.462464255328904
 50
139.5437913010345
 51
220.456208698965
  0
LINE
  5
84
  8
0
  6
CONTINUOUS
 62
     7
 10
-407.9304130648099
 20
-79.69203730641847
 30
0.0
 11
-407.9304130648099
 21
-79.96641530123702
 31
0.0
  0
ARC
  5
85
  8
0
  6
CONTINUOUS
 62
     7
 10
-406.0550900470631
 20
-81.56422630388668
 30
0.0
 40
2.463703801409466
 50
139.5683691583244
 51
220.4316308416757
  0
LINE
  5
86
  8
0
  6
CONTINUOUS
 62
     7
 10
-407.9304130648099
 20
-83.16203730653635
 30
0.0
 11
-407.9304130648099
 21
-83.29922630396078
 31
0.0
  0
LINE
  5
87
  8
0
  6
CONTINUOUS
 62
     7
 10
-406.48041306481
 20
-76.56331908660937
 30
0.0
 11
-406.48041306481
 21
-81.4621799126326
 31
0.0
  0
LINE
  5
88
  8
0
  6
CONTINUOUS
 62
     7
 10
-406.48041306481
 20
-81.4621799126326
 30
0.0
 11
-406.48041306481
 21
-83.09513352154796
 31
0.0
  0
LINE
  5
89
  8
0
  6
CONTINUOUS
 62
     7
 10
-407.33041306481
 20
-83.29922630396078
 30
0.0
 11
-407.33041306481
 21
-83.16203730653635
 31
0.0
  0
ARC
  5
8A
  8
0
  6
CONTINUOUS
 62
     7
 10
-409.2047006947743
 20
-81.56422630388668
 30
0.0
 40
2.462915776072263
 50
319.5527480074478
 51
40.4472519925522
  0
LINE
  5
8B
  8
0
  6
CONTINUOUS
 62
     7
 10
-407.33041306481
 20
-79.96641530123702
 30
0.0
 11
-407.33041306481
 21
-79.69203730641847
 31
0.0
  0
ARC
  5
8C
  8
0
  6
CONTINUOUS
 62
     7
 10
-409.2041073325498
 20
-78.09422630388666
 30
0.0
 40
2.462464255328904
 50
319.5437913010345
 51
40.45620869896504
  0
LINE
  5
8D
  8
0
  6
CONTINUOUS
 62
     7
 10
-407.33041306481
 20
-76.49641530135487
 30
0.0
 11
-407.33041306481
 21
-76.3592263039608
 31
0.0
  0
LINE
  5
8E
  8
0
  6
CONTINUOUS
 62
     7
 10
-407.33041306481
 20
-76.49641530135487
 30
0.0
 11
-407.93041306481
 21
-76.49641530135487
 31
0.0
  0
LINE
  5
8F
  8
0
  6
CONTINUOUS
 62
     7
 10
-407.9304130648099
 20
-79.69203730641847
 30
0.0
 11
-407.3304130648099
 21
-79.69203730641847
 31
0.0
  0
LINE
  5
90
  8
0
  6
CONTINUOUS
 62
     7
 10
-407.33041306481
 20
-79.96641530123702
 30
0.0
 11
-407.93041306481
 21
-79.96641530123702
 31
0.0
  0
LINE
  5
91
  8
0
  6
CONTINUOUS
 62
     7
 10
-407.9304130648099
 20
-83.16203730653635
 30
0.0
 11
-407.3304130648099
 21
-83.16203730653635
 31
0.0
  0
LINE
  5
92
  8
0
  6
CONTINUOUS
 62
     7
 10
-413.143580454235
 20
-63.32922630407864
 30
0.0
 11
-413.143580454235
 21
-96.32922630407867
 31
0.0
  0
LINE
  5
93
  8
0
  6
CONTINUOUS
 62
     7
 10
-412.3435804542349
 20
-63.32922630407864
 30
0.0
 11
-412.3435804542349
 21
-96.32922630407867
 31
0.0
  0
LINE
  5
94
  8
0
  6
CONTINUOUS
 62
     7
 10
-412.3435804542349
 20
-97.32922630407867
 30
0.0
 11
-413.143580454235
 21
-97.32922630407867
 31
0.0
  0
LINE
  5
95
  8
0
  6
CONTINUOUS
 62
     7
 10
-413.143580454235
 20
-97.32922630407867
 30
0.0
 11
-413.143580454235
 21
-96.32922630407867
 31
0.0
  0
LINE
  5
96
  8
0
  6
CONTINUOUS
 62
     7
 10
-412.3435804542349
 20
-96.32922630407867
 30
0.0
 11
-412.3435804542349
 21
-97.32922630407867
 31
0.0
  0
LINE
  5
97
  8
0
  6
CONTINUOUS
 62
     7
 10
-413.143580454235
 20
-62.32922630407864
 30
0.0
 11
-412.3435804542349
 21
-62.32922630407864
 31
0.0
  0
LINE
  5
98
  8
0
  6
CONTINUOUS
 62
     7
 10
-412.3435804542349
 20
-62.32922630407864
 30
0.0
 11
-412.3435804542349
 21
-63.32922630407864
 31
0.0
  0
LINE
  5
99
  8
0
  6
CONTINUOUS
 62
     7
 10
-413.143580454235
 20
-63.32922630407864
 30
0.0
 11
-413.143580454235
 21
-62.32922630407864
 31
0.0
  0
LINE
  5
9A
  8
0
  6
CONTINUOUS
 62
     7
 10
-379.3435804542349
 20
-65.57922630407865
 30
0.0
 11
-380.740316160829
 21
-65.57922630407867
 31
0.0
  0
LINE
  5
9B
  8
0
  6
CONTINUOUS
 62
     7
 10
-408.8340319626656
 20
-83.27922630407866
 30
0.0
 11
-408.8558491321426
 21
-83.82922630407866
 31
0.0
  0
LINE
  5
9C
  8
0
  6
CONTINUOUS
 62
     7
 10
-406.4531289458042
 20
-83.27922630407866
 30
0.0
 11
-408.8340319626656
 21
-83.27922630407866
 31
0.0
  0
LINE
  5
9D
  8
0
  6
CONTINUOUS
 62
     7
 10
-406.4313117763273
 20
-83.82922630407866
 30
0.0
 11
-406.4531289458042
 21
-83.27922630407866
 31
0.0
  0
LINE
  5
9E
  8
0
  6
CONTINUOUS
 62
     7
 10
-406.4313117763273
 20
-83.82922630407866
 30
0.0
 11
-408.8558491321425
 21
-83.82922630407866
 31
0.0
  0
LINE
  5
9F
  8
0
  6
CONTINUOUS
 62
     7
 10
-406.48041306481
 20
-77.57588070944881
 30
0.0
 11
-406.4313117763273
 21
-77.5267794209662
 31
0.0
  0
LINE
  5
A0
  8
0
  6
CONTINUOUS
 62
     7
 10
-396.5435804542349
 20
-77.5267794209662
 30
0.0
 11
-406.4313117763273
 21
-77.5267794209662
 31
0.0
  0
LINE
  5
A1
  8
0
  6
CONTINUOUS
 62
     9
 10
-396.5435804542349
 20
-77.57931197718426
 30
0.0
 11
-406.48041306481
 21
-77.57931197718426
 31
0.0
  0
LINE
  5
A2
  8
0
  6
CONTINUOUS
 62
     7
 10
-406.4313117763273
 20
-82.13167318719111
 30
0.0
 11
-406.48041306481
 21
-82.08257189870847
 31
0.0
  0
LINE
  5
A3
  8
0
  6
CONTINUOUS
 62
     9
 10
-396.5435804542349
 20
-82.07914063097304
 30
0.0
 11
-406.48041306481
 21
-82.07914063097304
 31
0.0
  0
LINE
  5
A4
  8
0
  6
CONTINUOUS
 62
     7
 10
-396.5435804542349
 20
-82.13167318719114
 30
0.0
 11
-406.4313117763273
 21
-82.13167318719111
 31
0.0
  0
LINE
  5
A5
  8
0
  6
CONTINUOUS
 62
     7
 10
-380.740316160829
 20
-65.57922630407867
 30
0.0
 11
-384.9468447476409
 21
-65.57922630407867
 31
0.0
  0
LINE
  5
A6
  8
0
  6
CONTINUOUS
 62
     7
 10
-382.6435804542352
 20
-83.32922630407866
 30
0.0
 11
-382.6435804542352
 21
-81.57922630407866
 31
0.0
  0
LINE
  5
A7
  8
0
  6
CONTINUOUS
 62
     7
 10
-379.3435804542349
 20
-66.07922630407865
 30
0.0
 11
-379.3435804542349
 21
-79.82922630407866
 31
0.0
  0
LINE
  5
A8
  8
0
  6
CONTINUOUS
 62
     7
 10
-376.8435804542349
 20
-66.07922630407865
 30
0.0
 11
-376.8435804542349
 21
-79.82922630407863
 31
0.0
  0
LINE
  5
A9
  8
0
  6
CONTINUOUS
 62
     9
 10
-376.8435804542349
 20
-79.82922630407863
 30
0.0
 11
-379.3435804542349
 21
-79.82922630407866
 31
0.0
  0
LINE
  5
AA
  8
0
  6
CONTINUOUS
 62
     7
 10
-408.8558491321425
 20
-75.82922630407865
 30
0.0
 11
-408.8340319626656
 21
-76.37922630407864
 31
0.0
  0
LINE
  5
AB
  8
0
  6
CONTINUOUS
 62
     7
 10
-406.4313117763273
 20
-75.82922630407865
 30
0.0
 11
-408.8558491321425
 21
-75.82922630407865
 31
0.0
  0
LINE
  5
AC
  8
0
  6
CONTINUOUS
 62
     7
 10
-406.4531289458042
 20
-76.37922630407864
 30
0.0
 11
-406.4313117763273
 21
-75.82922630407865
 31
0.0
  0
LINE
  5
AD
  8
0
  6
CONTINUOUS
 62
     7
 10
-406.4531289458042
 20
-76.37922630407864
 30
0.0
 11
-408.8340319626656
 21
-76.37922630407864
 31
0.0
  0
LINE
  5
AE
  8
0
  6
CONTINUOUS
 62
     7
 10
-379.3435804542349
 20
-66.07922630407865
 30
0.0
 11
-379.3435804542349
 21
-65.57922630407865
 31
0.0
  0
LINE
  5
AF
  8
0
  6
CONTINUOUS
 62
     7
 10
-376.8435804542349
 20
-65.57922630407865
 30
0.0
 11
-376.8435804542349
 21
-66.07922630407865
 31
0.0
  0
LINE
  5
B0
  8
0
  6
CONTINUOUS
 62
     7
 10
-379.3435804542349
 20
-65.57922630407867
 30
0.0
 11
-376.8435804542349
 21
-65.57922630407865
 31
0.0
  0
LINE
  5
B1
  8
0
  6
CONTINUOUS
 62
     7
 10
-384.9468447476409
 20
-65.57922630407867
 30
0.0
 11
-386.3435804542351
 21
-65.57922630407856
 31
0.0
  0
LINE
  5
B2
  8
0
  6
CONTINUOUS
 62
     7
 10
-386.3435804542351
 20
-81.57922630407866
 30
0.0
 11
-386.3435804542351
 21
-66.07922630407865
 31
0.0
  0
LINE
  5
B3
  8
0
  6
CONTINUOUS
 62
     7
 10
-382.6435804542352
 20
-81.57922630407866
 30
0.0
 11
-386.3435804542351
 21
-81.57922630407866
 31
0.0
  0
LINE
  5
B4
  8
0
  6
CONTINUOUS
 62
     7
 10
-379.3435804542349
 20
-91.82922630407866
 30
0.0
 11
-404.3435804542349
 21
-91.82922630407866
 31
0.0
  0
LINE
  5
B5
  8
0
  6
CONTINUOUS
 62
     7
 10
-379.3435804542349
 20
-79.82922630407866
 30
0.0
 11
-379.3435804542349
 21
-91.82922630407866
 31
0.0
  0
LINE
  5
B6
  8
0
  6
CONTINUOUS
 62
     7
 10
-376.8435804542349
 20
-79.82922630407863
 30
0.0
 11
-376.8435804542349
 21
-93.57922630407859
 31
0.0
  0
LINE
  5
B7
  8
0
  6
CONTINUOUS
 62
     7
 10
-406.4313117763273
 20
-75.82922630407865
 30
0.0
 11
-406.4313117763273
 21
-77.5267794209662
 31
0.0
  0
LINE
  5
B8
  8
0
  6
CONTINUOUS
 62
     7
 10
-408.8558491321425
 20
-83.82922630407866
 30
0.0
 11
-408.8558491321425
 21
-75.82922630407865
 31
0.0
  0
LINE
  5
B9
  8
0
  6
CONTINUOUS
 62
     7
 10
-406.4313117763273
 20
-82.13167318719111
 30
0.0
 11
-406.4313117763273
 21
-83.82922630407866
 31
0.0
  0
LINE
  5
BA
  8
0
  6
CONTINUOUS
 62
     7
 10
-396.5435804542349
 20
-77.5267794209662
 30
0.0
 11
-396.5435804542349
 21
-82.13167318719114
 31
0.0
  0
LINE
  5
BB
  8
0
  6
CONTINUOUS
 62
     7
 10
-404.3435804542349
 20
-83.32922630407866
 30
0.0
 11
-404.3435804542349
 21
-91.82922630407866
 31
0.0
  0
LINE
  5
BC
  8
0
  6
CONTINUOUS
 62
     7
 10
-382.6435804542352
 20
-83.32922630407866
 30
0.0
 11
-404.3435804542349
 21
-83.32922630407866
 31
0.0
  0
LINE
  5
BD
  8
0
  6
CONTINUOUS
 62
     7
 10
-408.7826199024597
 20
-76.37922630407864
 30
0.0
 11
-408.7804130648099
 21
-76.92152609889041
 31
0.0
  0
LINE
  5
BE
  8
0
  6
CONTINUOUS
 62
     7
 10
-408.7804130648099
 20
-82.73692650926661
 30
0.0
 11
-408.7826199024596
 21
-83.27922630407866
 31
0.0
  0
LINE
  5
BF
  8
0
  6
CONTINUOUS
 62
     7
 10
-408.7979000035311
 20
-81.82922630407866
 30
0.0
 11
-408.803487925398
 21
-81.92922630407864
 31
0.0
  0
LINE
  5
C0
  8
0
  6
CONTINUOUS
 62
     7
 10
-406.5045410060102
 20
-83.27922630407866
 30
0.0
 11
-406.5052113114038
 21
-83.11450803517428
 31
0.0
  0
LINE
  5
C1
  8
0
  6
CONTINUOUS
 62
     7
 10
-406.5052113114038
 20
-76.54394457298302
 30
0.0
 11
-406.5045410060102
 21
-76.37922630407864
 31
0.0
  0
LINE
  5
C2
  8
0
  6
CONTINUOUS
 62
     7
 10
-386.3435804542351
 20
-65.57922630407865
 30
0.0
 11
-386.3435804542352
 21
-66.07922630407865
 31
0.0
  0
LINE
  5
C3
  8
0
  6
CONTINUOUS
 62
     7
 10
-412.3435804542349
 20
-65.57922630407865
 30
0.0
 11
-386.3435804542351
 21
-65.57922630407856
 31
0.0
  0
LINE
  5
C4
  8
0
  6
CONTINUOUS
 62
     7
 10
-376.8435804542349
 20
-94.0792263040786
 30
0.0
 11
-412.3435804542349
 21
-94.0792263040786
 31
0.0
  0
LINE
  5
C5
  8
0
  6
CONTINUOUS
 62
     7
 10
-376.8435804542349
 20
-93.57922630407859
 30
0.0
 11
-376.8435804542349
 21
-94.0792263040786
 31
0.0
  0
LINE
  5
C6
  8
0
  6
CONTINUOUS
 62
     7
 10
-408.803487925398
 20
-77.72922630407867
 30
0.0
 11
-408.7979000035312
 21
-77.82922630407865
 31
0.0
  0
LINE
  5
C7
  8
0
  6
CONTINUOUS
 62
     7
 10
-408.803487925398
 20
-81.92922630407864
 30
0.0
 11
-408.803487925398
 21
-77.72922630407867
 31
0.0
  0
LINE
  5
C8
  8
0
  6
CONTINUOUS
 62
     7
 10
-379.3435804542349
 20
-79.82922630407866
 30
0.0
 11
-379.3950316230893
 21
-79.82922630407866
 31
0.0
  0
LINE
  5
C9
  8
0
  6
CONTINUOUS
 62
     7
 10
-414.4818220974394
 20
-75.82922630407865
 30
0.0
 11
-414.7818220974394
 21
-75.82922630407865
 31
0.0
  0
LINE
  5
CA
  8
0
  6
CONTINUOUS
 62
     7
 10
-414.7818220974394
 20
-83.82922630407866
 30
0.0
 11
-414.4818220974394
 21
-83.82922630407866
 31
0.0
  0
LINE
  5
CB
  8
0
  6
CONTINUOUS
 62
     7
 10
-414.4818220974394
 20
-83.82922630407866
 30
0.0
 11
-413.143580454235
 21
-82.49098466087418
 31
0.0
  0
LINE
  5
CC
  8
0
  6
CONTINUOUS
 62
     7
 10
-413.143580454235
 20
-77.16746794728316
 30
0.0
 11
-414.4818220974394
 21
-75.82922630407865
 31
0.0
  0
LINE
  5
CD
  8
0
  6
CONTINUOUS
 62
     7
 10
-402.7818220974394
 20
-77.82922630407865
 30
0.0
 11
-406.48041306481
 21
-77.82922630407865
 31
0.0
  0
LINE
  5
CE
  8
0
  6
CONTINUOUS
 62
     7
 10
-408.7804130648099
 20
-77.82922630407865
 30
0.0
 11
-408.8090758472647
 21
-77.82922630407865
 31
0.0
  0
LINE
  5
CF
  8
0
  6
CONTINUOUS
 62
     7
 10
-408.8090758472648
 20
-81.82922630407866
 30
0.0
 11
-408.78041306481
 21
-81.82922630407866
 31
0.0
  0
LINE
  5
D0
  8
0
  6
CONTINUOUS
 62
     7
 10
-406.48041306481
 20
-81.82922630407866
 30
0.0
 11
-402.7818220974394
 21
-81.82922630407866
 31
0.0
  0
LINE
  5
D1
  8
0
  6
CONTINUOUS
 62
     7
 10
-408.5447850482626
 20
-76.37922630407864
 30
0.0
 11
-408.7804130648099
 21
-76.56331908660937
 31
0.0
  0
LINE
  5
D2
  8
0
  6
CONTINUOUS
 62
     7
 10
-408.7804130648099
 20
-83.09513352154796
 30
0.0
 11
-408.5447850482626
 21
-83.27922630407866
 31
0.0
  0
LINE
  5
D3
  8
0
  6
CONTINUOUS
 62
     7
 10
-406.7160410813573
 20
-83.27922630407866
 30
0.0
 11
-406.48041306481
 21
-83.09513352154796
 31
0.0
  0
LINE
  5
D4
  8
0
  6
CONTINUOUS
 62
     7
 10
-406.48041306481
 20
-76.56331908660937
 30
0.0
 11
-406.7160410813573
 21
-76.37922630407864
 31
0.0
  0
LINE
  5
D5
  8
0
  6
CONTINUOUS
 62
     7
 10
-379.3464222332304
 20
-79.20138539498775
 30
0.0
 11
-379.3435804542349
 21
-79.20138539498775
 31
0.0
  0
LINE
  5
D6
  8
0
  6
CONTINUOUS
 62
     7
 10
-379.3514079102591
 20
-79.32922630407867
 30
0.0
 11
-379.3435804542349
 21
-79.32922630407867
 31
0.0
  0
ENDBLK
  8
0
  0
BLOCK
  8
0
  2
D_FRAME_VIEW_2089
 70
     0
 10
0.0
 20
0.0
 30
0.0
  0
LINE
  5
DB
  8
0
  6
CONTINUOUS
 62
     7
 10
-436.979688573945
 20
-123.1750651412292
 30
0.0
 11
-438.0287924330722
 21
-123.1750651412292
 31
0.0
  0
LINE
  5
DC
  8
0
  6
CONTINUOUS
 62
     7
 10
-436.979688573945
 20
-122.8750651412292
 30
0.0
 11
-438.0287924330722
 21
-122.8750651412292
 31
0.0
  0
LINE
  5
DD
  8
0
  6
CONTINUOUS
 62
     7
 10
-438.0287924330722
 20
-123.1750651412292
 30
0.0
 11
-444.979688573945
 21
-123.1750651412292
 31
0.0
  0
LINE
  5
DE
  8
0
  6
CONTINUOUS
 62
     7
 10
-438.0287924330722
 20
-122.8750651412292
 30
0.0
 11
-444.979688573945
 21
-122.8750651412292
 31
0.0
  0
LINE
  5
DF
  8
0
  6
CONTINUOUS
 62
     7
 10
-545.9796885739449
 20
-123.1750651412292
 30
0.0
 11
-553.9796885739449
 21
-123.1750651412292
 31
0.0
  0
LINE
  5
E0
  8
0
  6
CONTINUOUS
 62
     7
 10
-545.9796885739449
 20
-122.8750651412292
 30
0.0
 11
-553.9796885739449
 21
-122.8750651412292
 31
0.0
  0
LINE
  5
E1
  8
0
  6
CONTINUOUS
 62
     7
 10
-548.3151936784353
 20
-156.3133067844331
 30
0.0
 11
-553.4796885739499
 21
-156.3133067844331
 31
0.0
  0
LINE
  5
E2
  8
0
  6
CONTINUOUS
 62
     7
 10
-537.7916541472277
 20
-155.6783369567082
 30
0.0
 11
-530.2391550933276
 21
-155.1263036817558
 31
0.0
  0
POLYLINE
  5
E3
  8
0
  6
CONTINUOUS
 62
     7
 66
     1
 10
0.0
 20
0.0
 30
0.0
  0
VERTEX
  5
1C3
  8
0
  6
CONTINUOUS
 62
     7
 10
-540.373955437926
 20
-158.3133067844329
 30
0.0
  0
VERTEX
  5
1C4
  8
0
  6
CONTINUOUS
 62
     7
 10
-539.877657523029
 20
-158.2630010334861
 30
0.0
  0
VERTEX
  5
1C5
  8
0
  6
CONTINUOUS
 62
     7
 10
-539.3998534150224
 20
-158.1139583499631
 30
0.0
  0
VERTEX
  5
1C6
  8
0
  6
CONTINUOUS
 62
     7
 10
-538.9583477764685
 20
-157.871732588766
 30
0.0
  0
VERTEX
  5
1C7
  8
0
  6
CONTINUOUS
 62
     7
 10
-538.5695926612149
 20
-157.5453499342025
 30
0.0
  0
VERTEX
  5
1C8
  8
0
  6
CONTINUOUS
 62
     7
 10
-538.2480744529709
 20
-157.1469725525941
 30
0.0
  0
VERTEX
  5
1C9
  8
0
  6
CONTINUOUS
 62
     7
 10
-538.0057740516687
 20
-156.691445387157
 30
0.0
  0
VERTEX
  5
1CA
  8
0
  6
CONTINUOUS
 62
     7
 10
-537.8517204229694
 20
-156.1957429831757
 30
0.0
  0
VERTEX
  5
1CB
  8
0
  6
CONTINUOUS
 62
     7
 10
-537.7916541472267
 20
-155.6783369567082
 30
0.0
  0
SEQEND
  5
27F
  8
0
  6
CONTINUOUS
 62
     7
  0
POLYLINE
  5
E4
  8
0
  6
CONTINUOUS
 62
     7
 66
     1
 10
0.0
 20
0.0
 30
0.0
  0
VERTEX
  5
1CC
  8
0
  6
CONTINUOUS
 62
     7
 10
-539.8006935122766
 20
-156.3133067844331
 30
0.0
  0
VERTEX
  5
1CD
  8
0
  6
CONTINUOUS
 62
     7
 10
-539.7820295057684
 20
-156.3113853124734
 30
0.0
  0
VERTEX
  5
1CE
  8
0
  6
CONTINUOUS
 62
     7
 10
-539.7640827465635
 20
-156.3056947376842
 30
0.0
  0
VERTEX
  5
1CF
  8
0
  6
CONTINUOUS
 62
     7
 10
-539.7475429185534
 20
-156.2964537456633
 30
0.0
  0
VERTEX
  5
1D0
  8
0
  6
CONTINUOUS
 62
     7
 10
-539.7330456380529
 20
-156.2840174625518
 30
0.0
  0
VERTEX
  5
1D1
  8
0
  6
CONTINUOUS
 62
     7
 10
-539.7211480274213
 20
-156.268863807735
 30
0.0
  0
VERTEX
  5
1D2
  8
0
  6
CONTINUOUS
 62
     7
 10
-539.7123073051632
 20
-156.2515751276696
 30
0.0
  0
VERTEX
  5
1D3
  8
0
  6
CONTINUOUS
 62
     7
 10
-539.7068632152769
 20
-156.2328158166347
 30
0.0
  0
VERTEX
  5
1D4
  8
0
  6
CONTINUOUS
 62
     7
 10
-539.7050249710837
 20
-156.2133067844331
 30
0.0
  0
SEQEND
  5
280
  8
0
  6
CONTINUOUS
 62
     7
  0
LINE
  5
E5
  8
0
  6
CONTINUOUS
 62
     7
 10
-539.7050249710837
 20
-155.6783369567082
 30
0.0
 11
-539.7050249710837
 21
-156.2133067844331
 31
0.0
  0
POLYLINE
  5
E6
  8
0
  6
CONTINUOUS
 62
     7
 66
     1
 10
0.0
 20
0.0
 30
0.0
  0
VERTEX
  5
1D5
  8
0
  6
CONTINUOUS
 62
     7
 10
-537.9251241488647
 20
-153.6832088561886
 30
0.0
  0
VERTEX
  5
1D6
  8
0
  6
CONTINUOUS
 62
     7
 10
-538.2788020866212
 20
-153.7442450788803
 30
0.0
  0
VERTEX
  5
1D7
  8
0
  6
CONTINUOUS
 62
     7
 10
-538.6153815192073
 20
-153.8731663880085
 30
0.0
  0
VERTEX
  5
1D8
  8
0
  6
CONTINUOUS
 62
     7
 10
-538.9230487762716
 20
-154.0654477481732
 30
0.0
  0
VERTEX
  5
1D9
  8
0
  6
CONTINUOUS
 62
     7
 10
-539.1910049818255
 20
-154.3143402365832
 30
0.0
  0
VERTEX
  5
1DA
  8
0
  6
CONTINUOUS
 62
     7
 10
-539.4098450862001
 20
-154.611107924877
 30
0.0
  0
VERTEX
  5
1DB
  8
0
  6
CONTINUOUS
 62
     7
 10
-539.5718879758083
 20
-154.9453345032596
 30
0.0
  0
VERTEX
  5
1DC
  8
0
  6
CONTINUOUS
 62
     7
 10
-539.6714460741222
 20
-155.3052888846908
 30
0.0
  0
VERTEX
  5
1DD
  8
0
  6
CONTINUOUS
 62
     7
 10
-539.7050249710845
 20
-155.6783369567083
 30
0.0
  0
SEQEND
  5
281
  8
0
  6
CONTINUOUS
 62
     7
  0
LINE
  5
E7
  8
0
  6
CONTINUOUS
 62
     7
 10
-530.2391550933276
 20
-153.1214198855926
 30
0.0
 11
-537.9251241488647
 21
-153.6832088561877
 31
0.0
  0
LINE
  5
E8
  8
0
  6
CONTINUOUS
 62
     7
 10
-539.8006935122766
 20
-156.3133067844331
 30
0.0
 11
-548.3151936784358
 21
-156.3133067844331
 31
0.0
  0
LINE
  5
E9
  8
0
  6
CONTINUOUS
 62
     7
 10
-543.2553617022879
 20
-156.3133067844331
 30
0.0
 11
-543.198509657612
 21
-156.2133067844331
 31
0.0
  0
LINE
  5
EA
  8
0
  6
CONTINUOUS
 62
     7
 10
-543.198509657612
 20
-156.2133067844331
 30
0.0
 11
-543.198509657612
 21
-155.6783369567082
 31
0.0
  0
POLYLINE
  5
EB
  8
0
  6
CONTINUOUS
 62
     7
 66
     1
 10
0.0
 20
0.0
 30
0.0
  0
VERTEX
  5
1DE
  8
0
  6
CONTINUOUS
 62
     7
 10
-542.1407847273302
 20
-153.6832088561886
 30
0.0
  0
VERTEX
  5
1DF
  8
0
  6
CONTINUOUS
 62
     7
 10
-542.3509615907743
 20
-153.7442450788803
 30
0.0
  0
VERTEX
  5
1E0
  8
0
  6
CONTINUOUS
 62
     7
 10
-542.5509774862793
 20
-153.8731663880085
 30
0.0
  0
VERTEX
  5
1E1
  8
0
  6
CONTINUOUS
 62
     7
 10
-542.7338120150159
 20
-154.0654477481733
 30
0.0
  0
VERTEX
  5
1E2
  8
0
  6
CONTINUOUS
 62
     7
 10
-542.8930478304612
 20
-154.3143402365832
 30
0.0
  0
VERTEX
  5
1E3
  8
0
  6
CONTINUOUS
 62
     7
 10
-543.0230958821577
 20
-154.611107924877
 30
0.0
  0
VERTEX
  5
1E4
  8
0
  6
CONTINUOUS
 62
     7
 10
-543.1193915869374
 20
-154.9453345032596
 30
0.0
  0
VERTEX
  5
1E5
  8
0
  6
CONTINUOUS
 62
     7
 10
-543.1785550421611
 20
-155.3052888846908
 30
0.0
  0
VERTEX
  5
1E6
  8
0
  6
CONTINUOUS
 62
     7
 10
-543.1985096576121
 20
-155.6783369567082
 30
0.0
  0
SEQEND
  5
282
  8
0
  6
CONTINUOUS
 62
     7
  0
LINE
  5
EC
  8
0
  6
CONTINUOUS
 62
     7
 10
-541.6635044513648
 20
-153.6245043921845
 30
0.0
 11
-541.0146056113734
 21
-153.5685629426297
 31
0.0
  0
LINE
  5
ED
  8
0
  6
CONTINUOUS
 62
     7
 10
-541.0146056113734
 20
-153.5685629426297
 30
0.0
 11
-538.0599235976001
 21
-153.3525969720463
 31
0.0
  0
POLYLINE
  5
EE
  8
0
  6
CONTINUOUS
 62
     7
 66
     1
 10
0.0
 20
0.0
 30
0.0
  0
VERTEX
  5
1E7
  8
0
  6
CONTINUOUS
 62
     7
 10
-528.8573724323595
 20
-152.9823432322946
 30
0.0
  0
VERTEX
  5
1E8
  8
0
  6
CONTINUOUS
 62
     7
 10
-530.036605683326
 20
-152.980406936225
 30
0.0
  0
VERTEX
  5
1E9
  8
0
  6
CONTINUOUS
 62
     7
 10
-531.9721260405346
 20
-153.0353481496786
 30
0.0
  0
VERTEX
  5
1EA
  8
0
  6
CONTINUOUS
 62
     7
 10
-534.588646621845
 20
-153.1450297973998
 30
0.0
  0
SEQEND
  5
283
  8
0
  6
CONTINUOUS
 62
     7
  0
LINE
  5
EF
  8
0
  6
CONTINUOUS
 62
     7
 10
-528.8214025410821
 20
-152.9876239638146
 30
0.0
 11
-528.8573724323597
 21
-152.9823432322946
 31
0.0
  0
LINE
  5
F0
  8
0
  6
CONTINUOUS
 62
     7
 10
-542.1407847273302
 20
-153.6832088561877
 30
0.0
 11
-541.663504451365
 21
-153.6245043921845
 31
0.0
  0
POLYLINE
  5
F1
  8
0
  6
CONTINUOUS
 62
     7
 66
     1
 10
0.0
 20
0.0
 30
0.0
  0
VERTEX
  5
1EB
  8
0
  6
CONTINUOUS
 62
     7
 10
-530.2391550933274
 20
-153.1214198855926
 30
0.0
  0
VERTEX
  5
1EC
  8
0
  6
CONTINUOUS
 62
     7
 10
-529.8485985037031
 20
-153.0919151496182
 30
0.0
  0
VERTEX
  5
1ED
  8
0
  6
CONTINUOUS
 62
     7
 10
-529.5018320669865
 20
-153.063738550504
 30
0.0
  0
VERTEX
  5
1EE
  8
0
  6
CONTINUOUS
 62
     7
 10
-529.214465253023
 20
-153.0381584398771
 30
0.0
  0
VERTEX
  5
1EF
  8
0
  6
CONTINUOUS
 62
     7
 10
-528.9994336955483
 20
-153.0163262900924
 30
0.0
  0
VERTEX
  5
1F0
  8
0
  6
CONTINUOUS
 62
     7
 10
-528.8664169028909
 20
-152.9992248614392
 30
0.0
  0
VERTEX
  5
1F1
  8
0
  6
CONTINUOUS
 62
     7
 10
-528.8214025410821
 20
-152.9876239638146
 30
0.0
  0
SEQEND
  5
284
  8
0
  6
CONTINUOUS
 62
     7
  0
POLYLINE
  5
F2
  8
0
  6
CONTINUOUS
 62
     7
 66
     1
 10
0.0
 20
0.0
 30
0.0
  0
VERTEX
  5
1F2
  8
0
  6
CONTINUOUS
 62
     7
 10
-530.2391550933274
 20
-155.1263036817558
 30
0.0
  0
VERTEX
  5
1F3
  8
0
  6
CONTINUOUS
 62
     7
 10
-529.8485985037031
 20
-155.0967989457814
 30
0.0
  0
VERTEX
  5
1F4
  8
0
  6
CONTINUOUS
 62
     7
 10
-529.5018320669865
 20
-155.0686223466671
 30
0.0
  0
VERTEX
  5
1F5
  8
0
  6
CONTINUOUS
 62
     7
 10
-529.214465253023
 20
-155.0430422360402
 30
0.0
  0
VERTEX
  5
1F6
  8
0
  6
CONTINUOUS
 62
     7
 10
-528.9994336955483
 20
-155.0212100862555
 30
0.0
  0
VERTEX
  5
1F7
  8
0
  6
CONTINUOUS
 62
     7
 10
-528.8664169028909
 20
-155.0041086576024
 30
0.0
  0
VERTEX
  5
1F8
  8
0
  6
CONTINUOUS
 62
     7
 10
-528.8214025410821
 20
-154.9925077599777
 30
0.0
  0
SEQEND
  5
285
  8
0
  6
CONTINUOUS
 62
     7
  0
LINE
  5
F3
  8
0
  6
CONTINUOUS
 62
     7
 10
-431.4796885739449
 20
-124.5133067844337
 30
0.0
 11
-559.4796885739449
 21
-124.5133067844337
 31
0.0
  0
LINE
  5
F4
  8
0
  6
CONTINUOUS
 62
     7
 10
-431.4796885739449
 20
-125.3133067844337
 30
0.0
 11
-559.4796885739449
 21
-125.3133067844337
 31
0.0
  0
LINE
  5
F5
  8
0
  6
CONTINUOUS
 62
     7
 10
-560.4796885739449
 20
-125.3133067844337
 30
0.0
 11
-560.4796885739449
 21
-124.5133067844337
 31
0.0
  0
LINE
  5
F6
  8
0
  6
CONTINUOUS
 62
     7
 10
-560.4796885739449
 20
-124.5133067844337
 30
0.0
 11
-559.4796885739449
 21
-124.5133067844337
 31
0.0
  0
LINE
  5
F7
  8
0
  6
CONTINUOUS
 62
     7
 10
-559.4796885739449
 20
-125.3133067844337
 30
0.0
 11
-560.4796885739449
 21
-125.3133067844337
 31
0.0
  0
LINE
  5
F8
  8
0
  6
CONTINUOUS
 62
     7
 10
-430.4796885739449
 20
-124.5133067844337
 30
0.0
 11
-430.4796885739449
 21
-125.3133067844337
 31
0.0
  0
LINE
  5
F9
  8
0
  6
CONTINUOUS
 62
     7
 10
-431.4796885739449
 20
-124.5133067844337
 30
0.0
 11
-430.4796885739449
 21
-124.5133067844337
 31
0.0
  0
LINE
  5
FA
  8
0
  6
CONTINUOUS
 62
     7
 10
-430.4796885739449
 20
-125.3133067844337
 30
0.0
 11
-431.4796885739449
 21
-125.3133067844337
 31
0.0
  0
LINE
  5
FB
  8
0
  6
CONTINUOUS
 62
     7
 10
-555.9796885739449
 20
-151.3133067844335
 30
0.0
 11
-555.9796885739449
 21
-125.3133067844337
 31
0.0
  0
ARC
  5
FC
  8
0
  6
CONTINUOUS
 62
     7
 10
-527.7296885739444
 20
-148.1133067844335
 30
0.0
 40
0.5000000000000004
 50
0.0
 51
90.0
  0
LINE
  5
FD
  8
0
  6
CONTINUOUS
 62
     7
 10
-542.2296885739445
 20
-147.6133067844335
 30
0.0
 11
-527.7296885739444
 21
-147.6133067844335
 31
0.0
  0
ARC
  5
FE
  8
0
  6
CONTINUOUS
 62
     7
 10
-542.2296885739445
 20
-148.1133067844335
 30
0.0
 40
0.5000000000000004
 50
90.0
 51
180.0
  0
LINE
  5
FF
  8
0
  6
CONTINUOUS
 62
     7
 10
-542.7296885739449
 20
-152.3133067844336
 30
0.0
 11
-542.7296885739445
 21
-148.1133067844335
 31
0.0
  0
LINE
  5
100
  8
0
  6
CONTINUOUS
 62
     7
 10
-542.7296885739449
 20
-152.3133067844336
 30
0.0
 11
-545.2296885739449
 21
-152.3133067844336
 31
0.0
  0
LINE
  5
101
  8
0
  6
CONTINUOUS
 62
     7
 10
-545.2296885739449
 20
-152.3133067844337
 30
0.0
 11
-545.2296885739449
 21
-129.3133067844337
 31
0.0
  0
LINE
  5
102
  8
0
  6
CONTINUOUS
 62
     7
 10
-545.2296885739449
 20
-129.3133067844337
 30
0.0
 11
-553.7296885739448
 21
-129.3133067844337
 31
0.0
  0
LINE
  5
103
  8
0
  6
CONTINUOUS
 62
     7
 10
-553.7296885739448
 20
-158.3133067844337
 30
0.0
 11
-553.7296885739448
 21
-129.3133067844337
 31
0.0
  0
LINE
  5
104
  8
0
  6
CONTINUOUS
 62
     7
 10
-527.7296885739444
 20
-158.3133067844337
 30
0.0
 11
-553.7296885739448
 21
-158.3133067844337
 31
0.0
  0
ARC
  5
105
  8
0
  6
CONTINUOUS
 62
     7
 10
-527.7296885739444
 20
-157.8133067844337
 30
0.0
 40
0.5000000000000004
 50
270.0
 51
0.0
  0
LINE
  5
106
  8
0
  6
CONTINUOUS
 62
     7
 10
-527.2296885739445
 20
-148.1133067844335
 30
0.0
 11
-527.2296885739445
 21
-157.8133067844337
 31
0.0
  0
LINE
  5
107
  8
0
  6
CONTINUOUS
 62
     7
 10
-435.479688573945
 20
-160.8133067844337
 30
0.0
 11
-462.4796885739449
 21
-160.8133067844334
 31
0.0
  0
LINE
  5
108
  8
0
  6
CONTINUOUS
 62
     7
 10
-462.4796885739449
 20
-148.8133067844333
 30
0.0
 11
-462.4796885739449
 21
-160.8133067844334
 31
0.0
  0
ARC
  5
109
  8
0
  6
CONTINUOUS
 62
     7
 10
-464.9796885739449
 20
-148.8133067844333
 30
0.0
 40
2.500000000000016
 50
0.0
 51
90.00000000000016
  0
LINE
  5
10A
  8
0
  6
CONTINUOUS
 62
     7
 10
-480.9796885739451
 20
-146.3133067844333
 30
0.0
 11
-464.9796885739449
 21
-146.3133067844333
 31
0.0
  0
ARC
  5
10B
  8
0
  6
CONTINUOUS
 62
     7
 10
-480.979688573945
 20
-148.8133067844333
 30
0.0
 40
2.50000000000003
 50
90.00000000000021
 51
180.0000000000004
  0
LINE
  5
10C
  8
0
  6
CONTINUOUS
 62
     7
 10
-483.4796885739451
 20
-160.8133067844334
 30
0.0
 11
-483.4796885739451
 21
-148.8133067844334
 31
0.0
  0
LINE
  5
10D
  8
0
  6
CONTINUOUS
 62
     7
 10
-483.4796885739451
 20
-160.8133067844334
 30
0.0
 11
-495.4796885739449
 21
-160.8133067844337
 31
0.0
  0
LINE
  5
10E
  8
0
  6
CONTINUOUS
 62
     7
 10
-495.4796885739449
 20
-160.8133067844337
 30
0.0
 11
-555.4796885739449
 21
-160.8133067844337
 31
0.0
  0
LINE
  5
10F
  8
0
  6
CONTINUOUS
 62
     7
 10
-555.9796885739449
 20
-156.9165710778396
 30
0.0
 11
-555.9796885739449
 21
-152.7100424910277
 31
0.0
  0
LINE
  5
110
  8
0
  6
CONTINUOUS
 62
     7
 10
-464.6343891123242
 20
-160.8133067844337
 30
0.0
 11
-481.3249880355656
 21
-160.8133067844337
 31
0.0
  0
LINE
  5
111
  8
0
  6
CONTINUOUS
 62
     7
 10
-482.6381313449659
 20
-155.9599765495988
 30
0.0
 11
-482.6021231390216
 21
-148.8133067844337
 31
0.0
  0
LINE
  5
112
  8
0
  6
CONTINUOUS
 62
     7
 10
-463.312652179724
 20
-157.6655818550174
 30
0.0
 11
-463.3093886439206
 21
-158.3133067844342
 31
0.0
  0
LINE
  5
113
  8
0
  6
CONTINUOUS
 62
     7
 10
-463.4796885739449
 20
-160.8133067844337
 30
0.0
 11
-463.3093886439206
 21
-158.3133067844342
 31
0.0
  0
LINE
  5
114
  8
0
  6
CONTINUOUS
 62
     7
 10
-463.4796885739449
 20
-160.8133067844337
 30
0.0
 11
-464.6343891123242
 21
-160.8133067844337
 31
0.0
  0
POLYLINE
  5
115
  8
0
  6
CONTINUOUS
 62
     7
 66
     1
 10
0.0
 20
0.0
 30
0.0
  0
VERTEX
  5
1F9
  8
0
  6
CONTINUOUS
 62
     7
 10
-480.9796885739449
 20
-147.1990058093892
 30
0.0
  0
VERTEX
  5
1FA
  8
0
  6
CONTINUOUS
 62
     7
 10
-481.2952116063781
 20
-147.2299821882987
 30
0.0
  0
VERTEX
  5
1FB
  8
0
  6
CONTINUOUS
 62
     7
 10
-481.5986866794048
 20
-147.3217285202323
 30
0.0
  0
VERTEX
  5
1FC
  8
0
  6
CONTINUOUS
 62
     7
 10
-481.8785258739671
 20
-147.4707415551282
 30
0.0
  0
VERTEX
  5
1FD
  8
0
  6
CONTINUOUS
 62
     7
 10
-482.1240437854831
 20
-147.6713313660686
 30
0.0
  0
VERTEX
  5
1FE
  8
0
  6
CONTINUOUS
 62
     7
 10
-482.3258655362817
 20
-147.9158386139525
 30
0.0
  0
VERTEX
  5
1FF
  8
0
  6
CONTINUOUS
 62
     7
 10
-482.4762847467612
 20
-148.1949270123783
 30
0.0
  0
VERTEX
  5
200
  8
0
  6
CONTINUOUS
 62
     7
 10
-482.5695577964706
 20
-148.4979398252301
 30
0.0
  0
VERTEX
  5
201
  8
0
  6
CONTINUOUS
 62
     7
 10
-482.6021231390216
 20
-148.8133067844337
 30
0.0
  0
SEQEND
  5
286
  8
0
  6
CONTINUOUS
 62
     7
  0
LINE
  5
116
  8
0
  6
CONTINUOUS
 62
     7
 10
-555.9796885739449
 20
-160.8133067844337
 30
0.0
 11
-555.9796885739448
 21
-158.3133067844337
 31
0.0
  0
LINE
  5
117
  8
0
  6
CONTINUOUS
 62
     7
 10
-555.4796885739449
 20
-160.8133067844337
 30
0.0
 11
-555.9796885739449
 21
-160.8133067844337
 31
0.0
  0
LINE
  5
118
  8
0
  6
CONTINUOUS
 62
     7
 10
-463.3572540088682
 20
-148.8133067844337
 30
0.0
 11
-463.321245802924
 21
-155.9599765495988
 31
0.0
  0
POLYLINE
  5
119
  8
0
  6
CONTINUOUS
 62
     7
 66
     1
 10
0.0
 20
0.0
 30
0.0
  0
VERTEX
  5
202
  8
0
  6
CONTINUOUS
 62
     7
 10
-463.3572540088683
 20
-148.8133067844337
 30
0.0
  0
VERTEX
  5
203
  8
0
  6
CONTINUOUS
 62
     7
 10
-463.3898193514193
 20
-148.4979398252301
 30
0.0
  0
VERTEX
  5
204
  8
0
  6
CONTINUOUS
 62
     7
 10
-463.4830924011287
 20
-148.1949270123783
 30
0.0
  0
VERTEX
  5
205
  8
0
  6
CONTINUOUS
 62
     7
 10
-463.6335116116082
 20
-147.9158386139525
 30
0.0
  0
VERTEX
  5
206
  8
0
  6
CONTINUOUS
 62
     7
 10
-463.8353333624067
 20
-147.6713313660686
 30
0.0
  0
VERTEX
  5
207
  8
0
  6
CONTINUOUS
 62
     7
 10
-464.0808512739228
 20
-147.4707415551282
 30
0.0
  0
VERTEX
  5
208
  8
0
  6
CONTINUOUS
 62
     7
 10
-464.3606904684851
 20
-147.3217285202323
 30
0.0
  0
VERTEX
  5
209
  8
0
  6
CONTINUOUS
 62
     7
 10
-464.6641655415117
 20
-147.2299821882987
 30
0.0
  0
VERTEX
  5
20A
  8
0
  6
CONTINUOUS
 62
     7
 10
-464.9796885739449
 20
-147.1990058093892
 30
0.0
  0
SEQEND
  5
287
  8
0
  6
CONTINUOUS
 62
     7
  0
LINE
  5
11A
  8
0
  6
CONTINUOUS
 62
     7
 10
-481.3249880355656
 20
-160.8133067844337
 30
0.0
 11
-482.4796885739448
 21
-160.8133067844337
 31
0.0
  0
LINE
  5
11B
  8
0
  6
CONTINUOUS
 62
     7
 10
-482.6499885039693
 20
-158.3133067844337
 30
0.0
 11
-482.4796885739449
 21
-160.8133067844337
 31
0.0
  0
LINE
  5
11C
  8
0
  6
CONTINUOUS
 62
     7
 10
-482.6499885039693
 20
-158.3133067844337
 30
0.0
 11
-482.6467249681659
 21
-157.6655818550174
 31
0.0
  0
LINE
  5
11D
  8
0
  6
CONTINUOUS
 62
     7
 10
-472.1209384080736
 20
-147.1990058093892
 30
0.0
 11
-464.9796885739449
 21
-147.1990058093892
 31
0.0
  0
LINE
  5
11E
  8
0
  6
CONTINUOUS
 62
     7
 10
-480.9796885739449
 20
-147.1990058093892
 30
0.0
 11
-473.8384387398162
 21
-147.1990058093892
 31
0.0
  0
LINE
  5
11F
  8
0
  6
CONTINUOUS
 62
     7
 10
-542.7296885739449
 20
-152.5003267029909
 30
0.0
 11
-542.7354685897263
 21
-152.5003267029909
 31
0.0
  0
LINE
  5
120
  8
0
  6
CONTINUOUS
 62
     7
 10
-434.979688573945
 20
-125.3133067844337
 30
0.0
 11
-434.979688573945
 21
-160.8133067844337
 31
0.0
  0
LINE
  5
121
  8
0
  6
CONTINUOUS
 62
     7
 10
-434.979688573945
 20
-160.8133067844337
 30
0.0
 11
-435.479688573945
 21
-160.8133067844337
 31
0.0
  0
LINE
  5
122
  8
0
  6
CONTINUOUS
 62
     7
 10
-463.4796885739449
 20
-160.8133067844335
 30
0.0
 11
-462.4796885739449
 21
-160.8133067844334
 31
0.0
  0
LINE
  5
123
  8
0
  6
CONTINUOUS
 62
     7
 10
-483.4796885739451
 20
-160.8133067844337
 30
0.0
 11
-482.4796885739449
 21
-160.8133067844337
 31
0.0
  0
LINE
  5
124
  8
0
  6
CONTINUOUS
 62
     7
 10
-555.9796885739449
 20
-152.7100424910277
 30
0.0
 11
-555.9796885739449
 21
-151.3133067844335
 31
0.0
  0
LINE
  5
125
  8
0
  6
CONTINUOUS
 62
     7
 10
-555.9796885739449
 20
-158.3133067844337
 30
0.0
 11
-555.9796885739449
 21
-156.9165710778396
 31
0.0
  0
LINE
  5
126
  8
0
  6
CONTINUOUS
 62
     7
 10
-436.979688573945
 20
-123.1750651412292
 30
0.0
 11
-436.979688573945
 21
-122.8750651412292
 31
0.0
  0
LINE
  5
127
  8
0
  6
CONTINUOUS
 62
     7
 10
-444.979688573945
 20
-122.8750651412292
 30
0.0
 11
-444.979688573945
 21
-123.1750651412292
 31
0.0
  0
LINE
  5
128
  8
0
  6
CONTINUOUS
 62
     7
 10
-444.979688573945
 20
-123.1750651412292
 30
0.0
 11
-443.6414469307405
 21
-124.5133067844337
 31
0.0
  0
LINE
  5
129
  8
0
  6
CONTINUOUS
 62
     7
 10
-438.3179302171495
 20
-124.5133067844337
 30
0.0
 11
-436.9796885739451
 21
-123.1750651412292
 31
0.0
  0
LINE
  5
12A
  8
0
  6
CONTINUOUS
 62
     7
 10
-553.9796885739449
 20
-123.1750651412292
 30
0.0
 11
-552.6414469307405
 21
-124.5133067844337
 31
0.0
  0
LINE
  5
12B
  8
0
  6
CONTINUOUS
 62
     7
 10
-547.3179302171493
 20
-124.5133067844337
 30
0.0
 11
-545.9796885739448
 21
-123.1750651412292
 31
0.0
  0
LINE
  5
12C
  8
0
  6
CONTINUOUS
 62
     7
 10
-545.9796885739449
 20
-123.1750651412292
 30
0.0
 11
-545.9796885739449
 21
-122.8750651412292
 31
0.0
  0
LINE
  5
12D
  8
0
  6
CONTINUOUS
 62
     7
 10
-553.9796885739449
 20
-122.8750651412292
 30
0.0
 11
-553.9796885739449
 21
-123.1750651412292
 31
0.0
  0
LINE
  5
12E
  8
0
  6
CONTINUOUS
 62
     7
 10
-553.4796885739454
 20
-156.3133067844331
 30
0.0
 11
-553.4796885739454
 21
-158.3133067844339
 31
0.0
  0
LINE
  5
12F
  8
0
  6
CONTINUOUS
 62
     7
 10
-528.8214025410822
 20
-154.9925077599777
 30
0.0
 11
-528.8214025410822
 21
-152.9876239638146
 31
0.0
  0
LINE
  5
130
  8
0
  6
CONTINUOUS
 62
     7
 10
-547.479688573937
 20
-156.3133067844331
 30
0.0
 11
-547.479688573937
 21
-129.3133067844337
 31
0.0
  0
LINE
  5
131
  8
0
  6
CONTINUOUS
 62
     7
 10
-551.479688573937
 20
-129.3133067844337
 30
0.0
 11
-551.479688573937
 21
-156.313306784429
 31
0.0
  0
ENDBLK
  8
0
  0
BLOCK
  8
0
  2
D_FRAME_VIEW_1330
 70
     0
 10
0.0
 20
0.0
 30
0.0
  0
CIRCLE
  5
136
  8
0
  6
CONTINUOUS
 62
     7
 10
-440.979688573945
 20
-79.82922630407866
 30
0.0
 40
4.000000000000004
  0
ARC
  5
137
  8
0
  6
CONTINUOUS
 62
     7
 10
-440.979688573945
 20
-79.82922630407866
 30
0.0
 40
2.249999999999998
 50
214.6983090872506
 51
240.3774859010589
  0
LINE
  5
138
  8
0
  6
CONTINUOUS
 62
     7
 10
-442.0918264315326
 20
-81.78515303729752
 30
0.0
 11
-441.4884596738091
 21
-81.12581874889047
 31
0.0
  0
ARC
  5
139
  8
0
  6
CONTINUOUS
 62
     7
 10
-440.8982804456346
 20
-81.66590066733553
 30
0.0
 40
0.7999999999999937
 50
47.53789749415461
 51
137.5378974941548
  0
LINE
  5
13A
  8
0
  6
CONTINUOUS
 62
     7
 10
-440.3581985271895
 20
-81.07572143916097
 30
0.0
 11
-439.6988642387824
 21
-81.67908819688458
 31
0.0
  0
ARC
  5
13B
  8
0
  6
CONTINUOUS
 62
     7
 10
-440.979688573945
 20
-79.82922630407866
 30
0.0
 40
2.25000000000002
 50
304.6983090872505
 51
330.3774859010589
  0
LINE
  5
13C
  8
0
  6
CONTINUOUS
 62
     7
 10
-439.0237618407261
 20
-80.94136416166636
 30
0.0
 11
-439.6830961291332
 21
-80.3379974039428
 31
0.0
  0
ARC
  5
13D
  8
0
  6
CONTINUOUS
 62
     7
 10
-439.1430142106881
 20
-79.74781817576823
 30
0.0
 40
0.8000000000000144
 50
137.5378974941548
 51
227.5378974941544
  0
LINE
  5
13E
  8
0
  6
CONTINUOUS
 62
     7
 10
-439.7331934388626
 20
-79.20773625732319
 30
0.0
 11
-439.129826681139
 21
-78.5484019689161
 31
0.0
  0
ARC
  5
13F
  8
0
  6
CONTINUOUS
 62
     7
 10
-440.979688573945
 20
-79.82922630407866
 30
0.0
 40
2.250000000000004
 50
34.69830908725054
 51
60.37748590105887
  0
LINE
  5
140
  8
0
  6
CONTINUOUS
 62
     7
 10
-439.8675507163572
 20
-77.87329957085981
 30
0.0
 11
-440.4709174740809
 21
-78.53263385926687
 31
0.0
  0
ARC
  5
141
  8
0
  6
CONTINUOUS
 62
     7
 10
-441.0610967022554
 20
-77.9925519408218
 30
0.0
 40
0.8000000000000144
 50
227.5378974941545
 51
317.5378974941541
  0
LINE
  5
142
  8
0
  6
CONTINUOUS
 62
     7
 10
-441.6011786207005
 20
-78.58273116899636
 30
0.0
 11
-442.2605129091075
 21
-77.97936441127275
 31
0.0
  0
ARC
  5
143
  8
0
  6
CONTINUOUS
 62
     7
 10
-440.979688573945
 20
-79.82922630407866
 30
0.0
 40
2.249999999999982
 50
124.6983090872506
 51
150.3774859010589
  0
LINE
  5
144
  8
0
  6
CONTINUOUS
 62
     7
 10
-442.9356153071639
 20
-78.71708844649095
 30
0.0
 11
-442.2762810187568
 21
-79.32045520421454
 31
0.0
  0
ARC
  5
145
  8
0
  6
CONTINUOUS
 62
     7
 10
-442.8163629372018
 20
-79.91063443238907
 30
0.0
 40
0.7999999999999937
 50
317.5378974941548
 51
47.53789749415455
  0
LINE
  5
146
  8
0
  6
CONTINUOUS
 62
     7
 10
-442.2261837090273
 20
-80.45071635083414
 30
0.0
 11
-442.8295504667508
 21
-81.11005063924121
 31
0.0
  0
CIRCLE
  5
147
  8
0
  6
CONTINUOUS
 62
     7
 10
-549.9796885739449
 20
-79.82922630407866
 30
0.0
 40
4.000000000000004
  0
ARC
  5
148
  8
0
  6
CONTINUOUS
 62
     7
 10
-549.9796885739449
 20
-79.82922630407866
 30
0.0
 40
2.250000000000003
 50
34.69830908725068
 51
60.37748590105892
  0
LINE
  5
149
  8
0
  6
CONTINUOUS
 62
     7
 10
-548.8675507163572
 20
-77.87329957085979
 30
0.0
 11
-549.4709174740807
 21
-78.53263385926684
 31
0.0
  0
ARC
  5
14A
  8
0
  6
CONTINUOUS
 62
     7
 10
-550.0610967022553
 20
-77.9925519408218
 30
0.0
 40
0.7999999999999904
 50
227.5378974941545
 51
317.5378974941548
  0
LINE
  5
14B
  8
0
  6
CONTINUOUS
 62
     7
 10
-550.6011786207005
 20
-78.58273116899633
 30
0.0
 11
-551.2605129091074
 21
-77.97936441127275
 31
0.0
  0
ARC
  5
14C
  8
0
  6
CONTINUOUS
 62
     7
 10
-549.9796885739449
 20
-79.82922630407866
 30
0.0
 40
2.249999999999994
 50
124.6983090872506
 51
150.3774859010589
  0
LINE
  5
14D
  8
0
  6
CONTINUOUS
 62
     7
 10
-551.9356153071639
 20
-78.71708844649095
 30
0.0
 11
-551.2762810187568
 21
-79.32045520421451
 31
0.0
  0
ARC
  5
14E
  8
0
  6
CONTINUOUS
 62
     7
 10
-551.8163629372018
 20
-79.91063443238907
 30
0.0
 40
0.8000000000000096
 50
317.5378974941548
 51
47.53789749415432
  0
LINE
  5
14F
  8
0
  6
CONTINUOUS
 62
     7
 10
-551.2261837090272
 20
-80.45071635083414
 30
0.0
 11
-551.8295504667508
 21
-81.11005063924121
 31
0.0
  0
ARC
  5
150
  8
0
  6
CONTINUOUS
 62
     7
 10
-549.9796885739449
 20
-79.82922630407866
 30
0.0
 40
2.250000000000003
 50
214.6983090872507
 51
240.3774859010589
  0
LINE
  5
151
  8
0
  6
CONTINUOUS
 62
     7
 10
-551.0918264315327
 20
-81.78515303729752
 30
0.0
 11
-550.4884596738091
 21
-81.12581874889044
 31
0.0
  0
ARC
  5
152
  8
0
  6
CONTINUOUS
 62
     7
 10
-549.8982804456344
 20
-81.6659006673355
 30
0.0
 40
0.800000000000004
 50
47.53789749415455
 51
137.5378974941542
  0
LINE
  5
153
  8
0
  6
CONTINUOUS
 62
     7
 10
-549.3581985271894
 20
-81.07572143916097
 30
0.0
 11
-548.6988642387824
 21
-81.67908819688455
 31
0.0
  0
ARC
  5
154
  8
0
  6
CONTINUOUS
 62
     7
 10
-549.9796885739449
 20
-79.82922630407866
 30
0.0
 40
2.249999999999994
 50
304.6983090872505
 51
330.3774859010588
  0
LINE
  5
155
  8
0
  6
CONTINUOUS
 62
     7
 10
-548.0237618407261
 20
-80.94136416166636
 30
0.0
 11
-548.6830961291331
 21
-80.33799740394277
 31
0.0
  0
ARC
  5
156
  8
0
  6
CONTINUOUS
 62
     7
 10
-548.1430142106881
 20
-79.74781817576823
 30
0.0
 40
0.8000000000000096
 50
137.5378974941547
 51
227.5378974941545
  0
LINE
  5
157
  8
0
  6
CONTINUOUS
 62
     7
 10
-548.7331934388626
 20
-79.20773625732316
 30
0.0
 11
-548.1298266811391
 21
-78.5484019689161
 31
0.0
  0
ARC
  5
158
  8
0
  6
CONTINUOUS
 62
     7
 10
-450.2358952603938
 20
-83.99181238375641
 30
0.0
 40
1.000000000000432
 50
286.9252437086013
 51
340.0553460627257
  0
LINE
  5
159
  8
0
  6
CONTINUOUS
 62
     7
 10
-449.9447715365164
 20
-84.94849779568477
 30
0.0
 11
-452.8994535502897
 21
-85.8476209766156
 31
0.0
  0
ARC
  5
15A
  8
0
  6
CONTINUOUS
 62
     7
 10
-453.7728247219218
 20
-82.97756474083046
 30
0.0
 40
3.000000000001295
 50
226.9252437086325
 51
286.925243708602
  0
ARC
  5
15B
  8
0
  6
CONTINUOUS
 62
     7
 10
-460.1379746068076
 20
-73.41647626970408
 30
0.0
 40
2.000000000000864
 50
106.9252437086024
 51
190.8829152895404
  0
LINE
  5
15C
  8
0
  6
CONTINUOUS
 62
     7
 10
-460.7202220545623
 20
-71.50310544584731
 30
0.0
 11
-453.0342529990251
 21
-69.16423009021297
 31
0.0
  0
LINE
  5
15D
  8
0
  6
CONTINUOUS
 62
     7
 10
-448.8185924205596
 20
-83.01765612964634
 30
0.0
 11
-449.295872696525
 21
-84.33292465181164
 31
0.0
  0
ARC
  5
15E
  8
0
  6
CONTINUOUS
 62
     7
 10
-441.4796885739447
 20
-69.82922630407865
 30
0.0
 40
21.00000000000907
 50
190.8829152895407
 51
226.9252437086323
  0
LINE
  5
15F
  8
0
  6
CONTINUOUS
 62
     7
 10
-447.7608674902772
 20
-80.10282311439929
 30
0.0
 11
-448.8185924205595
 21
-83.01765612964628
 31
0.0
  0
LINE
  5
160
  8
0
  6
CONTINUOUS
 62
     7
 10
-453.034252999025
 20
-69.16423009021297
 30
0.0
 11
-451.2543521768039
 21
-68.62259817125965
 31
0.0
  0
LINE
  5
161
  8
0
  6
CONTINUOUS
 62
     7
 10
-447.7608674902779
 20
-80.10282311440098
 30
0.0
 11
-447.7506213835271
 21
-80.07458733269645
 31
0.0
  0
LINE
  5
162
  8
0
  6
CONTINUOUS
 62
     7
 10
-451.1586836356133
 20
-68.59348579887262
 30
0.0
 11
-451.2543521768062
 21
-68.62259817126038
 31
0.0
  0
LINE
  5
163
  8
0
  6
CONTINUOUS
 62
     7
 10
-451.1586836356133
 20
-68.59348579887262
 30
0.0
 11
-448.4898633636265
 21
-67.7813516466709
 31
0.0
  0
ARC
  5
164
  8
0
  6
CONTINUOUS
 62
     7
 10
-540.7234818874961
 20
-75.66664022440092
 30
0.0
 40
1.000000000000432
 50
106.9252437086017
 51
160.0553460627244
  0
LINE
  5
165
  8
0
  6
CONTINUOUS
 62
     7
 10
-541.0146056113734
 20
-74.70995481247253
 30
0.0
 11
-538.0599235976001
 21
-73.81083163154173
 31
0.0
  0
ARC
  5
166
  8
0
  6
CONTINUOUS
 62
     7
 10
-537.186552425968
 20
-76.68088786732685
 30
0.0
 40
3.000000000001296
 50
46.92524370863209
 51
106.9252437086025
  0
ARC
  5
167
  8
0
  6
CONTINUOUS
 62
     7
 10
-530.8214025410822
 20
-86.24197633845326
 30
0.0
 40
2.000000000000864
 50
286.9252437086027
 51
10.88291528954124
  0
LINE
  5
168
  8
0
  6
CONTINUOUS
 62
     7
 10
-530.2391550933276
 20
-88.15534716231002
 30
0.0
 11
-537.9251241488647
 21
-90.49422251794434
 31
0.0
  0
LINE
  5
169
  8
0
  6
CONTINUOUS
 62
     7
 10
-542.1407847273302
 20
-76.64079647851099
 30
0.0
 11
-541.663504451365
 21
-75.32552795634567
 31
0.0
  0
ARC
  5
16A
  8
0
  6
CONTINUOUS
 62
     7
 10
-549.4796885739453
 20
-89.82922630407869
 30
0.0
 40
21.00000000000907
 50
10.88291528954079
 51
46.92524370863231
  0
LINE
  5
16B
  8
0
  6
CONTINUOUS
 62
     7
 10
-543.1985096576126
 20
-79.55562949375802
 30
0.0
 11
-542.1407847273302
 21
-76.64079647851102
 31
0.0
  0
LINE
  5
16C
  8
0
  6
CONTINUOUS
 62
     7
 10
-537.9251241488648
 20
-90.49422251794437
 30
0.0
 11
-539.705024971086
 21
-91.03585443689765
 31
0.0
  0
LINE
  5
16D
  8
0
  6
CONTINUOUS
 62
     7
 10
-543.198509657612
 20
-79.55562949375633
 30
0.0
 11
-543.2087557643628
 21
-79.58386527546085
 31
0.0
  0
LINE
  5
16E
  8
0
  6
CONTINUOUS
 62
     7
 10
-539.8006935122766
 20
-91.06496680928468
 30
0.0
 11
-539.7050249710836
 21
-91.03585443689693
 31
0.0
  0
LINE
  5
16F
  8
0
  6
CONTINUOUS
 62
     7
 10
-539.8006935122766
 20
-91.06496680928468
 30
0.0
 11
-542.4695137842634
 21
-91.8771009614864
 31
0.0
  0
ARC
  5
170
  8
0
  6
CONTINUOUS
 62
     7
 10
-441.4796885739528
 20
-69.82922630409658
 30
0.0
 40
2.25
 50
256.7683351756997
 51
283.2316648243002
  0
LINE
  5
171
  8
0
  6
CONTINUOUS
 62
     7
 10
-440.9646885739529
 20
-72.019494552508
 30
0.0
 11
-440.9646885739529
 21
-70.34422630409654
 31
0.0
  0
LINE
  5
172
  8
0
  6
CONTINUOUS
 62
     7
 10
-440.9646885739529
 20
-70.34422630409654
 30
0.0
 11
-439.2894203255413
 21
-70.34422630409654
 31
0.0
  0
ARC
  5
173
  8
0
  6
CONTINUOUS
 62
     7
 10
-441.4796885739528
 20
-69.82922630409658
 30
0.0
 40
2.250000000000014
 50
346.7683351757016
 51
13.23166482429832
  0
LINE
  5
174
  8
0
  6
CONTINUOUS
 62
     7
 10
-439.2894203255412
 20
-69.31422630409661
 30
0.0
 11
-440.9646885739529
 21
-69.31422630409661
 31
0.0
  0
LINE
  5
175
  8
0
  6
CONTINUOUS
 62
     7
 10
-440.9646885739529
 20
-69.31422630409661
 30
0.0
 11
-440.9646885739529
 21
-67.63895805568515
 31
0.0
  0
ARC
  5
176
  8
0
  6
CONTINUOUS
 62
     7
 10
-441.4796885739528
 20
-69.82922630409658
 30
0.0
 40
2.250000000000006
 50
76.76833517569978
 51
103.2316648243003
  0
LINE
  5
177
  8
0
  6
CONTINUOUS
 62
     7
 10
-441.9946885739528
 20
-67.63895805568515
 30
0.0
 11
-441.9946885739528
 21
-69.31422630409661
 31
0.0
  0
LINE
  5
178
  8
0
  6
CONTINUOUS
 62
     7
 10
-441.9946885739528
 20
-69.31422630409661
 30
0.0
 11
-443.6699568223644
 21
-69.31422630409661
 31
0.0
  0
ARC
  5
179
  8
0
  6
CONTINUOUS
 62
     7
 10
-441.4796885739528
 20
-69.82922630409658
 30
0.0
 40
2.249999999999987
 50
166.7683351757016
 51
193.2316648242983
  0
LINE
  5
17A
  8
0
  6
CONTINUOUS
 62
     7
 10
-443.6699568223644
 20
-70.34422630409654
 30
0.0
 11
-441.9946885739528
 21
-70.34422630409654
 31
0.0
  0
LINE
  5
17B
  8
0
  6
CONTINUOUS
 62
     7
 10
-441.9946885739528
 20
-70.34422630409654
 30
0.0
 11
-441.9946885739528
 21
-72.019494552508
 31
0.0
  0
ARC
  5
17C
  8
0
  6
CONTINUOUS
 62
     7
 10
-549.479688573937
 20
-89.82922630406073
 30
0.0
 40
2.250000000000004
 50
76.76833517569978
 51
103.2316648243002
  0
LINE
  5
17D
  8
0
  6
CONTINUOUS
 62
     7
 10
-549.9946885739371
 20
-87.63895805564931
 30
0.0
 11
-549.9946885739371
 21
-89.31422630406077
 31
0.0
  0
LINE
  5
17E
  8
0
  6
CONTINUOUS
 62
     7
 10
-549.9946885739371
 20
-89.31422630406077
 30
0.0
 11
-551.6699568223487
 21
-89.31422630406077
 31
0.0
  0
ARC
  5
17F
  8
0
  6
CONTINUOUS
 62
     7
 10
-549.479688573937
 20
-89.82922630406073
 30
0.0
 40
2.25
 50
166.7683351757017
 51
193.2316648242983
  0
LINE
  5
180
  8
0
  6
CONTINUOUS
 62
     7
 10
-551.6699568223487
 20
-90.3442263040607
 30
0.0
 11
-549.9946885739371
 21
-90.3442263040607
 31
0.0
  0
LINE
  5
181
  8
0
  6
CONTINUOUS
 62
     7
 10
-549.9946885739371
 20
-90.3442263040607
 30
0.0
 11
-549.9946885739371
 21
-92.01949455247218
 31
0.0
  0
ARC
  5
182
  8
0
  6
CONTINUOUS
 62
     7
 10
-549.479688573937
 20
-89.82922630406073
 30
0.0
 40
2.250000000000004
 50
256.7683351756998
 51
283.2316648243003
  0
LINE
  5
183
  8
0
  6
CONTINUOUS
 62
     7
 10
-548.964688573937
 20
-92.01949455247218
 30
0.0
 11
-548.964688573937
 21
-90.3442263040607
 31
0.0
  0
LINE
  5
184
  8
0
  6
CONTINUOUS
 62
     7
 10
-548.964688573937
 20
-90.3442263040607
 30
0.0
 11
-547.2894203255254
 21
-90.3442263040607
 31
0.0
  0
ARC
  5
185
  8
0
  6
CONTINUOUS
 62
     7
 10
-549.479688573937
 20
-89.82922630406073
 30
0.0
 40
2.25
 50
346.7683351757016
 51
13.23166482429832
  0
LINE
  5
186
  8
0
  6
CONTINUOUS
 62
     7
 10
-547.2894203255254
 20
-89.31422630406077
 30
0.0
 11
-548.964688573937
 21
-89.31422630406077
 31
0.0
  0
LINE
  5
187
  8
0
  6
CONTINUOUS
 62
     7
 10
-548.9646885739371
 20
-89.31422630406077
 30
0.0
 11
-548.9646885739371
 21
-87.63895805564931
 31
0.0
  0
ARC
  5
188
  8
0
  6
CONTINUOUS
 62
     7
 10
-549.4796885739449
 20
-89.82922630407866
 30
0.0
 40
4.10000000000002
 50
180.0
 51
90.0
  0
ARC
  5
189
  8
0
  6
CONTINUOUS
 62
     7
 10
-549.4796885739449
 20
-89.82922630407866
 30
0.0
 40
4.1
 50
176.9999999999999
 51
180.0000000000001
  0
ARC
  5
18A
  8
0
  6
CONTINUOUS
 62
     7
 10
-549.4796885739449
 20
-89.82922630407866
 30
0.0
 40
4.099999999999998
 50
89.99999999999994
 51
177.0
  0
ARC
  5
18B
  8
0
  6
CONTINUOUS
 62
     7
 10
-551.7296885739448
 20
-72.07922630407865
 30
0.0
 40
4.099999999999993
 50
293.807147977312
 51
90.0
  0
ARC
  5
18C
  8
0
  6
CONTINUOUS
 62
     7
 10
-551.7296885739448
 20
-72.07922630407865
 30
0.0
 40
4.099999999999993
 50
90.0
 51
271.6415633935328
  0
POLYLINE
  5
18D
  8
0
  6
CONTINUOUS
 62
     7
 66
     1
 10
0.0
 20
0.0
 30
0.0
  0
VERTEX
  5
20D
  8
0
  6
CONTINUOUS
 62
     7
 10
-543.4796885739449
 20
-91.57924534254654
 30
0.0
  0
VERTEX
  5
20E
  8
0
  6
CONTINUOUS
 62
     7
 10
-543.4700817768644
 20
-91.6767888177976
 30
0.0
  0
VERTEX
  5
20F
  8
0
  6
CONTINUOUS
 62
     7
 10
-543.441630533767
 20
-91.77058265111847
 30
0.0
  0
VERTEX
  5
210
  8
0
  6
CONTINUOUS
 62
     7
 10
-543.3954281042996
 20
-91.8570227464509
 30
0.0
  0
VERTEX
  5
211
  8
0
  6
CONTINUOUS
 62
     7
 10
-543.3332498503174
 20
-91.9327875804512
 30
0.0
  0
VERTEX
  5
212
  8
0
  6
CONTINUOUS
 62
     7
 10
-543.2574850163172
 20
-91.9949658344334
 30
0.0
  0
VERTEX
  5
213
  8
0
  6
CONTINUOUS
 62
     7
 10
-543.1710449209847
 20
-92.04116826390077
 30
0.0
  0
VERTEX
  5
214
  8
0
  6
CONTINUOUS
 62
     7
 10
-543.0772510876639
 20
-92.06961950699817
 30
0.0
  0
VERTEX
  5
215
  8
0
  6
CONTINUOUS
 62
     7
 10
-542.9797076124128
 20
-92.07922630407863
 30
0.0
  0
SEQEND
  5
288
  8
0
  6
CONTINUOUS
 62
     7
  0
LINE
  5
18E
  8
0
  6
CONTINUOUS
 62
     7
 10
-444.8296695354772
 20
-92.07922630407863
 30
0.0
 11
-542.9797076124129
 21
-92.07922630407866
 31
0.0
  0
POLYLINE
  5
18F
  8
0
  6
CONTINUOUS
 62
     7
 66
     1
 10
0.0
 20
0.0
 30
0.0
  0
VERTEX
  5
216
  8
0
  6
CONTINUOUS
 62
     7
 10
-444.8296695354772
 20
-92.07922630407866
 30
0.0
  0
VERTEX
  5
217
  8
0
  6
CONTINUOUS
 62
     7
 10
-444.7321260602262
 20
-92.0696195069982
 30
0.0
  0
VERTEX
  5
218
  8
0
  6
CONTINUOUS
 62
     7
 10
-444.6383322269053
 20
-92.0411682639008
 30
0.0
  0
VERTEX
  5
219
  8
0
  6
CONTINUOUS
 62
     7
 10
-444.5518921315728
 20
-91.99496583443343
 30
0.0
  0
VERTEX
  5
21A
  8
0
  6
CONTINUOUS
 62
     7
 10
-444.4761272975725
 20
-91.93278758045123
 30
0.0
  0
VERTEX
  5
21B
  8
0
  6
CONTINUOUS
 62
     7
 10
-444.4139490435903
 20
-91.85702274645092
 30
0.0
  0
VERTEX
  5
21C
  8
0
  6
CONTINUOUS
 62
     7
 10
-444.367746614123
 20
-91.7705826511185
 30
0.0
  0
VERTEX
  5
21D
  8
0
  6
CONTINUOUS
 62
     7
 10
-444.3392953710256
 20
-91.6767888177976
 30
0.0
  0
VERTEX
  5
21E
  8
0
  6
CONTINUOUS
 62
     7
 10
-444.3296885739451
 20
-91.57924534254654
 30
0.0
  0
SEQEND
  5
289
  8
0
  6
CONTINUOUS
 62
     7
  0
LINE
  5
190
  8
0
  6
CONTINUOUS
 62
     7
 10
-444.3296885739451
 20
-87.7942849676471
 30
0.0
 11
-444.3296885739451
 21
-91.57924534254654
 31
0.0
  0
POLYLINE
  5
191
  8
0
  6
CONTINUOUS
 62
     7
 66
     1
 10
0.0
 20
0.0
 30
0.0
  0
VERTEX
  5
21F
  8
0
  6
CONTINUOUS
 62
     7
 10
-444.329688573945
 20
-87.79428496764709
 30
0.0
  0
VERTEX
  5
220
  8
0
  6
CONTINUOUS
 62
     7
 10
-444.4007977791206
 20
-87.1449908353308
 30
0.0
  0
VERTEX
  5
221
  8
0
  6
CONTINUOUS
 62
     7
 10
-444.6107545102979
 20
-86.52647845845031
 30
0.0
  0
SEQEND
  5
28A
  8
0
  6
CONTINUOUS
 62
     7
  0
LINE
  5
192
  8
0
  6
CONTINUOUS
 62
     7
 10
-447.198622637592
 20
-80.97677735010203
 30
0.0
 11
-444.610754510298
 21
-86.5264784584503
 31
0.0
  0
POLYLINE
  5
193
  8
0
  6
CONTINUOUS
 62
     7
 66
     1
 10
0.0
 20
0.0
 30
0.0
  0
VERTEX
  5
222
  8
0
  6
CONTINUOUS
 62
     7
 10
-447.4796885739449
 20
-79.7089708409052
 30
0.0
  0
VERTEX
  5
223
  8
0
  6
CONTINUOUS
 62
     7
 10
-447.4085793687694
 20
-80.3582649732215
 30
0.0
  0
VERTEX
  5
224
  8
0
  6
CONTINUOUS
 62
     7
 10
-447.1986226375921
 20
-80.97677735010201
 30
0.0
  0
SEQEND
  5
28B
  8
0
  6
CONTINUOUS
 62
     7
  0
LINE
  5
194
  8
0
  6
CONTINUOUS
 62
     7
 10
-447.4796885739449
 20
-68.07920726561073
 30
0.0
 11
-447.4796885739449
 21
-79.7089708409052
 31
0.0
  0
POLYLINE
  5
195
  8
0
  6
CONTINUOUS
 62
     7
 66
     1
 10
0.0
 20
0.0
 30
0.0
  0
VERTEX
  5
225
  8
0
  6
CONTINUOUS
 62
     7
 10
-447.479688573945
 20
-68.07920726561075
 30
0.0
  0
VERTEX
  5
226
  8
0
  6
CONTINUOUS
 62
     7
 10
-447.4892953710255
 20
-67.98166379035969
 30
0.0
  0
VERTEX
  5
227
  8
0
  6
CONTINUOUS
 62
     7
 10
-447.5177466141229
 20
-67.8878699570388
 30
0.0
  0
VERTEX
  5
228
  8
0
  6
CONTINUOUS
 62
     7
 10
-447.5639490435902
 20
-67.80142986170638
 30
0.0
  0
VERTEX
  5
229
  8
0
  6
CONTINUOUS
 62
     7
 10
-447.6261272975724
 20
-67.72566502770609
 30
0.0
  0
VERTEX
  5
22A
  8
0
  6
CONTINUOUS
 62
     7
 10
-447.7018921315727
 20
-67.66348677372389
 30
0.0
  0
VERTEX
  5
22B
  8
0
  6
CONTINUOUS
 62
     7
 10
-447.7883322269051
 20
-67.61728434425652
 30
0.0
  0
VERTEX
  5
22C
  8
0
  6
CONTINUOUS
 62
     7
 10
-447.882126060226
 20
-67.58883310115915
 30
0.0
  0
VERTEX
  5
22D
  8
0
  6
CONTINUOUS
 62
     7
 10
-447.9796695354771
 20
-67.57922630407869
 30
0.0
  0
SEQEND
  5
28C
  8
0
  6
CONTINUOUS
 62
     7
  0
LINE
  5
196
  8
0
  6
CONTINUOUS
 62
     7
 10
-546.1297076124127
 20
-67.57922630407867
 30
0.0
 11
-447.9796695354771
 21
-67.57922630407865
 31
0.0
  0
POLYLINE
  5
197
  8
0
  6
CONTINUOUS
 62
     7
 66
     1
 10
0.0
 20
0.0
 30
0.0
  0
VERTEX
  5
22E
  8
0
  6
CONTINUOUS
 62
     7
 10
-546.1297076124126
 20
-67.57922630407866
 30
0.0
  0
VERTEX
  5
22F
  8
0
  6
CONTINUOUS
 62
     7
 10
-546.2272510876637
 20
-67.58883310115912
 30
0.0
  0
VERTEX
  5
230
  8
0
  6
CONTINUOUS
 62
     7
 10
-546.3210449209846
 20
-67.61728434425652
 30
0.0
  0
VERTEX
  5
231
  8
0
  6
CONTINUOUS
 62
     7
 10
-546.4074850163171
 20
-67.66348677372389
 30
0.0
  0
VERTEX
  5
232
  8
0
  6
CONTINUOUS
 62
     7
 10
-546.4832498503173
 20
-67.72566502770609
 30
0.0
  0
VERTEX
  5
233
  8
0
  6
CONTINUOUS
 62
     7
 10
-546.5454281042995
 20
-67.8014298617064
 30
0.0
  0
VERTEX
  5
234
  8
0
  6
CONTINUOUS
 62
     7
 10
-546.5916305337669
 20
-67.88786995703882
 30
0.0
  0
VERTEX
  5
235
  8
0
  6
CONTINUOUS
 62
     7
 10
-546.6200817768643
 20
-67.98166379035969
 30
0.0
  0
VERTEX
  5
236
  8
0
  6
CONTINUOUS
 62
     7
 10
-546.6296885739448
 20
-68.07920726561075
 30
0.0
  0
SEQEND
  5
28D
  8
0
  6
CONTINUOUS
 62
     7
  0
LINE
  5
198
  8
0
  6
CONTINUOUS
 62
     7
 10
-546.6296885739448
 20
-71.8641676405102
 30
0.0
 11
-546.6296885739448
 21
-68.07920726561073
 31
0.0
  0
POLYLINE
  5
199
  8
0
  6
CONTINUOUS
 62
     7
 66
     1
 10
0.0
 20
0.0
 30
0.0
  0
VERTEX
  5
237
  8
0
  6
CONTINUOUS
 62
     7
 10
-546.6296885739448
 20
-71.8641676405102
 30
0.0
  0
VERTEX
  5
238
  8
0
  6
CONTINUOUS
 62
     7
 10
-546.5585793687693
 20
-72.5134617728265
 30
0.0
  0
VERTEX
  5
239
  8
0
  6
CONTINUOUS
 62
     7
 10
-546.3486226375919
 20
-73.131974149707
 30
0.0
  0
SEQEND
  5
28E
  8
0
  6
CONTINUOUS
 62
     7
  0
LINE
  5
19A
  8
0
  6
CONTINUOUS
 62
     7
 10
-543.7607545102978
 20
-78.68167525805528
 30
0.0
 11
-546.3486226375919
 21
-73.131974149707
 31
0.0
  0
POLYLINE
  5
19B
  8
0
  6
CONTINUOUS
 62
     7
 66
     1
 10
0.0
 20
0.0
 30
0.0
  0
VERTEX
  5
23A
  8
0
  6
CONTINUOUS
 62
     7
 10
-543.4796885739449
 20
-79.9494817672521
 30
0.0
  0
VERTEX
  5
23B
  8
0
  6
CONTINUOUS
 62
     7
 10
-543.5507977791204
 20
-79.3001876349358
 30
0.0
  0
VERTEX
  5
23C
  8
0
  6
CONTINUOUS
 62
     7
 10
-543.7607545102978
 20
-78.6816752580553
 30
0.0
  0
SEQEND
  5
28F
  8
0
  6
CONTINUOUS
 62
     7
  0
LINE
  5
19C
  8
0
  6
CONTINUOUS
 62
     7
 10
-543.4796885739449
 20
-91.57924534254654
 30
0.0
 11
-543.4796885739449
 21
-79.94948176725208
 31
0.0
  0
ARC
  5
19D
  8
0
  6
CONTINUOUS
 62
     7
 10
-559.4796885739449
 20
-63.32922630407864
 30
0.0
 40
1.000000000000001
 50
90.0
 51
180.0
  0
LINE
  5
19E
  8
0
  6
CONTINUOUS
 62
     7
 10
-559.4796885739449
 20
-62.32922630407864
 30
0.0
 11
-431.4796885739449
 21
-62.32922630407864
 31
0.0
  0
ARC
  5
19F
  8
0
  6
CONTINUOUS
 62
     7
 10
-431.4796885739449
 20
-63.32922630407864
 30
0.0
 40
1.000000000000001
 50
0.0
 51
90.0
  0
LINE
  5
1A0
  8
0
  6
CONTINUOUS
 62
     7
 10
-430.4796885739449
 20
-63.32922630407864
 30
0.0
 11
-430.4796885739449
 21
-96.32922630407867
 31
0.0
  0
ARC
  5
1A1
  8
0
  6
CONTINUOUS
 62
     7
 10
-431.4796885739449
 20
-96.32922630407867
 30
0.0
 40
1.000000000000001
 50
270.0
 51
0.0
  0
LINE
  5
1A2
  8
0
  6
CONTINUOUS
 62
     7
 10
-431.4796885739449
 20
-97.32922630407867
 30
0.0
 11
-559.4796885739449
 21
-97.32922630407867
 31
0.0
  0
ARC
  5
1A3
  8
0
  6
CONTINUOUS
 62
     7
 10
-559.4796885739449
 20
-96.32922630407867
 30
0.0
 40
1.000000000000001
 50
180.0
 51
270.0
  0
LINE
  5
1A4
  8
0
  6
CONTINUOUS
 62
     7
 10
-560.4796885739449
 20
-96.32922630407867
 30
0.0
 11
-560.4796885739449
 21
-63.32922630407864
 31
0.0
  0
CIRCLE
  5
1A5
  8
0
  6
CONTINUOUS
 62
     7
 10
-441.479688573945
 20
-69.82922630407867
 30
0.0
 40
4.099999999999993
  0
ARC
  5
1A6
  8
0
  6
CONTINUOUS
 62
     7
 10
-439.2296885739449
 20
-87.57922630407866
 30
0.0
 40
4.099999999999993
 50
113.8071479773102
 51
90.0
  0
ARC
  5
1A7
  8
0
  6
CONTINUOUS
 62
     7
 10
-439.2296885739449
 20
-87.57922630407866
 30
0.0
 40
4.099999999999997
 50
90.0
 51
91.64156339353481
  0
POLYLINE
  5
1A8
  8
0
  6
CONTINUOUS
 62
     7
 66
     1
 10
0.0
 20
0.0
 30
0.0
  0
VERTEX
  5
23D
  8
0
  6
CONTINUOUS
 62
     7
 10
-543.235085680992
 20
-91.33464244959357
 30
0.0
  0
VERTEX
  5
23E
  8
0
  6
CONTINUOUS
 62
     7
 10
-543.2345012992756
 20
-91.35919384126875
 30
0.0
  0
VERTEX
  5
23F
  8
0
  6
CONTINUOUS
 62
     7
 10
-543.232713852292
 20
-91.38368600043422
 30
0.0
  0
VERTEX
  5
240
  8
0
  6
CONTINUOUS
 62
     7
 10
-543.2297276457398
 20
-91.40805992905301
 30
0.0
  0
VERTEX
  5
241
  8
0
  6
CONTINUOUS
 62
     7
 10
-543.2255498729552
 20
-91.43225691388834
 30
0.0
  0
VERTEX
  5
242
  8
0
  6
CONTINUOUS
 62
     7
 10
-543.2201905975827
 20
-91.45621866793508
 30
0.0
  0
VERTEX
  5
243
  8
0
  6
CONTINUOUS
 62
     7
 10
-543.2136627293348
 20
-91.47988747082483
 30
0.0
  0
VERTEX
  5
244
  8
0
  6
CONTINUOUS
 62
     7
 10
-543.2059819928932
 20
-91.50320630786574
 30
0.0
  0
VERTEX
  5
245
  8
0
  6
CONTINUOUS
 62
     7
 10
-543.1971668900312
 20
-91.52611900738258
 30
0.0
  0
VERTEX
  5
246
  8
0
  6
CONTINUOUS
 62
     7
 10
-543.1872386550449
 20
-91.54857037602623
 30
0.0
  0
VERTEX
  5
247
  8
0
  6
CONTINUOUS
 62
     7
 10
-543.1762212036036
 20
-91.5705063317262
 30
0.0
  0
VERTEX
  5
248
  8
0
  6
CONTINUOUS
 62
     7
 10
-543.16414107514
 20
-91.59187403396668
 30
0.0
  0
VERTEX
  5
249
  8
0
  6
CONTINUOUS
 62
     7
 10
-543.1510273689202
 20
-91.6126220110714
 30
0.0
  0
VERTEX
  5
24A
  8
0
  6
CONTINUOUS
 62
     7
 10
-543.1369116739488
 20
-91.63270028419157
 30
0.0
  0
VERTEX
  5
24B
  8
0
  6
CONTINUOUS
 62
     7
 10
-543.121827992875
 20
-91.65206048769755
 30
0.0
  0
VERTEX
  5
24C
  8
0
  6
CONTINUOUS
 62
     7
 10
-543.1058126600849
 20
-91.67065598568458
 30
0.0
  0
VERTEX
  5
24D
  8
0
  6
CONTINUOUS
 62
     7
 10
-543.0889042541783
 20
-91.6884419843119
 30
0.0
  0
VERTEX
  5
24E
  8
0
  6
CONTINUOUS
 62
     7
 10
-543.0711435050367
 20
-91.70537563970457
 30
0.0
  0
VERTEX
  5
24F
  8
0
  6
CONTINUOUS
 62
     7
 10
-543.0525731957132
 20
-91.72141616115812
 30
0.0
  0
VERTEX
  5
250
  8
0
  6
CONTINUOUS
 62
     7
 10
-543.0332380593726
 20
-91.73652490939735
 30
0.0
  0
VERTEX
  5
251
  8
0
  6
CONTINUOUS
 62
     7
 10
-543.0131846715366
 20
-91.75066548965283
 30
0.0
  0
VERTEX
  5
252
  8
0
  6
CONTINUOUS
 62
     7
 10
-542.9924613378897
 20
-91.7638038393304
 30
0.0
  0
VERTEX
  5
253
  8
0
  6
CONTINUOUS
 62
     7
 10
-542.9711179779182
 20
-91.77590831006313
 30
0.0
  0
VERTEX
  5
254
  8
0
  6
CONTINUOUS
 62
     7
 10
-542.9492060046614
 20
-91.78694974394766
 30
0.0
  0
VERTEX
  5
255
  8
0
  6
CONTINUOUS
 62
     7
 10
-542.9267782008651
 20
-91.79690154378115
 30
0.0
  0
VERTEX
  5
256
  8
0
  6
CONTINUOUS
 62
     7
 10
-542.9038885918353
 20
-91.80573973713021
 30
0.0
  0
VERTEX
  5
257
  8
0
  6
CONTINUOUS
 62
     7
 10
-542.8805923152996
 20
-91.81344303407693
 30
0.0
  0
VERTEX
  5
258
  8
0
  6
CONTINUOUS
 62
     7
 10
-542.856945488588
 20
-91.81999287850323
 30
0.0
  0
VERTEX
  5
259
  8
0
  6
CONTINUOUS
 62
     7
 10
-542.8330050734554
 20
-91.82537349278977
 30
0.0
  0
VERTEX
  5
25A
  8
0
  6
CONTINUOUS
 62
     7
 10
-542.8088287388676
 20
-91.82957191582203
 30
0.0
  0
VERTEX
  5
25B
  8
0
  6
CONTINUOUS
 62
     7
 10
-542.7844747220864
 20
-91.83257803421161
 30
0.0
  0
VERTEX
  5
25C
  8
0
  6
CONTINUOUS
 62
     7
 10
-542.7600016883838
 20
-91.8343846066581
 30
0.0
  0
VERTEX
  5
25D
  8
0
  6
CONTINUOUS
 62
     7
 10
-542.7354685897263
 20
-91.83498728139209
 30
0.0
  0
SEQEND
  5
290
  8
0
  6
CONTINUOUS
 62
     7
  0
LINE
  5
1A9
  8
0
  6
CONTINUOUS
 62
     7
 10
-542.7296885739449
 20
-91.83498728139209
 30
0.0
 11
-542.7354685897263
 21
-91.83498728139209
 31
0.0
  0
LINE
  5
1AA
  8
0
  6
CONTINUOUS
 62
     7
 10
-542.7296885739449
 20
-91.83498728139209
 30
0.0
 11
-542.7296885739445
 21
-91.87327222421676
 31
0.0
  0
LINE
  5
1AB
  8
0
  6
CONTINUOUS
 62
     7
 10
-542.2296885739445
 20
-91.87763565811213
 30
0.0
 11
-542.7296885739445
 21
-91.87327222421676
 31
0.0
  0
LINE
  5
1AC
  8
0
  6
CONTINUOUS
 62
     7
 10
-543.2263887517585
 20
-81.82890996813946
 30
0.0
 11
-543.204792238536
 21
-79.07922630407867
 31
0.0
  0
LINE
  5
1AD
  8
0
  6
CONTINUOUS
 62
     7
 10
-543.2285988450941
 20
-82.41482921990817
 30
0.0
 11
-543.2263887517585
 21
-81.82890996813946
 31
0.0
  0
LINE
  5
1AE
  8
0
  6
CONTINUOUS
 62
     7
 10
-543.235085680992
 20
-91.33464244959357
 30
0.0
 11
-543.2285988450942
 21
-82.41482921990817
 31
0.0
  0
LINE
  5
1AF
  8
0
  6
CONTINUOUS
 62
     7
 10
-447.7329883961315
 20
-77.82954264001788
 30
0.0
 11
-447.7545849093538
 21
-80.57922630407863
 31
0.0
  0
LINE
  5
1B0
  8
0
  6
CONTINUOUS
 62
     7
 10
-447.7307783027957
 20
-77.24362338824916
 30
0.0
 11
-447.7329883961314
 21
-77.82954264001788
 31
0.0
  0
LINE
  5
1B1
  8
0
  6
CONTINUOUS
 62
     7
 10
-447.724291466898
 20
-68.32381015856373
 30
0.0
 11
-447.7307783027958
 21
-77.24362338824916
 31
0.0
  0
POLYLINE
  5
1B2
  8
0
  6
CONTINUOUS
 62
     7
 66
     1
 10
0.0
 20
0.0
 30
0.0
  0
VERTEX
  5
25E
  8
0
  6
CONTINUOUS
 62
     7
 10
-447.724291466898
 20
-68.32381015856373
 30
0.0
  0
VERTEX
  5
25F
  8
0
  6
CONTINUOUS
 62
     7
 10
-447.7248758486143
 20
-68.29925876688856
 30
0.0
  0
VERTEX
  5
260
  8
0
  6
CONTINUOUS
 62
     7
 10
-447.7266632955979
 20
-68.27476660772311
 30
0.0
  0
VERTEX
  5
261
  8
0
  6
CONTINUOUS
 62
     7
 10
-447.72964950215
 20
-68.2503926791043
 30
0.0
  0
VERTEX
  5
262
  8
0
  6
CONTINUOUS
 62
     7
 10
-447.7338272749347
 20
-68.226195694269
 30
0.0
  0
VERTEX
  5
263
  8
0
  6
CONTINUOUS
 62
     7
 10
-447.7391865503072
 20
-68.20223394022223
 30
0.0
  0
VERTEX
  5
264
  8
0
  6
CONTINUOUS
 62
     7
 10
-447.7457144185552
 20
-68.17856513733247
 30
0.0
  0
VERTEX
  5
265
  8
0
  6
CONTINUOUS
 62
     7
 10
-447.7533951549967
 20
-68.15524630029157
 30
0.0
  0
VERTEX
  5
266
  8
0
  6
CONTINUOUS
 62
     7
 10
-447.7622102578587
 20
-68.13233360077473
 30
0.0
  0
VERTEX
  5
267
  8
0
  6
CONTINUOUS
 62
     7
 10
-447.7721384928449
 20
-68.1098822321311
 30
0.0
  0
VERTEX
  5
268
  8
0
  6
CONTINUOUS
 62
     7
 10
-447.7831559442862
 20
-68.08794627643111
 30
0.0
  0
VERTEX
  5
269
  8
0
  6
CONTINUOUS
 62
     7
 10
-447.79523607275
 20
-68.06657857419066
 30
0.0
  0
VERTEX
  5
26A
  8
0
  6
CONTINUOUS
 62
     7
 10
-447.8083497789697
 20
-68.04583059708591
 30
0.0
  0
VERTEX
  5
26B
  8
0
  6
CONTINUOUS
 62
     7
 10
-447.8224654739411
 20
-68.02575232396573
 30
0.0
  0
VERTEX
  5
26C
  8
0
  6
CONTINUOUS
 62
     7
 10
-447.8375491550149
 20
-68.00639212045975
 30
0.0
  0
VERTEX
  5
26D
  8
0
  6
CONTINUOUS
 62
     7
 10
-447.8535644878049
 20
-67.98779662247273
 30
0.0
  0
VERTEX
  5
26E
  8
0
  6
CONTINUOUS
 62
     7
 10
-447.8704728937117
 20
-67.97001062384541
 30
0.0
  0
VERTEX
  5
26F
  8
0
  6
CONTINUOUS
 62
     7
 10
-447.8882336428531
 20
-67.95307696845273
 30
0.0
  0
VERTEX
  5
270
  8
0
  6
CONTINUOUS
 62
     7
 10
-447.9068039521766
 20
-67.93703644699919
 30
0.0
  0
VERTEX
  5
271
  8
0
  6
CONTINUOUS
 62
     7
 10
-447.9261390885172
 20
-67.92192769875996
 30
0.0
  0
VERTEX
  5
272
  8
0
  6
CONTINUOUS
 62
     7
 10
-447.9461924763533
 20
-67.9077871185045
 30
0.0
  0
VERTEX
  5
273
  8
0
  6
CONTINUOUS
 62
     7
 10
-447.9669158100002
 20
-67.89464876882693
 30
0.0
  0
VERTEX
  5
274
  8
0
  6
CONTINUOUS
 62
     7
 10
-447.9882591699716
 20
-67.88254429809417
 30
0.0
  0
VERTEX
  5
275
  8
0
  6
CONTINUOUS
 62
     7
 10
-448.0101711432284
 20
-67.87150286420965
 30
0.0
  0
VERTEX
  5
276
  8
0
  6
CONTINUOUS
 62
     7
 10
-448.0325989470247
 20
-67.86155106437616
 30
0.0
  0
VERTEX
  5
277
  8
0
  6
CONTINUOUS
 62
     7
 10
-448.0554885560546
 20
-67.8527128710271
 30
0.0
  0
VERTEX
  5
278
  8
0
  6
CONTINUOUS
 62
     7
 10
-448.0787848325903
 20
-67.84500957408038
 30
0.0
  0
VERTEX
  5
279
  8
0
  6
CONTINUOUS
 62
     7
 10
-448.1024316593017
 20
-67.8384597296541
 30
0.0
  0
VERTEX
  5
27A
  8
0
  6
CONTINUOUS
 62
     7
 10
-448.1263720744344
 20
-67.83307911536754
 30
0.0
  0
VERTEX
  5
27B
  8
0
  6
CONTINUOUS
 62
     7
 10
-448.1505484090222
 20
-67.8288806923353
 30
0.0
  0
VERTEX
  5
27C
  8
0
  6
CONTINUOUS
 62
     7
 10
-448.1749024258035
 20
-67.8258745739457
 30
0.0
  0
VERTEX
  5
27D
  8
0
  6
CONTINUOUS
 62
     7
 10
-448.1993754595061
 20
-67.82406800149923
 30
0.0
  0
VERTEX
  5
27E
  8
0
  6
CONTINUOUS
 62
     7
 10
-448.2239085581636
 20
-67.82346532676523
 30
0.0
  0
SEQEND
  5
291
  8
0
  6
CONTINUOUS
 62
     7
  0
LINE
  5
1B3
  8
0
  6
CONTINUOUS
 62
     7
 10
-448.2296885739449
 20
-67.82346532676524
 30
0.0
 11
-448.2239085581636
 21
-67.82346532676523
 31
0.0
  0
LINE
  5
1B4
  8
0
  6
CONTINUOUS
 62
     7
 10
-448.2296885739449
 20
-67.82346532676524
 30
0.0
 11
-448.2296885739454
 21
-67.78518038394057
 31
0.0
  0
LINE
  5
1B5
  8
0
  6
CONTINUOUS
 62
     7
 10
-448.7296885739454
 20
-67.78081695004518
 30
0.0
 11
-448.2296885739454
 21
-67.78518038394057
 31
0.0
  0
CIRCLE
  5
1B6
  8
0
  6
CONTINUOUS
 62
     7
 10
-439.2296885739449
 20
-87.57922630407866
 30
0.0
 40
2.099999999999991
  0
CIRCLE
  5
1B7
  8
0
  6
CONTINUOUS
 62
     7
 10
-551.7296885739449
 20
-72.07922630407865
 30
0.0
 40
2.099999999999998
  0
LINE
  5
1B8
  8
0
  6
CONTINUOUS
 62
     7
 10
-543.4246905985065
 20
-68.12986117645794
 30
0.0
 11
-543.4247093068632
 21
-68.13418653269252
 31
0.0
  0
ARC
  5
1B9
  8
0
  6
CONTINUOUS
 62
     7
 10
-450.4796885739449
 20
-69.32922630407867
 30
0.0
 40
1.000000000000001
 50
81.28698167549766
 51
90.0
  0
ENDBLK
  8
0
  0
ENDSEC
  0
SECTION
  2
ENTITIES
  0
LINE
  5
6F
  8
0
  6
CENTER
 62
     1
 10
-440.979688573945
 20
-85.82922630407866
 30
0.0
 11
-440.979688573945
 21
-73.82922630407865
 31
0.0
  0
LINE
  5
71
  8
0
  6
CENTER
 62
     1
 10
-549.9796885739449
 20
-85.82922630407866
 30
0.0
 11
-549.9796885739449
 21
-73.82922630407865
 31
0.0
  0
LINE
  5
72
  8
0
  6
CENTER
 62
     1
 10
-561.4796885739449
 20
-79.82922630407866
 30
0.0
 11
-429.4796885739449
 21
-79.82922630407866
 31
0.0
  0
LINE
  5
73
  8
0
  6
CENTER
 62
     1
 10
-414.3435804542349
 20
-79.82922630407867
 30
0.0
 11
-374.843580454235
 21
-79.82922630407856
 31
0.0
  0
LINE
  5
74
  8
0
  6
CENTER
 62
     1
 10
-495.4796885739449
 20
-98.32922630407867
 30
0.0
 11
-495.4796885739449
 21
-61.32922630407864
 31
0.0
  0
LINE
  5
75
  8
0
  6
CENTER
 62
     1
 10
-495.4796885739449
 20
-123.3133067844337
 30
0.0
 11
-495.4796885739449
 21
-162.8133067844337
 31
0.0
  0
LINE
  5
76
  8
0
  6
CONTINUOUS
 62
     7
 10
-473.8384387398162
 20
-147.1990058093892
 30
0.0
 11
-472.1209384080736
 21
-147.1990058093892
 31
0.0
  0
LINE
  5
77
  8
0
  6
CONTINUOUS
 62
     7
 10
-482.6381313449659
 20
-155.9599765495988
 30
0.0
 11
-482.6467249681659
 21
-157.6655818550174
 31
0.0
  0
LINE
  5
78
  8
0
  6
CONTINUOUS
 62
     7
 10
-463.321245802924
 20
-155.9599765495988
 30
0.0
 11
-463.312652179724
 21
-157.6655818550174
 31
0.0
  0
LINE
  5
79
  8
0
  6
CONTINUOUS
 62
     7
 10
-538.0599235976001
 20
-153.3525969720463
 30
0.0
 11
-534.5886466218452
 21
-153.1450297973998
 31
0.0
  0
INSERT
  5
D7
  8
0
  6
CONTINUOUS
 62
     7
  2
D_FRAME_VIEW_2293
 10
0.0
 20
0.0
 30
0.0
  0
INSERT
  5
132
  8
0
  6
CONTINUOUS
 62
     7
  2
D_FRAME_VIEW_2089
 10
0.0
 20
0.0
 30
0.0
  0
INSERT
  5
1BA
  8
0
  6
CONTINUOUS
 62
     7
  2
D_FRAME_VIEW_1330
 10
0.0
 20
0.0
 30
0.0
  0
TEXT
  5
1BB
  8
0
  6
CONTINUOUS
 62
     7
 10
-474.6643445570472
 20
-185.2179145742624
 30
0.0
 40
6.0
  1
ＳＢＰ－Ｋ２＿
  0
ENDSEC
  0
EOF
