  0
SECTION
  2
HEADER
  9
$ACADVER
  1
AC1004
  9
$INSBASE
 10
0.0
 20
0.0
  9
$EXTMIN
 10
56.99999999999999
 20
7.670454545454553
  9
$EXTMAX
 10
252.0000005552204
 20
195.0
  9
$LIMMIN
 10
0.0
 20
0.0
  9
$LIMMAX
 10
12.0
 20
9.0
  9
$ORTHOMODE
 70
     0
  9
$REGENMODE
 70
     1
  9
$FILLMODE
 70
     1
  9
$QTEXTMODE
 70
     0
  9
$DRAGMODE
 70
     2
  9
$LTSCALE
 40
1.0
  9
$OSMODE
 70
    37
  9
$ATTMODE
 70
     1
  9
$TEXTSIZE
 40
0.2
  9
$TRACEWID
 40
0.05
  9
$TEXTSTYLE
  7
STANDARD
  9
$CLAYER
  8
0
  9
$CELTYPE
  6
BYLAYER
  9
$CECOLOR
 62
   256
  9
$DIMSCALE
 40
1.0
  9
$DIMASZ
 40
3.0
  9
$DIMEXO
 40
0.0625
  9
$DIMDLI
 40
0.38
  9
$DIMRND
 40
0.0
  9
$DIMDLE
 40
0.0
  9
$DIMEXE
 40
1.5
  9
$DIMTP
 40
0.0
  9
$DIMTM
 40
0.0
  9
$DIMTXT
 40
3.0
  9
$DIMCEN
 40
0.09
  9
$DIMTSZ
 40
0.0
  9
$DIMTOL
 70
     0
  9
$DIMLIM
 70
     0
  9
$DIMTIH
 70
     1
  9
$DIMTOH
 70
     1
  9
$DIMSE1
 70
     0
  9
$DIMSE2
 70
     0
  9
$DIMTAD
 70
     1
  9
$DIMZIN
 70
     0
  9
$DIMBLK
  1

  9
$DIMASO
 70
     1
  9
$DIMSHO
 70
     1
  9
$DIMPOST
  1

  9
$DIMAPOST
  1

  9
$DIMALT
 70
     0
  9
$DIMALTD
 70
     2
  9
$DIMALTF
 40
25.4
  9
$DIMLFAC
 40
1.0
  9
$DIMTOFL
 70
     0
  9
$DIMTVP
 40
0.0
  9
$DIMTIX
 70
     0
  9
$DIMSOXD
 70
     0
  9
$DIMSAH
 70
     0
  9
$DIMBLK1
  1

  9
$DIMBLK2
  1

  9
$LUNITS
 70
     2
  9
$LUPREC
 70
     4
  9
$SKETCHINC
 40
0.1
  9
$FILLETRAD
 40
0.5
  9
$AUNITS
 70
     0
  9
$AUPREC
 70
     0
  9
$MENU
  1
.
  9
$ELEVATION
 40
0.0
  9
$THICKNESS
 40
0.0
  9
$LIMCHECK
 70
     0
  9
$CHAMFERA
 40
0.0
  9
$CHAMFERB
 40
0.0
  9
$SKPOLY
 70
     0
  9
$TDCREATE
 40
2460628.726991852
  9
$TDUPDATE
 40
2460628.726991979
  9
$TDINDWG
 40
0.0000000116
  9
$TDUSRTIMER
 40
0.0000000116
  9
$USRTIMER
 70
     1
  9
$ANGBASE
 50
0.0
  9
$ANGDIR
 70
     0
  9
$PDMODE
 70
     0
  9
$PDSIZE
 40
0.0
  9
$PLINEWID
 40
0.0
  9
$COORDS
 70
     1
  9
$SPLFRAME
 70
     0
  9
$SPLINETYPE
 70
     6
  9
$SPLINESEGS
 70
     8
  9
$ATTDIA
 70
     0
  9
$ATTREQ
 70
     1
  9
$SURFTAB1
 70
     6
  9
$SURFTAB2
 70
     6
  9
$SURFTYPE
 70
     6
  9
$SURFU
 70
     6
  9
$SURFV
 70
     6
  9
$UCSNAME
  2

  9
$UCSORG
 10
0.0
 20
0.0
 30
0.0
  9
$UCSXDIR
 10
1.0
 20
0.0
 30
0.0
  9
$UCSYDIR
 10
0.0
 20
1.0
 30
0.0
  9
$USERI1
 70
     0
  9
$USERI2
 70
     0
  9
$USERI3
 70
     0
  9
$USERI4
 70
     0
  9
$USERI5
 70
     0
  9
$USERR1
 40
0.0
  9
$USERR2
 40
0.0
  9
$USERR3
 40
0.0
  9
$USERR4
 40
0.0
  9
$USERR5
 40
0.0
  9
$WORLDVIEW
 70
     1
  0
ENDSEC
  0
SECTION
  2
TABLES
  0
TABLE
  2
LTYPE
 70
     2
  0
LTYPE
  2
CONTINUOUS
 70
     0
  3
Solid line
 72
    65
 73
     0
 40
0.0
  0
LTYPE
  2
CENTER
 70
     0
  3

 72
    65
 73
     0
 40
0.0
  0
ENDTAB
  0
TABLE
  2
LAYER
 70
     2
  0
LAYER
  2
0
 70
     0
 62
     7
  6
CONTINUOUS
  0
LAYER
  2
1
 70
     0
 62
     7
  6
CONTINUOUS
  0
ENDTAB
  0
TABLE
  2
STYLE
 70
     2
  0
STYLE
  2
STANDARD
 70
     0
 40
0.0
 41
1.0
 50
0.0
 71
     0
 42
0.2
  3
txt
  4

  0
STYLE
  2
ＭＳ_ゴシック
 70
     0
 40
0.0
 41
1.0
 50
0.0
 71
     0
 42
0.2
  3
ＭＳ ゴシック.shx
  4

  0
ENDTAB
  0
TABLE
  2
VIEW
 70
     0
  0
ENDTAB
  0
ENDSEC
  0
SECTION
  2
BLOCKS
  0
BLOCK
  8
0
  2
D_FRAME_VIEW_2261
 70
     0
 10
0.0
 20
0.0
  0
LINE
  8
1
  6
CONTINUOUS
 62
     7
 10
110.630476010646
 20
179.7821140875686
 11
109.369523989354
 21
179.7821140875686
  0
LINE
  8
1
  6
CONTINUOUS
 62
     7
 10
108.9647238195899
 20
177.7821140875686
 11
114.0
 21
177.7821140875686
  0
LINE
  8
1
  6
CONTINUOUS
 62
     7
 10
98.33953973041015
 20
177.1471442598439
 11
90.7140927462401
 21
176.5951109848918
  0
POLYLINE
  8
1
  6
CONTINUOUS
 62
     7
 66
     1
  0
VERTEX
  8
1
  6
CONTINUOUS
 62
     7
 10
100.9467829023514
 20
179.7821140875687
  0
VERTEX
  8
1
  6
CONTINUOUS
 62
     7
 10
100.4456913548528
 20
179.7318083366219
  0
VERTEX
  8
1
  6
CONTINUOUS
 62
     7
 10
99.9632722418654
 20
179.5827656530989
  0
VERTEX
  8
1
  6
CONTINUOUS
 62
     7
 10
99.51750219727785
 20
179.3405398919017
  0
VERTEX
  8
1
  6
CONTINUOUS
 62
     7
 10
99.12499218171433
 20
179.0141572373383
  0
VERTEX
  8
1
  6
CONTINUOUS
 62
     7
 10
98.80036849968376
 20
178.6157798557298
  0
VERTEX
  8
1
  6
CONTINUOUS
 62
     7
 10
98.55572777200067
 20
178.1602526902928
  0
VERTEX
  8
1
  6
CONTINUOUS
 62
     7
 10
98.40018617312305
 20
177.6645502863115
  0
VERTEX
  8
1
  6
CONTINUOUS
 62
     7
 10
98.33953973041014
 20
177.147144259844
  0
SEQEND
  8
1
  6
CONTINUOUS
 62
     7
  0
POLYLINE
  8
1
  6
CONTINUOUS
 62
     7
 66
     1
  0
VERTEX
  8
1
  6
CONTINUOUS
 62
     7
 10
100.3679839656172
 20
177.7821140875686
  0
VERTEX
  8
1
  6
CONTINUOUS
 62
     7
 10
100.3491396875677
 20
177.7801926156089
  0
VERTEX
  8
1
  6
CONTINUOUS
 62
     7
 10
100.3310195845557
 20
177.7745020408197
  0
VERTEX
  8
1
  6
CONTINUOUS
 62
     7
 10
100.3143200019781
 20
177.7652610487989
  0
VERTEX
  8
1
  6
CONTINUOUS
 62
     7
 10
100.299682695428
 20
177.7528247656873
  0
VERTEX
  8
1
  6
CONTINUOUS
 62
     7
 10
100.2876701683874
 20
177.7376711108706
  0
VERTEX
  8
1
  6
CONTINUOUS
 62
     7
 10
100.2787440555339
 20
177.7203824308051
  0
VERTEX
  8
1
  6
CONTINUOUS
 62
     7
 10
100.2732473823786
 20
177.7016231197702
  0
VERTEX
  8
1
  6
CONTINUOUS
 62
     7
 10
100.2713913829883
 20
177.6821140875686
  0
SEQEND
  8
1
  6
CONTINUOUS
 62
     7
  0
LINE
  8
1
  6
CONTINUOUS
 62
     7
 10
100.2713913829883
 20
177.1471442598439
 11
100.2713913829883
 21
177.6821140875686
  0
POLYLINE
  8
1
  6
CONTINUOUS
 62
     7
 66
     1
  0
VERTEX
  8
1
  6
CONTINUOUS
 62
     7
 10
98.47429888949077
 20
175.1520161593243
  0
VERTEX
  8
1
  6
CONTINUOUS
 62
     7
 10
98.83139292480061
 20
175.2130523820161
  0
VERTEX
  8
1
  6
CONTINUOUS
 62
     7
 10
99.17122330423248
 20
175.3419736911442
  0
VERTEX
  8
1
  6
CONTINUOUS
 62
     7
 10
99.48186225178674
 20
175.534255051309
  0
VERTEX
  8
1
  6
CONTINUOUS
 62
     7
 10
99.75240658750228
 20
175.783147539719
  0
VERTEX
  8
1
  6
CONTINUOUS
 62
     7
 10
99.97336042040028
 20
176.0799152280127
  0
VERTEX
  8
1
  6
CONTINUOUS
 62
     7
 10
100.136968446704
 20
176.4141418063953
  0
VERTEX
  8
1
  6
CONTINUOUS
 62
     7
 10
100.2374881548322
 20
176.7740961878265
  0
VERTEX
  8
1
  6
CONTINUOUS
 62
     7
 10
100.2713913829883
 20
177.1471442598439
  0
SEQEND
  8
1
  6
CONTINUOUS
 62
     7
  0
LINE
  8
1
  6
CONTINUOUS
 62
     7
 10
90.7140927462401
 20
174.5902271887294
 11
98.47429888949075
 21
175.1520161593243
  0
LINE
  8
1
  6
CONTINUOUS
 62
     7
 10
107.0883310129251
 20
179.7821140875686
 11
106.4821890753201
 21
179.7821140875686
  0
LINE
  8
1
  6
CONTINUOUS
 62
     7
 10
100.3679839656172
 20
177.7821140875686
 11
108.9647238195899
 21
177.7821140875686
  0
LINE
  8
1
  6
CONTINUOUS
 62
     7
 10
103.4393033008338
 20
177.7821140875686
 11
103.3772199242185
 21
177.6821140875686
  0
POLYLINE
  8
1
  6
CONTINUOUS
 62
     7
 66
     1
  0
VERTEX
  8
1
  6
CONTINUOUS
 62
     7
 10
102.2221667405299
 20
175.1520161593243
  0
VERTEX
  8
1
  6
CONTINUOUS
 62
     7
 10
102.4516833646621
 20
175.2130523820161
  0
VERTEX
  8
1
  6
CONTINUOUS
 62
     7
 10
102.6701040431175
 20
175.3419736911442
  0
VERTEX
  8
1
  6
CONTINUOUS
 62
     7
 10
102.8697623838254
 20
175.534255051309
  0
VERTEX
  8
1
  6
CONTINUOUS
 62
     7
 10
103.0436505378452
 20
175.783147539719
  0
VERTEX
  8
1
  6
CONTINUOUS
 62
     7
 10
103.1856651692904
 20
176.0799152280127
  0
VERTEX
  8
1
  6
CONTINUOUS
 62
     7
 10
103.290821677563
 20
176.4141418063953
  0
VERTEX
  8
1
  6
CONTINUOUS
 62
     7
 10
103.3554291528694
 20
176.7740961878265
  0
VERTEX
  8
1
  6
CONTINUOUS
 62
     7
 10
103.3772199242185
 20
177.1471442598439
  0
SEQEND
  8
1
  6
CONTINUOUS
 62
     7
  0
LINE
  8
1
  6
CONTINUOUS
 62
     7
 10
103.3772199242185
 20
177.6821140875686
 11
103.3772199242185
 21
177.1471442598439
  0
LINE
  8
1
  6
CONTINUOUS
 62
     7
 10
101.7009687556071
 20
175.0933116953211
 11
101.0317557126169
 21
175.0373702457663
  0
LINE
  8
1
  6
CONTINUOUS
 62
     7
 10
101.0317557126169
 20
175.0373702457663
 11
98.17986141491552
 21
174.830911456892
  0
POLYLINE
  8
1
  6
CONTINUOUS
 62
     7
 66
     1
  0
VERTEX
  8
1
  6
CONTINUOUS
 62
     7
 10
89.25612355607095
 20
174.4511505354314
  0
VERTEX
  8
1
  6
CONTINUOUS
 62
     7
 10
90.35916566250701
 20
174.450321753782
  0
VERTEX
  8
1
  6
CONTINUOUS
 62
     7
 10
92.28802668013905
 20
174.5109278262747
  0
VERTEX
  8
1
  6
CONTINUOUS
 62
     7
 10
94.96160568025607
 20
174.63042050878
  0
SEQEND
  8
1
  6
CONTINUOUS
 62
     7
  0
LINE
  8
1
  6
CONTINUOUS
 62
     7
 10
89.23173083644514
 20
174.4551389615168
 11
89.25612355607093
 21
174.4511505354314
  0
LINE
  8
1
  6
CONTINUOUS
 62
     7
 10
102.2221667405299
 20
175.1520161593243
 11
101.7009687556071
 21
175.0933116953211
  0
LINE
  8
1
  6
CONTINUOUS
 62
     7
 10
96.10974820832635
 20
174.9029925361666
 11
96.08925633337824
 21
174.904407100154
  0
LINE
  8
1
  6
CONTINUOUS
 62
     7
 10
97.14502438873646
 20
174.9029925361666
 11
97.12453251378834
 21
174.904407100154
  0
LINE
  8
1
  6
CONTINUOUS
 62
     7
 10
98.18030056914652
 20
174.9029925361666
 11
98.15980869419842
 21
174.904407100154
  0
POLYLINE
  8
1
  6
CONTINUOUS
 62
     7
 66
     1
  0
VERTEX
  8
1
  6
CONTINUOUS
 62
     7
 10
90.71409274624008
 20
174.5902271887294
  0
VERTEX
  8
1
  6
CONTINUOUS
 62
     7
 10
90.36396335821001
 20
174.564226776745
  0
VERTEX
  8
1
  6
CONTINUOUS
 62
     7
 10
90.04409046529814
 20
174.5391329225172
  0
VERTEX
  8
1
  6
CONTINUOUS
 62
     7
 10
89.7656270927855
 20
174.5158205748046
  0
VERTEX
  8
1
  6
CONTINUOUS
 62
     7
 10
89.5382824379886
 20
174.495102566483
  0
VERTEX
  8
1
  6
CONTINUOUS
 62
     7
 10
89.36998333915675
 20
174.4777012734576
  0
VERTEX
  8
1
  6
CONTINUOUS
 62
     7
 10
89.26659788997857
 20
174.4642234275439
  0
VERTEX
  8
1
  6
CONTINUOUS
 62
     7
 10
89.23173083644514
 20
174.4551389615168
  0
SEQEND
  8
1
  6
CONTINUOUS
 62
     7
  0
POLYLINE
  8
1
  6
CONTINUOUS
 62
     7
 66
     1
  0
VERTEX
  8
1
  6
CONTINUOUS
 62
     7
 10
90.71409274624008
 20
176.5951109848918
  0
VERTEX
  8
1
  6
CONTINUOUS
 62
     7
 10
90.36396335821
 20
176.5691105729074
  0
VERTEX
  8
1
  6
CONTINUOUS
 62
     7
 10
90.04409046529811
 20
176.5440167186795
  0
VERTEX
  8
1
  6
CONTINUOUS
 62
     7
 10
89.76562709278546
 20
176.520704370967
  0
VERTEX
  8
1
  6
CONTINUOUS
 62
     7
 10
89.53828243798857
 20
176.4999863626453
  0
VERTEX
  8
1
  6
CONTINUOUS
 62
     7
 10
89.36998333915672
 20
176.4825850696199
  0
VERTEX
  8
1
  6
CONTINUOUS
 62
     7
 10
89.26659788997856
 20
176.4691072237062
  0
VERTEX
  8
1
  6
CONTINUOUS
 62
     7
 10
89.23173083644514
 20
176.4600227576792
  0
SEQEND
  8
1
  6
CONTINUOUS
 62
     7
  0
POLYLINE
  8
1
  6
CONTINUOUS
 62
     7
 66
     1
  0
VERTEX
  8
1
  6
CONTINUOUS
 62
     7
 10
96.08925633337824
 20
174.904407100154
  0
VERTEX
  8
1
  6
CONTINUOUS
 62
     7
 10
96.0489844499004
 20
174.9036375563576
  0
VERTEX
  8
1
  6
CONTINUOUS
 62
     7
 10
95.98893347310825
 20
174.9013572233048
  0
VERTEX
  8
1
  6
CONTINUOUS
 62
     7
 10
95.91131164997792
 20
174.8976499553948
  0
VERTEX
  8
1
  6
CONTINUOUS
 62
     7
 10
95.8189733579961
 20
174.8926520795216
  0
VERTEX
  8
1
  6
CONTINUOUS
 62
     7
 10
95.71531414149771
 20
174.8865473819427
  0
VERTEX
  8
1
  6
CONTINUOUS
 62
     7
 10
95.60414584774335
 20
174.8795603499303
  0
VERTEX
  8
1
  6
CONTINUOUS
 62
     7
 10
95.48955645434204
 20
174.871947916729
  0
VERTEX
  8
1
  6
CONTINUOUS
 62
     7
 10
95.37575974256751
 20
174.8639900133824
  0
VERTEX
  8
1
  6
CONTINUOUS
 62
     7
 10
95.26694034451228
 20
174.8559792748638
  0
VERTEX
  8
1
  6
CONTINUOUS
 62
     7
 10
95.16709986214086
 20
174.8482102790481
  0
VERTEX
  8
1
  6
CONTINUOUS
 62
     7
 10
95.07990971688668
 20
174.8409687142357
  0
VERTEX
  8
1
  6
CONTINUOUS
 62
     7
 10
95.00857614093597
 20
174.8345208735741
  0
VERTEX
  8
1
  6
CONTINUOUS
 62
     7
 10
94.9557222748571
 20
174.8291038626923
  0
VERTEX
  8
1
  6
CONTINUOUS
 62
     7
 10
94.92329170718396
 20
174.8249168806467
  0
VERTEX
  8
1
  6
CONTINUOUS
 62
     7
 10
94.91247700308084
 20
174.8221138947985
  0
SEQEND
  8
1
  6
CONTINUOUS
 62
     7
  0
POLYLINE
  8
1
  6
CONTINUOUS
 62
     7
 66
     1
  0
VERTEX
  8
1
  6
CONTINUOUS
 62
     7
 10
97.12453251378834
 20
174.904407100154
  0
VERTEX
  8
1
  6
CONTINUOUS
 62
     7
 10
97.08395341107854
 20
174.9036281998426
  0
VERTEX
  8
1
  6
CONTINUOUS
 62
     7
 10
97.02336616521092
 20
174.90132048956
  0
VERTEX
  8
1
  6
CONTINUOUS
 62
     7
 10
96.94502583210334
 20
174.8975698622309
  0
VERTEX
  8
1
  6
CONTINUOUS
 62
     7
 10
96.85184823717836
 20
174.8925159161194
  0
VERTEX
  8
1
  6
CONTINUOUS
 62
     7
 10
96.74730144840704
 20
174.8863467589851
  0
VERTEX
  8
1
  6
CONTINUOUS
 62
     7
 10
96.63527669489774
 20
174.8792920067168
  0
VERTEX
  8
1
  6
CONTINUOUS
 62
     7
 10
96.51994353543682
 20
174.871614237034
  0
VERTEX
  8
1
  6
CONTINUOUS
 62
     7
 10
96.4055946676052
 20
174.8635992163502
  0
VERTEX
  8
1
  6
CONTINUOUS
 62
     7
 10
96.29648615367162
 20
174.8555452635537
  0
VERTEX
  8
1
  6
CONTINUOUS
 62
     7
 10
96.1966790100516
 20
174.847752146585
  0
VERTEX
  8
1
  6
CONTINUOUS
 62
     7
 10
96.10988805636833
 20
174.8405099250809
  0
SEQEND
  8
1
  6
CONTINUOUS
 62
     7
  0
POLYLINE
  8
1
  6
CONTINUOUS
 62
     7
 66
     1
  0
VERTEX
  8
1
  6
CONTINUOUS
 62
     7
 10
98.15980869419842
 20
174.904407100154
  0
VERTEX
  8
1
  6
CONTINUOUS
 62
     7
 10
98.11922959148862
 20
174.9036281998426
  0
VERTEX
  8
1
  6
CONTINUOUS
 62
     7
 10
98.05864234562101
 20
174.90132048956
  0
VERTEX
  8
1
  6
CONTINUOUS
 62
     7
 10
97.98030201251343
 20
174.8975698622309
  0
VERTEX
  8
1
  6
CONTINUOUS
 62
     7
 10
97.88712441758845
 20
174.8925159161194
  0
VERTEX
  8
1
  6
CONTINUOUS
 62
     7
 10
97.78257762881715
 20
174.8863467589851
  0
VERTEX
  8
1
  6
CONTINUOUS
 62
     7
 10
97.67055287530783
 20
174.8792920067168
  0
VERTEX
  8
1
  6
CONTINUOUS
 62
     7
 10
97.5552197158469
 20
174.871614237034
  0
VERTEX
  8
1
  6
CONTINUOUS
 62
     7
 10
97.44087084801528
 20
174.8635992163502
  0
VERTEX
  8
1
  6
CONTINUOUS
 62
     7
 10
97.33176233408169
 20
174.8555452635537
  0
VERTEX
  8
1
  6
CONTINUOUS
 62
     7
 10
97.23195519046166
 20
174.847752146585
  0
VERTEX
  8
1
  6
CONTINUOUS
 62
     7
 10
97.14516423677841
 20
174.8405099250809
  0
SEQEND
  8
1
  6
CONTINUOUS
 62
     7
  0
LINE
  8
1
  6
CONTINUOUS
 62
     7
 10
58.99999999999998
 20
148.5821140875686
 11
110.0
 21
148.5821140875686
  0
LINE
  8
1
  6
CONTINUOUS
 62
     7
 10
110.0
 20
148.5821140875686
 11
161.0
 21
148.5821140875686
  0
LINE
  8
1
  6
CONTINUOUS
 62
     7
 10
160.6694445392166
 20
144.7821140875686
 11
110.0
 21
144.7821140875686
  0
LINE
  8
1
  6
CONTINUOUS
 62
     7
 10
110.0
 20
144.7821140875686
 11
59.33055546078342
 21
144.7821140875686
  0
LINE
  8
1
  6
CONTINUOUS
 62
     7
 10
105.2436358410734
 20
149.8821140875686
 11
105.234691223043
 21
149.8821140875686
  0
LINE
  8
1
  6
CONTINUOUS
 62
     7
 10
105.234691223043
 20
149.8821140875686
 11
102.8436358410734
 21
149.8821140875686
  0
LINE
  8
1
  6
CONTINUOUS
 62
     7
 10
73.13964051942573
 20
156.5821140875686
 11
73.24020313211662
 21
156.5821140875686
  0
LINE
  8
1
  6
CONTINUOUS
 62
     7
 10
73.28931827794491
 20
157.0777508198194
 11
73.24020313211662
 21
156.5821140875686
  0
LINE
  8
1
  6
CONTINUOUS
 62
     7
 10
73.28931827794491
 20
157.0777508198194
 11
73.67711412684216
 21
178.2471948129963
  0
LINE
  8
1
  6
CONTINUOUS
 62
     7
 10
87.99999999999999
 20
178.2471948129963
 11
87.99999999999999
 21
173.2821140875686
  0
LINE
  8
1
  6
CONTINUOUS
 62
     7
 10
87.99999999999999
 20
173.2821140875686
 11
104.0
 21
173.2821140875686
  0
LINE
  8
1
  6
CONTINUOUS
 62
     7
 10
104.0
 20
173.2821140875686
 11
104.0
 21
176.4821140875686
  0
LINE
  8
1
  6
CONTINUOUS
 62
     7
 10
104.0
 20
176.4821140875686
 11
105.8344202060749
 21
176.6714735927118
  0
LINE
  8
1
  6
CONTINUOUS
 62
     7
 10
105.826894592558
 20
152.0821140875686
 11
105.8344202060749
 21
176.6714735927118
  0
POLYLINE
  8
1
  6
CONTINUOUS
 62
     7
 66
     1
  0
VERTEX
  8
1
  6
CONTINUOUS
 62
     7
 10
106.32588721166
 20
151.5821140875686
  0
VERTEX
  8
1
  6
CONTINUOUS
 62
     7
 10
106.3050716461049
 20
151.582550635231
  0
VERTEX
  8
1
  6
CONTINUOUS
 62
     7
 10
106.284276828856
 20
151.5838571317398
  0
VERTEX
  8
1
  6
CONTINUOUS
 62
     7
 10
106.2635564772589
 20
151.5860288573771
  0
VERTEX
  8
1
  6
CONTINUOUS
 62
     7
 10
106.2429643086598
 20
151.589061092425
  0
VERTEX
  8
1
  6
CONTINUOUS
 62
     7
 10
106.2219270784144
 20
151.593079589602
  0
VERTEX
  8
1
  6
CONTINUOUS
 62
     7
 10
106.2010636643188
 20
151.5980025814419
  0
VERTEX
  8
1
  6
CONTINUOUS
 62
     7
 10
106.1804308119529
 20
151.603815297706
  0
VERTEX
  8
1
  6
CONTINUOUS
 62
     7
 10
106.1600852668968
 20
151.6105029681555
  0
VERTEX
  8
1
  6
CONTINUOUS
 62
     7
 10
106.1406079380256
 20
151.6178367732661
  0
VERTEX
  8
1
  6
CONTINUOUS
 62
     7
 10
106.121436272496
 20
151.6259846697006
  0
VERTEX
  8
1
  6
CONTINUOUS
 62
     7
 10
106.1026193619681
 20
151.634924659771
  0
VERTEX
  8
1
  6
CONTINUOUS
 62
     7
 10
106.0842062981021
 20
151.6446347457892
  0
VERTEX
  8
1
  6
CONTINUOUS
 62
     7
 10
106.0656983775272
 20
151.6554244834895
  0
VERTEX
  8
1
  6
CONTINUOUS
 62
     7
 10
106.0476520244301
 20
151.6670112967371
  0
VERTEX
  8
1
  6
CONTINUOUS
 62
     7
 10
106.0301161042875
 20
151.6793626132132
  0
VERTEX
  8
1
  6
CONTINUOUS
 62
     7
 10
106.0131394825763
 20
151.6924458605988
  0
VERTEX
  8
1
  6
CONTINUOUS
 62
     7
 10
105.9971964870673
 20
151.7058502771886
  0
VERTEX
  8
1
  6
CONTINUOUS
 62
     7
 10
105.9818103385977
 20
151.7199232481683
  0
VERTEX
  8
1
  6
CONTINUOUS
 62
     7
 10
105.967020417349
 20
151.734627711616
  0
VERTEX
  8
1
  6
CONTINUOUS
 62
     7
 10
105.9528661035024
 20
151.7499266056099
  0
VERTEX
  8
1
  6
CONTINUOUS
 62
     7
 10
105.9389775605964
 20
151.7662811515121
  0
VERTEX
  8
1
  6
CONTINUOUS
 62
     7
 10
105.9257887677933
 20
151.7832368666366
  0
VERTEX
  8
1
  6
CONTINUOUS
 62
     7
 10
105.9133354838858
 20
151.8007464847276
  0
VERTEX
  8
1
  6
CONTINUOUS
 62
     7
 10
105.9016534676668
 20
151.8187627395291
  0
VERTEX
  8
1
  6
CONTINUOUS
 62
     7
 10
105.8910849558081
 20
151.8366849978566
  0
VERTEX
  8
1
  6
CONTINUOUS
 62
     7
 10
105.8812602908803
 20
151.8550519921027
  0
VERTEX
  8
1
  6
CONTINUOUS
 62
     7
 10
105.87220444423
 20
151.8738156076762
  0
VERTEX
  8
1
  6
CONTINUOUS
 62
     7
 10
105.8639423872037
 20
151.8929277299855
  0
VERTEX
  8
1
  6
CONTINUOUS
 62
     7
 10
105.8562779704344
 20
151.9129474653509
  0
VERTEX
  8
1
  6
CONTINUOUS
 62
     7
 10
105.849470186362
 20
151.9333006296253
  0
VERTEX
  8
1
  6
CONTINUOUS
 62
     7
 10
105.843537105021
 20
151.9539305774043
  0
VERTEX
  8
1
  6
CONTINUOUS
 62
     7
 10
105.838496796446
 20
151.9747806632836
  0
VERTEX
  8
1
  6
CONTINUOUS
 62
     7
 10
105.8343330252761
 20
151.9959805972651
  0
VERTEX
  8
1
  6
CONTINUOUS
 62
     7
 10
105.8310840530507
 20
152.0173745694677
  0
VERTEX
  8
1
  6
CONTINUOUS
 62
     7
 10
105.8287567460215
 20
152.0389019171081
  0
VERTEX
  8
1
  6
CONTINUOUS
 62
     7
 10
105.82735797044
 20
152.0605019774029
  0
VERTEX
  8
1
  6
CONTINUOUS
 62
     7
 10
105.826894592558
 20
152.0821140875686
  0
SEQEND
  8
1
  6
CONTINUOUS
 62
     7
  0
LINE
  8
1
  6
CONTINUOUS
 62
     7
 10
113.6741127883399
 20
151.5821140875686
 11
106.3258872116601
 21
151.5821140875686
  0
POLYLINE
  8
1
  6
CONTINUOUS
 62
     7
 66
     1
  0
VERTEX
  8
1
  6
CONTINUOUS
 62
     7
 10
114.173105407442
 20
152.0821140875686
  0
VERTEX
  8
1
  6
CONTINUOUS
 62
     7
 10
114.1726811073154
 20
152.0613883203658
  0
VERTEX
  8
1
  6
CONTINUOUS
 62
     7
 10
114.1713986515123
 20
152.0406820391581
  0
VERTEX
  8
1
  6
CONTINUOUS
 62
     7
 10
114.1692627278579
 20
152.0200488887049
  0
VERTEX
  8
1
  6
CONTINUOUS
 62
     7
 10
114.1662780241773
 20
151.999542513765
  0
VERTEX
  8
1
  6
CONTINUOUS
 62
     7
 10
114.1623204740441
 20
151.9785906875208
  0
VERTEX
  8
1
  6
CONTINUOUS
 62
     7
 10
114.1574710039571
 20
151.9578111246785
  0
VERTEX
  8
1
  6
CONTINUOUS
 62
     7
 10
114.1517444936009
 20
151.9372603491155
  0
VERTEX
  8
1
  6
CONTINUOUS
 62
     7
 10
114.1451558226603
 20
151.9169948847094
  0
VERTEX
  8
1
  6
CONTINUOUS
 62
     7
 10
114.1379314640179
 20
151.8975950403132
  0
VERTEX
  8
1
  6
CONTINUOUS
 62
     7
 10
114.1299058580822
 20
151.8784985310401
  0
VERTEX
  8
1
  6
CONTINUOUS
 62
     7
 10
114.1211010733125
 20
151.859753904778
  0
VERTEX
  8
1
  6
CONTINUOUS
 62
     7
 10
114.1115391781682
 20
151.8414097094148
  0
VERTEX
  8
1
  6
CONTINUOUS
 62
     7
 10
114.1009177255062
 20
151.8229716885017
  0
VERTEX
  8
1
  6
CONTINUOUS
 62
     7
 10
114.0895139659321
 20
151.8049905426641
  0
VERTEX
  8
1
  6
CONTINUOUS
 62
     7
 10
114.0773602431774
 20
151.7875140938011
  0
VERTEX
  8
1
  6
CONTINUOUS
 62
     7
 10
114.0644889009732
 20
151.7705901638118
  0
VERTEX
  8
1
  6
CONTINUOUS
 62
     7
 10
114.0512588645031
 20
151.7546385253071
  0
VERTEX
  8
1
  6
CONTINUOUS
 62
     7
 10
114.037369873666
 20
151.7392397217778
  0
VERTEX
  8
1
  6
CONTINUOUS
 62
     7
 10
114.022858646272
 20
151.724432249012
  0
VERTEX
  8
1
  6
CONTINUOUS
 62
     7
 10
114.0077619001312
 20
151.7102546027977
  0
VERTEX
  8
1
  6
CONTINUOUS
 62
     7
 10
113.9916315442622
 20
151.6963406749662
  0
VERTEX
  8
1
  6
CONTINUOUS
 62
     7
 10
113.9749101831636
 20
151.6831182892021
  0
VERTEX
  8
1
  6
CONTINUOUS
 62
     7
 10
113.9576439863622
 20
151.670622012847
  0
VERTEX
  8
1
  6
CONTINUOUS
 62
     7
 10
113.939879123385
 20
151.6588864132428
  0
VERTEX
  8
1
  6
CONTINUOUS
 62
     7
 10
113.9220708918001
 20
151.6481764867337
  0
VERTEX
  8
1
  6
CONTINUOUS
 62
     7
 10
113.9038183299492
 20
151.6382103136376
  0
VERTEX
  8
1
  6
CONTINUOUS
 62
     7
 10
113.8851689882902
 20
151.6290124430226
  0
VERTEX
  8
1
  6
CONTINUOUS
 62
     7
 10
113.8661704172808
 20
151.6206074239568
  0
VERTEX
  8
1
  6
CONTINUOUS
 62
     7
 10
113.8462742814999
 20
151.6127971051853
  0
VERTEX
  8
1
  6
CONTINUOUS
 62
     7
 10
113.8260438488769
 20
151.6058408456028
  0
VERTEX
  8
1
  6
CONTINUOUS
 62
     7
 10
113.805534601476
 20
151.5997564368134
  0
VERTEX
  8
1
  6
CONTINUOUS
 62
     7
 10
113.7848020213613
 20
151.5945616704208
  0
VERTEX
  8
1
  6
CONTINUOUS
 62
     7
 10
113.7629564971762
 20
151.5901009353027
  0
VERTEX
  8
1
  6
CONTINUOUS
 62
     7
 10
113.740898961588
 20
151.5866181614427
  0
VERTEX
  8
1
  6
CONTINUOUS
 62
     7
 10
113.7186952647902
 20
151.5841209968565
  0
VERTEX
  8
1
  6
CONTINUOUS
 62
     7
 10
113.6964112569764
 20
151.5826170895599
  0
VERTEX
  8
1
  6
CONTINUOUS
 62
     7
 10
113.6741127883399
 20
151.5821140875686
  0
SEQEND
  8
1
  6
CONTINUOUS
 62
     7
  0
LINE
  8
1
  6
CONTINUOUS
 62
     7
 10
114.165097513696
 20
178.2471948129963
 11
114.173105407442
 21
152.0821140875686
  0
LINE
  8
1
  6
CONTINUOUS
 62
     7
 10
146.3228858731578
 20
178.2471948129963
 11
146.7106817220551
 21
157.0777508198194
  0
LINE
  8
1
  6
CONTINUOUS
 62
     7
 10
146.7597968678834
 20
156.5821140875686
 11
146.7106817220551
 21
157.0777508198194
  0
LINE
  8
1
  6
CONTINUOUS
 62
     7
 10
146.7597968678834
 20
156.5821140875686
 11
146.8603594805742
 21
156.5821140875686
  0
LINE
  8
1
  6
CONTINUOUS
 62
     7
 10
105.8344202060749
 20
176.6714735927118
 11
105.9006244498588
 21
176.6783075791669
  0
LINE
  8
1
  6
CONTINUOUS
 62
     7
 10
114.165097513696
 20
178.2471948129963
 11
114.1552594824483
 21
179.7821140875686
  0
LINE
  8
1
  6
CONTINUOUS
 62
     7
 10
112.995630235173
 20
180.0019132977497
 11
112.9540959190558
 21
179.7821140875686
  0
LINE
  8
1
  6
CONTINUOUS
 62
     7
 10
112.9540959190558
 20
179.7821140875686
 11
112.0
 21
179.7821140875686
  0
LINE
  8
1
  6
CONTINUOUS
 62
     7
 10
112.0
 20
182.2821140875686
 11
113.0
 21
182.2821140875686
  0
LINE
  8
1
  6
CONTINUOUS
 62
     7
 10
113.0
 20
182.2821140875686
 11
113.0
 21
180.0914188604666
  0
LINE
  8
1
  6
CONTINUOUS
 62
     7
 10
113.0
 20
180.0914188604666
 11
112.995630235173
 21
180.0019132977497
  0
LINE
  8
1
  6
CONTINUOUS
 62
     7
 10
108.0
 20
182.2821140875686
 11
112.0
 21
182.2821140875686
  0
LINE
  8
1
  6
CONTINUOUS
 62
     7
 10
108.0
 20
179.7821140875686
 11
109.369523989354
 21
179.7821140875686
  0
LINE
  8
1
  6
CONTINUOUS
 62
     7
 10
110.630476010646
 20
179.7821140875686
 11
112.0
 21
179.7821140875686
  0
LINE
  8
1
  6
CONTINUOUS
 62
     7
 10
107.0459040809441
 20
179.7821140875686
 11
107.004369764827
 21
180.0019132977497
  0
LINE
  8
1
  6
CONTINUOUS
 62
     7
 10
107.004369764827
 20
180.0019132977497
 11
107.0
 21
180.0914188604666
  0
LINE
  8
1
  6
CONTINUOUS
 62
     7
 10
107.0
 20
180.0914188604666
 11
107.0
 21
182.2821140875686
  0
LINE
  8
1
  6
CONTINUOUS
 62
     7
 10
107.0
 20
182.2821140875686
 11
108.0
 21
182.2821140875686
  0
LINE
  8
1
  6
CONTINUOUS
 62
     7
 10
108.0
 20
179.7821140875686
 11
107.0883310129251
 21
179.7821140875686
  0
ARC
  8
1
  6
CONTINUOUS
 62
     7
 10
143.8267426646011
 20
178.2002537296852
 40
2.496584543516672
 50
1.077345631433218
 51
46.1908539111937
  0
LINE
  8
1
  6
CONTINUOUS
 62
     7
 10
114.1552594824483
 20
179.7821140875686
 11
112.9540959190558
 21
179.7821140875686
  0
LINE
  8
1
  6
CONTINUOUS
 62
     7
 10
87.99999999999999
 20
179.7821140875686
 11
87.99999999999999
 21
178.2471948129963
  0
ARC
  8
1
  6
CONTINUOUS
 62
     7
 10
76.17328977782698
 20
178.2002395329373
 40
2.496617247175652
 50
133.8094578387551
 51
178.9223426186182
  0
LINE
  8
1
  6
CONTINUOUS
 62
     7
 10
106.4821890753201
 20
179.7821140875686
 11
87.99999999999899
 21
179.7821140875686
  0
LINE
  8
1
  6
CONTINUOUS
 62
     7
 10
143.9110814605589
 20
181.5804635884152
 11
145.5550242341747
 21
180.0019132977497
  0
LINE
  8
1
  6
CONTINUOUS
 62
     7
 10
74.44497576582523
 20
180.0019132977497
 11
76.08891853944111
 21
181.5804635884152
  0
LINE
  8
1
  6
CONTINUOUS
 62
     7
 10
107.4374252452693
 20
176.8369450806287
 11
107.4275454371255
 21
177.7821140058809
  0
LINE
  8
1
  6
CONTINUOUS
 62
     7
 10
104.0
 20
176.4821140875686
 11
103.7366857961508
 21
176.4549332665261
  0
ARC
  8
1
  6
CONTINUOUS
 62
     7
 10
77.82719790232562
 20
179.7889022050377
 40
2.493244158384207
 50
90.29153759024784
 51
118.1742788042243
  0
LINE
  8
1
  6
CONTINUOUS
 62
     7
 10
76.08891853944111
 20
181.5804635884152
 11
76.64999999999996
 21
181.9867355772652
  0
LINE
  8
1
  6
CONTINUOUS
 62
     7
 10
77.81451160564775
 20
182.2821140875686
 11
107.0
 21
182.2821140875686
  0
ARC
  8
1
  6
CONTINUOUS
 62
     7
 10
142.1741190074016
 20
179.7940940406227
 40
2.488046023883864
 50
61.79600358344276
 51
89.7381800220881
  0
LINE
  8
1
  6
CONTINUOUS
 62
     7
 10
143.35
 20
181.9867355772652
 11
143.9110814605589
 21
181.5804635884152
  0
LINE
  8
1
  6
CONTINUOUS
 62
     7
 10
113.0
 20
182.2821140875686
 11
142.1854883943522
 21
182.2821140875686
  0
LINE
  8
1
  6
CONTINUOUS
 62
     7
 10
108.0
 20
176.8950173133751
 11
105.9006244498588
 21
176.6783075791669
  0
LINE
  8
1
  6
CONTINUOUS
 62
     7
 10
112.1965394526231
 20
185.2821140875686
 11
119.8034605473768
 21
185.2821140875686
  0
LINE
  8
1
  6
CONTINUOUS
 62
     7
 10
100.1965394526231
 20
185.2821140875686
 11
107.8034605473768
 21
185.2821140875686
  0
LINE
  8
1
  6
CONTINUOUS
 62
     7
 10
114.0
 20
177.7821140875686
 11
114.0
 21
179.7821140875686
  0
LINE
  8
1
  6
CONTINUOUS
 62
     7
 10
89.23173083644514
 20
176.4600227576791
 11
89.23173083644514
 21
174.4551389615168
  0
POLYLINE
  8
1
  6
CONTINUOUS
 62
     7
 66
     1
  0
VERTEX
  8
1
  6
CONTINUOUS
 62
     7
 10
94.91247700325698
 20
174.8221138929099
  0
VERTEX
  8
1
  6
CONTINUOUS
 62
     7
 10
94.914567570572
 20
174.7991219237954
  0
VERTEX
  8
1
  6
CONTINUOUS
 62
     7
 10
94.91765344893221
 20
174.7766857200421
  0
VERTEX
  8
1
  6
CONTINUOUS
 62
     7
 10
94.9216710427998
 20
174.7548433149151
  0
VERTEX
  8
1
  6
CONTINUOUS
 62
     7
 10
94.92655684591844
 20
174.7336273638413
  0
VERTEX
  8
1
  6
CONTINUOUS
 62
     7
 10
94.93224775860524
 20
174.7130653808511
  0
VERTEX
  8
1
  6
CONTINUOUS
 62
     7
 10
94.93868137219049
 20
174.6931799881874
  0
VERTEX
  8
1
  6
CONTINUOUS
 62
     7
 10
94.94579622204658
 20
174.673989176015
  0
VERTEX
  8
1
  6
CONTINUOUS
 62
     7
 10
94.95353201076898
 20
174.6555065694002
  0
VERTEX
  8
1
  6
CONTINUOUS
 62
     7
 10
94.96182980316081
 20
174.6377416999665
  0
VERTEX
  8
1
  6
CONTINUOUS
 62
     7
 10
94.97063219473564
 20
174.6207002798671
  0
VERTEX
  8
1
  6
CONTINUOUS
 62
     7
 10
94.98102119008841
 20
174.6024753207904
  0
VERTEX
  8
1
  6
CONTINUOUS
 62
     7
 10
94.99189768078837
 20
174.5851586819471
  0
VERTEX
  8
1
  6
CONTINUOUS
 62
     7
 10
95.00318904993338
 20
174.5687438810795
  0
VERTEX
  8
1
  6
CONTINUOUS
 62
     7
 10
95.01482581318443
 20
174.5532202229673
  0
VERTEX
  8
1
  6
CONTINUOUS
 62
     7
 10
95.02674172002342
 20
174.5385732503527
  0
VERTEX
  8
1
  6
CONTINUOUS
 62
     7
 10
95.03865563406372
 20
174.5250239795369
  0
VERTEX
  8
1
  6
CONTINUOUS
 62
     7
 10
95.05072159314871
 20
174.5122836374533
  0
VERTEX
  8
1
  6
CONTINUOUS
 62
     7
 10
95.06288624018212
 20
174.5003303051795
  0
VERTEX
  8
1
  6
CONTINUOUS
 62
     7
 10
95.07509935113444
 20
174.4891400742347
  0
VERTEX
  8
1
  6
CONTINUOUS
 62
     7
 10
95.09095593714318
 20
174.4757042266367
  0
VERTEX
  8
1
  6
CONTINUOUS
 62
     7
 10
95.1067196811813
 20
174.4634529096946
  0
VERTEX
  8
1
  6
CONTINUOUS
 62
     7
 10
95.12230377789534
 20
174.4523240765959
  0
VERTEX
  8
1
  6
CONTINUOUS
 62
     7
 10
95.1376298492301
 20
174.4422538997335
  0
VERTEX
  8
1
  6
CONTINUOUS
 62
     7
 10
95.15262772071958
 20
174.4331776652956
  0
VERTEX
  8
1
  6
CONTINUOUS
 62
     7
 10
95.16723518030884
 20
174.4250305819458
  0
VERTEX
  8
1
  6
CONTINUOUS
 62
     7
 10
95.18139772925593
 20
174.4177485071643
  0
VERTEX
  8
1
  6
CONTINUOUS
 62
     7
 10
95.1972960407626
 20
174.4102622847888
  0
VERTEX
  8
1
  6
CONTINUOUS
 62
     7
 10
95.21246276272372
 20
174.4037714707403
  0
VERTEX
  8
1
  6
CONTINUOUS
 62
     7
 10
95.22684849946687
 20
174.3981841091247
  0
VERTEX
  8
1
  6
CONTINUOUS
 62
     7
 10
95.24041631762883
 20
174.3934137193356
  0
VERTEX
  8
1
  6
CONTINUOUS
 62
     7
 10
95.25340956081463
 20
174.3892870669479
  0
VERTEX
  8
1
  6
CONTINUOUS
 62
     7
 10
95.26626648549532
 20
174.38559945126
  0
VERTEX
  8
1
  6
CONTINUOUS
 62
     7
 10
95.29658556199202
 20
174.3783599284328
  0
VERTEX
  8
1
  6
CONTINUOUS
 62
     7
 10
95.32617106739144
 20
174.373097981857
  0
VERTEX
  8
1
  6
CONTINUOUS
 62
     7
 10
95.3551263571926
 20
174.3694811606239
  0
VERTEX
  8
1
  6
CONTINUOUS
 62
     7
 10
95.38365419320073
 20
174.367225251721
  0
VERTEX
  8
1
  6
CONTINUOUS
 62
     7
 10
95.41207696718352
 20
174.3661007863623
  0
VERTEX
  8
1
  6
CONTINUOUS
 62
     7
 10
95.43256299065872
 20
174.3658939597526
  0
VERTEX
  8
1
  6
CONTINUOUS
 62
     7
 10
95.45343736123401
 20
174.3661346696373
  0
VERTEX
  8
1
  6
CONTINUOUS
 62
     7
 10
95.4749442599944
 20
174.3667979561767
  0
VERTEX
  8
1
  6
CONTINUOUS
 62
     7
 10
95.49735272955157
 20
174.3678758230747
  0
VERTEX
  8
1
  6
CONTINUOUS
 62
     7
 10
95.52068407570641
 20
174.3693429185232
  0
VERTEX
  8
1
  6
CONTINUOUS
 62
     7
 10
95.54365442473453
 20
174.3710205172718
  0
VERTEX
  8
1
  6
CONTINUOUS
 62
     7
 10
95.56602932574287
 20
174.3728786284832
  0
VERTEX
  8
1
  6
CONTINUOUS
 62
     7
 10
95.58512475306196
 20
174.3746566425091
  0
VERTEX
  8
1
  6
CONTINUOUS
 62
     7
 10
95.60379032572536
 20
174.3765848890488
  0
VERTEX
  8
1
  6
CONTINUOUS
 62
     7
 10
95.62205427729165
 20
174.3786749801239
  0
VERTEX
  8
1
  6
CONTINUOUS
 62
     7
 10
95.63994899578687
 20
174.380941826267
  0
VERTEX
  8
1
  6
CONTINUOUS
 62
     7
 10
95.65750798885662
 20
174.3834033548572
  0
VERTEX
  8
1
  6
CONTINUOUS
 62
     7
 10
95.67476370850973
 20
174.3860802777988
  0
VERTEX
  8
1
  6
CONTINUOUS
 62
     7
 10
95.69174611551078
 20
174.3889959020414
  0
VERTEX
  8
1
  6
CONTINUOUS
 62
     7
 10
95.70848185569137
 20
174.3921759750097
  0
VERTEX
  8
1
  6
CONTINUOUS
 62
     7
 10
95.73045168245666
 20
174.3968762538642
  0
VERTEX
  8
1
  6
CONTINUOUS
 62
     7
 10
95.752068015544
 20
174.4021693507901
  0
VERTEX
  8
1
  6
CONTINUOUS
 62
     7
 10
95.7733652506578
 20
174.408134335739
  0
VERTEX
  8
1
  6
CONTINUOUS
 62
     7
 10
95.79437324614888
 20
174.4148582472629
  0
VERTEX
  8
1
  6
CONTINUOUS
 62
     7
 10
95.81639560715105
 20
174.4231214610079
  0
VERTEX
  8
1
  6
CONTINUOUS
 62
     7
 10
95.84047717177589
 20
174.4337726803776
  0
VERTEX
  8
1
  6
CONTINUOUS
 62
     7
 10
95.85326430306817
 20
174.4401247765313
  0
VERTEX
  8
1
  6
CONTINUOUS
 62
     7
 10
95.8665169780674
 20
174.447237488267
  0
VERTEX
  8
1
  6
CONTINUOUS
 62
     7
 10
95.8802000017127
 20
174.4551713584592
  0
VERTEX
  8
1
  6
CONTINUOUS
 62
     7
 10
95.89426932146242
 20
174.4639890014917
  0
VERTEX
  8
1
  6
CONTINUOUS
 62
     7
 10
95.90867205220441
 20
174.4737545220035
  0
VERTEX
  8
1
  6
CONTINUOUS
 62
     7
 10
95.92334646485585
 20
174.4845328476221
  0
VERTEX
  8
1
  6
CONTINUOUS
 62
     7
 10
95.93608748323088
 20
174.4946268026683
  0
VERTEX
  8
1
  6
CONTINUOUS
 62
     7
 10
95.94892666640871
 20
174.505553122269
  0
VERTEX
  8
1
  6
CONTINUOUS
 62
     7
 10
95.96180943966587
 20
174.5173514404384
  0
VERTEX
  8
1
  6
CONTINUOUS
 62
     7
 10
95.97467631387563
 20
174.5300600399531
  0
VERTEX
  8
1
  6
CONTINUOUS
 62
     7
 10
95.98746284414464
 20
174.5437153254418
  0
VERTEX
  8
1
  6
CONTINUOUS
 62
     7
 10
96.00009959394087
 20
174.5583512526053
  0
VERTEX
  8
1
  6
CONTINUOUS
 62
     7
 10
96.01251211003026
 20
174.5739987136131
  0
VERTEX
  8
1
  6
CONTINUOUS
 62
     7
 10
96.02438225276487
 20
174.5903408215957
  0
VERTEX
  8
1
  6
CONTINUOUS
 62
     7
 10
96.03588125402582
 20
174.607701976376
  0
VERTEX
  8
1
  6
CONTINUOUS
 62
     7
 10
96.04692506198897
 20
174.626098893938
  0
VERTEX
  8
1
  6
CONTINUOUS
 62
     7
 10
96.05742512171014
 20
174.6455428458657
  0
VERTEX
  8
1
  6
CONTINUOUS
 62
     7
 10
96.06523331878859
 20
174.6615583201754
  0
VERTEX
  8
1
  6
CONTINUOUS
 62
     7
 10
96.07260162570748
 20
174.6782229723109
  0
VERTEX
  8
1
  6
CONTINUOUS
 62
     7
 10
96.07948158519764
 20
174.6955334437413
  0
VERTEX
  8
1
  6
CONTINUOUS
 62
     7
 10
96.08582328140045
 20
174.7134832740445
  0
VERTEX
  8
1
  6
CONTINUOUS
 62
     7
 10
96.09107825025802
 20
174.7303479404692
  0
VERTEX
  8
1
  6
CONTINUOUS
 62
     7
 10
96.09580659746268
 20
174.7477230341255
  0
VERTEX
  8
1
  6
CONTINUOUS
 62
     7
 10
96.09996814874908
 20
174.7655960563804
  0
VERTEX
  8
1
  6
CONTINUOUS
 62
     7
 10
96.1035220717172
 20
174.783951781632
  0
VERTEX
  8
1
  6
CONTINUOUS
 62
     7
 10
96.10642699082996
 20
174.8027721176624
  0
VERTEX
  8
1
  6
CONTINUOUS
 62
     7
 10
96.1086411177984
 20
174.8220359703097
  0
VERTEX
  8
1
  6
CONTINUOUS
 62
     7
 10
96.1101223983816
 20
174.8417191137483
  0
VERTEX
  8
1
  6
CONTINUOUS
 62
     7
 10
96.11082867660006
 20
174.8617940677538
  0
VERTEX
  8
1
  6
CONTINUOUS
 62
     7
 10
96.11071787731586
 20
174.8822299834235
  0
VERTEX
  8
1
  6
CONTINUOUS
 62
     7
 10
96.10974820807094
 20
174.9029925389052
  0
SEQEND
  8
1
  6
CONTINUOUS
 62
     7
  0
POLYLINE
  8
1
  6
CONTINUOUS
 62
     7
 66
     1
  0
VERTEX
  8
1
  6
CONTINUOUS
 62
     7
 10
96.02408897939135
 20
174.589907620938
  0
VERTEX
  8
1
  6
CONTINUOUS
 62
     7
 10
96.02717386119845
 20
174.5851586819471
  0
VERTEX
  8
1
  6
CONTINUOUS
 62
     7
 10
96.03846523034345
 20
174.5687438810795
  0
VERTEX
  8
1
  6
CONTINUOUS
 62
     7
 10
96.05010199359451
 20
174.5532202229673
  0
VERTEX
  8
1
  6
CONTINUOUS
 62
     7
 10
96.0620179004335
 20
174.5385732503527
  0
VERTEX
  8
1
  6
CONTINUOUS
 62
     7
 10
96.0739318144738
 20
174.5250239795369
  0
VERTEX
  8
1
  6
CONTINUOUS
 62
     7
 10
96.08599777355879
 20
174.5122836374533
  0
VERTEX
  8
1
  6
CONTINUOUS
 62
     7
 10
96.09816242059222
 20
174.5003303051795
  0
VERTEX
  8
1
  6
CONTINUOUS
 62
     7
 10
96.1103755315445
 20
174.4891400742347
  0
VERTEX
  8
1
  6
CONTINUOUS
 62
     7
 10
96.12623211755326
 20
174.4757042266367
  0
VERTEX
  8
1
  6
CONTINUOUS
 62
     7
 10
96.1419958615914
 20
174.4634529096946
  0
VERTEX
  8
1
  6
CONTINUOUS
 62
     7
 10
96.15757995830542
 20
174.4523240765959
  0
VERTEX
  8
1
  6
CONTINUOUS
 62
     7
 10
96.17290602964016
 20
174.4422538997335
  0
VERTEX
  8
1
  6
CONTINUOUS
 62
     7
 10
96.18790390112966
 20
174.4331776652956
  0
VERTEX
  8
1
  6
CONTINUOUS
 62
     7
 10
96.20251136071892
 20
174.4250305819458
  0
VERTEX
  8
1
  6
CONTINUOUS
 62
     7
 10
96.21667390966601
 20
174.4177485071643
  0
VERTEX
  8
1
  6
CONTINUOUS
 62
     7
 10
96.23257222117267
 20
174.4102622847888
  0
VERTEX
  8
1
  6
CONTINUOUS
 62
     7
 10
96.2477389431338
 20
174.4037714707403
  0
VERTEX
  8
1
  6
CONTINUOUS
 62
     7
 10
96.26212467987695
 20
174.3981841091247
  0
VERTEX
  8
1
  6
CONTINUOUS
 62
     7
 10
96.27569249803891
 20
174.3934137193356
  0
VERTEX
  8
1
  6
CONTINUOUS
 62
     7
 10
96.28868574122471
 20
174.3892870669479
  0
VERTEX
  8
1
  6
CONTINUOUS
 62
     7
 10
96.3015426659054
 20
174.38559945126
  0
VERTEX
  8
1
  6
CONTINUOUS
 62
     7
 10
96.3318617424021
 20
174.3783599284328
  0
VERTEX
  8
1
  6
CONTINUOUS
 62
     7
 10
96.36144724780152
 20
174.373097981857
  0
VERTEX
  8
1
  6
CONTINUOUS
 62
     7
 10
96.3904025376027
 20
174.3694811606239
  0
VERTEX
  8
1
  6
CONTINUOUS
 62
     7
 10
96.4189303736108
 20
174.367225251721
  0
VERTEX
  8
1
  6
CONTINUOUS
 62
     7
 10
96.4473531475936
 20
174.3661007863623
  0
VERTEX
  8
1
  6
CONTINUOUS
 62
     7
 10
96.46783917106879
 20
174.3658939597526
  0
VERTEX
  8
1
  6
CONTINUOUS
 62
     7
 10
96.4887135416441
 20
174.3661346696373
  0
VERTEX
  8
1
  6
CONTINUOUS
 62
     7
 10
96.51022044040448
 20
174.3667979561767
  0
VERTEX
  8
1
  6
CONTINUOUS
 62
     7
 10
96.53262890996164
 20
174.3678758230747
  0
VERTEX
  8
1
  6
CONTINUOUS
 62
     7
 10
96.55596025611648
 20
174.3693429185232
  0
VERTEX
  8
1
  6
CONTINUOUS
 62
     7
 10
96.5789306051446
 20
174.3710205172718
  0
VERTEX
  8
1
  6
CONTINUOUS
 62
     7
 10
96.60130550615295
 20
174.3728786284832
  0
VERTEX
  8
1
  6
CONTINUOUS
 62
     7
 10
96.62040093347204
 20
174.3746566425091
  0
VERTEX
  8
1
  6
CONTINUOUS
 62
     7
 10
96.63906650613544
 20
174.3765848890488
  0
VERTEX
  8
1
  6
CONTINUOUS
 62
     7
 10
96.65733045770173
 20
174.3786749801239
  0
VERTEX
  8
1
  6
CONTINUOUS
 62
     7
 10
96.67522517619695
 20
174.380941826267
  0
VERTEX
  8
1
  6
CONTINUOUS
 62
     7
 10
96.6927841692667
 20
174.3834033548572
  0
VERTEX
  8
1
  6
CONTINUOUS
 62
     7
 10
96.71003988891982
 20
174.3860802777988
  0
VERTEX
  8
1
  6
CONTINUOUS
 62
     7
 10
96.72702229592088
 20
174.3889959020414
  0
VERTEX
  8
1
  6
CONTINUOUS
 62
     7
 10
96.74375803610147
 20
174.3921759750097
  0
VERTEX
  8
1
  6
CONTINUOUS
 62
     7
 10
96.76572786286674
 20
174.3968762538642
  0
VERTEX
  8
1
  6
CONTINUOUS
 62
     7
 10
96.78734419595408
 20
174.4021693507901
  0
VERTEX
  8
1
  6
CONTINUOUS
 62
     7
 10
96.80864143106787
 20
174.408134335739
  0
VERTEX
  8
1
  6
CONTINUOUS
 62
     7
 10
96.82964942655896
 20
174.4148582472629
  0
VERTEX
  8
1
  6
CONTINUOUS
 62
     7
 10
96.85167178756113
 20
174.4231214610079
  0
VERTEX
  8
1
  6
CONTINUOUS
 62
     7
 10
96.87575335218597
 20
174.4337726803776
  0
VERTEX
  8
1
  6
CONTINUOUS
 62
     7
 10
96.88854048347827
 20
174.4401247765313
  0
VERTEX
  8
1
  6
CONTINUOUS
 62
     7
 10
96.90179315847747
 20
174.447237488267
  0
VERTEX
  8
1
  6
CONTINUOUS
 62
     7
 10
96.91547618212277
 20
174.4551713584592
  0
VERTEX
  8
1
  6
CONTINUOUS
 62
     7
 10
96.9295455018725
 20
174.4639890014917
  0
VERTEX
  8
1
  6
CONTINUOUS
 62
     7
 10
96.94394823261449
 20
174.4737545220035
  0
VERTEX
  8
1
  6
CONTINUOUS
 62
     7
 10
96.95862264526593
 20
174.4845328476221
  0
VERTEX
  8
1
  6
CONTINUOUS
 62
     7
 10
96.97136366364096
 20
174.4946268026683
  0
VERTEX
  8
1
  6
CONTINUOUS
 62
     7
 10
96.9842028468188
 20
174.505553122269
  0
VERTEX
  8
1
  6
CONTINUOUS
 62
     7
 10
96.99708562007596
 20
174.5173514404384
  0
VERTEX
  8
1
  6
CONTINUOUS
 62
     7
 10
97.00995249428571
 20
174.5300600399531
  0
VERTEX
  8
1
  6
CONTINUOUS
 62
     7
 10
97.02273902455472
 20
174.5437153254418
  0
VERTEX
  8
1
  6
CONTINUOUS
 62
     7
 10
97.03537577435095
 20
174.5583512526053
  0
VERTEX
  8
1
  6
CONTINUOUS
 62
     7
 10
97.04778829044034
 20
174.5739987136131
  0
VERTEX
  8
1
  6
CONTINUOUS
 62
     7
 10
97.05965843317495
 20
174.5903408215957
  0
VERTEX
  8
1
  6
CONTINUOUS
 62
     7
 10
97.07115743443592
 20
174.607701976376
  0
VERTEX
  8
1
  6
CONTINUOUS
 62
     7
 10
97.08220124239907
 20
174.626098893938
  0
VERTEX
  8
1
  6
CONTINUOUS
 62
     7
 10
97.09270130212022
 20
174.6455428458657
  0
VERTEX
  8
1
  6
CONTINUOUS
 62
     7
 10
97.10050949919867
 20
174.6615583201754
  0
VERTEX
  8
1
  6
CONTINUOUS
 62
     7
 10
97.10787780611757
 20
174.6782229723109
  0
VERTEX
  8
1
  6
CONTINUOUS
 62
     7
 10
97.11475776560772
 20
174.6955334437413
  0
VERTEX
  8
1
  6
CONTINUOUS
 62
     7
 10
97.12109946181054
 20
174.7134832740445
  0
VERTEX
  8
1
  6
CONTINUOUS
 62
     7
 10
97.1263544306681
 20
174.7303479404692
  0
VERTEX
  8
1
  6
CONTINUOUS
 62
     7
 10
97.13108277787278
 20
174.7477230341255
  0
VERTEX
  8
1
  6
CONTINUOUS
 62
     7
 10
97.13524432915916
 20
174.7655960563804
  0
VERTEX
  8
1
  6
CONTINUOUS
 62
     7
 10
97.13879825212727
 20
174.783951781632
  0
VERTEX
  8
1
  6
CONTINUOUS
 62
     7
 10
97.14170317124002
 20
174.8027721176624
  0
VERTEX
  8
1
  6
CONTINUOUS
 62
     7
 10
97.14391729820848
 20
174.8220359703097
  0
VERTEX
  8
1
  6
CONTINUOUS
 62
     7
 10
97.1453985787917
 20
174.8417191137483
  0
VERTEX
  8
1
  6
CONTINUOUS
 62
     7
 10
97.14610485701014
 20
174.8617940677538
  0
VERTEX
  8
1
  6
CONTINUOUS
 62
     7
 10
97.14599405772594
 20
174.8822299834235
  0
VERTEX
  8
1
  6
CONTINUOUS
 62
     7
 10
97.14502438848102
 20
174.9029925389052
  0
SEQEND
  8
1
  6
CONTINUOUS
 62
     7
  0
POLYLINE
  8
1
  6
CONTINUOUS
 62
     7
 66
     1
  0
VERTEX
  8
1
  6
CONTINUOUS
 62
     7
 10
97.05936515980143
 20
174.589907620938
  0
VERTEX
  8
1
  6
CONTINUOUS
 62
     7
 10
97.06245004160854
 20
174.5851586819471
  0
VERTEX
  8
1
  6
CONTINUOUS
 62
     7
 10
97.07374141075354
 20
174.5687438810795
  0
VERTEX
  8
1
  6
CONTINUOUS
 62
     7
 10
97.0853781740046
 20
174.5532202229673
  0
VERTEX
  8
1
  6
CONTINUOUS
 62
     7
 10
97.0972940808436
 20
174.5385732503527
  0
VERTEX
  8
1
  6
CONTINUOUS
 62
     7
 10
97.10920799488389
 20
174.5250239795369
  0
VERTEX
  8
1
  6
CONTINUOUS
 62
     7
 10
97.12127395396887
 20
174.5122836374533
  0
VERTEX
  8
1
  6
CONTINUOUS
 62
     7
 10
97.1334386010023
 20
174.5003303051795
  0
VERTEX
  8
1
  6
CONTINUOUS
 62
     7
 10
97.1456517119546
 20
174.4891400742347
  0
VERTEX
  8
1
  6
CONTINUOUS
 62
     7
 10
97.16150829796335
 20
174.4757042266367
  0
VERTEX
  8
1
  6
CONTINUOUS
 62
     7
 10
97.17727204200148
 20
174.4634529096946
  0
VERTEX
  8
1
  6
CONTINUOUS
 62
     7
 10
97.1928561387155
 20
174.4523240765959
  0
VERTEX
  8
1
  6
CONTINUOUS
 62
     7
 10
97.20818221005025
 20
174.4422538997335
  0
VERTEX
  8
1
  6
CONTINUOUS
 62
     7
 10
97.22318008153975
 20
174.4331776652956
  0
VERTEX
  8
1
  6
CONTINUOUS
 62
     7
 10
97.23778754112901
 20
174.4250305819458
  0
VERTEX
  8
1
  6
CONTINUOUS
 62
     7
 10
97.2519500900761
 20
174.4177485071643
  0
VERTEX
  8
1
  6
CONTINUOUS
 62
     7
 10
97.26784840158275
 20
174.4102622847888
  0
VERTEX
  8
1
  6
CONTINUOUS
 62
     7
 10
97.28301512354386
 20
174.4037714707403
  0
VERTEX
  8
1
  6
CONTINUOUS
 62
     7
 10
97.29740086028703
 20
174.3981841091247
  0
VERTEX
  8
1
  6
CONTINUOUS
 62
     7
 10
97.310968678449
 20
174.3934137193356
  0
VERTEX
  8
1
  6
CONTINUOUS
 62
     7
 10
97.32396192163479
 20
174.3892870669479
  0
VERTEX
  8
1
  6
CONTINUOUS
 62
     7
 10
97.33681884631548
 20
174.38559945126
  0
VERTEX
  8
1
  6
CONTINUOUS
 62
     7
 10
97.36713792281218
 20
174.3783599284328
  0
VERTEX
  8
1
  6
CONTINUOUS
 62
     7
 10
97.3967234282116
 20
174.373097981857
  0
VERTEX
  8
1
  6
CONTINUOUS
 62
     7
 10
97.42567871801278
 20
174.3694811606239
  0
VERTEX
  8
1
  6
CONTINUOUS
 62
     7
 10
97.4542065540209
 20
174.367225251721
  0
VERTEX
  8
1
  6
CONTINUOUS
 62
     7
 10
97.48262932800368
 20
174.3661007863623
  0
VERTEX
  8
1
  6
CONTINUOUS
 62
     7
 10
97.50311535147888
 20
174.3658939597526
  0
VERTEX
  8
1
  6
CONTINUOUS
 62
     7
 10
97.52398972205418
 20
174.3661346696373
  0
VERTEX
  8
1
  6
CONTINUOUS
 62
     7
 10
97.54549662081457
 20
174.3667979561767
  0
VERTEX
  8
1
  6
CONTINUOUS
 62
     7
 10
97.56790509037174
 20
174.3678758230747
  0
VERTEX
  8
1
  6
CONTINUOUS
 62
     7
 10
97.59123643652657
 20
174.3693429185232
  0
VERTEX
  8
1
  6
CONTINUOUS
 62
     7
 10
97.61420678555469
 20
174.3710205172718
  0
VERTEX
  8
1
  6
CONTINUOUS
 62
     7
 10
97.63658168656303
 20
174.3728786284832
  0
VERTEX
  8
1
  6
CONTINUOUS
 62
     7
 10
97.65567711388213
 20
174.3746566425091
  0
VERTEX
  8
1
  6
CONTINUOUS
 62
     7
 10
97.67434268654551
 20
174.3765848890488
  0
VERTEX
  8
1
  6
CONTINUOUS
 62
     7
 10
97.69260663811183
 20
174.3786749801239
  0
VERTEX
  8
1
  6
CONTINUOUS
 62
     7
 10
97.71050135660703
 20
174.380941826267
  0
VERTEX
  8
1
  6
CONTINUOUS
 62
     7
 10
97.72806034967678
 20
174.3834033548572
  0
VERTEX
  8
1
  6
CONTINUOUS
 62
     7
 10
97.7453160693299
 20
174.3860802777988
  0
VERTEX
  8
1
  6
CONTINUOUS
 62
     7
 10
97.76229847633095
 20
174.3889959020414
  0
VERTEX
  8
1
  6
CONTINUOUS
 62
     7
 10
97.77903421651155
 20
174.3921759750097
  0
VERTEX
  8
1
  6
CONTINUOUS
 62
     7
 10
97.80100404327682
 20
174.3968762538642
  0
VERTEX
  8
1
  6
CONTINUOUS
 62
     7
 10
97.82262037636416
 20
174.4021693507901
  0
VERTEX
  8
1
  6
CONTINUOUS
 62
     7
 10
97.84391761147795
 20
174.408134335739
  0
VERTEX
  8
1
  6
CONTINUOUS
 62
     7
 10
97.86492560696905
 20
174.4148582472629
  0
VERTEX
  8
1
  6
CONTINUOUS
 62
     7
 10
97.88694796797121
 20
174.4231214610079
  0
VERTEX
  8
1
  6
CONTINUOUS
 62
     7
 10
97.91102953259605
 20
174.4337726803776
  0
VERTEX
  8
1
  6
CONTINUOUS
 62
     7
 10
97.92381666388835
 20
174.4401247765313
  0
VERTEX
  8
1
  6
CONTINUOUS
 62
     7
 10
97.93706933888755
 20
174.447237488267
  0
VERTEX
  8
1
  6
CONTINUOUS
 62
     7
 10
97.95075236253287
 20
174.4551713584592
  0
VERTEX
  8
1
  6
CONTINUOUS
 62
     7
 10
97.96482168228258
 20
174.4639890014917
  0
VERTEX
  8
1
  6
CONTINUOUS
 62
     7
 10
97.97922441302455
 20
174.4737545220035
  0
VERTEX
  8
1
  6
CONTINUOUS
 62
     7
 10
97.99389882567601
 20
174.4845328476221
  0
VERTEX
  8
1
  6
CONTINUOUS
 62
     7
 10
98.00663984405102
 20
174.4946268026683
  0
VERTEX
  8
1
  6
CONTINUOUS
 62
     7
 10
98.01947902722888
 20
174.505553122269
  0
VERTEX
  8
1
  6
CONTINUOUS
 62
     7
 10
98.03236180048603
 20
174.5173514404384
  0
VERTEX
  8
1
  6
CONTINUOUS
 62
     7
 10
98.0452286746958
 20
174.5300600399531
  0
VERTEX
  8
1
  6
CONTINUOUS
 62
     7
 10
98.05801520496482
 20
174.5437153254418
  0
VERTEX
  8
1
  6
CONTINUOUS
 62
     7
 10
98.07065195476105
 20
174.5583512526053
  0
VERTEX
  8
1
  6
CONTINUOUS
 62
     7
 10
98.08306447085042
 20
174.5739987136131
  0
VERTEX
  8
1
  6
CONTINUOUS
 62
     7
 10
98.09493461358504
 20
174.5903408215957
  0
VERTEX
  8
1
  6
CONTINUOUS
 62
     7
 10
98.106433614846
 20
174.607701976376
  0
VERTEX
  8
1
  6
CONTINUOUS
 62
     7
 10
98.11747742280915
 20
174.626098893938
  0
VERTEX
  8
1
  6
CONTINUOUS
 62
     7
 10
98.1279774825303
 20
174.6455428458657
  0
VERTEX
  8
1
  6
CONTINUOUS
 62
     7
 10
98.13578567960874
 20
174.6615583201754
  0
VERTEX
  8
1
  6
CONTINUOUS
 62
     7
 10
98.14315398652765
 20
174.6782229723109
  0
VERTEX
  8
1
  6
CONTINUOUS
 62
     7
 10
98.15003394601781
 20
174.6955334437413
  0
VERTEX
  8
1
  6
CONTINUOUS
 62
     7
 10
98.15637564222062
 20
174.7134832740445
  0
VERTEX
  8
1
  6
CONTINUOUS
 62
     7
 10
98.16163061107818
 20
174.7303479404692
  0
VERTEX
  8
1
  6
CONTINUOUS
 62
     7
 10
98.16635895828284
 20
174.7477230341255
  0
VERTEX
  8
1
  6
CONTINUOUS
 62
     7
 10
98.17052050956926
 20
174.7655960563804
  0
VERTEX
  8
1
  6
CONTINUOUS
 62
     7
 10
98.17407443253737
 20
174.783951781632
  0
VERTEX
  8
1
  6
CONTINUOUS
 62
     7
 10
98.17697935165012
 20
174.8027721176624
  0
VERTEX
  8
1
  6
CONTINUOUS
 62
     7
 10
98.17919347861856
 20
174.8220359703097
  0
VERTEX
  8
1
  6
CONTINUOUS
 62
     7
 10
98.18067475920178
 20
174.8417191137483
  0
VERTEX
  8
1
  6
CONTINUOUS
 62
     7
 10
98.18138103742022
 20
174.8617940677538
  0
VERTEX
  8
1
  6
CONTINUOUS
 62
     7
 10
98.18127023813604
 20
174.8822299834235
  0
VERTEX
  8
1
  6
CONTINUOUS
 62
     7
 10
98.1803005688911
 20
174.9029925389052
  0
SEQEND
  8
1
  6
CONTINUOUS
 62
     7
  0
LINE
  8
1
  6
CONTINUOUS
 62
     7
 10
108.0
 20
177.7821140875686
 11
108.0
 21
151.5821140875686
  0
LINE
  8
1
  6
CONTINUOUS
 62
     7
 10
112.0
 20
151.5821140875686
 11
112.0
 21
177.7821140875686
  0
LINE
  8
1
  6
CONTINUOUS
 62
     7
 10
58.99999999999998
 20
148.5821140875686
 11
59.0305668838641
 21
145.0794961269197
  0
LINE
  8
1
  6
CONTINUOUS
 62
     7
 10
160.9694331161359
 20
145.0794961269197
 11
161.0
 21
148.5821140875686
  0
ARC
  8
1
  6
CONTINUOUS
 62
     7
 10
59.33055546078336
 20
145.0821140875686
 40
0.3000000000000002
 50
180.4999999998955
 51
270.0
  0
ARC
  8
1
  6
CONTINUOUS
 62
     7
 10
160.6694445392166
 20
145.0821140875686
 40
0.2999999999999947
 50
270.0
 51
359.5000000001045
  0
LINE
  8
1
  6
CONTINUOUS
 62
     7
 10
105.2663274254801
 20
148.5821140875686
 11
105.2436358410734
 21
149.8821140875686
  0
LINE
  8
1
  6
CONTINUOUS
 62
     7
 10
102.8436358410734
 20
149.8821140875686
 11
102.8209442566667
 21
148.5821140875686
  0
LINE
  8
1
  6
CONTINUOUS
 62
     7
 10
105.2436358410734
 20
149.8821140875686
 11
104.3912881646708
 21
151.3799470016585
  0
LINE
  8
1
  6
CONTINUOUS
 62
     7
 10
103.695983517476
 20
151.3799470016585
 11
102.8436358410734
 21
149.8821140875686
  0
ARC
  8
1
  6
CONTINUOUS
 62
     7
 10
104.0436358410734
 20
151.1821140875686
 40
0.4000000000000183
 50
29.64220952532224
 51
150.3577904746778
  0
ARC
  8
1
  6
CONTINUOUS
 62
     7
 10
72.50865136844214
 20
149.0821140875686
 40
0.4999999999999892
 50
270.0
 51
359.0000000000178
  0
ARC
  8
1
  6
CONTINUOUS
 62
     7
 10
147.4913486315578
 20
149.0821140875686
 40
0.5000000000000004
 50
180.9999999999822
 51
270.0
  0
LINE
  8
1
  6
CONTINUOUS
 62
     7
 10
146.9914247839796
 20
149.0733878843501
 11
146.8603594805742
 21
156.5821140875686
  0
LINE
  8
1
  6
CONTINUOUS
 62
     7
 10
73.13964051942573
 20
156.5821140875686
 11
73.00857521602033
 21
149.0733878843501
  0
LINE
  8
1
  6
CONTINUOUS
 62
     7
 10
103.7366857961508
 20
176.4549332665261
 11
103.7643745696495
 21
173.2821140875686
  0
ARC
  8
1
  6
CONTINUOUS
 62
     7
 10
109.5264110894582
 20
183.7821140875686
 40
1.500000000000001
 50
181.0
 51
270.0
  0
ARC
  8
1
  6
CONTINUOUS
 62
     7
 10
98.47358891054178
 20
183.7821140875686
 40
1.500000000000004
 50
270.0
 51
358.9999999999999
  0
ARC
  8
1
  6
CONTINUOUS
 62
     7
 10
121.5264110894582
 20
183.7821140875686
 40
1.500000000000001
 50
181.0
 51
270.0
  0
ARC
  8
1
  6
CONTINUOUS
 62
     7
 10
110.4735889105418
 20
183.7821140875686
 40
1.49999999999999
 50
270.0
 51
358.9999999999999
  0
LINE
  8
1
  6
CONTINUOUS
 62
     7
 10
108.0266395467236
 20
183.7559354779127
 11
108.0034300864081
 21
185.0856045688561
  0
LINE
  8
1
  6
CONTINUOUS
 62
     7
 10
99.99656991359183
 20
185.0856045688561
 11
99.97336045327637
 21
183.7559354779127
  0
LINE
  8
1
  6
CONTINUOUS
 62
     7
 10
120.0266395467236
 20
183.7559354779127
 11
120.0034300864081
 21
185.0856045688561
  0
LINE
  8
1
  6
CONTINUOUS
 62
     7
 10
111.9965699135918
 20
185.0856045688561
 11
111.9733604532764
 21
183.7559354779127
  0
ARC
  8
1
  6
CONTINUOUS
 62
     7
 10
119.8034605473768
 20
185.0821140875686
 40
0.1999999999999938
 50
0.9999999999978593
 51
90.0
  0
ARC
  8
1
  6
CONTINUOUS
 62
     7
 10
112.1965394526231
 20
185.0821140875686
 40
0.2000000000000057
 50
90.00000000000001
 51
179.0000000000021
  0
ARC
  8
1
  6
CONTINUOUS
 62
     7
 10
107.8034605473768
 20
185.0821140875686
 40
0.1999999999999938
 50
0.9999999999978636
 51
90.00000000000001
  0
ARC
  8
1
  6
CONTINUOUS
 62
     7
 10
100.1965394526231
 20
185.0821140875686
 40
0.2000000000000057
 50
90.00000000000001
 51
179.0000000000021
  0
LINE
  8
1
  6
CONTINUOUS
 62
     7
 10
103.7251036645911
 20
177.7821140875686
 11
103.7366857961508
 21
176.4549332665261
  0
ENDBLK
  8
0
  0
BLOCK
  8
0
  2
D_FRAME_VIEW_2135
 70
     0
 10
0.0
 20
0.0
  0
POLYLINE
  8
1
  6
CONTINUOUS
 62
     7
 66
     1
  0
VERTEX
  8
1
  6
CONTINUOUS
 62
     7
 10
221.4560343315937
 20
45.7197997001353
  0
VERTEX
  8
1
  6
CONTINUOUS
 62
     7
 10
221.4621296776975
 20
45.30245358577618
  0
VERTEX
  8
1
  6
CONTINUOUS
 62
     7
 10
221.4740311105488
 20
44.88973276209331
  0
VERTEX
  8
1
  6
CONTINUOUS
 62
     7
 10
221.4912190025923
 20
44.49965700160487
  0
VERTEX
  8
1
  6
CONTINUOUS
 62
     7
 10
221.5129429145798
 20
44.1492573724458
  0
VERTEX
  8
1
  6
CONTINUOUS
 62
     7
 10
221.5382543604408
 20
43.85383264619627
  0
VERTEX
  8
1
  6
CONTINUOUS
 62
     7
 10
221.5660482190611
 20
43.62628133937831
  0
VERTEX
  8
1
  6
CONTINUOUS
 62
     7
 10
221.5951109848917
 20
43.47653855230619
  0
SEQEND
  8
1
  6
CONTINUOUS
 62
     7
  0
LINE
  8
1
  6
CONTINUOUS
 62
     7
 10
221.4550297971766
 20
45.85894764452345
 11
221.4560343315938
 21
45.7197997001353
  0
LINE
  8
1
  6
CONTINUOUS
 62
     7
 10
222.1471442598439
 20
41.43330619097147
 11
222.1471442598439
 21
45.87352152401923
  0
LINE
  8
1
  6
CONTINUOUS
 62
     7
 10
222.1471442598439
 20
41.43330619097147
 11
221.5951109848917
 21
43.47653855230618
  0
POLYLINE
  8
1
  6
CONTINUOUS
 62
     7
 66
     1
  0
VERTEX
  8
1
  6
CONTINUOUS
 62
     7
 10
219.4511505354314
 20
45.7197997001353
  0
VERTEX
  8
1
  6
CONTINUOUS
 62
     7
 10
219.4572458815352
 20
45.30245358577618
  0
VERTEX
  8
1
  6
CONTINUOUS
 62
     7
 10
219.4691473143864
 20
44.88973276209331
  0
VERTEX
  8
1
  6
CONTINUOUS
 62
     7
 10
219.48633520643
 20
44.49965700160486
  0
VERTEX
  8
1
  6
CONTINUOUS
 62
     7
 10
219.5080591184174
 20
44.1492573724458
  0
VERTEX
  8
1
  6
CONTINUOUS
 62
     7
 10
219.5333705642784
 20
43.85383264619626
  0
VERTEX
  8
1
  6
CONTINUOUS
 62
     7
 10
219.5611644228987
 20
43.62628133937831
  0
VERTEX
  8
1
  6
CONTINUOUS
 62
     7
 10
219.5902271887294
 20
43.47653855230619
  0
SEQEND
  8
1
  6
CONTINUOUS
 62
     7
  0
LINE
  8
1
  6
CONTINUOUS
 62
     7
 10
219.4504577495578
 20
45.81479312674518
 11
219.4511505354314
 21
45.7197997001353
  0
POLYLINE
  8
1
  6
CONTINUOUS
 62
     7
 66
     1
  0
VERTEX
  8
1
  6
CONTINUOUS
 62
     7
 10
224.7821140875686
 20
40.73469748857826
  0
VERTEX
  8
1
  6
CONTINUOUS
 62
     7
 10
224.7318083366218
 20
40.86896456406456
  0
VERTEX
  8
1
  6
CONTINUOUS
 62
     7
 10
224.5827656530989
 20
40.99822837580288
  0
VERTEX
  8
1
  6
CONTINUOUS
 62
     7
 10
224.3405398919017
 20
41.1176720992601
  0
VERTEX
  8
1
  6
CONTINUOUS
 62
     7
 10
224.0141572373382
 20
41.22284484095147
  0
VERTEX
  8
1
  6
CONTINUOUS
 62
     7
 10
223.6157798557298
 20
41.30982749439558
  0
VERTEX
  8
1
  6
CONTINUOUS
 62
     7
 10
223.1602526902927
 20
41.37537877981402
  0
VERTEX
  8
1
  6
CONTINUOUS
 62
     7
 10
222.6645502863114
 20
41.41705602562273
  0
VERTEX
  8
1
  6
CONTINUOUS
 62
     7
 10
222.1471442598439
 20
41.43330619097147
  0
SEQEND
  8
1
  6
CONTINUOUS
 62
     7
  0
LINE
  8
1
  6
CONTINUOUS
 62
     7
 10
224.7821140875686
 20
39.08907463207315
 11
224.7821140875686
 21
39.25148987475303
  0
LINE
  8
1
  6
CONTINUOUS
 62
     7
 10
222.7821140875686
 20
40.88978619625617
 11
222.7821140875686
 21
38.58629669484374
  0
POLYLINE
  8
1
  6
CONTINUOUS
 62
     7
 66
     1
  0
VERTEX
  8
1
  6
CONTINUOUS
 62
     7
 10
222.7821140875686
 20
40.88978619625617
  0
VERTEX
  8
1
  6
CONTINUOUS
 62
     7
 10
222.7801926156089
 20
40.89483550534148
  0
VERTEX
  8
1
  6
CONTINUOUS
 62
     7
 10
222.7745020408198
 20
40.89969077231031
  0
VERTEX
  8
1
  6
CONTINUOUS
 62
     7
 10
222.7652610487989
 20
40.90416541197593
  0
VERTEX
  8
1
  6
CONTINUOUS
 62
     7
 10
222.7528247656873
 20
40.9080874664454
  0
VERTEX
  8
1
  6
CONTINUOUS
 62
     7
 10
222.7376711108706
 20
40.91130621336497
  0
VERTEX
  8
1
  6
CONTINUOUS
 62
     7
 10
222.7203824308051
 20
40.91369795809562
  0
VERTEX
  8
1
  6
CONTINUOUS
 62
     7
 10
222.7016231197702
 20
40.91517078722864
  0
VERTEX
  8
1
  6
CONTINUOUS
 62
     7
 10
222.6821140875686
 20
40.91566810076644
  0
SEQEND
  8
1
  6
CONTINUOUS
 62
     7
  0
LINE
  8
1
  6
CONTINUOUS
 62
     7
 10
222.1471442598439
 20
40.91566810076643
 11
222.6821140875686
 21
40.91566810076643
  0
POLYLINE
  8
1
  6
CONTINUOUS
 62
     7
 66
     1
  0
VERTEX
  8
1
  6
CONTINUOUS
 62
     7
 10
220.1520161593243
 20
41.39719758312312
  0
VERTEX
  8
1
  6
CONTINUOUS
 62
     7
 10
220.2130523820161
 20
41.30151452473988
  0
VERTEX
  8
1
  6
CONTINUOUS
 62
     7
 10
220.3419736911442
 20
41.21045724900755
  0
VERTEX
  8
1
  6
CONTINUOUS
 62
     7
 10
220.534255051309
 20
41.12722179387273
  0
VERTEX
  8
1
  6
CONTINUOUS
 62
     7
 10
220.783147539719
 20
41.05472965760094
  0
VERTEX
  8
1
  6
CONTINUOUS
 62
     7
 10
221.0799152280127
 20
40.99552525651136
  0
VERTEX
  8
1
  6
CONTINUOUS
 62
     7
 10
221.4141418063953
 20
40.95168661798804
  0
VERTEX
  8
1
  6
CONTINUOUS
 62
     7
 10
221.7740961878265
 20
40.92475244337165
  0
VERTEX
  8
1
  6
CONTINUOUS
 62
     7
 10
222.1471442598439
 20
40.91566810076643
  0
SEQEND
  8
1
  6
CONTINUOUS
 62
     7
  0
LINE
  8
1
  6
CONTINUOUS
 62
     7
 10
219.5902271887294
 20
43.47653855230618
 11
220.1520161593243
 21
41.39719758312312
  0
POLYLINE
  8
1
  6
CONTINUOUS
 62
     7
 66
     1
  0
VERTEX
  8
1
  6
CONTINUOUS
 62
     7
 10
221.8774441995781
 20
45.119260189132
  0
VERTEX
  8
1
  6
CONTINUOUS
 62
     7
 10
221.8938205593715
 20
45.13581148640668
  0
VERTEX
  8
1
  6
CONTINUOUS
 62
     7
 10
221.9087745617404
 20
45.20087440571098
  0
VERTEX
  8
1
  6
CONTINUOUS
 62
     7
 10
221.9217176515693
 20
45.31188822028914
  0
VERTEX
  8
1
  6
CONTINUOUS
 62
     7
 10
221.9321404186323
 20
45.46448368190755
  0
VERTEX
  8
1
  6
CONTINUOUS
 62
     7
 10
221.9396326468068
 20
45.65265498440892
  0
VERTEX
  8
1
  6
CONTINUOUS
 62
     7
 10
221.9438994592359
 20
45.86899613841977
  0
SEQEND
  8
1
  6
CONTINUOUS
 62
     7
  0
POLYLINE
  8
1
  6
CONTINUOUS
 62
     7
 66
     1
  0
VERTEX
  8
1
  6
CONTINUOUS
 62
     7
 10
221.7896172531118
 20
45.86563778173278
  0
VERTEX
  8
1
  6
CONTINUOUS
 62
     7
 10
221.8009610377815
 20
45.6612934210807
  0
VERTEX
  8
1
  6
CONTINUOUS
 62
     7
 10
221.8142904068118
 20
45.48170226067865
  0
VERTEX
  8
1
  6
CONTINUOUS
 62
     7
 10
221.8291387442531
 20
45.33315117724715
  0
VERTEX
  8
1
  6
CONTINUOUS
 62
     7
 10
221.8449862602293
 20
45.22084043980914
  0
VERTEX
  8
1
  6
CONTINUOUS
 62
     7
 10
221.8612781870168
 20
45.1487016659291
  0
VERTEX
  8
1
  6
CONTINUOUS
 62
     7
 10
221.8774441995781
 20
45.11926018913199
  0
SEQEND
  8
1
  6
CONTINUOUS
 62
     7
  0
LINE
  8
1
  6
CONTINUOUS
 62
     7
 10
224.7821140875686
 20
38.45
 11
224.7821140875686
 21
38.50000000000001
  0
LINE
  8
1
  6
CONTINUOUS
 62
     7
 10
222.7821140875686
 20
38.58629669484372
 11
222.7821140875686
 21
38.45
  0
LINE
  8
1
  6
CONTINUOUS
 62
     7
 10
222.7821140875686
 20
111.55
 11
222.7821140875686
 21
111.2530306648364
  0
LINE
  8
1
  6
CONTINUOUS
 62
     7
 10
224.7821140875686
 20
111.5
 11
224.7821140875686
 21
111.55
  0
LINE
  8
1
  6
CONTINUOUS
 62
     7
 10
193.5821140875686
 20
126.0
 11
193.5821140875686
 21
24.00000000000001
  0
LINE
  8
1
  6
CONTINUOUS
 62
     7
 10
189.7821140875686
 20
24.33055546078344
 11
189.7821140875686
 21
125.6694445392165
  0
LINE
  8
1
  6
CONTINUOUS
 62
     7
 10
196.5821140875686
 20
38.05236519478461
 11
196.5821140875686
 21
38.235497923702
  0
LINE
  8
1
  6
CONTINUOUS
 62
     7
 10
196.5821140875686
 20
38.23549792370203
 11
197.0821140875686
 21
38.29757417059068
  0
LINE
  8
1
  6
CONTINUOUS
 62
     7
 10
222.782114095781
 20
38.74819101970878
 11
221.6714736220532
 21
38.72871628073339
  0
LINE
  8
1
  6
CONTINUOUS
 62
     7
 10
196.5821140875686
 20
111.7645020762981
 11
196.5821140875686
 21
111.9476348052155
  0
LINE
  8
1
  6
CONTINUOUS
 62
     7
 10
197.0821140875686
 20
111.7024258294093
 11
196.5821140875686
 21
111.764502076298
  0
LINE
  8
1
  6
CONTINUOUS
 62
     7
 10
223.2471948129963
 20
111.2436539039586
 11
197.0821140875686
 21
111.7024258294093
  0
LINE
  8
1
  6
CONTINUOUS
 62
     7
 10
223.2471948129963
 20
78.40564934396939
 11
202.0777508198194
 21
78.22090640503706
  0
POLYLINE
  8
1
  6
CONTINUOUS
 62
     7
 66
     1
  0
VERTEX
  8
1
  6
CONTINUOUS
 62
     7
 10
201.5821140875686
 20
77.72092544350497
  0
VERTEX
  8
1
  6
CONTINUOUS
 62
     7
 10
201.5825500689078
 20
77.74176079964242
  0
VERTEX
  8
1
  6
CONTINUOUS
 62
     7
 10
201.5838548805575
 20
77.76257608411653
  0
VERTEX
  8
1
  6
CONTINUOUS
 62
     7
 10
201.5860238239652
 20
77.78331751750723
  0
VERTEX
  8
1
  6
CONTINUOUS
 62
     7
 10
201.5890522005789
 20
77.80393132039441
  0
VERTEX
  8
1
  6
CONTINUOUS
 62
     7
 10
201.5930656272783
 20
77.82499141779675
  0
VERTEX
  8
1
  6
CONTINUOUS
 62
     7
 10
201.5979824263867
 20
77.84587822267244
  0
VERTEX
  8
1
  6
CONTINUOUS
 62
     7
 10
201.6037878328921
 20
77.86653491253416
  0
VERTEX
  8
1
  6
CONTINUOUS
 62
     7
 10
201.6104670817826
 20
77.8869046648945
  0
VERTEX
  8
1
  6
CONTINUOUS
 62
     7
 10
201.6177916000645
 20
77.90640578197396
  0
VERTEX
  8
1
  6
CONTINUOUS
 62
     7
 10
201.6259291210276
 20
77.92560153703356
  0
VERTEX
  8
1
  6
CONTINUOUS
 62
     7
 10
201.6348576435102
 20
77.9444427843705
  0
VERTEX
  8
1
  6
CONTINUOUS
 62
     7
 10
201.644555166351
 20
77.96288037828201
  0
VERTEX
  8
1
  6
CONTINUOUS
 62
     7
 10
201.6553306986689
 20
77.98141356377857
  0
VERTEX
  8
1
  6
CONTINUOUS
 62
     7
 10
201.6669020664125
 20
77.99948537826063
  0
VERTEX
  8
1
  6
CONTINUOUS
 62
     7
 10
201.6792367062183
 20
78.01704693497614
  0
VERTEX
  8
1
  6
CONTINUOUS
 62
     7
 10
201.6923020547224
 20
78.03404934717305
  0
VERTEX
  8
1
  6
CONTINUOUS
 62
     7
 10
201.705690542183
 20
78.05002061363386
  0
VERTEX
  8
1
  6
CONTINUOUS
 62
     7
 10
201.7197466273978
 20
78.06543499344981
  0
VERTEX
  8
1
  6
CONTINUOUS
 62
     7
 10
201.7344332705002
 20
78.08025310226421
  0
VERTEX
  8
1
  6
CONTINUOUS
 62
     7
 10
201.7497134316233
 20
78.09443555572035
  0
VERTEX
  8
1
  6
CONTINUOUS
 62
     7
 10
201.7660471314316
 20
78.10835256813824
  0
VERTEX
  8
1
  6
CONTINUOUS
 62
     7
 10
201.7829809459212
 20
78.1215699000672
  0
VERTEX
  8
1
  6
CONTINUOUS
 62
     7
 10
201.800467697416
 20
78.1340518274764
  0
VERTEX
  8
1
  6
CONTINUOUS
 62
     7
 10
201.8184602082401
 20
78.14576262633507
  0
VERTEX
  8
1
  6
CONTINUOUS
 62
     7
 10
201.8363707254202
 20
78.15636603187694
  0
VERTEX
  8
1
  6
CONTINUOUS
 62
     7
 10
201.8547257564911
 20
78.16622481982661
  0
VERTEX
  8
1
  6
CONTINUOUS
 62
     7
 10
201.8734772382205
 20
78.17531401250716
  0
VERTEX
  8
1
  6
CONTINUOUS
 62
     7
 10
201.8925771073762
 20
78.1836086322417
  0
VERTEX
  8
1
  6
CONTINUOUS
 62
     7
 10
201.9125832613847
 20
78.1913054835807
  0
VERTEX
  8
1
  6
CONTINUOUS
 62
     7
 10
201.9329227096992
 20
78.19814501969759
  0
VERTEX
  8
1
  6
CONTINUOUS
 62
     7
 10
201.9535389320101
 20
78.2041091694612
  0
VERTEX
  8
1
  6
CONTINUOUS
 62
     7
 10
201.9743754080075
 20
78.20917986174042
  0
VERTEX
  8
1
  6
CONTINUOUS
 62
     7
 10
201.9999330087041
 20
78.21412122516237
  0
VERTEX
  8
1
  6
CONTINUOUS
 62
     7
 10
202.0257519732303
 20
78.21773109646911
  0
VERTEX
  8
1
  6
CONTINUOUS
 62
     7
 10
202.0517265080981
 20
78.21999698623566
  0
VERTEX
  8
1
  6
CONTINUOUS
 62
     7
 10
202.0777508198194
 20
78.22090640503706
  0
SEQEND
  8
1
  6
CONTINUOUS
 62
     7
  0
LINE
  8
1
  6
CONTINUOUS
 62
     7
 10
201.5821140875686
 20
77.72092544350497
 11
201.5821140875686
 21
72.27907455649508
  0
POLYLINE
  8
1
  6
CONTINUOUS
 62
     7
 66
     1
  0
VERTEX
  8
1
  6
CONTINUOUS
 62
     7
 10
202.0777508198194
 20
71.77909359496296
  0
VERTEX
  8
1
  6
CONTINUOUS
 62
     7
 10
202.057018781642
 20
71.77970641731721
  0
VERTEX
  8
1
  6
CONTINUOUS
 62
     7
 10
202.0363136684545
 20
71.7811796673881
  0
VERTEX
  8
1
  6
CONTINUOUS
 62
     7
 10
202.0156890880072
 20
71.78350818158488
  0
VERTEX
  8
1
  6
CONTINUOUS
 62
     7
 10
201.99519864805
 20
71.7866867963168
  0
VERTEX
  8
1
  6
CONTINUOUS
 62
     7
 10
201.9742711186671
 20
71.79084508857507
  0
VERTEX
  8
1
  6
CONTINUOUS
 62
     7
 10
201.9535236068957
 20
71.79589638766275
  0
VERTEX
  8
1
  6
CONTINUOUS
 62
     7
 10
201.9330125416641
 20
71.80182530525641
  0
VERTEX
  8
1
  6
CONTINUOUS
 62
     7
 10
201.9127943519008
 20
71.8086164530327
  0
VERTEX
  8
1
  6
CONTINUOUS
 62
     7
 10
201.8934474234552
 20
71.81603759618127
  0
VERTEX
  8
1
  6
CONTINUOUS
 62
     7
 10
201.8744109325755
 20
71.82425982405809
  0
VERTEX
  8
1
  6
CONTINUOUS
 62
     7
 10
201.8557333124998
 20
71.83326060319499
  0
VERTEX
  8
1
  6
CONTINUOUS
 62
     7
 10
201.8374629964663
 20
71.84301740012386
  0
VERTEX
  8
1
  6
CONTINUOUS
 62
     7
 10
201.8191077606847
 20
71.85383835896366
  0
VERTEX
  8
1
  6
CONTINUOUS
 62
     7
 10
201.8012166553416
 20
71.86544024376066
  0
VERTEX
  8
1
  6
CONTINUOUS
 62
     7
 10
201.7838373547431
 20
71.87779019126845
  0
VERTEX
  8
1
  6
CONTINUOUS
 62
     7
 10
201.7670175331955
 20
71.89085533824053
  0
VERTEX
  8
1
  6
CONTINUOUS
 62
     7
 10
201.7511809772702
 20
71.90426577559128
  0
VERTEX
  8
1
  6
CONTINUOUS
 62
     7
 10
201.7359033362549
 20
71.91833202624463
  0
VERTEX
  8
1
  6
CONTINUOUS
 62
     7
 10
201.72122288696
 20
71.93301692162623
  0
VERTEX
  8
1
  6
CONTINUOUS
 62
     7
 10
201.7071779061958
 20
71.94828329316177
  0
VERTEX
  8
1
  6
CONTINUOUS
 62
     7
 10
201.6934057603283
 20
71.9645845042914
  0
VERTEX
  8
1
  6
CONTINUOUS
 62
     7
 10
201.6803311021803
 20
71.98147221489104
  0
VERTEX
  8
1
  6
CONTINUOUS
 62
     7
 10
201.6679882217263
 20
71.99889974762232
  0
VERTEX
  8
1
  6
CONTINUOUS
 62
     7
 10
201.6564114089409
 20
72.01682042514685
  0
VERTEX
  8
1
  6
CONTINUOUS
 62
     7
 10
201.6458698753253
 20
72.03476057106828
  0
VERTEX
  8
1
  6
CONTINUOUS
 62
     7
 10
201.6360758930493
 20
72.05313879179315
  0
VERTEX
  8
1
  6
CONTINUOUS
 62
     7
 10
201.6270536346663
 20
72.07190718385343
  0
VERTEX
  8
1
  6
CONTINUOUS
 62
     7
 10
201.61882727273
 20
72.09101784378109
  0
VERTEX
  8
1
  6
CONTINUOUS
 62
     7
 10
201.6112036195368
 20
72.11102258378922
  0
VERTEX
  8
1
  6
CONTINUOUS
 62
     7
 10
201.60443707491
 20
72.13135403130033
  0
VERTEX
  8
1
  6
CONTINUOUS
 62
     7
 10
201.5985449638254
 20
72.15195635530755
  0
VERTEX
  8
1
  6
CONTINUOUS
 62
     7
 10
201.5935446112586
 20
72.17277372480397
  0
VERTEX
  8
1
  6
CONTINUOUS
 62
     7
 10
201.5894468406851
 20
72.19377707553207
  0
VERTEX
  8
1
  6
CONTINUOUS
 62
     7
 10
201.5862484462962
 20
72.2149669793608
  0
VERTEX
  8
1
  6
CONTINUOUS
 62
     7
 10
201.5839558848251
 20
72.23628529099456
  0
VERTEX
  8
1
  6
CONTINUOUS
 62
     7
 10
201.5825756130049
 20
72.25767386513783
  0
VERTEX
  8
1
  6
CONTINUOUS
 62
     7
 10
201.5821140875686
 20
72.27907455649505
  0
SEQEND
  8
1
  6
CONTINUOUS
 62
     7
  0
LINE
  8
1
  6
CONTINUOUS
 62
     7
 10
202.0777508198194
 20
71.77909359496296
 11
223.2471948129963
 21
71.59435065603063
  0
LINE
  8
1
  6
CONTINUOUS
 62
     7
 10
223.2471948129963
 20
45.89758625803478
 11
218.2821140875686
 21
45.78901723472411
  0
LINE
  8
1
  6
CONTINUOUS
 62
     7
 10
218.2821140875686
 20
45.7890172347241
 11
218.2821140875686
 21
38.92672021962453
  0
LINE
  8
1
  6
CONTINUOUS
 62
     7
 10
218.2821140875686
 20
38.92672021962453
 11
221.4821140875686
 21
38.98334498656748
  0
LINE
  8
1
  6
CONTINUOUS
 62
     7
 10
221.4821140875686
 20
38.9833449865675
 11
221.6714735927118
 21
38.72871628021893
  0
LINE
  8
1
  6
CONTINUOUS
 62
     7
 10
197.0821140875686
 20
38.29757417059068
 11
221.6714735927118
 21
38.72871628021891
  0
ARC
  8
1
  6
CONTINUOUS
 62
     7
 10
223.2028826880075
 20
108.7511287238176
 40
2.492919039611511
 50
50.69215380191747
 51
88.98150264042948
  0
LINE
  8
1
  6
CONTINUOUS
 62
     7
 10
224.7821140875686
 20
110.680033471258
 11
224.7821140875686
 21
110.7995012140893
  0
LINE
  8
1
  6
CONTINUOUS
 62
     7
 10
225.0019132977497
 20
110.5933832683589
 11
224.7821140875686
 21
110.7995012140893
  0
LINE
  8
1
  6
CONTINUOUS
 62
     7
 10
225.0019132977497
 20
78.42096254019583
 11
223.2471948129963
 21
78.40564934396939
  0
ARC
  8
1
  6
CONTINUOUS
 62
     7
 10
223.154514544591
 20
48.11966398024055
 40
2.224009675265574
 50
272.3883557862558
 51
317.0401256999598
  0
LINE
  8
1
  6
CONTINUOUS
 62
     7
 10
224.7821140875686
 20
39.20049878591067
 11
225.0019132977497
 21
39.40661673164108
  0
LINE
  8
1
  6
CONTINUOUS
 62
     7
 10
224.7821140875686
 20
39.25148987475306
 11
224.7821140875686
 21
46.60403250676893
  0
LINE
  8
1
  6
CONTINUOUS
 62
     7
 10
223.2471948129963
 20
71.59435065603063
 11
225.0019132977497
 21
71.5790374598042
  0
LINE
  8
1
  6
CONTINUOUS
 62
     7
 10
225.0914188604666
 20
110.5
 11
225.0019132977497
 21
110.5933832683589
  0
LINE
  8
1
  6
CONTINUOUS
 62
     7
 10
225.0914188604666
 20
110.5
 11
226.5804635884152
 21
108.9523029158278
  0
LINE
  8
1
  6
CONTINUOUS
 62
     7
 10
226.5804635884152
 20
78.43473833988352
 11
225.0019132977497
 21
78.42096254019583
  0
LINE
  8
1
  6
CONTINUOUS
 62
     7
 10
226.5804635884151
 20
41.0476970841722
 11
225.0914188604595
 21
39.4999999999926
  0
LINE
  8
1
  6
CONTINUOUS
 62
     7
 10
225.0019132977497
 20
39.40661673164108
 11
225.0914188604595
 21
39.4999999999926
  0
LINE
  8
1
  6
CONTINUOUS
 62
     7
 10
225.0019132977497
 20
71.5790374598042
 11
226.5804635884152
 21
71.56526166011649
  0
POLYLINE
  8
1
  6
CONTINUOUS
 62
     7
 66
     1
  0
VERTEX
  8
1
  6
CONTINUOUS
 62
     7
 10
226.9867355772652
 20
71.5617161781827
  0
VERTEX
  8
1
  6
CONTINUOUS
 62
     7
 10
227.0264206496152
 20
71.56224975161108
  0
VERTEX
  8
1
  6
CONTINUOUS
 62
     7
 10
227.0634962508127
 20
71.56463041208427
  0
VERTEX
  8
1
  6
CONTINUOUS
 62
     7
 10
227.0978983589036
 20
71.56895368045795
  0
VERTEX
  8
1
  6
CONTINUOUS
 62
     7
 10
227.129533743727
 20
71.57530542478356
  0
VERTEX
  8
1
  6
CONTINUOUS
 62
     7
 10
227.1583486981262
 20
71.58377041542539
  0
VERTEX
  8
1
  6
CONTINUOUS
 62
     7
 10
227.1842567242979
 20
71.59441501529517
  0
VERTEX
  8
1
  6
CONTINUOUS
 62
     7
 10
227.2072097563718
 20
71.60730521822748
  0
VERTEX
  8
1
  6
CONTINUOUS
 62
     7
 10
227.2271464792515
 20
71.62248523730703
  0
VERTEX
  8
1
  6
CONTINUOUS
 62
     7
 10
227.2439764534658
 20
71.63992848782206
  0
VERTEX
  8
1
  6
CONTINUOUS
 62
     7
 10
227.2577455391898
 20
71.65970637829741
  0
VERTEX
  8
1
  6
CONTINUOUS
 62
     7
 10
227.268438789252
 20
71.68182919151354
  0
VERTEX
  8
1
  6
CONTINUOUS
 62
     7
 10
227.2760549309649
 20
71.70629588011492
  0
VERTEX
  8
1
  6
CONTINUOUS
 62
     7
 10
227.2806050483821
 20
71.73309030022388
  0
VERTEX
  8
1
  6
CONTINUOUS
 62
     7
 10
227.2821140875686
 20
71.76218577839413
  0
SEQEND
  8
1
  6
CONTINUOUS
 62
     7
  0
LINE
  8
1
  6
CONTINUOUS
 62
     7
 10
227.2821140875686
 20
71.76218577839413
 11
227.2821140875686
 21
42.79147466715351
  0
ARC
  8
1
  6
CONTINUOUS
 62
     7
 10
224.7668278411327
 20
42.79050837957983
 40
2.515286432043281
 50
316.140859352359
 51
0.022011092027924
  0
LINE
  8
1
  6
CONTINUOUS
 62
     7
 10
226.5804635884152
 20
71.56526166011649
 11
226.9867355772652
 21
71.5617161781827
  0
LINE
  8
1
  6
CONTINUOUS
 62
     7
 10
227.2821140875686
 20
107.2085253328465
 11
227.2821140875686
 21
78.23781422160589
  0
ARC
  8
1
  6
CONTINUOUS
 62
     7
 10
224.7668811369022
 20
107.2095130652441
 40
2.515233144607773
 50
359.9774999390217
 51
43.85962961658919
  0
LINE
  8
1
  6
CONTINUOUS
 62
     7
 10
226.9867355772652
 20
78.43828382181731
 11
226.5804635884152
 21
78.43473833988352
  0
LINE
  8
1
  6
CONTINUOUS
 62
     7
 10
227.2821140875686
 20
78.23781422160589
 11
227.2821140875686
 21
71.76218577839413
  0
LINE
  8
1
  6
CONTINUOUS
 62
     7
 10
230.2821140875686
 20
78.80346054737687
 11
230.2821140875686
 21
71.19653945262314
  0
LINE
  8
1
  6
CONTINUOUS
 62
     7
 10
194.8821140875686
 20
25.28930683853039
 11
194.8821140875686
 21
27.6893068385304
  0
LINE
  8
1
  6
CONTINUOUS
 62
     7
 10
221.4738356090378
 20
40.94588351384123
 11
221.4821140875686
 21
40.65220239413593
  0
LINE
  8
1
  6
CONTINUOUS
 62
     7
 10
218.2821140875686
 20
40.75205285487635
 11
221.4821140875686
 21
40.65220239413592
  0
LINE
  8
1
  6
CONTINUOUS
 62
     7
 10
221.6714735927118
 20
38.72871628021891
 11
221.675440383304
 21
40.93027118821189
  0
LINE
  8
1
  6
CONTINUOUS
 62
     7
 10
221.4821140875686
 20
38.98334498656748
 11
221.4821140875686
 21
40.65220239413592
  0
LINE
  8
1
  6
CONTINUOUS
 62
     7
 10
227.2821140875686
 20
110.5
 11
227.2821140875686
 21
107.2085253328464
  0
LINE
  8
1
  6
CONTINUOUS
 62
     7
 10
227.2821140875686
 20
42.79147466715354
 11
227.2821140875686
 21
39.49999999999998
  0
LINE
  8
1
  6
CONTINUOUS
 62
     7
 10
224.7821140875686
 20
111.5
 11
227.2821140875686
 21
111.5
  0
LINE
  8
1
  6
CONTINUOUS
 62
     7
 10
227.2821140875686
 20
111.5
 11
227.2821140875686
 21
110.5
  0
LINE
  8
1
  6
CONTINUOUS
 62
     7
 10
224.7821140875686
 20
110.7995012140893
 11
224.7821140875686
 21
111.5
  0
LINE
  8
1
  6
CONTINUOUS
 62
     7
 10
227.2821140875686
 20
38.50000000000001
 11
224.7821140875686
 21
38.50000000000001
  0
LINE
  8
1
  6
CONTINUOUS
 62
     7
 10
227.2821140875686
 20
39.5
 11
227.2821140875686
 21
38.50000000000001
  0
LINE
  8
1
  6
CONTINUOUS
 62
     7
 10
224.7821140875686
 20
38.50000000000001
 11
224.7821140875686
 21
39.08907463207315
  0
LINE
  8
1
  6
CONTINUOUS
 62
     7
 10
194.8821140875686
 20
122.3106931614696
 11
194.8821140875686
 21
123.6569363735558
  0
LINE
  8
1
  6
CONTINUOUS
 62
     7
 10
194.8821140875686
 20
123.6569363735558
 11
194.8821140875686
 21
124.7106931614696
  0
LINE
  8
1
  6
CONTINUOUS
 62
     7
 10
222.7821140875686
 20
38.45
 11
224.7821140875686
 21
38.45
  0
LINE
  8
1
  6
CONTINUOUS
 62
     7
 10
224.7821140875686
 20
111.55
 11
222.7821140875686
 21
111.55
  0
LINE
  8
1
  6
CONTINUOUS
 62
     7
 10
221.6745750243597
 20
40.45000000000001
 11
222.7821140875686
 21
40.45000000000001
  0
LINE
  8
1
  6
CONTINUOUS
 62
     7
 10
193.5821140875686
 20
126.0
 11
190.0794961269196
 21
125.9694331161359
  0
LINE
  8
1
  6
CONTINUOUS
 62
     7
 10
190.0794961269196
 20
24.03056688386413
 11
193.5821140875686
 21
24.00000000000001
  0
ARC
  8
1
  6
CONTINUOUS
 62
     7
 10
190.0821140875686
 20
125.6694445392166
 40
0.3000000000000071
 50
90.49999999989546
 51
180.0
  0
ARC
  8
1
  6
CONTINUOUS
 62
     7
 10
190.0821140875686
 20
24.33055546078339
 40
0.2999999999999947
 50
180.0
 51
269.5000000001045
  0
ARC
  8
1
  6
CONTINUOUS
 62
     7
 10
194.0821140875686
 20
112.4913486315579
 40
0.4999999999999892
 50
180.0
 51
269.0000000000178
  0
ARC
  8
1
  6
CONTINUOUS
 62
     7
 10
194.0821140875686
 20
37.50865136844216
 40
0.5000000000000004
 50
90.99999999998215
 51
180.0
  0
LINE
  8
1
  6
CONTINUOUS
 62
     7
 10
194.0733878843501
 20
38.00857521602035
 11
196.5821140875686
 21
38.05236519478466
  0
LINE
  8
1
  6
CONTINUOUS
 62
     7
 10
196.5821140875686
 20
111.9476348052154
 11
194.0733878843501
 21
111.9914247839797
  0
ARC
  8
1
  6
CONTINUOUS
 62
     7
 10
228.7821140875686
 20
69.47358891054182
 40
1.500000000000002
 50
91.0
 51
150.0735651333854
  0
ARC
  8
1
  6
CONTINUOUS
 62
     7
 10
228.7821140875686
 20
80.5264110894582
 40
1.500000000000004
 50
209.9264348666149
 51
269.0
  0
LINE
  8
1
  6
CONTINUOUS
 62
     7
 10
228.7559354779127
 20
70.97336045327641
 11
230.085604568856
 21
70.99656991359187
  0
LINE
  8
1
  6
CONTINUOUS
 62
     7
 10
230.085604568856
 20
79.00343008640816
 11
228.7559354779127
 21
79.02663954672362
  0
ARC
  8
1
  6
CONTINUOUS
 62
     7
 10
230.0821140875686
 20
71.19653945262314
 40
0.2000000000000077
 50
270.9999999999978
 51
0.0
  0
ARC
  8
1
  6
CONTINUOUS
 62
     7
 10
230.0821140875686
 20
78.80346054737687
 40
0.2000000000000057
 50
0.0
 51
89.00000000000213
  0
LINE
  8
1
  6
CONTINUOUS
 62
     7
 10
193.5821140875686
 20
25.26661525412371
 11
194.8821140875686
 21
25.28930683853039
  0
LINE
  8
1
  6
CONTINUOUS
 62
     7
 10
194.8821140875686
 20
27.6893068385304
 11
193.5821140875686
 21
27.71199842293708
  0
LINE
  8
1
  6
CONTINUOUS
 62
     7
 10
194.8821140875686
 20
25.28930683853039
 11
196.3799470016585
 21
26.14165451493297
  0
LINE
  8
1
  6
CONTINUOUS
 62
     7
 10
196.3799470016585
 20
26.83695916212782
 11
194.8821140875686
 21
27.6893068385304
  0
ARC
  8
1
  6
CONTINUOUS
 62
     7
 10
196.1821140875686
 20
26.4893068385304
 40
0.4000000000000122
 50
299.6422095253222
 51
0.0
  0
ARC
  8
1
  6
CONTINUOUS
 62
     7
 10
196.1821140875686
 20
26.4893068385304
 40
0.4000000000000115
 50
0.0
 51
60.35779047467779
  0
LINE
  8
1
  6
CONTINUOUS
 62
     7
 10
193.5821140875686
 20
122.2880015770629
 11
194.8821140875686
 21
122.3106931614696
  0
LINE
  8
1
  6
CONTINUOUS
 62
     7
 10
194.8821140875686
 20
124.7106931614696
 11
193.5821140875686
 21
124.7333847458763
  0
LINE
  8
1
  6
CONTINUOUS
 62
     7
 10
194.8821140875686
 20
122.3106931614696
 11
196.3799470016585
 21
123.1630408378722
  0
LINE
  8
1
  6
CONTINUOUS
 62
     7
 10
196.3799470016585
 20
123.858345485067
 11
194.8821140875686
 21
124.7106931614696
  0
ARC
  8
1
  6
CONTINUOUS
 62
     7
 10
196.1821140875686
 20
123.5106931614696
 40
0.3999999999999925
 50
299.6422095253222
 51
0.0
  0
ARC
  8
1
  6
CONTINUOUS
 62
     7
 10
196.1821140875686
 20
123.5106931614696
 40
0.4000000000000115
 50
0.0
 51
60.35779047467779
  0
ENDBLK
  8
0
  0
BLOCK
  8
0
  2
D_FRAME_VIEW_1815
 70
     0
 10
0.0
 20
0.0
  0
POLYLINE
  8
1
  6
CONTINUOUS
 62
     7
 66
     1
  0
VERTEX
  8
1
  6
CONTINUOUS
 62
     7
 10
122.57291707693
 20
53.47994717974083
  0
VERTEX
  8
1
  6
CONTINUOUS
 62
     7
 10
122.6827509680034
 20
53.52115873135114
  0
VERTEX
  8
1
  6
CONTINUOUS
 62
     7
 10
122.7824279565782
 20
53.5830567549249
  0
VERTEX
  8
1
  6
CONTINUOUS
 62
     7
 10
122.86811919075
 20
53.66326358668206
  0
VERTEX
  8
1
  6
CONTINUOUS
 62
     7
 10
122.9365330477495
 20
53.75869827398841
  0
VERTEX
  8
1
  6
CONTINUOUS
 62
     7
 10
122.9850415737192
 20
53.86569492274481
  0
VERTEX
  8
1
  6
CONTINUOUS
 62
     7
 10
123.0117814302424
 20
53.98014351389656
  0
VERTEX
  8
1
  6
CONTINUOUS
 62
     7
 10
123.0157254700105
 20
54.09764777993549
  0
VERTEX
  8
1
  6
CONTINUOUS
 62
     7
 10
122.9967221922167
 20
54.21369407694807
  0
VERTEX
  8
1
  6
CONTINUOUS
 62
     7
 10
122.9555015620958
 20
54.32382476539616
  0
VERTEX
  8
1
  6
CONTINUOUS
 62
     7
 10
122.8936469710644
 20
54.42380943962421
  0
VERTEX
  8
1
  6
CONTINUOUS
 62
     7
 10
122.8135344145458
 20
54.50980742872306
  0
VERTEX
  8
1
  6
CONTINUOUS
 62
     7
 10
122.7182412238176
 20
54.57851532667051
  0
VERTEX
  8
1
  6
CONTINUOUS
 62
     7
 10
122.611427857728
 20
54.62729388473258
  0
VERTEX
  8
1
  6
CONTINUOUS
 62
     7
 10
122.4971972949686
 20
54.65426939185921
  0
VERTEX
  8
1
  6
CONTINUOUS
 62
     7
 10
122.3799374280111
 20
54.65840564879005
  0
VERTEX
  8
1
  6
CONTINUOUS
 62
     7
 10
122.2641525127658
 20
54.63954377115818
  0
SEQEND
  8
1
  6
CONTINUOUS
 62
     7
  0
POLYLINE
  8
1
  6
CONTINUOUS
 62
     7
 66
     1
  0
VERTEX
  8
1
  6
CONTINUOUS
 62
     7
 10
123.6081932573401
 20
49.61624387458455
  0
VERTEX
  8
1
  6
CONTINUOUS
 62
     7
 10
123.7180271484135
 20
49.65745542619487
  0
VERTEX
  8
1
  6
CONTINUOUS
 62
     7
 10
123.8177041369883
 20
49.71935344976863
  0
VERTEX
  8
1
  6
CONTINUOUS
 62
     7
 10
123.9033953711601
 20
49.7995602815258
  0
VERTEX
  8
1
  6
CONTINUOUS
 62
     7
 10
123.9718092281596
 20
49.89499496883216
  0
VERTEX
  8
1
  6
CONTINUOUS
 62
     7
 10
124.0203177541293
 20
50.00199161758855
  0
VERTEX
  8
1
  6
CONTINUOUS
 62
     7
 10
124.0470576106525
 20
50.1164402087403
  0
VERTEX
  8
1
  6
CONTINUOUS
 62
     7
 10
124.0510016504206
 20
50.23394447477923
  0
VERTEX
  8
1
  6
CONTINUOUS
 62
     7
 10
124.0319983726268
 20
50.34999077179181
  0
VERTEX
  8
1
  6
CONTINUOUS
 62
     7
 10
123.9907777425059
 20
50.4601214602399
  0
VERTEX
  8
1
  6
CONTINUOUS
 62
     7
 10
123.9289231514745
 20
50.56010613446793
  0
VERTEX
  8
1
  6
CONTINUOUS
 62
     7
 10
123.8488105949559
 20
50.64610412356679
  0
VERTEX
  8
1
  6
CONTINUOUS
 62
     7
 10
123.7535174042277
 20
50.71481202151424
  0
VERTEX
  8
1
  6
CONTINUOUS
 62
     7
 10
123.6467040381381
 20
50.76359057957631
  0
VERTEX
  8
1
  6
CONTINUOUS
 62
     7
 10
123.5324734753787
 20
50.79056608670294
  0
VERTEX
  8
1
  6
CONTINUOUS
 62
     7
 10
123.4152136084212
 20
50.79470234363378
  0
VERTEX
  8
1
  6
CONTINUOUS
 62
     7
 10
123.2994286931759
 20
50.77584046600191
  0
SEQEND
  8
1
  6
CONTINUOUS
 62
     7
  0
POLYLINE
  8
1
  6
CONTINUOUS
 62
     7
 66
     1
  0
VERTEX
  8
1
  6
CONTINUOUS
 62
     7
 10
124.6434694377501
 20
45.75254056942828
  0
VERTEX
  8
1
  6
CONTINUOUS
 62
     7
 10
124.7533033288236
 20
45.7937521210386
  0
VERTEX
  8
1
  6
CONTINUOUS
 62
     7
 10
124.8529803173984
 20
45.85565014461237
  0
VERTEX
  8
1
  6
CONTINUOUS
 62
     7
 10
124.9386715515701
 20
45.93585697636953
  0
VERTEX
  8
1
  6
CONTINUOUS
 62
     7
 10
125.0070854085697
 20
46.03129166367589
  0
VERTEX
  8
1
  6
CONTINUOUS
 62
     7
 10
125.0555939345393
 20
46.13828831243228
  0
VERTEX
  8
1
  6
CONTINUOUS
 62
     7
 10
125.0823337910626
 20
46.25273690358404
  0
VERTEX
  8
1
  6
CONTINUOUS
 62
     7
 10
125.0862778308307
 20
46.37024116962296
  0
VERTEX
  8
1
  6
CONTINUOUS
 62
     7
 10
125.0672745530369
 20
46.48628746663555
  0
VERTEX
  8
1
  6
CONTINUOUS
 62
     7
 10
125.026053922916
 20
46.59641815508363
  0
VERTEX
  8
1
  6
CONTINUOUS
 62
     7
 10
124.9641993318845
 20
46.69640282931167
  0
VERTEX
  8
1
  6
CONTINUOUS
 62
     7
 10
124.884086775366
 20
46.78240081841053
  0
VERTEX
  8
1
  6
CONTINUOUS
 62
     7
 10
124.7887935846377
 20
46.85110871635798
  0
VERTEX
  8
1
  6
CONTINUOUS
 62
     7
 10
124.6819802185481
 20
46.89988727442005
  0
VERTEX
  8
1
  6
CONTINUOUS
 62
     7
 10
124.5677496557888
 20
46.92686278154666
  0
VERTEX
  8
1
  6
CONTINUOUS
 62
     7
 10
124.4504897888313
 20
46.9309990384775
  0
VERTEX
  8
1
  6
CONTINUOUS
 62
     7
 10
124.3347048735859
 20
46.91213716084562
  0
SEQEND
  8
1
  6
CONTINUOUS
 62
     7
  0
ARC
  8
1
  6
CONTINUOUS
 62
     7
 10
119.2270633324856
 20
56.31042215296128
 40
1.0
 50
104.9999999999994
 51
158.1301023541562
  0
LINE
  8
1
  6
CONTINUOUS
 62
     7
 10
118.9682442873831
 20
57.27634797925035
 11
121.9514649260502
 21
58.07569954022507
  0
ARC
  8
1
  6
CONTINUOUS
 62
     7
 10
122.7279220613578
 20
55.17792206135787
 40
3.0
 50
45.0
 51
105.0000000000001
  0
ARC
  8
1
  6
CONTINUOUS
 62
     7
 10
110.0
 20
42.45000000000001
 40
21.00000000000001
 50
12.36936626216288
 51
45.0
  0
LINE
  8
1
  6
CONTINUOUS
 62
     7
 10
117.77783325947
 20
55.38443082325532
 11
118.2990312443928
 21
56.6829224126527
  0
LINE
  8
1
  6
CONTINUOUS
 62
     7
 10
119.5488934700602
 20
41.58637416007898
 11
116.6227800757814
 21
52.50677801623525
  0
LINE
  8
1
  6
CONTINUOUS
 62
     7
 10
116.6227800757814
 20
52.50677801623525
 11
117.77783325947
 21
55.38443082325532
  0
LINE
  8
1
  6
CONTINUOUS
 62
     7
 10
116.6227800757814
 20
52.50677801623525
 11
116.5606966991662
 21
52.35210600155312
  0
LINE
  8
1
  6
CONTINUOUS
 62
     7
 10
113.6231411806674
 20
47.56192247506414
 11
114.7602787773243
 21
47.86661757577141
  0
LINE
  8
1
  6
CONTINUOUS
 62
     7
 10
114.7602787773243
 20
47.86661757577141
 11
116.5606966991662
 21
52.35210600155312
  0
POLYLINE
  8
1
  6
CONTINUOUS
 62
     7
 66
     1
  0
VERTEX
  8
1
  6
CONTINUOUS
 62
     7
 10
95.35653056224984
 20
104.2474594305718
  0
VERTEX
  8
1
  6
CONTINUOUS
 62
     7
 10
95.2466966711764
 20
104.2062478789614
  0
VERTEX
  8
1
  6
CONTINUOUS
 62
     7
 10
95.14701968260158
 20
104.1443498553877
  0
VERTEX
  8
1
  6
CONTINUOUS
 62
     7
 10
95.06132844842983
 20
104.0641430236305
  0
VERTEX
  8
1
  6
CONTINUOUS
 62
     7
 10
94.99291459143026
 20
103.9687083363242
  0
VERTEX
  8
1
  6
CONTINUOUS
 62
     7
 10
94.94440606546065
 20
103.8617116875678
  0
VERTEX
  8
1
  6
CONTINUOUS
 62
     7
 10
94.91766620893736
 20
103.747263096416
  0
VERTEX
  8
1
  6
CONTINUOUS
 62
     7
 10
94.91372216916929
 20
103.6297588303771
  0
VERTEX
  8
1
  6
CONTINUOUS
 62
     7
 10
94.93272544696309
 20
103.5137125333645
  0
VERTEX
  8
1
  6
CONTINUOUS
 62
     7
 10
94.97394607708401
 20
103.4035818449164
  0
VERTEX
  8
1
  6
CONTINUOUS
 62
     7
 10
95.03580066811541
 20
103.3035971706884
  0
VERTEX
  8
1
  6
CONTINUOUS
 62
     7
 10
95.115913224634
 20
103.2175991815895
  0
VERTEX
  8
1
  6
CONTINUOUS
 62
     7
 10
95.21120641536221
 20
103.1488912836421
  0
VERTEX
  8
1
  6
CONTINUOUS
 62
     7
 10
95.31801978145181
 20
103.10011272558
  0
VERTEX
  8
1
  6
CONTINUOUS
 62
     7
 10
95.43225034421117
 20
103.0731372184534
  0
VERTEX
  8
1
  6
CONTINUOUS
 62
     7
 10
95.5495102111687
 20
103.0690009615225
  0
VERTEX
  8
1
  6
CONTINUOUS
 62
     7
 10
95.66529512641405
 20
103.0878628391544
  0
SEQEND
  8
1
  6
CONTINUOUS
 62
     7
  0
POLYLINE
  8
1
  6
CONTINUOUS
 62
     7
 66
     1
  0
VERTEX
  8
1
  6
CONTINUOUS
 62
     7
 10
96.39180674265991
 20
100.3837561254155
  0
VERTEX
  8
1
  6
CONTINUOUS
 62
     7
 10
96.28197285158645
 20
100.3425445738052
  0
VERTEX
  8
1
  6
CONTINUOUS
 62
     7
 10
96.18229586301165
 20
100.2806465502314
  0
VERTEX
  8
1
  6
CONTINUOUS
 62
     7
 10
96.09660462883991
 20
100.2004397184742
  0
VERTEX
  8
1
  6
CONTINUOUS
 62
     7
 10
96.02819077184033
 20
100.1050050311679
  0
VERTEX
  8
1
  6
CONTINUOUS
 62
     7
 10
95.97968224587072
 20
99.99800838241148
  0
VERTEX
  8
1
  6
CONTINUOUS
 62
     7
 10
95.95294238934744
 20
99.88355979125971
  0
VERTEX
  8
1
  6
CONTINUOUS
 62
     7
 10
95.94899834957937
 20
99.7660555252208
  0
VERTEX
  8
1
  6
CONTINUOUS
 62
     7
 10
95.9680016273732
 20
99.65000922820822
  0
VERTEX
  8
1
  6
CONTINUOUS
 62
     7
 10
96.00922225749409
 20
99.53987853976012
  0
VERTEX
  8
1
  6
CONTINUOUS
 62
     7
 10
96.07107684852551
 20
99.43989386553208
  0
VERTEX
  8
1
  6
CONTINUOUS
 62
     7
 10
96.15118940504408
 20
99.35389587643324
  0
VERTEX
  8
1
  6
CONTINUOUS
 62
     7
 10
96.24648259577229
 20
99.2851879784858
  0
VERTEX
  8
1
  6
CONTINUOUS
 62
     7
 10
96.35329596186189
 20
99.23640942042371
  0
VERTEX
  8
1
  6
CONTINUOUS
 62
     7
 10
96.46752652462126
 20
99.2094339132971
  0
VERTEX
  8
1
  6
CONTINUOUS
 62
     7
 10
96.58478639157877
 20
99.20529765636626
  0
VERTEX
  8
1
  6
CONTINUOUS
 62
     7
 10
96.70057130682412
 20
99.22415953399812
  0
SEQEND
  8
1
  6
CONTINUOUS
 62
     7
  0
POLYLINE
  8
1
  6
CONTINUOUS
 62
     7
 66
     1
  0
VERTEX
  8
1
  6
CONTINUOUS
 62
     7
 10
97.42708292307
 20
96.5200528202592
  0
VERTEX
  8
1
  6
CONTINUOUS
 62
     7
 10
97.31724903199654
 20
96.47884126864889
  0
VERTEX
  8
1
  6
CONTINUOUS
 62
     7
 10
97.21757204342174
 20
96.41694324507512
  0
VERTEX
  8
1
  6
CONTINUOUS
 62
     7
 10
97.13188080925
 20
96.33673641331796
  0
VERTEX
  8
1
  6
CONTINUOUS
 62
     7
 10
97.06346695225041
 20
96.24130172601161
  0
VERTEX
  8
1
  6
CONTINUOUS
 62
     7
 10
97.01495842628081
 20
96.13430507725522
  0
VERTEX
  8
1
  6
CONTINUOUS
 62
     7
 10
96.98821856975752
 20
96.01985648610345
  0
VERTEX
  8
1
  6
CONTINUOUS
 62
     7
 10
96.98427452998945
 20
95.90235222006453
  0
VERTEX
  8
1
  6
CONTINUOUS
 62
     7
 10
97.00327780778328
 20
95.78630592305196
  0
VERTEX
  8
1
  6
CONTINUOUS
 62
     7
 10
97.04449843790417
 20
95.67617523460386
  0
VERTEX
  8
1
  6
CONTINUOUS
 62
     7
 10
97.10635302893557
 20
95.57619056037582
  0
VERTEX
  8
1
  6
CONTINUOUS
 62
     7
 10
97.18646558545416
 20
95.49019257127696
  0
VERTEX
  8
1
  6
CONTINUOUS
 62
     7
 10
97.28175877618237
 20
95.42148467332952
  0
VERTEX
  8
1
  6
CONTINUOUS
 62
     7
 10
97.38857214227197
 20
95.37270611526745
  0
VERTEX
  8
1
  6
CONTINUOUS
 62
     7
 10
97.50280270503133
 20
95.34573060814083
  0
VERTEX
  8
1
  6
CONTINUOUS
 62
     7
 10
97.62006257198885
 20
95.34159435120998
  0
VERTEX
  8
1
  6
CONTINUOUS
 62
     7
 10
97.7358474872342
 20
95.36045622884184
  0
SEQEND
  8
1
  6
CONTINUOUS
 62
     7
  0
POLYLINE
  8
1
  6
CONTINUOUS
 62
     7
 66
     1
  0
VERTEX
  8
1
  6
CONTINUOUS
 62
     7
 10
101.7009687556071
 20
93.31707758734731
  0
VERTEX
  8
1
  6
CONTINUOUS
 62
     7
 10
101.6827067448511
 20
93.27446532448289
  0
VERTEX
  8
1
  6
CONTINUOUS
 62
     7
 10
101.6624893598245
 20
93.23274526544692
  0
VERTEX
  8
1
  6
CONTINUOUS
 62
     7
 10
101.6403600538738
 20
93.19200707941194
  0
VERTEX
  8
1
  6
CONTINUOUS
 62
     7
 10
101.6163663896488
 20
93.15233832520492
  0
VERTEX
  8
1
  6
CONTINUOUS
 62
     7
 10
101.5905599368755
 20
93.11382426311663
  0
VERTEX
  8
1
  6
CONTINUOUS
 62
     7
 10
101.5629961615173
 20
93.07654767165113
  0
VERTEX
  8
1
  6
CONTINUOUS
 62
     7
 10
101.5337343065616
 20
93.04058866960955
  0
VERTEX
  8
1
  6
CONTINUOUS
 62
     7
 10
101.5028372646881
 20
93.0060245438901
  0
VERTEX
  8
1
  6
CONTINUOUS
 62
     7
 10
101.470371443094
 20
92.97292958337499
  0
VERTEX
  8
1
  6
CONTINUOUS
 62
     7
 10
101.4364066207637
 20
92.9413749192609
  0
VERTEX
  8
1
  6
CONTINUOUS
 62
     7
 10
101.4010157984932
 20
92.91142837217618
  0
VERTEX
  8
1
  6
CONTINUOUS
 62
     7
 10
101.3642750419885
 20
92.88315430641367
  0
VERTEX
  8
1
  6
CONTINUOUS
 62
     7
 10
101.3262633183774
 20
92.85661349159207
  0
VERTEX
  8
1
  6
CONTINUOUS
 62
     7
 10
101.2870623264849
 20
92.8318629720435
  0
VERTEX
  8
1
  6
CONTINUOUS
 62
     7
 10
101.2467563212374
 20
92.80895594420771
  0
VERTEX
  8
1
  6
CONTINUOUS
 62
     7
 10
101.2054319325732
 20
92.78794164229667
  0
VERTEX
  8
1
  6
CONTINUOUS
 62
     7
 10
101.163177979248
 20
92.76886523247524
  0
VERTEX
  8
1
  6
CONTINUOUS
 62
     7
 10
101.1200852779367
 20
92.75176771578516
  0
VERTEX
  8
1
  6
CONTINUOUS
 62
     7
 10
101.0762464480398
 20
92.73668584002137
  0
VERTEX
  8
1
  6
CONTINUOUS
 62
     7
 10
101.0317557126169
 20
92.72365202074967
  0
SEQEND
  8
1
  6
CONTINUOUS
 62
     7
  0
LINE
  8
1
  6
CONTINUOUS
 62
     7
 10
101.0317557126169
 20
92.72365202074967
 11
98.04853507394972
 21
91.92430045977495
  0
ARC
  8
1
  6
CONTINUOUS
 62
     7
 10
97.27207793864216
 20
94.82207793864215
 40
3.0
 50
224.9999999999998
 51
285.0
  0
ARC
  8
1
  6
CONTINUOUS
 62
     7
 10
110.0
 20
107.55
 40
21.00000000000001
 50
192.3693662621629
 51
225.0
  0
LINE
  8
1
  6
CONTINUOUS
 62
     7
 10
102.2221667405299
 20
94.6155691767447
 11
101.7009687556071
 21
93.31707758734731
  0
LINE
  8
1
  6
CONTINUOUS
 62
     7
 10
100.4511065299397
 20
108.4136258399211
 11
103.3772199242185
 21
97.49322198376477
  0
LINE
  8
1
  6
CONTINUOUS
 62
     7
 10
103.3772199242185
 20
97.49322198376477
 11
102.2221667405299
 21
94.61556917674471
  0
LINE
  8
1
  6
CONTINUOUS
 62
     7
 10
103.3772199242185
 20
97.49322198376477
 11
103.4393033008338
 21
97.64789399844689
  0
LINE
  8
1
  6
CONTINUOUS
 62
     7
 10
106.3768588193325
 20
102.4380775249359
 11
105.2397212226756
 21
102.1333824242286
  0
LINE
  8
1
  6
CONTINUOUS
 62
     7
 10
105.2397212226756
 20
102.1333824242286
 11
103.4393033008338
 21
97.64789399844689
  0
ARC
  8
1
  6
CONTINUOUS
 62
     7
 10
110.0
 20
107.55
 40
4.000000000000004
 50
145.2086980613689
 51
270.0
  0
ARC
  8
1
  6
CONTINUOUS
 62
     7
 10
110.0
 20
107.55
 40
3.999999999999999
 50
270.0
 51
34.79130193863108
  0
LINE
  8
1
  6
CONTINUOUS
 62
     7
 10
110.5
 20
104.8
 11
110.5
 21
106.25
  0
ARC
  8
1
  6
CONTINUOUS
 62
     7
 10
111.3
 20
106.25
 40
0.7999999999999952
 50
90.00000000000006
 51
179.9999999999995
  0
LINE
  8
1
  6
CONTINUOUS
 62
     7
 10
111.3
 20
107.05
 11
112.193741096848
 21
107.05
  0
ARC
  8
1
  6
CONTINUOUS
 62
     7
 10
110.0
 20
107.55
 40
2.249999999999998
 50
347.1604115930958
 51
12.83958840690411
  0
LINE
  8
1
  6
CONTINUOUS
 62
     7
 10
112.193741096848
 20
108.05
 11
111.3
 21
108.05
  0
ARC
  8
1
  6
CONTINUOUS
 62
     7
 10
111.3
 20
108.85
 40
0.7999999999999952
 50
180.0
 51
269.9999999999994
  0
LINE
  8
1
  6
CONTINUOUS
 62
     7
 10
110.5
 20
108.85
 11
110.5
 21
110.3
  0
LINE
  8
1
  6
CONTINUOUS
 62
     7
 10
110.5
 20
110.3
 11
109.5
 21
110.3
  0
LINE
  8
1
  6
CONTINUOUS
 62
     7
 10
109.5
 20
110.3
 11
109.5
 21
108.85
  0
ARC
  8
1
  6
CONTINUOUS
 62
     7
 10
108.7
 20
108.85
 40
0.7999999999999952
 50
270.0
 51
359.9999999999996
  0
LINE
  8
1
  6
CONTINUOUS
 62
     7
 10
108.7
 20
108.05
 11
107.806258903152
 21
108.05
  0
ARC
  8
1
  6
CONTINUOUS
 62
     7
 10
110.0
 20
107.55
 40
2.249999999999998
 50
167.1604115930959
 51
192.8395884069042
  0
LINE
  8
1
  6
CONTINUOUS
 62
     7
 10
107.806258903152
 20
107.05
 11
108.7
 21
107.05
  0
ARC
  8
1
  6
CONTINUOUS
 62
     7
 10
108.7
 20
106.25
 40
0.7999999999999952
 50
0.0000000000002274
 51
90.0
  0
LINE
  8
1
  6
CONTINUOUS
 62
     7
 10
109.5
 20
106.25
 11
109.5
 21
104.8
  0
LINE
  8
1
  6
CONTINUOUS
 62
     7
 10
109.5
 20
104.8
 11
110.5
 21
104.8
  0
ARC
  8
1
  6
CONTINUOUS
 62
     7
 10
110.0
 20
107.55
 40
1.801276552751907
 50
73.88412071820807
 51
106.1158792817919
  0
ARC
  8
1
  6
CONTINUOUS
 62
     7
 10
110.0
 20
107.55
 40
1.801276552751907
 50
253.8841207182081
 51
286.1158792817919
  0
ARC
  8
1
  6
CONTINUOUS
 62
     7
 10
110.0
 20
42.45000000000002
 40
4.000000000000004
 50
325.2086980613689
 51
90.0
  0
ARC
  8
1
  6
CONTINUOUS
 62
     7
 10
110.0
 20
42.45000000000002
 40
3.999999999999999
 50
90.0
 51
214.7913019386311
  0
LINE
  8
1
  6
CONTINUOUS
 62
     7
 10
109.5
 20
45.20000000000002
 11
109.5
 21
43.75000000000001
  0
ARC
  8
1
  6
CONTINUOUS
 62
     7
 10
108.7
 20
43.75000000000001
 40
0.800000000000009
 50
270.0
 51
359.9999999999996
  0
LINE
  8
1
  6
CONTINUOUS
 62
     7
 10
108.7
 20
42.95000000000002
 11
107.8062589031519
 21
42.95000000000002
  0
ARC
  8
1
  6
CONTINUOUS
 62
     7
 10
110.0
 20
42.45000000000002
 40
2.250000000000012
 50
167.1604115930959
 51
192.8395884069042
  0
LINE
  8
1
  6
CONTINUOUS
 62
     7
 10
107.8062589031519
 20
41.95000000000002
 11
108.7
 21
41.95000000000002
  0
ARC
  8
1
  6
CONTINUOUS
 62
     7
 10
108.7
 20
41.15000000000002
 40
0.800000000000002
 50
0.0
 51
89.99999999999943
  0
LINE
  8
1
  6
CONTINUOUS
 62
     7
 10
109.5
 20
41.15000000000002
 11
109.5
 21
39.70000000000002
  0
LINE
  8
1
  6
CONTINUOUS
 62
     7
 10
109.5
 20
39.70000000000002
 11
110.5
 21
39.70000000000001
  0
LINE
  8
1
  6
CONTINUOUS
 62
     7
 10
110.5
 20
39.70000000000001
 11
110.5
 21
41.15000000000002
  0
ARC
  8
1
  6
CONTINUOUS
 62
     7
 10
111.3
 20
41.15000000000001
 40
0.800000000000009
 50
89.99999999999994
 51
179.9999999999995
  0
LINE
  8
1
  6
CONTINUOUS
 62
     7
 10
111.3
 20
41.95000000000002
 11
112.193741096848
 21
41.95000000000002
  0
ARC
  8
1
  6
CONTINUOUS
 62
     7
 10
110.0
 20
42.45000000000002
 40
2.249999999999998
 50
347.1604115930959
 51
12.83958840690417
  0
LINE
  8
1
  6
CONTINUOUS
 62
     7
 10
112.193741096848
 20
42.95000000000002
 11
111.3
 21
42.95000000000001
  0
ARC
  8
1
  6
CONTINUOUS
 62
     7
 10
111.3
 20
43.75000000000001
 40
0.7999999999999952
 50
180.0000000000002
 51
270.0
  0
LINE
  8
1
  6
CONTINUOUS
 62
     7
 10
110.5
 20
43.75000000000001
 11
110.5
 21
45.20000000000002
  0
LINE
  8
1
  6
CONTINUOUS
 62
     7
 10
110.5
 20
45.20000000000002
 11
109.5
 21
45.20000000000002
  0
ARC
  8
1
  6
CONTINUOUS
 62
     7
 10
110.0
 20
42.45000000000002
 40
1.801276552751914
 50
253.8841207182081
 51
286.1158792817919
  0
ARC
  8
1
  6
CONTINUOUS
 62
     7
 10
110.0
 20
42.45000000000002
 40
1.801276552751914
 50
73.88412071820812
 51
106.1158792817919
  0
LINE
  8
1
  6
CONTINUOUS
 62
     7
 10
107.1763190909186
 20
110.3831653893992
 11
106.7216232854812
 21
109.8417779381303
  0
ARC
  8
1
  6
CONTINUOUS
 62
     7
 10
110.0
 20
75.00000000000001
 40
34.99567464376538
 50
95.37532081585674
 51
145.1624232598962
  0
LINE
  8
1
  6
CONTINUOUS
 62
     7
 10
81.27643434773545
 20
94.99134862865776
 11
80.67523969663371
 21
95.00000000000001
  0
ARC
  8
1
  6
CONTINUOUS
 62
     7
 10
110.0
 20
75.00000000000001
 40
34.99567464376538
 50
275.3753208158568
 51
325.1624232598963
  0
LINE
  8
1
  6
CONTINUOUS
 62
     7
 10
138.7235656522645
 20
55.00865137134225
 11
139.3247603033663
 21
55.00000000000001
  0
LINE
  8
1
  6
CONTINUOUS
 62
     7
 10
112.8236809090813
 20
39.6168346106008
 11
113.2783767145188
 21
40.15822206186968
  0
LINE
  8
1
  6
CONTINUOUS
 62
     7
 10
64.72031360532627
 20
55.00000000000001
 11
64.72941218699066
 21
55.01396405194259
  0
LINE
  8
1
  6
CONTINUOUS
 62
     7
 10
81.27597327622856
 20
55.01396405194259
 11
64.72941218699066
 21
55.01396405194259
  0
LINE
  8
1
  6
CONTINUOUS
 62
     7
 10
81.27597327622496
 20
55.01396405194303
 11
81.27643434773535
 21
55.00865137134308
  0
LINE
  8
1
  6
CONTINUOUS
 62
     7
 10
80.67523969663371
 20
55.00000000000001
 11
81.27643434773545
 21
55.00865137134226
  0
LINE
  8
1
  6
CONTINUOUS
 62
     7
 10
80.67523969663371
 20
55.00000000000001
 11
64.72031360532627
 21
55.00000000000001
  0
ARC
  8
1
  6
CONTINUOUS
 62
     7
 10
110.0
 20
75.00000000000001
 40
34.9956746437654
 50
214.8375767401037
 51
264.6246791841432
  0
LINE
  8
1
  6
CONTINUOUS
 62
     7
 10
106.7216232854812
 20
40.15822206186968
 11
107.1763190909186
 21
39.6168346106008
  0
LINE
  8
1
  6
CONTINUOUS
 62
     7
 10
139.3247603033663
 20
95.00000000000001
 11
138.7235656522645
 21
94.99134862865776
  0
ARC
  8
1
  6
CONTINUOUS
 62
     7
 10
110.0
 20
75.00000000000001
 40
34.99567464376538
 50
34.83757674010375
 51
84.62467918414328
  0
LINE
  8
1
  6
CONTINUOUS
 62
     7
 10
113.2783767145188
 20
109.8417779381303
 11
112.8236809090813
 21
110.3831653893992
  0
LINE
  8
1
  6
CONTINUOUS
 62
     7
 10
155.2796863946737
 20
95.00000000000001
 11
155.2705878130093
 21
94.98603594805743
  0
LINE
  8
1
  6
CONTINUOUS
 62
     7
 10
138.7240267237714
 20
94.98603594805743
 11
155.2705878130093
 21
94.98603594805743
  0
LINE
  8
1
  6
CONTINUOUS
 62
     7
 10
138.7240267237748
 20
94.98603594805867
 11
138.7235656522644
 21
94.99134862865856
  0
LINE
  8
1
  6
CONTINUOUS
 62
     7
 10
139.3247603033663
 20
95.00000000000001
 11
155.2796863946737
 21
95.00000000000001
  0
LINE
  8
1
  6
CONTINUOUS
 62
     7
 10
64.72031360532627
 20
95.00000000000001
 11
64.72941218699066
 21
94.98603594805743
  0
LINE
  8
1
  6
CONTINUOUS
 62
     7
 10
64.72031360532627
 20
95.00000000000001
 11
80.67523969663371
 21
95.00000000000001
  0
LINE
  8
1
  6
CONTINUOUS
 62
     7
 10
81.27643434773535
 20
94.99134862865697
 11
81.27597327622496
 21
94.98603594805704
  0
LINE
  8
1
  6
CONTINUOUS
 62
     7
 10
64.72941218699066
 20
94.98603594805743
 11
81.27597327622856
 21
94.98603594805743
  0
LINE
  8
1
  6
CONTINUOUS
 62
     7
 10
155.2796863946737
 20
55.00000000000001
 11
155.2705878130093
 21
55.01396405194259
  0
LINE
  8
1
  6
CONTINUOUS
 62
     7
 10
155.2796863946737
 20
55.00000000000001
 11
139.3247603033663
 21
55.00000000000001
  0
LINE
  8
1
  6
CONTINUOUS
 62
     7
 10
138.7235656522644
 20
55.00865137134145
 11
138.7240267237748
 21
55.01396405194135
  0
LINE
  8
1
  6
CONTINUOUS
 62
     7
 10
155.2705878130093
 20
55.01396405194259
 11
138.7240267237714
 21
55.01396405194259
  0
ARC
  8
1
  6
CONTINUOUS
 62
     7
 10
110.0
 20
75.00000000000001
 40
49.50000000000001
 50
336.1689921104864
 51
23.83100788951361
  0
ARC
  8
1
  6
CONTINUOUS
 62
     7
 10
110.0
 20
75.00000000000001
 40
49.49999999999999
 50
156.1689921104864
 51
203.8310078895136
  0
ARC
  8
1
  6
CONTINUOUS
 62
     7
 10
110.0
 20
42.45000000000002
 40
3.999999999999996
 50
225.0960641592879
 51
314.9039358407122
  0
ARC
  8
1
  6
CONTINUOUS
 62
     7
 10
110.0
 20
107.55
 40
4.000000000000002
 50
45.09606415928783
 51
134.9039358407122
  0
ARC
  8
1
  6
CONTINUOUS
 62
     7
 10
110.0
 20
75.00000000000001
 40
49.48603594805743
 50
156.179525118094
 51
203.820474881906
  0
ARC
  8
1
  6
CONTINUOUS
 62
     7
 10
110.0
 20
75.00000000000001
 40
49.48603594805743
 50
336.179525118094
 51
23.82047488190591
  0
CIRCLE
  8
1
  6
CONTINUOUS
 62
     7
 10
110.0
 20
75.00000000000001
 40
50.99999999999999
  0
ARC
  8
1
  6
CONTINUOUS
 62
     7
 10
110.0
 20
75.00000000000001
 40
34.98690969831385
 50
95.38747279496316
 51
99.59561699282023
  0
LINE
  8
1
  6
CONTINUOUS
 62
     7
 10
103.1777220481616
 20
109.3108981345367
 11
104.1679158799952
 21
109.4974005550441
  0
ARC
  8
1
  6
CONTINUOUS
 62
     7
 10
110.0
 20
75.00000000000001
 40
34.75128426796337
 50
101.7893027195193
 51
129.2769960290547
  0
ARC
  8
1
  6
CONTINUOUS
 62
     7
 10
110.0
 20
75.00000000000001
 40
34.93629386512741
 50
170.8519287440291
 51
171.7412824416291
  0
ARC
  8
1
  6
CONTINUOUS
 62
     7
 10
110.0
 20
75.00000000000001
 40
34.99301850576739
 50
145.1699942007196
 51
171.7700593792647
  0
LINE
  8
1
  6
CONTINUOUS
 62
     7
 10
106.7150566416435
 20
109.8323556104143
 11
106.7216232854812
 21
109.8417779381303
  0
ARC
  8
1
  6
CONTINUOUS
 62
     7
 10
110.0
 20
75.00000000000001
 40
34.98690969831385
 50
275.3874727949631
 51
279.5956169928203
  0
LINE
  8
1
  6
CONTINUOUS
 62
     7
 10
116.8222779518383
 20
40.68910186546331
 11
115.8320841200047
 21
40.50259944495591
  0
ARC
  8
1
  6
CONTINUOUS
 62
     7
 10
110.0
 20
75.00000000000001
 40
34.75128426796337
 50
281.7893027195193
 51
309.2769960290547
  0
ARC
  8
1
  6
CONTINUOUS
 62
     7
 10
110.0
 20
75.00000000000001
 40
34.9362938651274
 50
350.8519287440291
 51
351.7412824416291
  0
ARC
  8
1
  6
CONTINUOUS
 62
     7
 10
110.0
 20
75.00000000000001
 40
34.99301850576738
 50
325.1699942007196
 51
351.7700593792647
  0
LINE
  8
1
  6
CONTINUOUS
 62
     7
 10
113.2849433583565
 20
40.16764438958575
 11
113.2783767145188
 21
40.15822206186968
  0
LINE
  8
1
  6
CONTINUOUS
 62
     9
 10
103.1777220481616
 20
40.68910186546331
 11
102.8523092298263
 21
41.03351705256743
  0
LINE
  8
1
  6
CONTINUOUS
 62
     7
 10
104.1679158799952
 20
40.50259944495591
 11
103.1777220481616
 21
40.68910186546331
  0
ARC
  8
1
  6
CONTINUOUS
 62
     7
 10
110.0
 20
75.00000000000001
 40
34.98690969831385
 50
260.4043830071797
 51
264.6125272050367
  0
ARC
  8
1
  6
CONTINUOUS
 62
     7
 10
110.0
 20
75.00000000000001
 40
34.99301850576738
 50
188.2299406207353
 51
214.8300057992803
  0
ARC
  8
1
  6
CONTINUOUS
 62
     7
 10
110.0
 20
75.00000000000001
 40
34.9362938651274
 50
188.2587175583709
 51
189.148071255971
  0
LINE
  8
1
  6
CONTINUOUS
 62
     7
 10
106.7216232854812
 20
40.15822206186968
 11
106.7150566416435
 21
40.16764438958575
  0
LINE
  8
1
  6
CONTINUOUS
 62
     9
 10
116.8222779518383
 20
109.3108981345367
 11
117.1476907701737
 21
108.9664829474326
  0
LINE
  8
1
  6
CONTINUOUS
 62
     7
 10
115.8320841200047
 20
109.4974005550441
 11
116.8222779518383
 21
109.3108981345367
  0
ARC
  8
1
  6
CONTINUOUS
 62
     7
 10
110.0
 20
75.00000000000001
 40
34.98690969831386
 50
80.40438300717975
 51
84.61252720503678
  0
ARC
  8
1
  6
CONTINUOUS
 62
     7
 10
110.0
 20
75.00000000000001
 40
34.99301850576738
 50
8.22994062073529
 51
34.83000579928038
  0
ARC
  8
1
  6
CONTINUOUS
 62
     7
 10
110.0
 20
75.00000000000001
 40
34.93629386512739
 50
8.258717558370904
 51
9.148071255970931
  0
LINE
  8
1
  6
CONTINUOUS
 62
     7
 10
113.2783767145188
 20
109.8417779381303
 11
113.2849433583565
 21
109.8323556104143
  0
POLYLINE
  8
1
  6
CONTINUOUS
 62
     7
 66
     1
  0
VERTEX
  8
1
  6
CONTINUOUS
 62
     7
 10
75.94100358349326
 20
79.44379613409309
  0
VERTEX
  8
1
  6
CONTINUOUS
 62
     7
 10
75.92042480804685
 20
79.44095154002318
  0
VERTEX
  8
1
  6
CONTINUOUS
 62
     7
 10
75.8997277524963
 20
79.43896245547813
  0
VERTEX
  8
1
  6
CONTINUOUS
 62
     7
 10
75.8789660401043
 20
79.4378329148655
  0
VERTEX
  8
1
  6
CONTINUOUS
 62
     7
 10
75.85819329413351
 20
79.43756695259292
  0
VERTEX
  8
1
  6
CONTINUOUS
 62
     7
 10
75.83682489828429
 20
79.43819788521873
  0
VERTEX
  8
1
  6
CONTINUOUS
 62
     7
 10
75.81548346795934
 20
79.43974299421579
  0
VERTEX
  8
1
  6
CONTINUOUS
 62
     7
 10
75.79422734379887
 20
79.4421968051112
  0
VERTEX
  8
1
  6
CONTINUOUS
 62
     7
 10
75.77311486644311
 20
79.4455538434321
  0
VERTEX
  8
1
  6
CONTINUOUS
 62
     7
 10
75.75275455448141
 20
79.44968125752979
  0
VERTEX
  8
1
  6
CONTINUOUS
 62
     7
 10
75.73256580985907
 20
79.45465512133768
  0
VERTEX
  8
1
  6
CONTINUOUS
 62
     7
 10
75.71260057121482
 20
79.46046149420877
  0
VERTEX
  8
1
  6
CONTINUOUS
 62
     7
 10
75.69291077718735
 20
79.46708643549613
  0
VERTEX
  8
1
  6
CONTINUOUS
 62
     7
 10
75.67295576873593
 20
79.47475491028477
  0
VERTEX
  8
1
  6
CONTINUOUS
 62
     7
 10
75.6533288151556
 20
79.48327712887453
  0
VERTEX
  8
1
  6
CONTINUOUS
 62
     7
 10
75.6340831606028
 20
79.49262861443889
  0
VERTEX
  8
1
  6
CONTINUOUS
 62
     7
 10
75.61527204923398
 20
79.50278489015116
  0
VERTEX
  8
1
  6
CONTINUOUS
 62
     7
 10
75.5974260906097
 20
79.5134189367931
  0
VERTEX
  8
1
  6
CONTINUOUS
 62
     7
 10
75.58002221197432
 20
79.5247949235488
  0
VERTEX
  8
1
  6
CONTINUOUS
 62
     7
 10
75.56310481089228
 20
79.53688250364976
  0
VERTEX
  8
1
  6
CONTINUOUS
 62
     7
 10
75.54671828492809
 20
79.5496513303275
  0
VERTEX
  8
1
  6
CONTINUOUS
 62
     7
 10
75.53042691219632
 20
79.56349266292754
  0
VERTEX
  8
1
  6
CONTINUOUS
 62
     7
 10
75.51472770559914
 20
79.57803102194309
  0
VERTEX
  8
1
  6
CONTINUOUS
 62
     7
 10
75.49966280670996
 20
79.5932256847034
  0
VERTEX
  8
1
  6
CONTINUOUS
 62
     7
 10
75.48527435710231
 20
79.60903592853768
  0
VERTEX
  8
1
  6
CONTINUOUS
 62
     7
 10
75.47195507648149
 20
79.62497718654352
  0
VERTEX
  8
1
  6
CONTINUOUS
 62
     7
 10
75.45929852365971
 20
79.64147219893925
  0
VERTEX
  8
1
  6
CONTINUOUS
 62
     7
 10
75.44733654597246
 20
79.6584776345861
  0
VERTEX
  8
1
  6
CONTINUOUS
 62
     7
 10
75.43610099075529
 20
79.67595016234523
  0
VERTEX
  8
1
  6
CONTINUOUS
 62
     7
 10
75.42531022597804
 20
79.69440319286059
  0
VERTEX
  8
1
  6
CONTINUOUS
 62
     7
 10
75.41530893758511
 20
79.71331791599498
  0
VERTEX
  8
1
  6
CONTINUOUS
 62
     7
 10
75.40612340839483
 20
79.73264195710566
  0
VERTEX
  8
1
  6
CONTINUOUS
 62
     7
 10
75.39777992122558
 20
79.75232294154989
  0
VERTEX
  8
1
  6
CONTINUOUS
 62
     7
 10
75.39048862459985
 20
79.77177370569359
  0
VERTEX
  8
1
  6
CONTINUOUS
 62
     7
 10
75.38400595873908
 20
79.7915276172787
  0
VERTEX
  8
1
  6
CONTINUOUS
 62
     7
 10
75.37834762894575
 20
79.81153324847742
  0
VERTEX
  8
1
  6
CONTINUOUS
 62
     7
 10
75.37352934052232
 20
79.8317391714619
  0
VERTEX
  8
1
  6
CONTINUOUS
 62
     7
 10
75.36945528933342
 20
79.85272303485256
  0
VERTEX
  8
1
  6
CONTINUOUS
 62
     7
 10
75.36627898074069
 20
79.87388122368809
  0
VERTEX
  8
1
  6
CONTINUOUS
 62
     7
 10
75.36400787541488
 20
79.89515562080466
  0
VERTEX
  8
1
  6
CONTINUOUS
 62
     7
 10
75.36264943402674
 20
79.91648810903841
  0
VERTEX
  8
1
  6
CONTINUOUS
 62
     7
 10
75.36221035341826
 20
79.9396015298093
  0
VERTEX
  8
1
  6
CONTINUOUS
 62
     7
 10
75.36283958018002
 20
79.96271055589438
  0
VERTEX
  8
1
  6
CONTINUOUS
 62
     7
 10
75.36455631984647
 20
79.98596556910347
  0
VERTEX
  8
1
  6
CONTINUOUS
 62
     7
 10
75.36735488194459
 20
80.00911531827855
  0
SEQEND
  8
1
  6
CONTINUOUS
 62
     7
  0
ARC
  8
1
  6
CONTINUOUS
 62
     7
 10
76.64999999999996
 20
75.00000000000001
 40
4.499999999999999
 50
260.935005905853
 51
99.06499409414693
  0
POLYLINE
  8
1
  6
CONTINUOUS
 62
     7
 66
     1
  0
VERTEX
  8
1
  6
CONTINUOUS
 62
     7
 10
75.36735488194459
 20
69.99088468172145
  0
VERTEX
  8
1
  6
CONTINUOUS
 62
     7
 10
75.36481078945242
 20
70.0115004243531
  0
VERTEX
  8
1
  6
CONTINUOUS
 62
     7
 10
75.36312374783353
 20
70.0322219550556
  0
VERTEX
  8
1
  6
CONTINUOUS
 62
     7
 10
75.36229701037047
 20
70.05299560286343
  0
VERTEX
  8
1
  6
CONTINUOUS
 62
     7
 10
75.36233383034588
 20
70.07376769681098
  0
VERTEX
  8
1
  6
CONTINUOUS
 62
     7
 10
75.36327603832723
 20
70.09512224783519
  0
VERTEX
  8
1
  6
CONTINUOUS
 62
     7
 10
75.36513183743216
 20
70.11643651609253
  0
VERTEX
  8
1
  6
CONTINUOUS
 62
     7
 10
75.36789490221027
 20
70.13765225301263
  0
VERTEX
  8
1
  6
CONTINUOUS
 62
     7
 10
75.37155890721108
 20
70.15871121002507
  0
VERTEX
  8
1
  6
CONTINUOUS
 62
     7
 10
75.37598215625147
 20
70.17900692769355
  0
VERTEX
  8
1
  6
CONTINUOUS
 62
     7
 10
75.38124916603306
 20
70.19911877984477
  0
VERTEX
  8
1
  6
CONTINUOUS
 62
     7
 10
75.38734523808115
 20
70.21899504453174
  0
VERTEX
  8
1
  6
CONTINUOUS
 62
     7
 10
75.39425567392105
 20
70.23858399980752
  0
VERTEX
  8
1
  6
CONTINUOUS
 62
     7
 10
75.40221325386707
 20
70.25842288893274
  0
VERTEX
  8
1
  6
CONTINUOUS
 62
     7
 10
75.41101958535194
 20
70.2779213639517
  0
VERTEX
  8
1
  6
CONTINUOUS
 62
     7
 10
75.42064941656263
 20
70.2970265559692
  0
VERTEX
  8
1
  6
CONTINUOUS
 62
     7
 10
75.43107749568608
 20
70.31568559609005
  0
VERTEX
  8
1
  6
CONTINUOUS
 62
     7
 10
75.44196940425877
 20
70.33337316689894
  0
VERTEX
  8
1
  6
CONTINUOUS
 62
     7
 10
75.45359663978832
 20
70.35060795454862
  0
VERTEX
  8
1
  6
CONTINUOUS
 62
     7
 10
75.46592821131574
 20
70.36734602093209
  0
VERTEX
  8
1
  6
CONTINUOUS
 62
     7
 10
75.47893312788216
 20
70.3835434279423
  0
VERTEX
  8
1
  6
CONTINUOUS
 62
     7
 10
75.49300885548932
 20
70.39963006607141
  0
VERTEX
  8
1
  6
CONTINUOUS
 62
     7
 10
75.50777279460368
 20
70.41511455797244
  0
VERTEX
  8
1
  6
CONTINUOUS
 62
     7
 10
75.52318361837642
 20
70.42995537714664
  0
VERTEX
  8
1
  6
CONTINUOUS
 62
     7
 10
75.53919999995864
 20
70.44411099709524
  0
VERTEX
  8
1
  6
CONTINUOUS
 62
     7
 10
75.55533291668357
 20
70.45719673347774
  0
VERTEX
  8
1
  6
CONTINUOUS
 62
     7
 10
75.57200985104295
 20
70.46961180741702
  0
VERTEX
  8
1
  6
CONTINUOUS
 62
     7
 10
75.5891870149316
 20
70.48132501600634
  0
VERTEX
  8
1
  6
CONTINUOUS
 62
     7
 10
75.60682062024425
 20
70.49230515633893
  0
VERTEX
  8
1
  6
CONTINUOUS
 62
     7
 10
75.62542802006769
 20
70.50282632921814
  0
VERTEX
  8
1
  6
CONTINUOUS
 62
     7
 10
75.6444855372089
 20
70.51255149354135
  0
VERTEX
  8
1
  6
CONTINUOUS
 62
     7
 10
75.66394042944339
 20
70.52145514246655
  0
VERTEX
  8
1
  6
CONTINUOUS
 62
     7
 10
75.68373995454662
 20
70.52951176915175
  0
VERTEX
  8
1
  6
CONTINUOUS
 62
     7
 10
75.70329557891029
 20
70.5365203191368
  0
VERTEX
  8
1
  6
CONTINUOUS
 62
     7
 10
75.72314258427161
 20
70.54271591102685
  0
VERTEX
  8
1
  6
CONTINUOUS
 62
     7
 10
75.74322932084044
 20
70.54808359261372
  0
VERTEX
  8
1
  6
CONTINUOUS
 62
     7
 10
75.76350413882672
 20
70.55260841168923
  0
VERTEX
  8
1
  6
CONTINUOUS
 62
     7
 10
75.78454598352471
 20
70.55637778184465
  0
VERTEX
  8
1
  6
CONTINUOUS
 62
     7
 10
75.80574910859494
 20
70.55924698411562
  0
VERTEX
  8
1
  6
CONTINUOUS
 62
     7
 10
75.82705529900804
 20
70.56120940429031
  0
VERTEX
  8
1
  6
CONTINUOUS
 62
     7
 10
75.84840633973455
 20
70.56225842815685
  0
VERTEX
  8
1
  6
CONTINUOUS
 62
     7
 10
75.87153568701537
 20
70.56236218413703
  0
VERTEX
  8
1
  6
CONTINUOUS
 62
     7
 10
75.89464511283735
 20
70.56139682910643
  0
VERTEX
  8
1
  6
CONTINUOUS
 62
     7
 10
75.91788490399998
 20
70.55934093984129
  0
VERTEX
  8
1
  6
CONTINUOUS
 62
     7
 10
75.94100358349326
 20
70.55620386590692
  0
SEQEND
  8
1
  6
CONTINUOUS
 62
     7
  0
CIRCLE
  8
1
  6
CONTINUOUS
 62
     7
 10
76.64999999999996
 20
75.00000000000001
 40
1.999999999999988
  0
CIRCLE
  8
1
  6
CONTINUOUS
 62
     7
 10
76.64999999999996
 20
75.00000000000001
 40
1.699999999999993
  0
POLYLINE
  8
1
  6
CONTINUOUS
 62
     7
 66
     1
  0
VERTEX
  8
1
  6
CONTINUOUS
 62
     7
 10
75.99376204649825
 20
70.54810694778234
  0
VERTEX
  8
1
  6
CONTINUOUS
 62
     7
 10
75.97836684864536
 20
70.55013259929785
  0
VERTEX
  8
1
  6
CONTINUOUS
 62
     7
 10
75.96290123067953
 20
70.55168052347385
  0
VERTEX
  8
1
  6
CONTINUOUS
 62
     7
 10
75.93685528025476
 20
70.55319609449184
  0
VERTEX
  8
1
  6
CONTINUOUS
 62
     7
 10
75.91069435796459
 20
70.55334965400606
  0
VERTEX
  8
1
  6
CONTINUOUS
 62
     7
 10
75.88949767970004
 20
70.55246932960398
  0
VERTEX
  8
1
  6
CONTINUOUS
 62
     7
 10
75.8683193145343
 20
70.55068667353486
  0
VERTEX
  8
1
  6
CONTINUOUS
 62
     7
 10
75.84706434252503
 20
70.54798012892498
  0
VERTEX
  8
1
  6
CONTINUOUS
 62
     7
 10
75.82590607275829
 20
70.54435800698525
  0
VERTEX
  8
1
  6
CONTINUOUS
 62
     7
 10
75.81070821261726
 20
70.54117360106687
  0
VERTEX
  8
1
  6
CONTINUOUS
 62
     7
 10
75.79560203295927
 20
70.53751508059685
  0
VERTEX
  8
1
  6
CONTINUOUS
 62
     7
 10
75.7705226488756
 20
70.53032387237351
  0
VERTEX
  8
1
  6
CONTINUOUS
 62
     7
 10
75.74578561393427
 20
70.52180934378752
  0
VERTEX
  8
1
  6
CONTINUOUS
 62
     7
 10
75.72607520233741
 20
70.51396237896425
  0
VERTEX
  8
1
  6
CONTINUOUS
 62
     7
 10
75.70668075913736
 20
70.50526998419483
  0
VERTEX
  8
1
  6
CONTINUOUS
 62
     7
 10
75.68751984745575
 20
70.49568039328761
  0
VERTEX
  8
1
  6
CONTINUOUS
 62
     7
 10
75.66875326557543
 20
70.4852588173479
  0
VERTEX
  8
1
  6
CONTINUOUS
 62
     7
 10
75.65546649618214
 20
70.47722340523977
  0
VERTEX
  8
1
  6
CONTINUOUS
 62
     7
 10
75.64242317595716
 20
70.4687709543673
  0
VERTEX
  8
1
  6
CONTINUOUS
 62
     7
 10
75.6211384069007
 20
70.45368381619181
  0
VERTEX
  8
1
  6
CONTINUOUS
 62
     7
 10
75.60061472453306
 20
70.43746127898625
  0
VERTEX
  8
1
  6
CONTINUOUS
 62
     7
 10
75.5846132395832
 20
70.42353248954205
  0
VERTEX
  8
1
  6
CONTINUOUS
 62
     7
 10
75.56918976288141
 20
70.40891051814768
  0
VERTEX
  8
1
  6
CONTINUOUS
 62
     7
 10
75.55428363936744
 20
70.39351922669357
  0
VERTEX
  8
1
  6
CONTINUOUS
 62
     7
 10
75.54002501981468
 20
70.37747337962446
  0
VERTEX
  8
1
  6
CONTINUOUS
 62
     7
 10
75.52689799675113
 20
70.36138085199448
  0
VERTEX
  8
1
  6
CONTINUOUS
 62
     7
 10
75.51442962201025
 20
70.34472787270134
  0
VERTEX
  8
1
  6
CONTINUOUS
 62
     7
 10
75.50400465183634
 20
70.32960352804766
  0
VERTEX
  8
1
  6
CONTINUOUS
 62
     7
 10
75.49414208484356
 20
70.31410657429615
  0
VERTEX
  8
1
  6
CONTINUOUS
 62
     7
 10
75.4848065989847
 20
70.29817035996545
  0
VERTEX
  8
1
  6
CONTINUOUS
 62
     7
 10
75.47606585285845
 20
70.28190033907978
  0
VERTEX
  8
1
  6
CONTINUOUS
 62
     7
 10
75.47013027570878
 20
70.26995521120203
  0
VERTEX
  8
1
  6
CONTINUOUS
 62
     7
 10
75.46451539630479
 20
70.25785602588917
  0
VERTEX
  8
1
  6
CONTINUOUS
 62
     7
 10
75.45921065961028
 20
70.24557610452659
  0
VERTEX
  8
1
  6
CONTINUOUS
 62
     7
 10
75.45423627399059
 20
70.23315868983431
  0
VERTEX
  8
1
  6
CONTINUOUS
 62
     7
 10
75.44717645744007
 20
70.21362882376539
  0
VERTEX
  8
1
  6
CONTINUOUS
 62
     7
 10
75.44092363934791
 20
70.19378814045642
  0
VERTEX
  8
1
  6
CONTINUOUS
 62
     7
 10
75.43545287052625
 20
70.17350701810585
  0
VERTEX
  8
1
  6
CONTINUOUS
 62
     7
 10
75.43083844834027
 20
70.15301408413653
  0
VERTEX
  8
1
  6
CONTINUOUS
 62
     7
 10
75.427065605198
 20
70.1321970069471
  0
VERTEX
  8
1
  6
CONTINUOUS
 62
     7
 10
75.42417640300948
 20
70.11123901184416
  0
VERTEX
  8
1
  6
CONTINUOUS
 62
     7
 10
75.42216111998604
 20
70.08996660060333
  0
VERTEX
  8
1
  6
CONTINUOUS
 62
     7
 10
75.42105540349917
 20
70.06858836499116
  0
VERTEX
  8
1
  6
CONTINUOUS
 62
     7
 10
75.42086978037155
 20
70.04687345749629
  0
VERTEX
  8
1
  6
CONTINUOUS
 62
     7
 10
75.42162958248566
 20
70.02512992679031
  0
VERTEX
  8
1
  6
CONTINUOUS
 62
     7
 10
75.42334292988423
 20
70.00335740837066
  0
VERTEX
  8
1
  6
CONTINUOUS
 62
     7
 10
75.42601146994097
 20
69.98163909688759
  0
SEQEND
  8
1
  6
CONTINUOUS
 62
     7
  0
POLYLINE
  8
1
  6
CONTINUOUS
 62
     7
 66
     1
  0
VERTEX
  8
1
  6
CONTINUOUS
 62
     7
 10
75.42601146994097
 20
80.01836090311241
  0
VERTEX
  8
1
  6
CONTINUOUS
 62
     7
 10
75.42402008036673
 20
80.00296297608536
  0
VERTEX
  8
1
  6
CONTINUOUS
 62
     7
 10
75.4225065219053
 20
79.98749569261213
  0
VERTEX
  8
1
  6
CONTINUOUS
 62
     7
 10
75.42104871005164
 20
79.96144934707262
  0
VERTEX
  8
1
  6
CONTINUOUS
 62
     7
 10
75.42095302009069
 20
79.93529105296172
  0
VERTEX
  8
1
  6
CONTINUOUS
 62
     7
 10
75.4218801272055
 20
79.91409872242566
  0
VERTEX
  8
1
  6
CONTINUOUS
 62
     7
 10
75.42370942997941
 20
79.89292669867028
  0
VERTEX
  8
1
  6
CONTINUOUS
 62
     7
 10
75.42646269163039
 20
79.87168011892028
  0
VERTEX
  8
1
  6
CONTINUOUS
 62
     7
 10
75.43013121606229
 20
79.85053225626054
  0
VERTEX
  8
1
  6
CONTINUOUS
 62
     7
 10
75.43454129747809
 20
79.83023955070882
  0
VERTEX
  8
1
  6
CONTINUOUS
 62
     7
 10
75.43980004538875
 20
79.81011290244241
  0
VERTEX
  8
1
  6
CONTINUOUS
 62
     7
 10
75.44595527646588
 20
79.79002928370464
  0
VERTEX
  8
1
  6
CONTINUOUS
 62
     7
 10
75.45294829415248
 20
79.77022180239663
  0
VERTEX
  8
1
  6
CONTINUOUS
 62
     7
 10
75.46082633941124
 20
79.75058748687813
  0
VERTEX
  8
1
  6
CONTINUOUS
 62
     7
 10
75.46952757032174
 20
79.73130385327346
  0
VERTEX
  8
1
  6
CONTINUOUS
 62
     7
 10
75.47913603336609
 20
79.71221882160539
  0
VERTEX
  8
1
  6
CONTINUOUS
 62
     7
 10
75.48957096375352
 20
79.6935279739754
  0
VERTEX
  8
1
  6
CONTINUOUS
 62
     7
 10
75.50044945276716
 20
79.67583887347119
  0
VERTEX
  8
1
  6
CONTINUOUS
 62
     7
 10
75.51207379277545
 20
79.65858737600725
  0
VERTEX
  8
1
  6
CONTINUOUS
 62
     7
 10
75.52292672140884
 20
79.64376827205419
  0
VERTEX
  8
1
  6
CONTINUOUS
 62
     7
 10
75.53431646432382
 20
79.62935766278892
  0
VERTEX
  8
1
  6
CONTINUOUS
 62
     7
 10
75.54629433150463
 20
79.6153002738437
  0
VERTEX
  8
1
  6
CONTINUOUS
 62
     7
 10
75.55878300340436
 20
79.60169466611589
  0
VERTEX
  8
1
  6
CONTINUOUS
 62
     7
 10
75.56811034949679
 20
79.59216056360337
  0
VERTEX
  8
1
  6
CONTINUOUS
 62
     7
 10
75.57768863857306
 20
79.58287859859122
  0
VERTEX
  8
1
  6
CONTINUOUS
 62
     7
 10
75.58753958593283
 20
79.57383003046961
  0
VERTEX
  8
1
  6
CONTINUOUS
 62
     7
 10
75.59762900991068
 20
79.56504815862978
  0
VERTEX
  8
1
  6
CONTINUOUS
 62
     7
 10
75.60963037444745
 20
79.55519705066816
  0
VERTEX
  8
1
  6
CONTINUOUS
 62
     7
 10
75.62194384454251
 20
79.54571435724507
  0
VERTEX
  8
1
  6
CONTINUOUS
 62
     7
 10
75.64325758058682
 20
79.53067093624558
  0
VERTEX
  8
1
  6
CONTINUOUS
 62
     7
 10
75.66538828201293
 20
79.51672317357242
  0
VERTEX
  8
1
  6
CONTINUOUS
 62
     7
 10
75.68385014835356
 20
79.50627516354169
  0
VERTEX
  8
1
  6
CONTINUOUS
 62
     7
 10
75.7027730303765
 20
79.49660291271086
  0
VERTEX
  8
1
  6
CONTINUOUS
 62
     7
 10
75.7222488950954
 20
79.48767458543385
  0
VERTEX
  8
1
  6
CONTINUOUS
 62
     7
 10
75.74212621438599
 20
79.47957464882774
  0
VERTEX
  8
1
  6
CONTINUOUS
 62
     7
 10
75.75671232899964
 20
79.47425096012813
  0
VERTEX
  8
1
  6
CONTINUOUS
 62
     7
 10
75.77147102145706
 20
79.46937824250983
  0
VERTEX
  8
1
  6
CONTINUOUS
 62
     7
 10
75.7965636395757
 20
79.46223716575922
  0
VERTEX
  8
1
  6
CONTINUOUS
 62
     7
 10
75.822064536568
 20
79.4564004542014
  0
VERTEX
  8
1
  6
CONTINUOUS
 62
     7
 10
75.84294482433337
 20
79.45265195709086
  0
VERTEX
  8
1
  6
CONTINUOUS
 62
     7
 10
75.86400337969881
 20
79.44978812679166
  0
VERTEX
  8
1
  6
CONTINUOUS
 62
     7
 10
75.88533752843547
 20
79.44780936468221
  0
VERTEX
  8
1
  6
CONTINUOUS
 62
     7
 10
75.90677631678497
 20
79.44674522583692
  0
VERTEX
  8
1
  6
CONTINUOUS
 62
     7
 10
75.92850337269508
 20
79.44660610945982
  0
VERTEX
  8
1
  6
CONTINUOUS
 62
     7
 10
75.95025705819067
 20
79.44741339470481
  0
VERTEX
  8
1
  6
CONTINUOUS
 62
     7
 10
75.97203772117444
 20
79.44917521796086
  0
VERTEX
  8
1
  6
CONTINUOUS
 62
     7
 10
75.99376204649825
 20
79.45189305221767
  0
SEQEND
  8
1
  6
CONTINUOUS
 62
     7
  0
POLYLINE
  8
1
  6
CONTINUOUS
 62
     7
 66
     1
  0
VERTEX
  8
1
  6
CONTINUOUS
 62
     7
 10
144.0589964165067
 20
70.55620386590692
  0
VERTEX
  8
1
  6
CONTINUOUS
 62
     7
 10
144.0795751919531
 20
70.55904845997684
  0
VERTEX
  8
1
  6
CONTINUOUS
 62
     7
 10
144.1002722475037
 20
70.5610375445219
  0
VERTEX
  8
1
  6
CONTINUOUS
 62
     7
 10
144.1210339598957
 20
70.5621670851345
  0
VERTEX
  8
1
  6
CONTINUOUS
 62
     7
 10
144.1418067058665
 20
70.5624330474071
  0
VERTEX
  8
1
  6
CONTINUOUS
 62
     7
 10
144.1631751017157
 20
70.56180211478129
  0
VERTEX
  8
1
  6
CONTINUOUS
 62
     7
 10
144.1845165320406
 20
70.56025700578424
  0
VERTEX
  8
1
  6
CONTINUOUS
 62
     7
 10
144.2057726562011
 20
70.55780319488882
  0
VERTEX
  8
1
  6
CONTINUOUS
 62
     7
 10
144.2268851335569
 20
70.55444615656793
  0
VERTEX
  8
1
  6
CONTINUOUS
 62
     7
 10
144.2472454455186
 20
70.55031874247021
  0
VERTEX
  8
1
  6
CONTINUOUS
 62
     7
 10
144.2674341901409
 20
70.54534487866235
  0
VERTEX
  8
1
  6
CONTINUOUS
 62
     7
 10
144.2873994287852
 20
70.53953850579126
  0
VERTEX
  8
1
  6
CONTINUOUS
 62
     7
 10
144.3070892228126
 20
70.53291356450389
  0
VERTEX
  8
1
  6
CONTINUOUS
 62
     7
 10
144.327044231264
 20
70.52524508971524
  0
VERTEX
  8
1
  6
CONTINUOUS
 62
     7
 10
144.3466711848444
 20
70.51672287112548
  0
VERTEX
  8
1
  6
CONTINUOUS
 62
     7
 10
144.3659168393971
 20
70.50737138556116
  0
VERTEX
  8
1
  6
CONTINUOUS
 62
     7
 10
144.384727950766
 20
70.49721510984885
  0
VERTEX
  8
1
  6
CONTINUOUS
 62
     7
 10
144.4025739093903
 20
70.48658106320691
  0
VERTEX
  8
1
  6
CONTINUOUS
 62
     7
 10
144.4199777880256
 20
70.47520507645122
  0
VERTEX
  8
1
  6
CONTINUOUS
 62
     7
 10
144.4368951891076
 20
70.46311749635025
  0
VERTEX
  8
1
  6
CONTINUOUS
 62
     7
 10
144.4532817150719
 20
70.45034866967252
  0
VERTEX
  8
1
  6
CONTINUOUS
 62
     7
 10
144.4695730878036
 20
70.43650733707248
  0
VERTEX
  8
1
  6
CONTINUOUS
 62
     7
 10
144.4852722944008
 20
70.42196897805694
  0
VERTEX
  8
1
  6
CONTINUOUS
 62
     7
 10
144.50033719329
 20
70.40677431529664
  0
VERTEX
  8
1
  6
CONTINUOUS
 62
     7
 10
144.5147256428977
 20
70.39096407146234
  0
VERTEX
  8
1
  6
CONTINUOUS
 62
     7
 10
144.5280449235185
 20
70.37502281345651
  0
VERTEX
  8
1
  6
CONTINUOUS
 62
     7
 10
144.5407014763403
 20
70.35852780106076
  0
VERTEX
  8
1
  6
CONTINUOUS
 62
     7
 10
144.5526634540275
 20
70.34152236541392
  0
VERTEX
  8
1
  6
CONTINUOUS
 62
     7
 10
144.5638990092447
 20
70.32404983765481
  0
VERTEX
  8
1
  6
CONTINUOUS
 62
     7
 10
144.5746897740219
 20
70.30559680713944
  0
VERTEX
  8
1
  6
CONTINUOUS
 62
     7
 10
144.5846910624148
 20
70.28668208400504
  0
VERTEX
  8
1
  6
CONTINUOUS
 62
     7
 10
144.5938765916051
 20
70.26735804289437
  0
VERTEX
  8
1
  6
CONTINUOUS
 62
     7
 10
144.6022200787744
 20
70.24767705845012
  0
VERTEX
  8
1
  6
CONTINUOUS
 62
     7
 10
144.6095113754001
 20
70.22822629430644
  0
VERTEX
  8
1
  6
CONTINUOUS
 62
     7
 10
144.6159940412609
 20
70.20847238272133
  0
VERTEX
  8
1
  6
CONTINUOUS
 62
     7
 10
144.6216523710542
 20
70.1884667515226
  0
VERTEX
  8
1
  6
CONTINUOUS
 62
     7
 10
144.6264706594776
 20
70.16826082853811
  0
VERTEX
  8
1
  6
CONTINUOUS
 62
     7
 10
144.6305447106666
 20
70.14727696514747
  0
VERTEX
  8
1
  6
CONTINUOUS
 62
     7
 10
144.6337210192593
 20
70.12611877631193
  0
VERTEX
  8
1
  6
CONTINUOUS
 62
     7
 10
144.635992124585
 20
70.10484437919537
  0
VERTEX
  8
1
  6
CONTINUOUS
 62
     7
 10
144.6373505659732
 20
70.0835118909616
  0
VERTEX
  8
1
  6
CONTINUOUS
 62
     7
 10
144.6377896465817
 20
70.06039847019073
  0
VERTEX
  8
1
  6
CONTINUOUS
 62
     7
 10
144.6371604198199
 20
70.03728944410565
  0
VERTEX
  8
1
  6
CONTINUOUS
 62
     7
 10
144.6354436801535
 20
70.01403443089654
  0
VERTEX
  8
1
  6
CONTINUOUS
 62
     7
 10
144.6326451180554
 20
69.99088468172147
  0
SEQEND
  8
1
  6
CONTINUOUS
 62
     7
  0
ARC
  8
1
  6
CONTINUOUS
 62
     7
 10
143.35
 20
75.00000000000001
 40
4.499999999999999
 50
80.93500590585302
 51
279.0649940941469
  0
POLYLINE
  8
1
  6
CONTINUOUS
 62
     7
 66
     1
  0
VERTEX
  8
1
  6
CONTINUOUS
 62
     7
 10
144.6326451180554
 20
80.00911531827855
  0
VERTEX
  8
1
  6
CONTINUOUS
 62
     7
 10
144.6351892105475
 20
79.98849957564693
  0
VERTEX
  8
1
  6
CONTINUOUS
 62
     7
 10
144.6368762521664
 20
79.96777804494441
  0
VERTEX
  8
1
  6
CONTINUOUS
 62
     7
 10
144.6377029896295
 20
79.94700439713658
  0
VERTEX
  8
1
  6
CONTINUOUS
 62
     7
 10
144.6376661696541
 20
79.92623230318902
  0
VERTEX
  8
1
  6
CONTINUOUS
 62
     7
 10
144.6367239616727
 20
79.90487775216482
  0
VERTEX
  8
1
  6
CONTINUOUS
 62
     7
 10
144.6348681625678
 20
79.88356348390747
  0
VERTEX
  8
1
  6
CONTINUOUS
 62
     7
 10
144.6321050977897
 20
79.86234774698738
  0
VERTEX
  8
1
  6
CONTINUOUS
 62
     7
 10
144.6284410927889
 20
79.84128878997494
  0
VERTEX
  8
1
  6
CONTINUOUS
 62
     7
 10
144.6240178437485
 20
79.82099307230646
  0
VERTEX
  8
1
  6
CONTINUOUS
 62
     7
 10
144.6187508339669
 20
79.80088122015525
  0
VERTEX
  8
1
  6
CONTINUOUS
 62
     7
 10
144.6126547619188
 20
79.78100495546826
  0
VERTEX
  8
1
  6
CONTINUOUS
 62
     7
 10
144.6057443260789
 20
79.7614160001925
  0
VERTEX
  8
1
  6
CONTINUOUS
 62
     7
 10
144.5977867461329
 20
79.74157711106726
  0
VERTEX
  8
1
  6
CONTINUOUS
 62
     7
 10
144.588980414648
 20
79.72207863604831
  0
VERTEX
  8
1
  6
CONTINUOUS
 62
     7
 10
144.5793505834374
 20
79.70297344403082
  0
VERTEX
  8
1
  6
CONTINUOUS
 62
     7
 10
144.5689225043139
 20
79.68431440390995
  0
VERTEX
  8
1
  6
CONTINUOUS
 62
     7
 10
144.5580305957412
 20
79.66662683310108
  0
VERTEX
  8
1
  6
CONTINUOUS
 62
     7
 10
144.5464033602117
 20
79.64939204545139
  0
VERTEX
  8
1
  6
CONTINUOUS
 62
     7
 10
144.5340717886842
 20
79.63265397906794
  0
VERTEX
  8
1
  6
CONTINUOUS
 62
     7
 10
144.5210668721178
 20
79.6164565720577
  0
VERTEX
  8
1
  6
CONTINUOUS
 62
     7
 10
144.5069911445107
 20
79.6003699339286
  0
VERTEX
  8
1
  6
CONTINUOUS
 62
     7
 10
144.4922272053963
 20
79.58488544202757
  0
VERTEX
  8
1
  6
CONTINUOUS
 62
     7
 10
144.4768163816236
 20
79.57004462285337
  0
VERTEX
  8
1
  6
CONTINUOUS
 62
     7
 10
144.4608000000413
 20
79.55588900290478
  0
VERTEX
  8
1
  6
CONTINUOUS
 62
     7
 10
144.4446670833164
 20
79.54280326652227
  0
VERTEX
  8
1
  6
CONTINUOUS
 62
     7
 10
144.427990148957
 20
79.53038819258299
  0
VERTEX
  8
1
  6
CONTINUOUS
 62
     7
 10
144.4108129850684
 20
79.51867498399368
  0
VERTEX
  8
1
  6
CONTINUOUS
 62
     7
 10
144.3931793797557
 20
79.50769484366107
  0
VERTEX
  8
1
  6
CONTINUOUS
 62
     7
 10
144.3745719799323
 20
79.49717367078186
  0
VERTEX
  8
1
  6
CONTINUOUS
 62
     7
 10
144.3555144627911
 20
79.48744850645866
  0
VERTEX
  8
1
  6
CONTINUOUS
 62
     7
 10
144.3360595705566
 20
79.47854485753346
  0
VERTEX
  8
1
  6
CONTINUOUS
 62
     7
 10
144.3162600454534
 20
79.47048823084826
  0
VERTEX
  8
1
  6
CONTINUOUS
 62
     7
 10
144.2967044210897
 20
79.46347968086322
  0
VERTEX
  8
1
  6
CONTINUOUS
 62
     7
 10
144.2768574157284
 20
79.45728408897318
  0
VERTEX
  8
1
  6
CONTINUOUS
 62
     7
 10
144.2567706791595
 20
79.4519164073863
  0
VERTEX
  8
1
  6
CONTINUOUS
 62
     7
 10
144.2364958611733
 20
79.44739158831078
  0
VERTEX
  8
1
  6
CONTINUOUS
 62
     7
 10
144.2154540164753
 20
79.44362221815537
  0
VERTEX
  8
1
  6
CONTINUOUS
 62
     7
 10
144.194250891405
 20
79.44075301588441
  0
VERTEX
  8
1
  6
CONTINUOUS
 62
     7
 10
144.1729447009919
 20
79.4387905957097
  0
VERTEX
  8
1
  6
CONTINUOUS
 62
     7
 10
144.1515936602654
 20
79.43774157184316
  0
VERTEX
  8
1
  6
CONTINUOUS
 62
     7
 10
144.1284643129846
 20
79.437637815863
  0
VERTEX
  8
1
  6
CONTINUOUS
 62
     7
 10
144.1053548871626
 20
79.43860317089359
  0
VERTEX
  8
1
  6
CONTINUOUS
 62
     7
 10
144.082115096
 20
79.44065906015871
  0
VERTEX
  8
1
  6
CONTINUOUS
 62
     7
 10
144.0589964165067
 20
79.44379613409309
  0
SEQEND
  8
1
  6
CONTINUOUS
 62
     7
  0
CIRCLE
  8
1
  6
CONTINUOUS
 62
     7
 10
143.35
 20
75.00000000000001
 40
1.999999999999988
  0
CIRCLE
  8
1
  6
CONTINUOUS
 62
     7
 10
143.35
 20
75.00000000000001
 40
1.699999999999993
  0
POLYLINE
  8
1
  6
CONTINUOUS
 62
     7
 66
     1
  0
VERTEX
  8
1
  6
CONTINUOUS
 62
     7
 10
144.0062379535017
 20
79.45189305221767
  0
VERTEX
  8
1
  6
CONTINUOUS
 62
     7
 10
144.0267685709239
 20
79.44929953002804
  0
VERTEX
  8
1
  6
CONTINUOUS
 62
     7
 10
144.0474603460999
 20
79.44755314632384
  0
VERTEX
  8
1
  6
CONTINUOUS
 62
     7
 10
144.0682427043427
 20
79.44666657062912
  0
VERTEX
  8
1
  6
CONTINUOUS
 62
     7
 10
144.0893056420354
 20
79.44665034599396
  0
VERTEX
  8
1
  6
CONTINUOUS
 62
     7
 10
144.110388000786
 20
79.44752350374384
  0
VERTEX
  8
1
  6
CONTINUOUS
 62
     7
 10
144.1316806854657
 20
79.44931332646516
  0
VERTEX
  8
1
  6
CONTINUOUS
 62
     7
 10
144.1529161882756
 20
79.4520169671679
  0
VERTEX
  8
1
  6
CONTINUOUS
 62
     7
 10
144.1740939272417
 20
79.45564199301478
  0
VERTEX
  8
1
  6
CONTINUOUS
 62
     7
 10
144.189299090951
 20
79.45882810778716
  0
VERTEX
  8
1
  6
CONTINUOUS
 62
     7
 10
144.2043979670407
 20
79.46248491940318
  0
VERTEX
  8
1
  6
CONTINUOUS
 62
     7
 10
144.21943390083
 20
79.46662606673554
  0
VERTEX
  8
1
  6
CONTINUOUS
 62
     7
 10
144.2343334108666
 20
79.47123399537534
  0
VERTEX
  8
1
  6
CONTINUOUS
 62
     7
 10
144.2542143860657
 20
79.47819065621248
  0
VERTEX
  8
1
  6
CONTINUOUS
 62
     7
 10
144.2738192892441
 20
79.48599301537088
  0
VERTEX
  8
1
  6
CONTINUOUS
 62
     7
 10
144.2933192408626
 20
79.49473001580519
  0
VERTEX
  8
1
  6
CONTINUOUS
 62
     7
 10
144.312462740981
 20
79.50431042140411
  0
VERTEX
  8
1
  6
CONTINUOUS
 62
     7
 10
144.3312467344246
 20
79.51474118265212
  0
VERTEX
  8
1
  6
CONTINUOUS
 62
     7
 10
144.3489763674662
 20
79.52559147403854
  0
VERTEX
  8
1
  6
CONTINUOUS
 62
     7
 10
144.3662399249768
 20
79.53716896472059
  0
VERTEX
  8
1
  6
CONTINUOUS
 62
     7
 10
144.3831226837173
 20
79.5495426978851
  0
VERTEX
  8
1
  6
CONTINUOUS
 62
     7
 10
144.399473004918
 20
79.56261189101579
  0
VERTEX
  8
1
  6
CONTINUOUS
 62
     7
 10
144.4115247892523
 20
79.57299555745641
  0
VERTEX
  8
1
  6
CONTINUOUS
 62
     7
 10
144.4232402378109
 20
79.58375726265574
  0
VERTEX
  8
1
  6
CONTINUOUS
 62
     7
 10
144.4346529459561
 20
79.59493242780124
  0
VERTEX
  8
1
  6
CONTINUOUS
 62
     7
 10
144.445702970777
 20
79.60646634188274
  0
VERTEX
  8
1
  6
CONTINUOUS
 62
     7
 10
144.4599749801853
 20
79.62252662037555
  0
VERTEX
  8
1
  6
CONTINUOUS
 62
     7
 10
144.4731129243354
 20
79.63863342249958
  0
VERTEX
  8
1
  6
CONTINUOUS
 62
     7
 10
144.4855703779897
 20
79.65527212729869
  0
VERTEX
  8
1
  6
CONTINUOUS
 62
     7
 10
144.4974049540469
 20
79.67253610973604
  0
VERTEX
  8
1
  6
CONTINUOUS
 62
     7
 10
144.5085069285248
 20
79.69028007887232
  0
VERTEX
  8
1
  6
CONTINUOUS
 62
     7
 10
144.5164417845149
 20
79.70406717859566
  0
VERTEX
  8
1
  6
CONTINUOUS
 62
     7
 10
144.5239341471415
 20
79.71809966092023
  0
VERTEX
  8
1
  6
CONTINUOUS
 62
     7
 10
144.5310039923605
 20
79.73242206830042
  0
VERTEX
  8
1
  6
CONTINUOUS
 62
     7
 10
144.5376128695393
 20
79.74696293507772
  0
VERTEX
  8
1
  6
CONTINUOUS
 62
     7
 10
144.5457637260094
 20
79.7668413101657
  0
VERTEX
  8
1
  6
CONTINUOUS
 62
     7
 10
144.552829122541
 20
79.7863882600992
  0
VERTEX
  8
1
  6
CONTINUOUS
 62
     7
 10
144.5590763606521
 20
79.80621185954361
  0
VERTEX
  8
1
  6
CONTINUOUS
 62
     7
 10
144.5645288974588
 20
79.82641928287777
  0
VERTEX
  8
1
  6
CONTINUOUS
 62
     7
 10
144.5691312943981
 20
79.84683711962262
  0
VERTEX
  8
1
  6
CONTINUOUS
 62
     7
 10
144.5720549765808
 20
79.86247295405005
  0
VERTEX
  8
1
  6
CONTINUOUS
 62
     7
 10
144.5744799148616
 20
79.87819386083214
  0
VERTEX
  8
1
  6
CONTINUOUS
 62
     7
 10
144.5764102158122
 20
79.89404847933017
  0
VERTEX
  8
1
  6
CONTINUOUS
 62
     7
 10
144.5778332549749
 20
79.90995665172915
  0
VERTEX
  8
1
  6
CONTINUOUS
 62
     7
 10
144.5789445965008
 20
79.93141163500884
  0
VERTEX
  8
1
  6
CONTINUOUS
 62
     7
 10
144.5791302196284
 20
79.95312654250374
  0
VERTEX
  8
1
  6
CONTINUOUS
 62
     7
 10
144.5783704175143
 20
79.9748700732097
  0
VERTEX
  8
1
  6
CONTINUOUS
 62
     7
 10
144.5766570701157
 20
79.99664259162937
  0
VERTEX
  8
1
  6
CONTINUOUS
 62
     7
 10
144.573988530059
 20
80.01836090311241
  0
SEQEND
  8
1
  6
CONTINUOUS
 62
     7
  0
POLYLINE
  8
1
  6
CONTINUOUS
 62
     7
 66
     1
  0
VERTEX
  8
1
  6
CONTINUOUS
 62
     7
 10
144.573988530059
 20
69.9816390968876
  0
VERTEX
  8
1
  6
CONTINUOUS
 62
     7
 10
144.5765363732012
 20
70.00217311541056
  0
VERTEX
  8
1
  6
CONTINUOUS
 62
     7
 10
144.578236813208
 20
70.02286640191616
  0
VERTEX
  8
1
  6
CONTINUOUS
 62
     7
 10
144.5790773364324
 20
70.04364836108334
  0
VERTEX
  8
1
  6
CONTINUOUS
 62
     7
 10
144.5790469799093
 20
70.06470894703828
  0
VERTEX
  8
1
  6
CONTINUOUS
 62
     7
 10
144.5781272916023
 20
70.08578698533607
  0
VERTEX
  8
1
  6
CONTINUOUS
 62
     7
 10
144.5762905700205
 20
70.10707330132975
  0
VERTEX
  8
1
  6
CONTINUOUS
 62
     7
 10
144.5735402550585
 20
70.12830042026921
  0
VERTEX
  8
1
  6
CONTINUOUS
 62
     7
 10
144.5698687839377
 20
70.14946774373948
  0
VERTEX
  8
1
  6
CONTINUOUS
 62
     7
 10
144.5654543405274
 20
70.16977788316852
  0
VERTEX
  8
1
  6
CONTINUOUS
 62
     7
 10
144.5601999546112
 20
70.1898870975576
  0
VERTEX
  8
1
  6
CONTINUOUS
 62
     7
 10
144.5540684854161
 20
70.20989861451989
  0
VERTEX
  8
1
  6
CONTINUOUS
 62
     7
 10
144.5471052287398
 20
70.22963611139716
  0
VERTEX
  8
1
  6
CONTINUOUS
 62
     7
 10
144.5412640848336
 20
70.2444313701507
  0
VERTEX
  8
1
  6
CONTINUOUS
 62
     7
 10
144.5349553746394
 20
70.25903338438577
  0
VERTEX
  8
1
  6
CONTINUOUS
 62
     7
 10
144.5281567059818
 20
70.27348552347665
  0
VERTEX
  8
1
  6
CONTINUOUS
 62
     7
 10
144.5209000246596
 20
70.28771320060275
  0
VERTEX
  8
1
  6
CONTINUOUS
 62
     7
 10
144.5104290362464
 20
70.3064720260246
  0
VERTEX
  8
1
  6
CONTINUOUS
 62
     7
 10
144.4995406607497
 20
70.32417613336838
  0
VERTEX
  8
1
  6
CONTINUOUS
 62
     7
 10
144.4879262072245
 20
70.34141262399275
  0
VERTEX
  8
1
  6
CONTINUOUS
 62
     7
 10
144.4755164645659
 20
70.35826661129097
  0
VERTEX
  8
1
  6
CONTINUOUS
 62
     7
 10
144.4624125369335
 20
70.37458671189042
  0
VERTEX
  8
1
  6
CONTINUOUS
 62
     7
 10
144.4520033849614
 20
70.38661457670506
  0
VERTEX
  8
1
  6
CONTINUOUS
 62
     7
 10
144.4412169965956
 20
70.39830533388412
  0
VERTEX
  8
1
  6
CONTINUOUS
 62
     7
 10
144.4300178893392
 20
70.40969249506504
  0
VERTEX
  8
1
  6
CONTINUOUS
 62
     7
 10
144.4184608939478
 20
70.42071625582469
  0
VERTEX
  8
1
  6
CONTINUOUS
 62
     7
 10
144.4023709900893
 20
70.43495184137024
  0
VERTEX
  8
1
  6
CONTINUOUS
 62
     7
 10
144.3862359282907
 20
70.44805436060427
  0
VERTEX
  8
1
  6
CONTINUOUS
 62
     7
 10
144.3695704857889
 20
70.46047528079194
  0
VERTEX
  8
1
  6
CONTINUOUS
 62
     7
 10
144.3522811807892
 20
70.47227201029514
  0
VERTEX
  8
1
  6
CONTINUOUS
 62
     7
 10
144.3345135268228
 20
70.48333516398296
  0
VERTEX
  8
1
  6
CONTINUOUS
 62
     7
 10
144.3207095770752
 20
70.49123989730725
  0
VERTEX
  8
1
  6
CONTINUOUS
 62
     7
 10
144.3066612319797
 20
70.49870165569853
  0
VERTEX
  8
1
  6
CONTINUOUS
 62
     7
 10
144.2923239169994
 20
70.5057403174392
  0
VERTEX
  8
1
  6
CONTINUOUS
 62
     7
 10
144.2777691670992
 20
70.5123175977221
  0
VERTEX
  8
1
  6
CONTINUOUS
 62
     7
 10
144.257873785614
 20
70.52042535117228
  0
VERTEX
  8
1
  6
CONTINUOUS
 62
     7
 10
144.2432805675251
 20
70.52575144652553
  0
VERTEX
  8
1
  6
CONTINUOUS
 62
     7
 10
144.2285289785429
 20
70.53062175749017
  0
VERTEX
  8
1
  6
CONTINUOUS
 62
     7
 10
144.2135750151832
 20
70.5350476005808
  0
VERTEX
  8
1
  6
CONTINUOUS
 62
     7
 10
144.1984903366929
 20
70.5390050723144
  0
VERTEX
  8
1
  6
CONTINUOUS
 62
     7
 10
144.177935463432
 20
70.54359954579861
  0
VERTEX
  8
1
  6
CONTINUOUS
 62
     7
 10
144.1571683081152
 20
70.54733018805622
  0
VERTEX
  8
1
  6
CONTINUOUS
 62
     7
 10
144.1359966203012
 20
70.55021187320834
  0
VERTEX
  8
1
  6
CONTINUOUS
 62
     7
 10
144.1146821040997
 20
70.55218923747672
  0
VERTEX
  8
1
  6
CONTINUOUS
 62
     7
 10
144.093223683215
 20
70.55325477416311
  0
VERTEX
  8
1
  6
CONTINUOUS
 62
     7
 10
144.0714966273049
 20
70.5533938905402
  0
VERTEX
  8
1
  6
CONTINUOUS
 62
     7
 10
144.0497429418093
 20
70.55258660529519
  0
VERTEX
  8
1
  6
CONTINUOUS
 62
     7
 10
144.0279622788255
 20
70.55082478203917
  0
VERTEX
  8
1
  6
CONTINUOUS
 62
     7
 10
144.0062379535017
 20
70.54810694778234
  0
SEQEND
  8
1
  6
CONTINUOUS
 62
     7
  0
ARC
  8
1
  6
CONTINUOUS
 62
     7
 10
110.0
 20
107.55
 40
3.999999999999999
 50
145.2086980613688
 51
34.79130193863125
  0
ARC
  8
1
  6
CONTINUOUS
 62
     7
 10
110.0
 20
42.45000000000002
 40
4.000000000000004
 50
325.2086980613688
 51
214.7913019386312
  0
POLYLINE
  8
1
  6
CONTINUOUS
 62
     9
 66
     1
  0
VERTEX
  8
1
  6
CONTINUOUS
 62
     9
 10
102.8523092298263
 20
41.03351705256742
  0
VERTEX
  8
1
  6
CONTINUOUS
 62
     9
 10
102.9918453891047
 20
41.0176068621836
  0
VERTEX
  8
1
  6
CONTINUOUS
 62
     9
 10
103.1319040890445
 20
41.02799110920637
  0
VERTEX
  8
1
  6
CONTINUOUS
 62
     9
 10
103.2675737212259
 20
41.06430563664205
  0
VERTEX
  8
1
  6
CONTINUOUS
 62
     9
 10
103.3940965939952
 20
41.12527695888217
  0
VERTEX
  8
1
  6
CONTINUOUS
 62
     9
 10
103.5070357762124
 20
41.20876692056896
  0
VERTEX
  8
1
  6
CONTINUOUS
 62
     9
 10
103.6024306925007
 20
41.31184767788434
  0
VERTEX
  8
1
  6
CONTINUOUS
 62
     9
 10
103.6769360135499
 20
41.4309043728026
  0
VERTEX
  8
1
  6
CONTINUOUS
 62
     9
 10
103.7279389708399
 20
41.56176189970416
  0
VERTEX
  8
1
  6
CONTINUOUS
 62
     9
 10
103.753650981765
 20
41.69983131887162
  0
VERTEX
  8
1
  6
CONTINUOUS
 62
     9
 10
103.7531703720317
 20
41.84027078240842
  0
SEQEND
  8
1
  6
CONTINUOUS
 62
     9
  0
POLYLINE
  8
1
  6
CONTINUOUS
 62
     7
 66
     1
  0
VERTEX
  8
1
  6
CONTINUOUS
 62
     7
 10
103.7988989960599
 20
108.2052639518291
  0
VERTEX
  8
1
  6
CONTINUOUS
 62
     7
 10
103.8015227746639
 20
108.2362187553648
  0
VERTEX
  8
1
  6
CONTINUOUS
 62
     7
 10
103.8028630656559
 20
108.2672556315205
  0
VERTEX
  8
1
  6
CONTINUOUS
 62
     7
 10
103.8029123160714
 20
108.298537158105
  0
VERTEX
  8
1
  6
CONTINUOUS
 62
     7
 10
103.8016577452089
 20
108.3297935553298
  0
VERTEX
  8
1
  6
CONTINUOUS
 62
     7
 10
103.7990302740487
 20
108.3616474870195
  0
VERTEX
  8
1
  6
CONTINUOUS
 62
     7
 10
103.7950486687959
 20
108.3933606289509
  0
VERTEX
  8
1
  6
CONTINUOUS
 62
     7
 10
103.7896747140718
 20
108.4251062743775
  0
VERTEX
  8
1
  6
CONTINUOUS
 62
     7
 10
103.7829438293206
 20
108.4565921532139
  0
VERTEX
  8
1
  6
CONTINUOUS
 62
     7
 10
103.7751737098367
 20
108.4866705469349
  0
VERTEX
  8
1
  6
CONTINUOUS
 62
     7
 10
103.7661651517503
 20
108.5164015138427
  0
VERTEX
  8
1
  6
CONTINUOUS
 62
     7
 10
103.7558572009252
 20
108.5459359999242
  0
VERTEX
  8
1
  6
CONTINUOUS
 62
     7
 10
103.7443271143599
 20
108.575015147253
  0
VERTEX
  8
1
  6
CONTINUOUS
 62
     7
 10
103.7313035380432
 20
108.6042037755525
  0
VERTEX
  8
1
  6
CONTINUOUS
 62
     7
 10
103.7170486348149
 20
108.6328112445724
  0
VERTEX
  8
1
  6
CONTINUOUS
 62
     7
 10
103.7014689642732
 20
108.6609884614693
  0
VERTEX
  8
1
  6
CONTINUOUS
 62
     7
 10
103.6846947296215
 20
108.6884713057121
  0
VERTEX
  8
1
  6
CONTINUOUS
 62
     7
 10
103.6674070969547
 20
108.7142798764248
  0
VERTEX
  8
1
  6
CONTINUOUS
 62
     7
 10
103.6490659286894
 20
108.7393506982221
  0
VERTEX
  8
1
  6
CONTINUOUS
 62
     7
 10
103.6295637545757
 20
108.7638060248483
  0
VERTEX
  8
1
  6
CONTINUOUS
 62
     7
 10
103.6090591608216
 20
108.7874271896414
  0
VERTEX
  8
1
  6
CONTINUOUS
 62
     7
 10
103.5871091727631
 20
108.8106573042902
  0
VERTEX
  8
1
  6
CONTINUOUS
 62
     7
 10
103.5641897547008
 20
108.8329315152992
  0
VERTEX
  8
1
  6
CONTINUOUS
 62
     7
 10
103.5401628077101
 20
108.8543612833793
  0
VERTEX
  8
1
  6
CONTINUOUS
 62
     7
 10
103.5152386038728
 20
108.8747405180498
  0
VERTEX
  8
1
  6
CONTINUOUS
 62
     7
 10
103.4903837306966
 20
108.8933704502007
  0
VERTEX
  8
1
  6
CONTINUOUS
 62
     7
 10
103.4647790009842
 20
108.9109555834748
  0
VERTEX
  8
1
  6
CONTINUOUS
 62
     7
 10
103.4380014105987
 20
108.9277411397886
  0
VERTEX
  8
1
  6
CONTINUOUS
 62
     7
 10
103.4105159301631
 20
108.9433974861959
  0
VERTEX
  8
1
  6
CONTINUOUS
 62
     7
 10
103.3823965624022
 20
108.9578845154153
  0
VERTEX
  8
1
  6
CONTINUOUS
 62
     7
 10
103.3537173100409
 20
108.9711621201649
  0
VERTEX
  8
1
  6
CONTINUOUS
 62
     7
 10
103.323953172688
 20
108.9834300390746
  0
VERTEX
  8
1
  6
CONTINUOUS
 62
     7
 10
103.2936901694805
 20
108.9944098549022
  0
VERTEX
  8
1
  6
CONTINUOUS
 62
     7
 10
103.2640694032342
 20
109.0037628087779
  0
VERTEX
  8
1
  6
CONTINUOUS
 62
     7
 10
103.2340868867256
 20
109.0118816913862
  0
VERTEX
  8
1
  6
CONTINUOUS
 62
     7
 10
103.2032623450149
 20
109.018857890095
  0
VERTEX
  8
1
  6
CONTINUOUS
 62
     7
 10
103.1721435937948
 20
109.0245342824118
  0
VERTEX
  8
1
  6
CONTINUOUS
 62
     7
 10
103.1408137311191
 20
109.0288975259387
  0
VERTEX
  8
1
  6
CONTINUOUS
 62
     7
 10
103.1093558550415
 20
109.0319342782782
  0
VERTEX
  8
1
  6
CONTINUOUS
 62
     7
 10
103.0772085169977
 20
109.0336592596358
  0
VERTEX
  8
1
  6
CONTINUOUS
 62
     7
 10
103.0450167748259
 20
109.0340037268392
  0
VERTEX
  8
1
  6
CONTINUOUS
 62
     7
 10
103.00865372629
 20
109.0327288440701
  0
VERTEX
  8
1
  6
CONTINUOUS
 62
     7
 10
102.9723952053998
 20
109.02969300467
  0
VERTEX
  8
1
  6
CONTINUOUS
 62
     7
 10
102.9359826100439
 20
109.0248469800141
  0
VERTEX
  8
1
  6
CONTINUOUS
 62
     7
 10
102.8998507436843
 20
109.0182250978919
  0
SEQEND
  8
1
  6
CONTINUOUS
 62
     7
  0
POLYLINE
  8
1
  6
CONTINUOUS
 62
     7
 66
     1
  0
VERTEX
  8
1
  6
CONTINUOUS
 62
     7
 10
116.2011010039401
 20
41.79473604817088
  0
VERTEX
  8
1
  6
CONTINUOUS
 62
     7
 10
116.1984743364461
 20
41.76372292953257
  0
VERTEX
  8
1
  6
CONTINUOUS
 62
     7
 10
116.1971351360335
 20
41.73261416952519
  0
VERTEX
  8
1
  6
CONTINUOUS
 62
     7
 10
116.1970868762354
 20
41.7014900546196
  0
VERTEX
  8
1
  6
CONTINUOUS
 62
     7
 10
116.1983616425674
 20
41.66989483017133
  0
VERTEX
  8
1
  6
CONTINUOUS
 62
     7
 10
116.2009664157307
 20
41.63838136673927
  0
VERTEX
  8
1
  6
CONTINUOUS
 62
     7
 10
116.204964504476
 20
41.60655210861675
  0
VERTEX
  8
1
  6
CONTINUOUS
 62
     7
 10
116.2103193915368
 20
41.57492282545251
  0
VERTEX
  8
1
  6
CONTINUOUS
 62
     7
 10
116.2170561706794
 20
41.5434078467861
  0
VERTEX
  8
1
  6
CONTINUOUS
 62
     7
 10
116.2248428702635
 20
41.5132734568295
  0
VERTEX
  8
1
  6
CONTINUOUS
 62
     7
 10
116.2338762570823
 20
41.48347500464022
  0
VERTEX
  8
1
  6
CONTINUOUS
 62
     7
 10
116.2441330270863
 20
41.4540894168345
  0
VERTEX
  8
1
  6
CONTINUOUS
 62
     7
 10
116.2557943557289
 20
41.42469715974184
  0
VERTEX
  8
1
  6
CONTINUOUS
 62
     7
 10
116.2686837844467
 20
41.39582236143182
  0
VERTEX
  8
1
  6
CONTINUOUS
 62
     7
 10
116.2829926903623
 20
41.36711075674463
  0
VERTEX
  8
1
  6
CONTINUOUS
 62
     7
 10
116.2985158377352
 20
41.33903705167336
  0
VERTEX
  8
1
  6
CONTINUOUS
 62
     7
 10
116.3153052703785
 20
41.3115286942879
  0
VERTEX
  8
1
  6
CONTINUOUS
 62
     7
 10
116.3326270823378
 20
41.28567277644239
  0
VERTEX
  8
1
  6
CONTINUOUS
 62
     7
 10
116.3510140158853
 20
41.26054649722231
  0
VERTEX
  8
1
  6
CONTINUOUS
 62
     7
 10
116.3704186122616
 20
41.23621472220246
  0
VERTEX
  8
1
  6
CONTINUOUS
 62
     7
 10
116.3911506747312
 20
41.21234157054818
  0
VERTEX
  8
1
  6
CONTINUOUS
 62
     7
 10
116.4128702149443
 20
41.18936315994524
  0
VERTEX
  8
1
  6
CONTINUOUS
 62
     7
 10
116.4358750513556
 20
41.16700857151618
  0
VERTEX
  8
1
  6
CONTINUOUS
 62
     7
 10
116.459814409287
 20
41.14565775739912
  0
VERTEX
  8
1
  6
CONTINUOUS
 62
     7
 10
116.4847613961272
 20
41.1252594819502
  0
VERTEX
  8
1
  6
CONTINUOUS
 62
     7
 10
116.5097866599875
 20
41.10651009684987
  0
VERTEX
  8
1
  6
CONTINUOUS
 62
     7
 10
116.5355942694278
 20
41.08880486872805
  0
VERTEX
  8
1
  6
CONTINUOUS
 62
     7
 10
116.5621160426354
 20
41.07218850992864
  0
VERTEX
  8
1
  6
CONTINUOUS
 62
     7
 10
116.5892837977979
 20
41.0567057327955
  0
VERTEX
  8
1
  6
CONTINUOUS
 62
     7
 10
116.6176844554679
 20
41.04207602719568
  0
VERTEX
  8
1
  6
CONTINUOUS
 62
     7
 10
116.6467088001308
 20
41.02865700018233
  0
VERTEX
  8
1
  6
CONTINUOUS
 62
     7
 10
116.6762771518077
 20
41.01648344255116
  0
VERTEX
  8
1
  6
CONTINUOUS
 62
     7
 10
116.7063098305194
 20
41.00559014509783
  0
VERTEX
  8
1
  6
CONTINUOUS
 62
     7
 10
116.7361309014487
 20
40.99618087620772
  0
VERTEX
  8
1
  6
CONTINUOUS
 62
     7
 10
116.7663445897899
 20
40.98801582479503
  0
VERTEX
  8
1
  6
CONTINUOUS
 62
     7
 10
116.7968717621185
 20
40.98111460400573
  0
VERTEX
  8
1
  6
CONTINUOUS
 62
     7
 10
116.82763328501
 20
40.9754968269858
  0
VERTEX
  8
1
  6
CONTINUOUS
 62
     7
 10
116.85919885245
 20
40.97109954336582
  0
VERTEX
  8
1
  6
CONTINUOUS
 62
     7
 10
116.8909369936968
 20
40.96804497703148
  0
VERTEX
  8
1
  6
CONTINUOUS
 62
     7
 10
116.9227618103491
 20
40.9663413769359
  0
VERTEX
  8
1
  6
CONTINUOUS
 62
     7
 10
116.9549832251741
 20
40.96599627316083
  0
VERTEX
  8
1
  6
CONTINUOUS
 62
     7
 10
116.9913035286195
 20
40.96726809971585
  0
VERTEX
  8
1
  6
CONTINUOUS
 62
     7
 10
117.0277346878986
 20
40.97032159665074
  0
VERTEX
  8
1
  6
CONTINUOUS
 62
     7
 10
117.0639739234902
 20
40.97514560404952
  0
VERTEX
  8
1
  6
CONTINUOUS
 62
     7
 10
117.1001492563156
 20
40.98177490210816
  0
SEQEND
  8
1
  6
CONTINUOUS
 62
     7
  0
POLYLINE
  8
1
  6
CONTINUOUS
 62
     9
 66
     1
  0
VERTEX
  8
1
  6
CONTINUOUS
 62
     9
 10
117.1476907701737
 20
108.9664829474326
  0
VERTEX
  8
1
  6
CONTINUOUS
 62
     9
 10
117.0081546108952
 20
108.9823931378164
  0
VERTEX
  8
1
  6
CONTINUOUS
 62
     9
 10
116.8680959109554
 20
108.9720088907936
  0
VERTEX
  8
1
  6
CONTINUOUS
 62
     9
 10
116.732426278774
 20
108.935694363358
  0
VERTEX
  8
1
  6
CONTINUOUS
 62
     9
 10
116.6059034060047
 20
108.8747230411178
  0
VERTEX
  8
1
  6
CONTINUOUS
 62
     9
 10
116.4929642237875
 20
108.791233079431
  0
VERTEX
  8
1
  6
CONTINUOUS
 62
     9
 10
116.3975693074992
 20
108.6881523221157
  0
VERTEX
  8
1
  6
CONTINUOUS
 62
     9
 10
116.32306398645
 20
108.5690956271974
  0
VERTEX
  8
1
  6
CONTINUOUS
 62
     9
 10
116.2720610291601
 20
108.4382381002958
  0
VERTEX
  8
1
  6
CONTINUOUS
 62
     9
 10
116.2463490182349
 20
108.3001686811284
  0
VERTEX
  8
1
  6
CONTINUOUS
 62
     9
 10
116.2468296279682
 20
108.1597292175916
  0
SEQEND
  8
1
  6
CONTINUOUS
 62
     9
  0
LINE
  8
1
  6
CONTINUOUS
 62
     9
 10
116.2725518635743
 20
107.1411544760868
 11
116.2468296279682
 21
108.1597292175916
  0
ARC
  8
1
  6
CONTINUOUS
 62
     7
 10
110.0
 20
107.55
 40
6.285862036638523
 50
245.7114834828544
 51
356.2707308985918
  0
LINE
  8
1
  6
CONTINUOUS
 62
     7
 10
107.4374252452693
 20
101.8312512372107
 11
107.4144257911413
 21
101.8205264156174
  0
ARC
  8
1
  6
CONTINUOUS
 62
     7
 10
110.0056473185436
 20
107.55
 40
6.268961522392848
 50
172.231898164958
 51
245.8157185286061
  0
LINE
  8
1
  6
CONTINUOUS
 62
     9
 10
103.7274481364257
 20
42.85884552391325
 11
103.7531703720317
 21
41.84027078240843
  0
ARC
  8
1
  6
CONTINUOUS
 62
     7
 10
110.0
 20
42.45000000000002
 40
6.285862036638523
 50
65.7114834828544
 51
176.2707308985918
  0
LINE
  8
1
  6
CONTINUOUS
 62
     7
 10
112.5625747547307
 20
48.16874876278934
 11
112.5855742088587
 21
48.17947358438261
  0
ARC
  8
1
  6
CONTINUOUS
 62
     7
 10
109.9943526814564
 20
42.45000000000002
 40
6.268961522392848
 50
352.2318556328636
 51
65.81571852860617
  0
POLYLINE
  8
1
  6
CONTINUOUS
 62
     7
 66
     1
  0
VERTEX
  8
1
  6
CONTINUOUS
 62
     7
 10
76.30375174534915
 20
79.68722862106716
  0
VERTEX
  8
1
  6
CONTINUOUS
 62
     7
 10
76.27272999667814
 20
79.6855823775646
  0
VERTEX
  8
1
  6
CONTINUOUS
 62
     7
 10
76.24166669343157
 20
79.68522156421491
  0
VERTEX
  8
1
  6
CONTINUOUS
 62
     7
 10
76.2103995769528
 20
79.68615885603853
  0
VERTEX
  8
1
  6
CONTINUOUS
 62
     7
 10
76.17919869570913
 20
79.68839851771607
  0
VERTEX
  8
1
  6
CONTINUOUS
 62
     7
 10
76.14744387662162
 20
79.69202922911312
  0
VERTEX
  8
1
  6
CONTINUOUS
 62
     7
 10
76.11587248139485
 20
79.69700894683436
  0
VERTEX
  8
1
  6
CONTINUOUS
 62
     7
 10
76.0843125097505
 20
79.7033813300005
  0
VERTEX
  8
1
  6
CONTINUOUS
 62
     7
 10
76.05305496570747
 20
79.71110175761748
  0
VERTEX
  8
1
  6
CONTINUOUS
 62
     7
 10
76.02323697196674
 20
79.71981649565407
  0
VERTEX
  8
1
  6
CONTINUOUS
 62
     7
 10
75.99380528260272
 20
79.72975807798272
  0
VERTEX
  8
1
  6
CONTINUOUS
 62
     7
 10
75.96461095205964
 20
79.74099218512333
  0
VERTEX
  8
1
  6
CONTINUOUS
 62
     7
 10
75.93591026580954
 20
79.75343343494175
  0
VERTEX
  8
1
  6
CONTINUOUS
 62
     7
 10
75.90714725886478
 20
79.7673708476955
  0
VERTEX
  8
1
  6
CONTINUOUS
 62
     7
 10
75.87900393784086
 20
79.78252061714245
  0
VERTEX
  8
1
  6
CONTINUOUS
 62
     7
 10
75.8513324220893
 20
79.79898089007457
  0
VERTEX
  8
1
  6
CONTINUOUS
 62
     7
 10
75.82439258313475
 20
79.81661320239422
  0
VERTEX
  8
1
  6
CONTINUOUS
 62
     7
 10
75.79914208994046
 20
79.8347060222278
  0
VERTEX
  8
1
  6
CONTINUOUS
 62
     7
 10
75.7746621918386
 20
79.85382857749842
  0
VERTEX
  8
1
  6
CONTINUOUS
 62
     7
 10
75.75083408630736
 20
79.87409213605852
  0
VERTEX
  8
1
  6
CONTINUOUS
 62
     7
 10
75.72787132445397
 20
79.89533129762208
  0
VERTEX
  8
1
  6
CONTINUOUS
 62
     7
 10
75.70534499359243
 20
79.91800277491195
  0
VERTEX
  8
1
  6
CONTINUOUS
 62
     7
 10
75.68380464122762
 20
79.9416130414079
  0
VERTEX
  8
1
  6
CONTINUOUS
 62
     7
 10
75.66314321899486
 20
79.96630363586496
  0
VERTEX
  8
1
  6
CONTINUOUS
 62
     7
 10
75.64356007673123
 20
79.99185789900395
  0
VERTEX
  8
1
  6
CONTINUOUS
 62
     7
 10
75.6257229342837
 20
80.01728802631469
  0
VERTEX
  8
1
  6
CONTINUOUS
 62
     7
 10
75.60895371762957
 20
80.04343469728042
  0
VERTEX
  8
1
  6
CONTINUOUS
 62
     7
 10
75.59302066403356
 20
80.07072843532389
  0
VERTEX
  8
1
  6
CONTINUOUS
 62
     7
 10
75.57823858051127
 20
80.09869410921188
  0
VERTEX
  8
1
  6
CONTINUOUS
 62
     7
 10
75.56464522071171
 20
80.12725648868853
  0
VERTEX
  8
1
  6
CONTINUOUS
 62
     7
 10
75.55227833828387
 20
80.15634034349792
  0
VERTEX
  8
1
  6
CONTINUOUS
 62
     7
 10
75.54095484705064
 20
80.18647670778473
  0
VERTEX
  8
1
  6
CONTINUOUS
 62
     7
 10
75.53093454830257
 20
80.2170710786865
  0
VERTEX
  8
1
  6
CONTINUOUS
 62
     7
 10
75.5225200087524
 20
80.24697242417166
  0
VERTEX
  8
1
  6
CONTINUOUS
 62
     7
 10
75.51535035029627
 20
80.27719643691874
  0
VERTEX
  8
1
  6
CONTINUOUS
 62
     7
 10
75.50934937239929
 20
80.30822604307204
  0
VERTEX
  8
1
  6
CONTINUOUS
 62
     7
 10
75.50465685128421
 20
80.3395087361282
  0
VERTEX
  8
1
  6
CONTINUOUS
 62
     7
 10
75.50128350413284
 20
80.37096103723222
  0
VERTEX
  8
1
  6
CONTINUOUS
 62
     7
 10
75.49924004812698
 20
80.40249946752914
  0
VERTEX
  8
1
  6
CONTINUOUS
 62
     7
 10
75.49852947349403
 20
80.4346856719482
  0
VERTEX
  8
1
  6
CONTINUOUS
 62
     7
 10
75.49920015431807
 20
80.46687273261868
  0
VERTEX
  8
1
  6
CONTINUOUS
 62
     7
 10
75.50045061478012
 20
80.48880426591937
  0
VERTEX
  8
1
  6
CONTINUOUS
 62
     7
 10
75.5023426598412
 20
80.51068978561094
  0
VERTEX
  8
1
  6
CONTINUOUS
 62
     7
 10
75.50488478434464
 20
80.53258568826888
  0
VERTEX
  8
1
  6
CONTINUOUS
 62
     7
 10
75.50806908933774
 20
80.55439745468777
  0
SEQEND
  8
1
  6
CONTINUOUS
 62
     7
  0
ARC
  8
1
  6
CONTINUOUS
 62
     7
 10
76.64999999999985
 20
75.0
 40
4.699999999999991
 50
265.7752016136415
 51
94.22479838635866
  0
POLYLINE
  8
1
  6
CONTINUOUS
 62
     7
 66
     1
  0
VERTEX
  8
1
  6
CONTINUOUS
 62
     7
 10
75.50806908933775
 20
69.44560254531223
  0
VERTEX
  8
1
  6
CONTINUOUS
 62
     7
 10
75.5037576776828
 20
69.47646254444437
  0
VERTEX
  8
1
  6
CONTINUOUS
 62
     7
 10
75.50072912485957
 20
69.50750180574379
  0
VERTEX
  8
1
  6
CONTINUOUS
 62
     7
 10
75.49898961324693
 20
69.538639915804
  0
VERTEX
  8
1
  6
CONTINUOUS
 62
     7
 10
75.49854532522383
 20
69.56979646121857
  0
VERTEX
  8
1
  6
CONTINUOUS
 62
     7
 10
75.49944496685121
 20
69.60184833914397
  0
VERTEX
  8
1
  6
CONTINUOUS
 62
     7
 10
75.5017158307005
 20
69.63386176984118
  0
VERTEX
  8
1
  6
CONTINUOUS
 62
     7
 10
75.50534984619092
 20
69.66574923469754
  0
VERTEX
  8
1
  6
CONTINUOUS
 62
     7
 10
75.51033894274165
 20
69.69742321510036
  0
VERTEX
  8
1
  6
CONTINUOUS
 62
     7
 10
75.51648521112968
 20
69.72797076378656
  0
VERTEX
  8
1
  6
CONTINUOUS
 62
     7
 10
75.52390148522126
 20
69.7582628189733
  0
VERTEX
  8
1
  6
CONTINUOUS
 62
     7
 10
75.53256697495013
 20
69.78822143967751
  0
VERTEX
  8
1
  6
CONTINUOUS
 62
     7
 10
75.54246089024994
 20
69.8177686849162
  0
VERTEX
  8
1
  6
CONTINUOUS
 62
     7
 10
75.55391952002377
 20
69.84771605042799
  0
VERTEX
  8
1
  6
CONTINUOUS
 62
     7
 10
75.56665946872556
 20
69.87717319378596
  0
VERTEX
  8
1
  6
CONTINUOUS
 62
     7
 10
75.58064413786374
 20
69.90606019026735
  0
VERTEX
  8
1
  6
CONTINUOUS
 62
     7
 10
75.59583692894674
 20
69.93429711514942
  0
VERTEX
  8
1
  6
CONTINUOUS
 62
     7
 10
75.61174772521214
 20
69.96108616566312
  0
VERTEX
  8
1
  6
CONTINUOUS
 62
     7
 10
75.62877228131615
 20
69.98721376243778
  0
VERTEX
  8
1
  6
CONTINUOUS
 62
     7
 10
75.646865175131
 20
70.01261325053599
  0
VERTEX
  8
1
  6
CONTINUOUS
 62
     7
 10
75.665980984529
 20
70.03721797502038
  0
VERTEX
  8
1
  6
CONTINUOUS
 62
     7
 10
75.68670559956199
 20
70.06168230276376
  0
VERTEX
  8
1
  6
CONTINUOUS
 62
     7
 10
75.70847692244529
 20
70.08525997910583
  0
VERTEX
  8
1
  6
CONTINUOUS
 62
     7
 10
75.7312339615066
 20
70.10788771649183
  0
VERTEX
  8
1
  6
CONTINUOUS
 62
     7
 10
75.75491572507376
 20
70.12950222736701
  0
VERTEX
  8
1
  6
CONTINUOUS
 62
     7
 10
75.77879619311814
 20
70.14951338257411
  0
VERTEX
  8
1
  6
CONTINUOUS
 62
     7
 10
75.80350860887918
 20
70.16853178040189
  0
VERTEX
  8
1
  6
CONTINUOUS
 62
     7
 10
75.82898804979027
 20
70.18650957414937
  0
VERTEX
  8
1
  6
CONTINUOUS
 62
     7
 10
75.8551695932848
 20
70.20339891711565
  0
VERTEX
  8
1
  6
CONTINUOUS
 62
     7
 10
75.88282256687944
 20
70.21962329044153
  0
VERTEX
  8
1
  6
CONTINUOUS
 62
     7
 10
75.91116966587049
 20
70.23466466862968
  0
VERTEX
  8
1
  6
CONTINUOUS
 62
     7
 10
75.94013240018931
 20
70.24848353824818
  0
VERTEX
  8
1
  6
CONTINUOUS
 62
     7
 10
75.96963227976732
 20
70.2610403858652
  0
VERTEX
  8
1
  6
CONTINUOUS
 62
     7
 10
75.9987908885221
 20
70.27201937714514
  0
VERTEX
  8
1
  6
CONTINUOUS
 62
     7
 10
76.02840594015552
 20
70.28178621996047
  0
VERTEX
  8
1
  6
CONTINUOUS
 62
     7
 10
76.05840033754838
 20
70.29031726285449
  0
VERTEX
  8
1
  6
CONTINUOUS
 62
     7
 10
76.08869698358134
 20
70.29758885437053
  0
VERTEX
  8
1
  6
CONTINUOUS
 62
     7
 10
76.12016193029939
 20
70.30374596143592
  0
VERTEX
  8
1
  6
CONTINUOUS
 62
     7
 10
76.15189030476903
 20
70.30855706801646
  0
VERTEX
  8
1
  6
CONTINUOUS
 62
     7
 10
76.18379497220214
 20
70.31201087387544
  0
VERTEX
  8
1
  6
CONTINUOUS
 62
     7
 10
76.21578879781049
 20
70.31409607877613
  0
VERTEX
  8
1
  6
CONTINUOUS
 62
     7
 10
76.24511582948496
 20
70.31480103013176
  0
VERTEX
  8
1
  6
CONTINUOUS
 62
     7
 10
76.27445924028962
 20
70.31435912134944
  0
VERTEX
  8
1
  6
CONTINUOUS
 62
     7
 10
76.30375174534916
 20
70.31277137893282
  0
SEQEND
  8
1
  6
CONTINUOUS
 62
     7
  0
POLYLINE
  8
1
  6
CONTINUOUS
 62
     7
 66
     1
  0
VERTEX
  8
1
  6
CONTINUOUS
 62
     7
 10
143.6962482546508
 20
70.31277137893285
  0
VERTEX
  8
1
  6
CONTINUOUS
 62
     7
 10
143.7273644087252
 20
70.31441842860434
  0
VERTEX
  8
1
  6
CONTINUOUS
 62
     7
 10
143.7585490665595
 20
70.31477196796064
  0
VERTEX
  8
1
  6
CONTINUOUS
 62
     7
 10
143.7897215808495
 20
70.31383273864083
  0
VERTEX
  8
1
  6
CONTINUOUS
 62
     7
 10
143.8208013042908
 20
70.31160148228395
  0
VERTEX
  8
1
  6
CONTINUOUS
 62
     7
 10
143.8526577187099
 20
70.30795441579464
  0
VERTEX
  8
1
  6
CONTINUOUS
 62
     7
 10
143.8843581472393
 20
70.30294448578586
  0
VERTEX
  8
1
  6
CONTINUOUS
 62
     7
 10
143.9158160867949
 20
70.29658724405077
  0
VERTEX
  8
1
  6
CONTINUOUS
 62
     7
 10
143.9469450342925
 20
70.28889824238252
  0
VERTEX
  8
1
  6
CONTINUOUS
 62
     7
 10
143.9768523956629
 20
70.28015301043345
  0
VERTEX
  8
1
  6
CONTINUOUS
 62
     7
 10
144.0063962122256
 20
70.2701643853077
  0
VERTEX
  8
1
  6
CONTINUOUS
 62
     7
 10
144.0355006147962
 20
70.25895976938828
  0
VERTEX
  8
1
  6
CONTINUOUS
 62
     7
 10
144.0640897341904
 20
70.24656656505826
  0
VERTEX
  8
1
  6
CONTINUOUS
 62
     7
 10
144.0929432112922
 20
70.23258008026622
  0
VERTEX
  8
1
  6
CONTINUOUS
 62
     7
 10
144.1211983100388
 20
70.21735907560578
  0
VERTEX
  8
1
  6
CONTINUOUS
 62
     7
 10
144.14877854153
 20
70.20094687380846
  0
VERTEX
  8
1
  6
CONTINUOUS
 62
     7
 10
144.1756074168652
 20
70.1833867976058
  0
VERTEX
  8
1
  6
CONTINUOUS
 62
     7
 10
144.2009321393354
 20
70.16523562423461
  0
VERTEX
  8
1
  6
CONTINUOUS
 62
     7
 10
144.2255022638151
 20
70.14603156725396
  0
VERTEX
  8
1
  6
CONTINUOUS
 62
     7
 10
144.2492552794901
 20
70.12582560164226
  0
VERTEX
  8
1
  6
CONTINUOUS
 62
     7
 10
144.272128675546
 20
70.10466870237794
  0
VERTEX
  8
1
  6
CONTINUOUS
 62
     7
 10
144.2947241225464
 20
70.08192098221649
  0
VERTEX
  8
1
  6
CONTINUOUS
 62
     7
 10
144.3163463592683
 20
70.05820650987567
  0
VERTEX
  8
1
  6
CONTINUOUS
 62
     7
 10
144.3369375660597
 20
70.03359148344053
  0
VERTEX
  8
1
  6
CONTINUOUS
 62
     7
 10
144.3564399232687
 20
70.00814210099607
  0
VERTEX
  8
1
  6
CONTINUOUS
 62
     7
 10
144.3743277872401
 20
69.98263234974938
  0
VERTEX
  8
1
  6
CONTINUOUS
 62
     7
 10
144.3911551574929
 20
69.95637892028893
  0
VERTEX
  8
1
  6
CONTINUOUS
 62
     7
 10
144.4068799356158
 20
69.92945060193199
  0
VERTEX
  8
1
  6
CONTINUOUS
 62
     7
 10
144.4214600231976
 20
69.9019161839959
  0
VERTEX
  8
1
  6
CONTINUOUS
 62
     7
 10
144.435251314019
 20
69.87297283354886
  0
VERTEX
  8
1
  6
CONTINUOUS
 62
     7
 10
144.4478044033779
 20
69.84343944522786
  0
VERTEX
  8
1
  6
CONTINUOUS
 62
     7
 10
144.4590866597717
 20
69.8133976106203
  0
VERTEX
  8
1
  6
CONTINUOUS
 62
     7
 10
144.4690654516974
 20
69.78292892131351
  0
VERTEX
  8
1
  6
CONTINUOUS
 62
     7
 10
144.4775014971867
 20
69.75293565785796
  0
VERTEX
  8
1
  6
CONTINUOUS
 62
     7
 10
144.4846906937422
 20
69.72259166410474
  0
VERTEX
  8
1
  6
CONTINUOUS
 62
     7
 10
144.490616093768
 20
69.69197578253113
  0
VERTEX
  8
1
  6
CONTINUOUS
 62
     7
 10
144.4952607496684
 20
69.66116685561437
  0
VERTEX
  8
1
  6
CONTINUOUS
 62
     7
 10
144.4986947675291
 20
69.62928958529375
  0
VERTEX
  8
1
  6
CONTINUOUS
 62
     7
 10
144.5007651431493
 20
69.59726537507407
  0
VERTEX
  8
1
  6
CONTINUOUS
 62
     7
 10
144.5014680960324
 20
69.56518200806627
  0
VERTEX
  8
1
  6
CONTINUOUS
 62
     7
 10
144.5007998456819
 20
69.53312726738133
  0
VERTEX
  8
1
  6
CONTINUOUS
 62
     7
 10
144.498985302777
 20
69.50384793715223
  0
VERTEX
  8
1
  6
CONTINUOUS
 62
     7
 10
144.4960267253661
 20
69.47465071361809
  0
VERTEX
  8
1
  6
CONTINUOUS
 62
     7
 10
144.4919309106622
 20
69.44560254531223
  0
SEQEND
  8
1
  6
CONTINUOUS
 62
     7
  0
ARC
  8
1
  6
CONTINUOUS
 62
     7
 10
143.3500000000001
 20
75.00000000000003
 40
4.699999999999991
 50
85.77520161364146
 51
274.2247983863585
  0
POLYLINE
  8
1
  6
CONTINUOUS
 62
     7
 66
     1
  0
VERTEX
  8
1
  6
CONTINUOUS
 62
     7
 10
144.4919309106622
 20
80.5543974546878
  0
VERTEX
  8
1
  6
CONTINUOUS
 62
     7
 10
144.4962334170979
 20
80.52363144346559
  0
VERTEX
  8
1
  6
CONTINUOUS
 62
     7
 10
144.49925880223
 20
80.49271371328467
  0
VERTEX
  8
1
  6
CONTINUOUS
 62
     7
 10
144.5010083631036
 20
80.46148151634745
  0
VERTEX
  8
1
  6
CONTINUOUS
 62
     7
 10
144.5014546747761
 20
80.43020353878144
  0
VERTEX
  8
1
  6
CONTINUOUS
 62
     7
 10
144.5005626088233
 20
80.39825428497399
  0
VERTEX
  8
1
  6
CONTINUOUS
 62
     7
 10
144.4983107719468
 20
80.36637200438086
  0
VERTEX
  8
1
  6
CONTINUOUS
 62
     7
 10
144.4946704274485
 20
80.33438158441915
  0
VERTEX
  8
1
  6
CONTINUOUS
 62
     7
 10
144.4896610572583
 20
80.30257678489966
  0
VERTEX
  8
1
  6
CONTINUOUS
 62
     7
 10
144.4835375006013
 20
80.27212089115966
  0
VERTEX
  8
1
  6
CONTINUOUS
 62
     7
 10
144.4761584728053
 20
80.24194458676915
  0
VERTEX
  8
1
  6
CONTINUOUS
 62
     7
 10
144.4674713184269
 20
80.21189383889588
  0
VERTEX
  8
1
  6
CONTINUOUS
 62
     7
 10
144.45753910975
 20
80.1822313150838
  0
VERTEX
  8
1
  6
CONTINUOUS
 62
     7
 10
144.4461216066686
 20
80.15237829738265
  0
VERTEX
  8
1
  6
CONTINUOUS
 62
     7
 10
144.4334430374138
 20
80.12303863286662
  0
VERTEX
  8
1
  6
CONTINUOUS
 62
     7
 10
144.4194183086616
 20
80.09405656337398
  0
VERTEX
  8
1
  6
CONTINUOUS
 62
     7
 10
144.4041630710532
 20
80.0657028848506
  0
VERTEX
  8
1
  6
CONTINUOUS
 62
     7
 10
144.3883040425545
 20
80.0389927977405
  0
VERTEX
  8
1
  6
CONTINUOUS
 62
     7
 10
144.3713529440877
 20
80.0129620890642
  0
VERTEX
  8
1
  6
CONTINUOUS
 62
     7
 10
144.3532091141456
 20
79.98748284543207
  0
VERTEX
  8
1
  6
CONTINUOUS
 62
     7
 10
144.334019015471
 20
79.96278202497963
  0
VERTEX
  8
1
  6
CONTINUOUS
 62
     7
 10
144.3133644303542
 20
79.93839310165943
  0
VERTEX
  8
1
  6
CONTINUOUS
 62
     7
 10
144.2916899014025
 20
79.91490595067835
  0
VERTEX
  8
1
  6
CONTINUOUS
 62
     7
 10
144.2688635991287
 20
79.89220177153923
  0
VERTEX
  8
1
  6
CONTINUOUS
 62
     7
 10
144.2450842749262
 20
79.87049777263302
  0
VERTEX
  8
1
  6
CONTINUOUS
 62
     7
 10
144.2212787840436
 20
79.8505439852689
  0
VERTEX
  8
1
  6
CONTINUOUS
 62
     7
 10
144.1966677420581
 20
79.83159268867033
  0
VERTEX
  8
1
  6
CONTINUOUS
 62
     7
 10
144.1708421042069
 20
79.81337602696817
  0
VERTEX
  8
1
  6
CONTINUOUS
 62
     7
 10
144.1442482314887
 20
79.7962484222367
  0
VERTEX
  8
1
  6
CONTINUOUS
 62
     7
 10
144.1169578365196
 20
79.78025394521617
  0
VERTEX
  8
1
  6
CONTINUOUS
 62
     7
 10
144.0890426319158
 20
79.76543666664688
  0
VERTEX
  8
1
  6
CONTINUOUS
 62
     7
 10
144.0599892555235
 20
79.75156860163376
  0
VERTEX
  8
1
  6
CONTINUOUS
 62
     7
 10
144.0303677202326
 20
79.73895961413483
  0
VERTEX
  8
1
  6
CONTINUOUS
 62
     7
 10
144.001298844644
 20
79.72800993799726
  0
VERTEX
  8
1
  6
CONTINUOUS
 62
     7
 10
143.9718016545575
 20
79.71827285815993
  0
VERTEX
  8
1
  6
CONTINUOUS
 62
     7
 10
143.9414015452303
 20
79.70963100972482
  0
VERTEX
  8
1
  6
CONTINUOUS
 62
     7
 10
143.9106369888805
 20
79.70227107021498
  0
VERTEX
  8
1
  6
CONTINUOUS
 62
     7
 10
143.8795902366033
 20
79.69621088156144
  0
VERTEX
  8
1
  6
CONTINUOUS
 62
     7
 10
143.8483435394942
 20
79.69146828569521
  0
VERTEX
  8
1
  6
CONTINUOUS
 62
     7
 10
143.8163370681779
 20
79.68799806053364
  0
VERTEX
  8
1
  6
CONTINUOUS
 62
     7
 10
143.7842112021895
 20
79.68590392122388
  0
VERTEX
  8
1
  6
CONTINUOUS
 62
     7
 10
143.7622532683466
 20
79.68526756842954
  0
VERTEX
  8
1
  6
CONTINUOUS
 62
     7
 10
143.7402861165172
 20
79.6852743820804
  0
VERTEX
  8
1
  6
CONTINUOUS
 62
     7
 10
143.718252829159
 20
79.68592798563246
  0
VERTEX
  8
1
  6
CONTINUOUS
 62
     7
 10
143.6962482546508
 20
79.68722862106719
  0
SEQEND
  8
1
  6
CONTINUOUS
 62
     7
  0
ARC
  8
1
  6
CONTINUOUS
 62
     7
 10
76.64999999999984
 20
75.0
 40
4.935246203452115
 50
279.9205447462377
 51
80.07945525376238
  0
LINE
  8
1
  6
CONTINUOUS
 62
     7
 10
112.5897623916912
 20
48.18142656611118
 11
112.5855742088587
 21
48.17947358438261
  0
LINE
  8
1
  6
CONTINUOUS
 62
     7
 10
107.4102383810137
 20
101.8185737942071
 11
107.4144257911413
 21
101.8205264156174
  0
POLYLINE
  8
1
  6
CONTINUOUS
 62
     7
 66
     1
  0
VERTEX
  8
1
  6
CONTINUOUS
 62
     7
 10
122.2641528315023
 20
54.63954386054184
  0
VERTEX
  8
1
  6
CONTINUOUS
 62
     7
 10
122.249430252311
 20
54.63542748001176
  0
VERTEX
  8
1
  6
CONTINUOUS
 62
     7
 10
122.2210356282317
 20
54.62632389460431
  0
VERTEX
  8
1
  6
CONTINUOUS
 62
     7
 10
122.193129198796
 20
54.6158199122783
  0
VERTEX
  8
1
  6
CONTINUOUS
 62
     7
 10
122.165779814358
 20
54.60394152713728
  0
VERTEX
  8
1
  6
CONTINUOUS
 62
     7
 10
122.1390549475749
 20
54.59071810646368
  0
VERTEX
  8
1
  6
CONTINUOUS
 62
     7
 10
122.1130205304232
 20
54.57618231839377
  0
VERTEX
  8
1
  6
CONTINUOUS
 62
     7
 10
122.0877407949363
 20
54.56037005200479
  0
VERTEX
  8
1
  6
CONTINUOUS
 62
     7
 10
122.0632781179727
 20
54.54332032999209
  0
VERTEX
  8
1
  6
CONTINUOUS
 62
     7
 10
122.0396928703181
 20
54.52507521412077
  0
VERTEX
  8
1
  6
CONTINUOUS
 62
     7
 10
122.0170432704208
 20
54.50567970364206
  0
VERTEX
  8
1
  6
CONTINUOUS
 62
     7
 10
121.995385243054
 20
54.48518162687234
  0
VERTEX
  8
1
  6
CONTINUOUS
 62
     7
 10
121.9747722831957
 20
54.4636315261393
  0
VERTEX
  8
1
  6
CONTINUOUS
 62
     7
 10
121.9552553254146
 20
54.44108253630885
  0
VERTEX
  8
1
  6
CONTINUOUS
 62
     7
 10
121.9368826190453
 20
54.41759025711515
  0
VERTEX
  8
1
  6
CONTINUOUS
 62
     7
 10
121.9196996094372
 20
54.39321261952702
  0
VERTEX
  8
1
  6
CONTINUOUS
 62
     7
 10
121.9037488255563
 20
54.36800974639544
  0
VERTEX
  8
1
  6
CONTINUOUS
 62
     7
 10
121.8890697742159
 20
54.34204380763966
  0
VERTEX
  8
1
  6
CONTINUOUS
 62
     7
 10
121.8756988412121
 20
54.31537887024397
  0
VERTEX
  8
1
  6
CONTINUOUS
 62
     7
 10
121.8636691996299
 20
54.28808074335248
  0
VERTEX
  8
1
  6
CONTINUOUS
 62
     7
 10
121.8530107255871
 20
54.2602168187654
  0
VERTEX
  8
1
  6
CONTINUOUS
 62
     7
 10
121.8437499216688
 20
54.23185590715863
  0
VERTEX
  8
1
  6
CONTINUOUS
 62
     7
 10
121.8359098483036
 20
54.20306807036624
  0
VERTEX
  8
1
  6
CONTINUOUS
 62
     7
 10
121.829510063316
 20
54.17392445008478
  0
VERTEX
  8
1
  6
CONTINUOUS
 62
     7
 10
121.8245665698819
 20
54.14449709337797
  0
VERTEX
  8
1
  6
CONTINUOUS
 62
     7
 10
121.8210917730968
 20
54.1148587753793
  0
VERTEX
  8
1
  6
CONTINUOUS
 62
     7
 10
121.8190944453477
 20
54.08508281961034
  0
VERTEX
  8
1
  6
CONTINUOUS
 62
     7
 10
121.8185797006658
 20
54.05524291635059
  0
VERTEX
  8
1
  6
CONTINUOUS
 62
     7
 10
121.8195489782078
 20
54.0254129395135
  0
VERTEX
  8
1
  6
CONTINUOUS
 62
     7
 10
121.8220000349963
 20
53.99566676249943
  0
VERTEX
  8
1
  6
CONTINUOUS
 62
     7
 10
121.8259269480183
 20
53.96607807351241
  0
VERTEX
  8
1
  6
CONTINUOUS
 62
     7
 10
121.8313201257552
 20
53.93672019084038
  0
VERTEX
  8
1
  6
CONTINUOUS
 62
     7
 10
121.8381663291857
 20
53.90766587861036
  0
VERTEX
  8
1
  6
CONTINUOUS
 62
     7
 10
121.8464487022711
 20
53.8789871635385
  0
VERTEX
  8
1
  6
CONTINUOUS
 62
     7
 10
121.8561468118982
 20
53.85075515320138
  0
VERTEX
  8
1
  6
CONTINUOUS
 62
     7
 10
121.8672366972222
 20
53.82303985635781
  0
VERTEX
  8
1
  6
CONTINUOUS
 62
     7
 10
121.879690928313
 20
53.79591000585068
  0
VERTEX
  8
1
  6
CONTINUOUS
 62
     7
 10
121.8934786739748
 20
53.76943288461501
  0
VERTEX
  8
1
  6
CONTINUOUS
 62
     7
 10
121.9085657785728
 20
53.743674155312
  0
VERTEX
  8
1
  6
CONTINUOUS
 62
     7
 10
121.9249148476623
 20
53.71869769409894
  0
VERTEX
  8
1
  6
CONTINUOUS
 62
     7
 10
121.942485342186
 20
53.69456542903183
  0
VERTEX
  8
1
  6
CONTINUOUS
 62
     7
 10
121.9612336809639
 20
53.67133718358122
  0
VERTEX
  8
1
  6
CONTINUOUS
 62
     7
 10
121.9811133511768
 20
53.6490705257222
  0
VERTEX
  8
1
  6
CONTINUOUS
 62
     7
 10
122.002075026506
 20
53.62782062303791
  0
VERTEX
  8
1
  6
CONTINUOUS
 62
     7
 10
122.0240666925694
 20
53.6076401042504
  0
VERTEX
  8
1
  6
CONTINUOUS
 62
     7
 10
122.0470337792667
 20
53.58857892756633
  0
VERTEX
  8
1
  6
CONTINUOUS
 62
     7
 10
122.0709192996219
 20
53.57068425619573
  0
VERTEX
  8
1
  6
CONTINUOUS
 62
     7
 10
122.0956639946949
 20
53.55400034137118
  0
VERTEX
  8
1
  6
CONTINUOUS
 62
     7
 10
122.1212064841138
 20
53.53856841316376
  0
VERTEX
  8
1
  6
CONTINUOUS
 62
     7
 10
122.1474834217677
 20
53.52442657935858
  0
VERTEX
  8
1
  6
CONTINUOUS
 62
     7
 10
122.1744296561888
 20
53.51160973262012
  0
VERTEX
  8
1
  6
CONTINUOUS
 62
     7
 10
122.2019783951446
 20
53.50014946614463
  0
VERTEX
  8
1
  6
CONTINUOUS
 62
     7
 10
122.2300613739564
 20
53.49007399796324
  0
VERTEX
  8
1
  6
CONTINUOUS
 62
     7
 10
122.2586090270606
 20
53.48140810402808
  0
VERTEX
  8
1
  6
CONTINUOUS
 62
     7
 10
122.2875506623269
 20
53.47417306018195
  0
VERTEX
  8
1
  6
CONTINUOUS
 62
     7
 10
122.3168146376546
 20
53.46838659308207
  0
VERTEX
  8
1
  6
CONTINUOUS
 62
     7
 10
122.3463285393713
 20
53.46406284012014
  0
VERTEX
  8
1
  6
CONTINUOUS
 62
     7
 10
122.3760193619689
 20
53.46121231835393
  0
VERTEX
  8
1
  6
CONTINUOUS
 62
     7
 10
122.405813688717
 20
53.45984190244059
  0
VERTEX
  8
1
  6
CONTINUOUS
 62
     7
 10
122.4356378727096
 20
53.45995481153903
  0
VERTEX
  8
1
  6
CONTINUOUS
 62
     7
 10
122.4654182179091
 20
53.46155060512715
  0
VERTEX
  8
1
  6
CONTINUOUS
 62
     7
 10
122.4950811597652
 20
53.46462518766135
  0
VERTEX
  8
1
  6
CONTINUOUS
 62
     7
 10
122.5245534450003
 20
53.46917082198796
  0
VERTEX
  8
1
  6
CONTINUOUS
 62
     7
 10
122.5537623101646
 20
53.4751761514018
  0
VERTEX
  8
1
  6
CONTINUOUS
 62
     7
 10
122.5729171754088
 20
53.47994720410255
  0
SEQEND
  8
1
  6
CONTINUOUS
 62
     7
  0
POLYLINE
  8
1
  6
CONTINUOUS
 62
     7
 66
     1
  0
VERTEX
  8
1
  6
CONTINUOUS
 62
     7
 10
123.2994290119124
 20
50.77584055538557
  0
VERTEX
  8
1
  6
CONTINUOUS
 62
     7
 10
123.2847064327211
 20
50.77172417485549
  0
VERTEX
  8
1
  6
CONTINUOUS
 62
     7
 10
123.2563118086418
 20
50.76262058944804
  0
VERTEX
  8
1
  6
CONTINUOUS
 62
     7
 10
123.2284053792061
 20
50.75211660712202
  0
VERTEX
  8
1
  6
CONTINUOUS
 62
     7
 10
123.2010559947681
 20
50.74023822198101
  0
VERTEX
  8
1
  6
CONTINUOUS
 62
     7
 10
123.174331127985
 20
50.7270148013074
  0
VERTEX
  8
1
  6
CONTINUOUS
 62
     7
 10
123.1482967108333
 20
50.7124790132375
  0
VERTEX
  8
1
  6
CONTINUOUS
 62
     7
 10
123.1230169753464
 20
50.69666674684851
  0
VERTEX
  8
1
  6
CONTINUOUS
 62
     7
 10
123.0985542983828
 20
50.67961702483582
  0
VERTEX
  8
1
  6
CONTINUOUS
 62
     7
 10
123.0749690507282
 20
50.6613719089645
  0
VERTEX
  8
1
  6
CONTINUOUS
 62
     7
 10
123.0523194508309
 20
50.64197639848579
  0
VERTEX
  8
1
  6
CONTINUOUS
 62
     7
 10
123.0306614234641
 20
50.62147832171607
  0
VERTEX
  8
1
  6
CONTINUOUS
 62
     7
 10
123.0100484636058
 20
50.59992822098302
  0
VERTEX
  8
1
  6
CONTINUOUS
 62
     7
 10
122.9905315058247
 20
50.57737923115258
  0
VERTEX
  8
1
  6
CONTINUOUS
 62
     7
 10
122.9721587994554
 20
50.55388695195887
  0
VERTEX
  8
1
  6
CONTINUOUS
 62
     7
 10
122.9549757898473
 20
50.52950931437075
  0
VERTEX
  8
1
  6
CONTINUOUS
 62
     7
 10
122.9390250059664
 20
50.50430644123917
  0
VERTEX
  8
1
  6
CONTINUOUS
 62
     7
 10
122.924345954626
 20
50.47834050248338
  0
VERTEX
  8
1
  6
CONTINUOUS
 62
     7
 10
122.9109750216221
 20
50.4516755650877
  0
VERTEX
  8
1
  6
CONTINUOUS
 62
     7
 10
122.89894538004
 20
50.4243774381962
  0
VERTEX
  8
1
  6
CONTINUOUS
 62
     7
 10
122.8882869059972
 20
50.39651351360912
  0
VERTEX
  8
1
  6
CONTINUOUS
 62
     7
 10
122.8790261020789
 20
50.36815260200236
  0
VERTEX
  8
1
  6
CONTINUOUS
 62
     7
 10
122.8711860287137
 20
50.33936476520996
  0
VERTEX
  8
1
  6
CONTINUOUS
 62
     7
 10
122.864786243726
 20
50.31022114492851
  0
VERTEX
  8
1
  6
CONTINUOUS
 62
     7
 10
122.859842750292
 20
50.2807937882217
  0
VERTEX
  8
1
  6
CONTINUOUS
 62
     7
 10
122.8563679535069
 20
50.25115547022303
  0
VERTEX
  8
1
  6
CONTINUOUS
 62
     7
 10
122.8543706257578
 20
50.22137951445406
  0
VERTEX
  8
1
  6
CONTINUOUS
 62
     7
 10
122.8538558810759
 20
50.19153961119432
  0
VERTEX
  8
1
  6
CONTINUOUS
 62
     7
 10
122.8548251586179
 20
50.16170963435722
  0
VERTEX
  8
1
  6
CONTINUOUS
 62
     7
 10
122.8572762154064
 20
50.13196345734315
  0
VERTEX
  8
1
  6
CONTINUOUS
 62
     7
 10
122.8612031284284
 20
50.10237476835614
  0
VERTEX
  8
1
  6
CONTINUOUS
 62
     7
 10
122.8665963061653
 20
50.0730168856841
  0
VERTEX
  8
1
  6
CONTINUOUS
 62
     7
 10
122.8734425095958
 20
50.04396257345409
  0
VERTEX
  8
1
  6
CONTINUOUS
 62
     7
 10
122.8817248826812
 20
50.01528385838223
  0
VERTEX
  8
1
  6
CONTINUOUS
 62
     7
 10
122.8914229923083
 20
49.98705184804511
  0
VERTEX
  8
1
  6
CONTINUOUS
 62
     7
 10
122.9025128776323
 20
49.95933655120154
  0
VERTEX
  8
1
  6
CONTINUOUS
 62
     7
 10
122.9149671087231
 20
49.93220670069441
  0
VERTEX
  8
1
  6
CONTINUOUS
 62
     7
 10
122.9287548543849
 20
49.90572957945874
  0
VERTEX
  8
1
  6
CONTINUOUS
 62
     7
 10
122.9438419589828
 20
49.87997085015572
  0
VERTEX
  8
1
  6
CONTINUOUS
 62
     7
 10
122.9601910280724
 20
49.85499438894266
  0
VERTEX
  8
1
  6
CONTINUOUS
 62
     7
 10
122.9777615225961
 20
49.83086212387555
  0
VERTEX
  8
1
  6
CONTINUOUS
 62
     7
 10
122.996509861374
 20
49.80763387842494
  0
VERTEX
  8
1
  6
CONTINUOUS
 62
     7
 10
123.0163895315869
 20
49.78536722056592
  0
VERTEX
  8
1
  6
CONTINUOUS
 62
     7
 10
123.0373512069161
 20
49.76411731788163
  0
VERTEX
  8
1
  6
CONTINUOUS
 62
     7
 10
123.0593428729795
 20
49.74393679909412
  0
VERTEX
  8
1
  6
CONTINUOUS
 62
     7
 10
123.0823099596767
 20
49.72487562241005
  0
VERTEX
  8
1
  6
CONTINUOUS
 62
     7
 10
123.106195480032
 20
49.70698095103945
  0
VERTEX
  8
1
  6
CONTINUOUS
 62
     7
 10
123.130940175105
 20
49.6902970362149
  0
VERTEX
  8
1
  6
CONTINUOUS
 62
     7
 10
123.1564826645239
 20
49.67486510800749
  0
VERTEX
  8
1
  6
CONTINUOUS
 62
     7
 10
123.1827596021778
 20
49.6607232742023
  0
VERTEX
  8
1
  6
CONTINUOUS
 62
     7
 10
123.2097058365989
 20
49.64790642746384
  0
VERTEX
  8
1
  6
CONTINUOUS
 62
     7
 10
123.2372545755546
 20
49.63644616098836
  0
VERTEX
  8
1
  6
CONTINUOUS
 62
     7
 10
123.2653375543665
 20
49.62637069280697
  0
VERTEX
  8
1
  6
CONTINUOUS
 62
     7
 10
123.2938852074707
 20
49.61770479887181
  0
VERTEX
  8
1
  6
CONTINUOUS
 62
     7
 10
123.322826842737
 20
49.61046975502568
  0
VERTEX
  8
1
  6
CONTINUOUS
 62
     7
 10
123.3520908180647
 20
49.6046832879258
  0
VERTEX
  8
1
  6
CONTINUOUS
 62
     7
 10
123.3816047197814
 20
49.60035953496387
  0
VERTEX
  8
1
  6
CONTINUOUS
 62
     7
 10
123.411295542379
 20
49.59750901319765
  0
VERTEX
  8
1
  6
CONTINUOUS
 62
     7
 10
123.4410898691271
 20
49.59613859728432
  0
VERTEX
  8
1
  6
CONTINUOUS
 62
     7
 10
123.4709140531197
 20
49.59625150638276
  0
VERTEX
  8
1
  6
CONTINUOUS
 62
     7
 10
123.5006943983192
 20
49.59784729997088
  0
VERTEX
  8
1
  6
CONTINUOUS
 62
     7
 10
123.5303573401753
 20
49.60092188250508
  0
VERTEX
  8
1
  6
CONTINUOUS
 62
     7
 10
123.5598296254103
 20
49.60546751683169
  0
VERTEX
  8
1
  6
CONTINUOUS
 62
     7
 10
123.5890384905747
 20
49.61147284624553
  0
VERTEX
  8
1
  6
CONTINUOUS
 62
     7
 10
123.6081933558189
 20
49.61624389894628
  0
SEQEND
  8
1
  6
CONTINUOUS
 62
     7
  0
POLYLINE
  8
1
  6
CONTINUOUS
 62
     7
 66
     1
  0
VERTEX
  8
1
  6
CONTINUOUS
 62
     7
 10
124.3347051923225
 20
46.9121372502293
  0
VERTEX
  8
1
  6
CONTINUOUS
 62
     7
 10
124.3199826131312
 20
46.90802086969922
  0
VERTEX
  8
1
  6
CONTINUOUS
 62
     7
 10
124.2915879890519
 20
46.89891728429177
  0
VERTEX
  8
1
  6
CONTINUOUS
 62
     7
 10
124.2636815596161
 20
46.88841330196576
  0
VERTEX
  8
1
  6
CONTINUOUS
 62
     7
 10
124.2363321751782
 20
46.87653491682474
  0
VERTEX
  8
1
  6
CONTINUOUS
 62
     7
 10
124.2096073083951
 20
46.86331149615114
  0
VERTEX
  8
1
  6
CONTINUOUS
 62
     7
 10
124.1835728912433
 20
46.84877570808123
  0
VERTEX
  8
1
  6
CONTINUOUS
 62
     7
 10
124.1582931557565
 20
46.83296344169224
  0
VERTEX
  8
1
  6
CONTINUOUS
 62
     7
 10
124.1338304787928
 20
46.81591371967955
  0
VERTEX
  8
1
  6
CONTINUOUS
 62
     7
 10
124.1102452311383
 20
46.79766860380823
  0
VERTEX
  8
1
  6
CONTINUOUS
 62
     7
 10
124.087595631241
 20
46.77827309332952
  0
VERTEX
  8
1
  6
CONTINUOUS
 62
     7
 10
124.0659376038741
 20
46.7577750165598
  0
VERTEX
  8
1
  6
CONTINUOUS
 62
     7
 10
124.0453246440159
 20
46.73622491582675
  0
VERTEX
  8
1
  6
CONTINUOUS
 62
     7
 10
124.0258076862348
 20
46.71367592599631
  0
VERTEX
  8
1
  6
CONTINUOUS
 62
     7
 10
124.0074349798655
 20
46.6901836468026
  0
VERTEX
  8
1
  6
CONTINUOUS
 62
     7
 10
123.9902519702574
 20
46.66580600921448
  0
VERTEX
  8
1
  6
CONTINUOUS
 62
     7
 10
123.9743011863764
 20
46.64060313608289
  0
VERTEX
  8
1
  6
CONTINUOUS
 62
     7
 10
123.9596221350361
 20
46.61463719732711
  0
VERTEX
  8
1
  6
CONTINUOUS
 62
     7
 10
123.9462512020322
 20
46.58797225993143
  0
VERTEX
  8
1
  6
CONTINUOUS
 62
     7
 10
123.9342215604501
 20
46.56067413303993
  0
VERTEX
  8
1
  6
CONTINUOUS
 62
     7
 10
123.9235630864073
 20
46.53281020845285
  0
VERTEX
  8
1
  6
CONTINUOUS
 62
     7
 10
123.914302282489
 20
46.50444929684609
  0
VERTEX
  8
1
  6
CONTINUOUS
 62
     7
 10
123.9064622091238
 20
46.47566146005369
  0
VERTEX
  8
1
  6
CONTINUOUS
 62
     7
 10
123.9000624241361
 20
46.44651783977224
  0
VERTEX
  8
1
  6
CONTINUOUS
 62
     7
 10
123.8951189307021
 20
46.41709048306543
  0
VERTEX
  8
1
  6
CONTINUOUS
 62
     7
 10
123.8916441339169
 20
46.38745216506676
  0
VERTEX
  8
1
  6
CONTINUOUS
 62
     7
 10
123.8896468061679
 20
46.35767620929779
  0
VERTEX
  8
1
  6
CONTINUOUS
 62
     7
 10
123.889132061486
 20
46.32783630603805
  0
VERTEX
  8
1
  6
CONTINUOUS
 62
     7
 10
123.890101339028
 20
46.29800632920095
  0
VERTEX
  8
1
  6
CONTINUOUS
 62
     7
 10
123.8925523958165
 20
46.26826015218688
  0
VERTEX
  8
1
  6
CONTINUOUS
 62
     7
 10
123.8964793088384
 20
46.23867146319986
  0
VERTEX
  8
1
  6
CONTINUOUS
 62
     7
 10
123.9018724865754
 20
46.20931358052783
  0
VERTEX
  8
1
  6
CONTINUOUS
 62
     7
 10
123.9087186900059
 20
46.18025926829782
  0
VERTEX
  8
1
  6
CONTINUOUS
 62
     7
 10
123.9170010630912
 20
46.15158055322596
  0
VERTEX
  8
1
  6
CONTINUOUS
 62
     7
 10
123.9266991727183
 20
46.12334854288884
  0
VERTEX
  8
1
  6
CONTINUOUS
 62
     7
 10
123.9377890580424
 20
46.09563324604526
  0
VERTEX
  8
1
  6
CONTINUOUS
 62
     7
 10
123.9502432891332
 20
46.06850339553814
  0
VERTEX
  8
1
  6
CONTINUOUS
 62
     7
 10
123.964031034795
 20
46.04202627430247
  0
VERTEX
  8
1
  6
CONTINUOUS
 62
     7
 10
123.9791181393929
 20
46.01626754499945
  0
VERTEX
  8
1
  6
CONTINUOUS
 62
     7
 10
123.9954672084825
 20
45.99129108378639
  0
VERTEX
  8
1
  6
CONTINUOUS
 62
     7
 10
124.0130377030061
 20
45.96715881871928
  0
VERTEX
  8
1
  6
CONTINUOUS
 62
     7
 10
124.0317860417841
 20
45.94393057326867
  0
VERTEX
  8
1
  6
CONTINUOUS
 62
     7
 10
124.051665711997
 20
45.92166391540965
  0
VERTEX
  8
1
  6
CONTINUOUS
 62
     7
 10
124.0726273873261
 20
45.90041401272536
  0
VERTEX
  8
1
  6
CONTINUOUS
 62
     7
 10
124.0946190533896
 20
45.88023349393785
  0
VERTEX
  8
1
  6
CONTINUOUS
 62
     7
 10
124.1175861400868
 20
45.86117231725378
  0
VERTEX
  8
1
  6
CONTINUOUS
 62
     7
 10
124.1414716604421
 20
45.84327764588318
  0
VERTEX
  8
1
  6
CONTINUOUS
 62
     7
 10
124.1662163555151
 20
45.82659373105864
  0
VERTEX
  8
1
  6
CONTINUOUS
 62
     7
 10
124.191758844934
 20
45.81116180285122
  0
VERTEX
  8
1
  6
CONTINUOUS
 62
     7
 10
124.2180357825879
 20
45.79701996904603
  0
VERTEX
  8
1
  6
CONTINUOUS
 62
     7
 10
124.244982017009
 20
45.78420312230758
  0
VERTEX
  8
1
  6
CONTINUOUS
 62
     7
 10
124.2725307559647
 20
45.77274285583209
  0
VERTEX
  8
1
  6
CONTINUOUS
 62
     7
 10
124.3006137347765
 20
45.76266738765069
  0
VERTEX
  8
1
  6
CONTINUOUS
 62
     7
 10
124.3291613878808
 20
45.75400149371554
  0
VERTEX
  8
1
  6
CONTINUOUS
 62
     7
 10
124.3581030231471
 20
45.74676644986941
  0
VERTEX
  8
1
  6
CONTINUOUS
 62
     7
 10
124.3873669984747
 20
45.74097998276953
  0
VERTEX
  8
1
  6
CONTINUOUS
 62
     7
 10
124.4168809001915
 20
45.7366562298076
  0
VERTEX
  8
1
  6
CONTINUOUS
 62
     7
 10
124.4465717227891
 20
45.73380570804138
  0
VERTEX
  8
1
  6
CONTINUOUS
 62
     7
 10
124.4763660495371
 20
45.73243529212805
  0
VERTEX
  8
1
  6
CONTINUOUS
 62
     7
 10
124.5061902335298
 20
45.73254820122649
  0
VERTEX
  8
1
  6
CONTINUOUS
 62
     7
 10
124.5359705787293
 20
45.73414399481461
  0
VERTEX
  8
1
  6
CONTINUOUS
 62
     7
 10
124.5656335205854
 20
45.73721857734881
  0
VERTEX
  8
1
  6
CONTINUOUS
 62
     7
 10
124.5951058058204
 20
45.74176421167542
  0
VERTEX
  8
1
  6
CONTINUOUS
 62
     7
 10
124.6243146709847
 20
45.74776954108926
  0
VERTEX
  8
1
  6
CONTINUOUS
 62
     7
 10
124.6434695362289
 20
45.75254059379001
  0
SEQEND
  8
1
  6
CONTINUOUS
 62
     7
  0
POLYLINE
  8
1
  6
CONTINUOUS
 62
     7
 66
     1
  0
VERTEX
  8
1
  6
CONTINUOUS
 62
     7
 10
95.66529480767748
 20
103.0878627497707
  0
VERTEX
  8
1
  6
CONTINUOUS
 62
     7
 10
95.68001738686877
 20
103.0919791303008
  0
VERTEX
  8
1
  6
CONTINUOUS
 62
     7
 10
95.7084120109481
 20
103.1010827157082
  0
VERTEX
  8
1
  6
CONTINUOUS
 62
     7
 10
95.73631844038384
 20
103.1115866980343
  0
VERTEX
  8
1
  6
CONTINUOUS
 62
     7
 10
95.76366782482178
 20
103.1234650831753
  0
VERTEX
  8
1
  6
CONTINUOUS
 62
     7
 10
95.79039269160488
 20
103.1366885038489
  0
VERTEX
  8
1
  6
CONTINUOUS
 62
     7
 10
95.81642710875663
 20
103.1512242919188
  0
VERTEX
  8
1
  6
CONTINUOUS
 62
     7
 10
95.84170684424352
 20
103.1670365583078
  0
VERTEX
  8
1
  6
CONTINUOUS
 62
     7
 10
95.86616952120711
 20
103.1840862803205
  0
VERTEX
  8
1
  6
CONTINUOUS
 62
     7
 10
95.88975476886172
 20
103.2023313961918
  0
VERTEX
  8
1
  6
CONTINUOUS
 62
     7
 10
95.912404368759
 20
103.2217269066705
  0
VERTEX
  8
1
  6
CONTINUOUS
 62
     7
 10
95.93406239612582
 20
103.2422249834402
  0
VERTEX
  8
1
  6
CONTINUOUS
 62
     7
 10
95.95467535598404
 20
103.2637750841733
  0
VERTEX
  8
1
  6
CONTINUOUS
 62
     7
 10
95.97419231376516
 20
103.2863240740037
  0
VERTEX
  8
1
  6
CONTINUOUS
 62
     7
 10
95.99256502013452
 20
103.3098163531974
  0
VERTEX
  8
1
  6
CONTINUOUS
 62
     7
 10
96.00974802974257
 20
103.3341939907855
  0
VERTEX
  8
1
  6
CONTINUOUS
 62
     7
 10
96.02569881362353
 20
103.3593968639171
  0
VERTEX
  8
1
  6
CONTINUOUS
 62
     7
 10
96.04037786496386
 20
103.3853628026729
  0
VERTEX
  8
1
  6
CONTINUOUS
 62
     7
 10
96.05374879796773
 20
103.4120277400686
  0
VERTEX
  8
1
  6
CONTINUOUS
 62
     7
 10
96.06577843954989
 20
103.4393258669601
  0
VERTEX
  8
1
  6
CONTINUOUS
 62
     7
 10
96.07643691359272
 20
103.4671897915472
  0
VERTEX
  8
1
  6
CONTINUOUS
 62
     7
 10
96.08569771751094
 20
103.4955507031539
  0
VERTEX
  8
1
  6
CONTINUOUS
 62
     7
 10
96.09353779087617
 20
103.5243385399463
  0
VERTEX
  8
1
  6
CONTINUOUS
 62
     7
 10
96.09993757586383
 20
103.5534821602278
  0
VERTEX
  8
1
  6
CONTINUOUS
 62
     7
 10
96.10488106929786
 20
103.5829095169346
  0
VERTEX
  8
1
  6
CONTINUOUS
 62
     7
 10
96.10835586608303
 20
103.6125478349333
  0
VERTEX
  8
1
  6
CONTINUOUS
 62
     7
 10
96.11035319383207
 20
103.6423237907022
  0
VERTEX
  8
1
  6
CONTINUOUS
 62
     7
 10
96.11086793851399
 20
103.672163693962
  0
VERTEX
  8
1
  6
CONTINUOUS
 62
     7
 10
96.10989866097198
 20
103.7019936707991
  0
VERTEX
  8
1
  6
CONTINUOUS
 62
     7
 10
96.1074476041835
 20
103.7317398478131
  0
VERTEX
  8
1
  6
CONTINUOUS
 62
     7
 10
96.10352069116152
 20
103.7613285368002
  0
VERTEX
  8
1
  6
CONTINUOUS
 62
     7
 10
96.0981275134246
 20
103.7906864194722
  0
VERTEX
  8
1
  6
CONTINUOUS
 62
     7
 10
96.09128130999406
 20
103.8197407317022
  0
VERTEX
  8
1
  6
CONTINUOUS
 62
     7
 10
96.08299893690874
 20
103.8484194467741
  0
VERTEX
  8
1
  6
CONTINUOUS
 62
     7
 10
96.07330082728163
 20
103.8766514571112
  0
VERTEX
  8
1
  6
CONTINUOUS
 62
     7
 10
96.06221094195759
 20
103.9043667539548
  0
VERTEX
  8
1
  6
CONTINUOUS
 62
     7
 10
96.04975671086679
 20
103.9314966044619
  0
VERTEX
  8
1
  6
CONTINUOUS
 62
     7
 10
96.03596896520496
 20
103.9579737256976
  0
VERTEX
  8
1
  6
CONTINUOUS
 62
     7
 10
96.02088186060705
 20
103.9837324550006
  0
VERTEX
  8
1
  6
CONTINUOUS
 62
     7
 10
96.00453279151748
 20
104.0087089162136
  0
VERTEX
  8
1
  6
CONTINUOUS
 62
     7
 10
95.98696229699382
 20
104.0328411812807
  0
VERTEX
  8
1
  6
CONTINUOUS
 62
     7
 10
95.96821395821586
 20
104.0560694267313
  0
VERTEX
  8
1
  6
CONTINUOUS
 62
     7
 10
95.94833428800297
 20
104.0783360845904
  0
VERTEX
  8
1
  6
CONTINUOUS
 62
     7
 10
95.92737261267384
 20
104.0995859872747
  0
VERTEX
  8
1
  6
CONTINUOUS
 62
     7
 10
95.9053809466104
 20
104.1197665060622
  0
VERTEX
  8
1
  6
CONTINUOUS
 62
     7
 10
95.88241385991314
 20
104.1388276827462
  0
VERTEX
  8
1
  6
CONTINUOUS
 62
     7
 10
95.85852833955792
 20
104.1567223541168
  0
VERTEX
  8
1
  6
CONTINUOUS
 62
     7
 10
95.8337836444849
 20
104.1734062689414
  0
VERTEX
  8
1
  6
CONTINUOUS
 62
     7
 10
95.808241155066
 20
104.1888381971488
  0
VERTEX
  8
1
  6
CONTINUOUS
 62
     7
 10
95.7819642174121
 20
104.202980030954
  0
VERTEX
  8
1
  6
CONTINUOUS
 62
     7
 10
95.75501798299096
 20
104.2157968776924
  0
VERTEX
  8
1
  6
CONTINUOUS
 62
     7
 10
95.72746924403525
 20
104.2272571441679
  0
VERTEX
  8
1
  6
CONTINUOUS
 62
     7
 10
95.69938626522342
 20
104.2373326123493
  0
VERTEX
  8
1
  6
CONTINUOUS
 62
     7
 10
95.6708386121192
 20
104.2459985062845
  0
VERTEX
  8
1
  6
CONTINUOUS
 62
     7
 10
95.64189697685288
 20
104.2532335501306
  0
VERTEX
  8
1
  6
CONTINUOUS
 62
     7
 10
95.61263300152523
 20
104.2590200172305
  0
VERTEX
  8
1
  6
CONTINUOUS
 62
     7
 10
95.58311909980846
 20
104.2633437701924
  0
VERTEX
  8
1
  6
CONTINUOUS
 62
     7
 10
95.55342827721087
 20
104.2661942919586
  0
VERTEX
  8
1
  6
CONTINUOUS
 62
     7
 10
95.52363395046281
 20
104.267564707872
  0
VERTEX
  8
1
  6
CONTINUOUS
 62
     7
 10
95.49380976647018
 20
104.2674517987735
  0
VERTEX
  8
1
  6
CONTINUOUS
 62
     7
 10
95.4640294212707
 20
104.2658560051854
  0
VERTEX
  8
1
  6
CONTINUOUS
 62
     7
 10
95.43436647941459
 20
104.2627814226512
  0
VERTEX
  8
1
  6
CONTINUOUS
 62
     7
 10
95.40489419417953
 20
104.2582357883246
  0
VERTEX
  8
1
  6
CONTINUOUS
 62
     7
 10
95.37568532901521
 20
104.2522304589108
  0
VERTEX
  8
1
  6
CONTINUOUS
 62
     7
 10
95.356530463771
 20
104.24745940621
  0
SEQEND
  8
1
  6
CONTINUOUS
 62
     7
  0
POLYLINE
  8
1
  6
CONTINUOUS
 62
     7
 66
     1
  0
VERTEX
  8
1
  6
CONTINUOUS
 62
     7
 10
96.70057098808753
 20
99.22415944461444
  0
VERTEX
  8
1
  6
CONTINUOUS
 62
     7
 10
96.71529356727885
 20
99.22827582514454
  0
VERTEX
  8
1
  6
CONTINUOUS
 62
     7
 10
96.74368819135817
 20
99.23737941055198
  0
VERTEX
  8
1
  6
CONTINUOUS
 62
     7
 10
96.77159462079392
 20
99.247883392878
  0
VERTEX
  8
1
  6
CONTINUOUS
 62
     7
 10
96.79894400523185
 20
99.25976177801901
  0
VERTEX
  8
1
  6
CONTINUOUS
 62
     7
 10
96.82566887201496
 20
99.27298519869262
  0
VERTEX
  8
1
  6
CONTINUOUS
 62
     7
 10
96.85170328916671
 20
99.28752098676252
  0
VERTEX
  8
1
  6
CONTINUOUS
 62
     7
 10
96.8769830246536
 20
99.30333325315151
  0
VERTEX
  8
1
  6
CONTINUOUS
 62
     7
 10
96.9014457016172
 20
99.3203829751642
  0
VERTEX
  8
1
  6
CONTINUOUS
 62
     7
 10
96.9250309492718
 20
99.33862809103552
  0
VERTEX
  8
1
  6
CONTINUOUS
 62
     7
 10
96.94768054916908
 20
99.35802360151423
  0
VERTEX
  8
1
  6
CONTINUOUS
 62
     7
 10
96.9693385765359
 20
99.37852167828395
  0
VERTEX
  8
1
  6
CONTINUOUS
 62
     7
 10
96.98995153639413
 20
99.400071779017
  0
VERTEX
  8
1
  6
CONTINUOUS
 62
     7
 10
97.00946849417524
 20
99.42262076884745
  0
VERTEX
  8
1
  6
CONTINUOUS
 62
     7
 10
97.0278412005446
 20
99.44611304804116
  0
VERTEX
  8
1
  6
CONTINUOUS
 62
     7
 10
97.04502421015266
 20
99.47049068562927
  0
VERTEX
  8
1
  6
CONTINUOUS
 62
     7
 10
97.06097499403361
 20
99.49569355876085
  0
VERTEX
  8
1
  6
CONTINUOUS
 62
     7
 10
97.07565404537394
 20
99.52165949751665
  0
VERTEX
  8
1
  6
CONTINUOUS
 62
     7
 10
97.08902497837782
 20
99.54832443491232
  0
VERTEX
  8
1
  6
CONTINUOUS
 62
     7
 10
97.10105461995997
 20
99.57562256180383
  0
VERTEX
  8
1
  6
CONTINUOUS
 62
     7
 10
97.1117130940028
 20
99.60348648639089
  0
VERTEX
  8
1
  6
CONTINUOUS
 62
     7
 10
97.12097389792103
 20
99.63184739799766
  0
VERTEX
  8
1
  6
CONTINUOUS
 62
     7
 10
97.12881397128625
 20
99.66063523479006
  0
VERTEX
  8
1
  6
CONTINUOUS
 62
     7
 10
97.13521375627391
 20
99.68977885507151
  0
VERTEX
  8
1
  6
CONTINUOUS
 62
     7
 10
97.14015724970794
 20
99.71920621177831
  0
VERTEX
  8
1
  6
CONTINUOUS
 62
     7
 10
97.14363204649311
 20
99.74884452977699
  0
VERTEX
  8
1
  6
CONTINUOUS
 62
     7
 10
97.14562937424215
 20
99.77862048554594
  0
VERTEX
  8
1
  6
CONTINUOUS
 62
     7
 10
97.14614411892407
 20
99.8084603888057
  0
VERTEX
  8
1
  6
CONTINUOUS
 62
     7
 10
97.14517484138206
 20
99.83829036564279
  0
VERTEX
  8
1
  6
CONTINUOUS
 62
     7
 10
97.14272378459358
 20
99.86803654265687
  0
VERTEX
  8
1
  6
CONTINUOUS
 62
     7
 10
97.1387968715716
 20
99.89762523164389
  0
VERTEX
  8
1
  6
CONTINUOUS
 62
     7
 10
97.13340369383468
 20
99.92698311431592
  0
VERTEX
  8
1
  6
CONTINUOUS
 62
     7
 10
97.12655749040414
 20
99.95603742654593
  0
VERTEX
  8
1
  6
CONTINUOUS
 62
     7
 10
97.1182751173188
 20
99.98471614161778
  0
VERTEX
  8
1
  6
CONTINUOUS
 62
     7
 10
97.10857700769171
 20
100.0129481519549
  0
VERTEX
  8
1
  6
CONTINUOUS
 62
     7
 10
97.09748712236767
 20
100.0406634487985
  0
VERTEX
  8
1
  6
CONTINUOUS
 62
     7
 10
97.08503289127688
 20
100.0677932993056
  0
VERTEX
  8
1
  6
CONTINUOUS
 62
     7
 10
97.07124514561504
 20
100.0942704205413
  0
VERTEX
  8
1
  6
CONTINUOUS
 62
     7
 10
97.05615804101713
 20
100.1200291498443
  0
VERTEX
  8
1
  6
CONTINUOUS
 62
     7
 10
97.03980897192756
 20
100.1450056110574
  0
VERTEX
  8
1
  6
CONTINUOUS
 62
     7
 10
97.0222384774039
 20
100.1691378761245
  0
VERTEX
  8
1
  6
CONTINUOUS
 62
     7
 10
97.00349013862595
 20
100.1923661215751
  0
VERTEX
  8
1
  6
CONTINUOUS
 62
     7
 10
96.98361046841303
 20
100.2146327794341
  0
VERTEX
  8
1
  6
CONTINUOUS
 62
     7
 10
96.96264879308391
 20
100.2358826821184
  0
VERTEX
  8
1
  6
CONTINUOUS
 62
     7
 10
96.94065712702049
 20
100.2560632009059
  0
VERTEX
  8
1
  6
CONTINUOUS
 62
     7
 10
96.91769004032322
 20
100.27512437759
  0
VERTEX
  8
1
  6
CONTINUOUS
 62
     7
 10
96.893804519968
 20
100.2930190489606
  0
VERTEX
  8
1
  6
CONTINUOUS
 62
     7
 10
96.86905982489498
 20
100.3097029637851
  0
VERTEX
  8
1
  6
CONTINUOUS
 62
     7
 10
96.8435173354761
 20
100.3251348919925
  0
VERTEX
  8
1
  6
CONTINUOUS
 62
     7
 10
96.81724039782218
 20
100.3392767257977
  0
VERTEX
  8
1
  6
CONTINUOUS
 62
     7
 10
96.79029416340106
 20
100.3520935725362
  0
VERTEX
  8
1
  6
CONTINUOUS
 62
     7
 10
96.76274542444533
 20
100.3635538390117
  0
VERTEX
  8
1
  6
CONTINUOUS
 62
     7
 10
96.7346624456335
 20
100.3736293071931
  0
VERTEX
  8
1
  6
CONTINUOUS
 62
     7
 10
96.70611479252928
 20
100.3822952011282
  0
VERTEX
  8
1
  6
CONTINUOUS
 62
     7
 10
96.67717315726296
 20
100.3895302449743
  0
VERTEX
  8
1
  6
CONTINUOUS
 62
     7
 10
96.6479091819353
 20
100.3953167120742
  0
VERTEX
  8
1
  6
CONTINUOUS
 62
     7
 10
96.61839528021854
 20
100.3996404650361
  0
VERTEX
  8
1
  6
CONTINUOUS
 62
     7
 10
96.58870445762096
 20
100.4024909868024
  0
VERTEX
  8
1
  6
CONTINUOUS
 62
     7
 10
96.55891013087289
 20
100.4038614027157
  0
VERTEX
  8
1
  6
CONTINUOUS
 62
     7
 10
96.52908594688027
 20
100.4037484936173
  0
VERTEX
  8
1
  6
CONTINUOUS
 62
     7
 10
96.49930560168076
 20
100.4021527000291
  0
VERTEX
  8
1
  6
CONTINUOUS
 62
     7
 10
96.46964265982469
 20
100.399078117495
  0
VERTEX
  8
1
  6
CONTINUOUS
 62
     7
 10
96.44017037458961
 20
100.3945324831683
  0
VERTEX
  8
1
  6
CONTINUOUS
 62
     7
 10
96.41096150942529
 20
100.3885271537545
  0
VERTEX
  8
1
  6
CONTINUOUS
 62
     7
 10
96.39180664418106
 20
100.3837561010537
  0
SEQEND
  8
1
  6
CONTINUOUS
 62
     7
  0
POLYLINE
  8
1
  6
CONTINUOUS
 62
     7
 66
     1
  0
VERTEX
  8
1
  6
CONTINUOUS
 62
     7
 10
97.73584716849763
 20
95.36045613945818
  0
VERTEX
  8
1
  6
CONTINUOUS
 62
     7
 10
97.75056974768893
 20
95.36457251998826
  0
VERTEX
  8
1
  6
CONTINUOUS
 62
     7
 10
97.77896437176825
 20
95.3736761053957
  0
VERTEX
  8
1
  6
CONTINUOUS
 62
     7
 10
97.80687080120401
 20
95.38418008772173
  0
VERTEX
  8
1
  6
CONTINUOUS
 62
     7
 10
97.83422018564194
 20
95.39605847286273
  0
VERTEX
  8
1
  6
CONTINUOUS
 62
     7
 10
97.86094505242505
 20
95.40928189353635
  0
VERTEX
  8
1
  6
CONTINUOUS
 62
     7
 10
97.88697946957679
 20
95.42381768160625
  0
VERTEX
  8
1
  6
CONTINUOUS
 62
     7
 10
97.91225920506368
 20
95.43962994799523
  0
VERTEX
  8
1
  6
CONTINUOUS
 62
     7
 10
97.93672188202729
 20
95.45667967000793
  0
VERTEX
  8
1
  6
CONTINUOUS
 62
     7
 10
97.96030712968188
 20
95.47492478587925
  0
VERTEX
  8
1
  6
CONTINUOUS
 62
     7
 10
97.98295672957917
 20
95.49432029635796
  0
VERTEX
  8
1
  6
CONTINUOUS
 62
     7
 10
98.00461475694598
 20
95.51481837312768
  0
VERTEX
  8
1
  6
CONTINUOUS
 62
     7
 10
98.02522771680421
 20
95.53636847386072
  0
VERTEX
  8
1
  6
CONTINUOUS
 62
     7
 10
98.04474467458533
 20
95.55891746369117
  0
VERTEX
  8
1
  6
CONTINUOUS
 62
     7
 10
98.0631173809547
 20
95.58240974288486
  0
VERTEX
  8
1
  6
CONTINUOUS
 62
     7
 10
98.08030039056274
 20
95.606787380473
  0
VERTEX
  8
1
  6
CONTINUOUS
 62
     7
 10
98.0962511744437
 20
95.63199025360458
  0
VERTEX
  8
1
  6
CONTINUOUS
 62
     7
 10
98.11093022578403
 20
95.65795619236036
  0
VERTEX
  8
1
  6
CONTINUOUS
 62
     7
 10
98.1243011587879
 20
95.68462112975605
  0
VERTEX
  8
1
  6
CONTINUOUS
 62
     7
 10
98.13633080037005
 20
95.71191925664755
  0
VERTEX
  8
1
  6
CONTINUOUS
 62
     7
 10
98.14698927441287
 20
95.73978318123461
  0
VERTEX
  8
1
  6
CONTINUOUS
 62
     7
 10
98.1562500783311
 20
95.76814409284138
  0
VERTEX
  8
1
  6
CONTINUOUS
 62
     7
 10
98.16409015169634
 20
95.79693192963379
  0
VERTEX
  8
1
  6
CONTINUOUS
 62
     7
 10
98.170489936684
 20
95.82607554991523
  0
VERTEX
  8
1
  6
CONTINUOUS
 62
     7
 10
98.17543343011803
 20
95.85550290662205
  0
VERTEX
  8
1
  6
CONTINUOUS
 62
     7
 10
98.1789082269032
 20
95.88514122462071
  0
VERTEX
  8
1
  6
CONTINUOUS
 62
     7
 10
98.18090555465224
 20
95.91491718038968
  0
VERTEX
  8
1
  6
CONTINUOUS
 62
     7
 10
98.18142029933416
 20
95.94475708364942
  0
VERTEX
  8
1
  6
CONTINUOUS
 62
     7
 10
98.18045102179214
 20
95.97458706048651
  0
VERTEX
  8
1
  6
CONTINUOUS
 62
     7
 10
98.17799996500368
 20
96.0043332375006
  0
VERTEX
  8
1
  6
CONTINUOUS
 62
     7
 10
98.17407305198168
 20
96.03392192648762
  0
VERTEX
  8
1
  6
CONTINUOUS
 62
     7
 10
98.16867987424477
 20
96.06327980915964
  0
VERTEX
  8
1
  6
CONTINUOUS
 62
     7
 10
98.16183367081423
 20
96.09233412138965
  0
VERTEX
  8
1
  6
CONTINUOUS
 62
     7
 10
98.1535512977289
 20
96.12101283646152
  0
VERTEX
  8
1
  6
CONTINUOUS
 62
     7
 10
98.14385318810179
 20
96.14924484679864
  0
VERTEX
  8
1
  6
CONTINUOUS
 62
     7
 10
98.13276330277776
 20
96.17696014364222
  0
VERTEX
  8
1
  6
CONTINUOUS
 62
     7
 10
98.12030907168696
 20
96.20408999414934
  0
VERTEX
  8
1
  6
CONTINUOUS
 62
     7
 10
98.1065213260251
 20
96.23056711538501
  0
VERTEX
  8
1
  6
CONTINUOUS
 62
     7
 10
98.0914342214272
 20
96.25632584468802
  0
VERTEX
  8
1
  6
CONTINUOUS
 62
     7
 10
98.07508515233764
 20
96.28130230590108
  0
VERTEX
  8
1
  6
CONTINUOUS
 62
     7
 10
98.057514657814
 20
96.30543457096819
  0
VERTEX
  8
1
  6
CONTINUOUS
 62
     7
 10
98.03876631903603
 20
96.3286628164188
  0
VERTEX
  8
1
  6
CONTINUOUS
 62
     7
 10
98.01888664882313
 20
96.3509294742778
  0
VERTEX
  8
1
  6
CONTINUOUS
 62
     7
 10
97.997924973494
 20
96.37217937696211
  0
VERTEX
  8
1
  6
CONTINUOUS
 62
     7
 10
97.97593330743058
 20
96.39235989574962
  0
VERTEX
  8
1
  6
CONTINUOUS
 62
     7
 10
97.9529662207333
 20
96.4114210724337
  0
VERTEX
  8
1
  6
CONTINUOUS
 62
     7
 10
97.9290807003781
 20
96.4293157438043
  0
VERTEX
  8
1
  6
CONTINUOUS
 62
     7
 10
97.90433600530507
 20
96.44599965862885
  0
VERTEX
  8
1
  6
CONTINUOUS
 62
     7
 10
97.87879351588617
 20
96.46143158683626
  0
VERTEX
  8
1
  6
CONTINUOUS
 62
     7
 10
97.85251657823227
 20
96.47557342064144
  0
VERTEX
  8
1
  6
CONTINUOUS
 62
     7
 10
97.82557034381114
 20
96.4883902673799
  0
VERTEX
  8
1
  6
CONTINUOUS
 62
     7
 10
97.79802160485539
 20
96.49985053385538
  0
VERTEX
  8
1
  6
CONTINUOUS
 62
     7
 10
97.76993862604358
 20
96.50992600203678
  0
VERTEX
  8
1
  6
CONTINUOUS
 62
     7
 10
97.74139097293936
 20
96.51859189597194
  0
VERTEX
  8
1
  6
CONTINUOUS
 62
     7
 10
97.71244933767304
 20
96.52582693981806
  0
VERTEX
  8
1
  6
CONTINUOUS
 62
     7
 10
97.6831853623454
 20
96.53161340691794
  0
VERTEX
  8
1
  6
CONTINUOUS
 62
     7
 10
97.65367146062862
 20
96.53593715987988
  0
VERTEX
  8
1
  6
CONTINUOUS
 62
     7
 10
97.62398063803104
 20
96.53878768164608
  0
VERTEX
  8
1
  6
CONTINUOUS
 62
     7
 10
97.59418631128297
 20
96.54015809755941
  0
VERTEX
  8
1
  6
CONTINUOUS
 62
     7
 10
97.56436212729035
 20
96.54004518846098
  0
VERTEX
  8
1
  6
CONTINUOUS
 62
     7
 10
97.53458178209085
 20
96.53844939487287
  0
VERTEX
  8
1
  6
CONTINUOUS
 62
     7
 10
97.50491884023477
 20
96.53537481233867
  0
VERTEX
  8
1
  6
CONTINUOUS
 62
     7
 10
97.4754465549997
 20
96.53082917801206
  0
VERTEX
  8
1
  6
CONTINUOUS
 62
     7
 10
97.44623768983539
 20
96.52482384859822
  0
VERTEX
  8
1
  6
CONTINUOUS
 62
     7
 10
97.42708282459115
 20
96.52005279589747
  0
SEQEND
  8
1
  6
CONTINUOUS
 62
     7
  0
CIRCLE
  8
1
  6
CONTINUOUS
 62
     7
 10
104.0
 20
75.00000000000001
 40
2.505282217891633
  0
CIRCLE
  8
1
  6
CONTINUOUS
 62
     7
 10
116.0
 20
75.00000000000001
 40
2.505282217891633
  0
ENDBLK
  8
0
  0
ENDSEC
  0
SECTION
  2
ENTITIES
  0
TEXT
  8
1
  6
CONTINUOUS
 62
     7
 10
152.8219426034763
 20
7.3284200325122
 40
3.0
  1
SBP-KL
  0
INSERT
  8
1
  6
CONTINUOUS
 62
     7
  2
D_FRAME_VIEW_2261
 10
0.0
 20
0.0
 30
0.0
  0
INSERT
  8
1
  6
CONTINUOUS
 62
     7
  2
D_FRAME_VIEW_2135
 10
0.0
 20
0.0
 30
0.0
  0
LINE
  8
1
  6
CENTER
 62
     1
 10
110.0
 20
135.0
 11
110.0
 21
195.0
  0
LINE
  8
1
  6
CENTER
 62
     1
 10
252.0000005552204
 20
74.9999982861758
 11
180.0000001850735
 21
75.00000050705769
  0
INSERT
  8
1
  6
CONTINUOUS
 62
     7
  2
D_FRAME_VIEW_1815
 10
0.0
 20
0.0
 30
0.0
  0
LINE
  8
1
  6
CENTER
 62
     1
 10
110.0
 20
22.00000000000002
 11
110.0
 21
128.0
  0
LINE
  8
1
  6
CENTER
 62
     1
 10
56.99999999999999
 20
75.00000000000001
 11
163.0
 21
75.00000000000001
  0
ENDSEC
  0
EOF
