  0
SECTION
  2
HEADER
  9
$ACADVER
  1
AC1014
  9
$ACADMAINTVER
 70
     9
  9
$DWGCODEPAGE
  3
ANSI_932
  9
$INSBASE
 10
0.0
 20
0.0
 30
0.0
  9
$EXTMIN
 10
7403.8943790087
 20
-820.7456433636363
 30
0.0
  9
$EXTMAX
 10
7669.8943790631
 20
-638.6948569555
 30
0.0
  9
$LIMMIN
 10
0.0
 20
0.0
  9
$LIMMAX
 10
12.0
 20
9.0
  9
$ORTHOMODE
 70
     0
  9
$REGENMODE
 70
     1
  9
$FILLMODE
 70
     1
  9
$QTEXTMODE
 70
     0
  9
$MIRRTEXT
 70
     1
  9
$DRAGMODE
 70
     2
  9
$LTSCALE
 40
1.0
  9
$OSMODE
 70
    37
  9
$ATTMODE
 70
     1
  9
$TEXTSIZE
 40
0.2
  9
$TRACEWID
 40
0.05
  9
$TEXTSTYLE
  7
STANDARD
  9
$CLAYER
  8
0
  9
$CELTYPE
  6
BYLAYER
  9
$CECOLOR
 62
   256
  9
$CELTSCALE
 40
1.0
  9
$DELOBJ
 70
     1
  9
$DISPSILH
 70
     0
  9
$DIMSCALE
 40
1.0
  9
$DIMASZ
 40
2.0
  9
$DIMEXO
 40
0.0625
  9
$DIMDLI
 40
0.38
  9
$DIMRND
 40
0.0
  9
$DIMDLE
 40
0.0
  9
$DIMEXE
 40
1.0
  9
$DIMTP
 40
0.0
  9
$DIMTM
 40
0.0
  9
$DIMTXT
 40
3.5
  9
$DIMCEN
 40
0.09
  9
$DIMTSZ
 40
0.0
  9
$DIMTOL
 70
     0
  9
$DIMLIM
 70
     0
  9
$DIMTIH
 70
     1
  9
$DIMTOH
 70
     1
  9
$DIMSE1
 70
     0
  9
$DIMSE2
 70
     0
  9
$DIMTAD
 70
     1
  9
$DIMZIN
 70
     0
  9
$DIMBLK
  1

  9
$DIMASO
 70
     1
  9
$DIMSHO
 70
     1
  9
$DIMPOST
  1

  9
$DIMAPOST
  1

  9
$DIMALT
 70
     0
  9
$DIMALTD
 70
     2
  9
$DIMALTF
 40
25.4
  9
$DIMLFAC
 40
1.0
  9
$DIMTOFL
 70
     0
  9
$DIMTVP
 40
0.0
  9
$DIMTIX
 70
     0
  9
$DIMSOXD
 70
     0
  9
$DIMSAH
 70
     0
  9
$DIMBLK1
  1

  9
$DIMBLK2
  1

  9
$DIMSTYLE
  2
STANDARD
  9
$DIMCLRD
 70
     0
  9
$DIMCLRE
 70
     0
  9
$DIMCLRT
 70
     0
  9
$DIMTFAC
 40
1.0
  9
$DIMGAP
 40
1.75
  9
$DIMJUST
 70
     0
  9
$DIMSD1
 70
     0
  9
$DIMSD2
 70
     0
  9
$DIMTOLJ
 70
     1
  9
$DIMTZIN
 70
     0
  9
$DIMALTZ
 70
     0
  9
$DIMALTTZ
 70
     0
  9
$DIMFIT
 70
     3
  9
$DIMUPT
 70
     0
  9
$DIMUNIT
 70
     2
  9
$DIMDEC
 70
     2
  9
$DIMTDEC
 70
     4
  9
$DIMALTU
 70
     2
  9
$DIMALTTD
 70
     2
  9
$DIMTXSTY
  7
ＭＳ_ゴシック
  9
$DIMAUNIT
 70
     0
  9
$LUNITS
 70
     2
  9
$LUPREC
 70
     4
  9
$SKETCHINC
 40
0.1
  9
$FILLETRAD
 40
0.5
  9
$AUNITS
 70
     0
  9
$AUPREC
 70
     0
  9
$MENU
  1
.
  9
$ELEVATION
 40
0.0
  9
$PELEVATION
 40
0.0
  9
$THICKNESS
 40
0.0
  9
$LIMCHECK
 70
     0
  9
$CHAMFERA
 40
0.0
  9
$CHAMFERB
 40
0.0
  9
$CHAMFERC
 40
0.0
  9
$CHAMFERD
 40
0.0
  9
$SKPOLY
 70
     0
  9
$TDCREATE
 40
2459905.609120428
  9
$TDUPDATE
 40
2459905.609120718
  9
$TDINDWG
 40
0.0000000116
  9
$TDUSRTIMER
 40
0.0000000116
  9
$USRTIMER
 70
     1
  9
$ANGBASE
 50
0.0
  9
$ANGDIR
 70
     0
  9
$PDMODE
 70
     0
  9
$PDSIZE
 40
0.0
  9
$PLINEWID
 40
0.0
  9
$COORDS
 70
     1
  9
$SPLFRAME
 70
     0
  9
$SPLINETYPE
 70
     6
  9
$SPLINESEGS
 70
     8
  9
$ATTDIA
 70
     0
  9
$ATTREQ
 70
     1
  9
$HANDLING
 70
     1
  9
$HANDSEED
  5
35C
  9
$SURFTAB1
 70
     6
  9
$SURFTAB2
 70
     6
  9
$SURFTYPE
 70
     6
  9
$SURFU
 70
     6
  9
$SURFV
 70
     6
  9
$UCSNAME
  2

  9
$UCSORG
 10
0.0
 20
0.0
 30
0.0
  9
$UCSXDIR
 10
1.0
 20
0.0
 30
0.0
  9
$UCSYDIR
 10
0.0
 20
1.0
 30
0.0
  9
$PUCSNAME
  2

  9
$PUCSORG
 10
0.0
 20
0.0
 30
0.0
  9
$PUCSXDIR
 10
1.0
 20
0.0
 30
0.0
  9
$PUCSYDIR
 10
0.0
 20
1.0
 30
0.0
  9
$USERI1
 70
     0
  9
$USERI2
 70
     0
  9
$USERI3
 70
     0
  9
$USERI4
 70
     0
  9
$USERI5
 70
     0
  9
$USERR1
 40
0.0
  9
$USERR2
 40
0.0
  9
$USERR3
 40
0.0
  9
$USERR4
 40
0.0
  9
$USERR5
 40
0.0
  9
$WORLDVIEW
 70
     1
  9
$SHADEDGE
 70
     3
  9
$SHADEDIF
 70
    70
  9
$TILEMODE
 70
     1
  9
$MAXACTVP
 70
    64
  9
$PINSBASE
 10
0.0
 20
0.0
 30
0.0
  9
$PLIMCHECK
 70
     0
  9
$PEXTMIN
 10
1.000000000000000E+20
 20
1.000000000000000E+20
 30
1.000000000000000E+20
  9
$PEXTMAX
 10
-1.000000000000000E+20
 20
-1.000000000000000E+20
 30
-1.000000000000000E+20
  9
$PLIMMIN
 10
0.0
 20
0.0
  9
$PLIMMAX
 10
12.0
 20
9.0
  9
$UNITMODE
 70
     0
  9
$VISRETAIN
 70
     1
  9
$PLINEGEN
 70
     0
  9
$PSLTSCALE
 70
     1
  9
$TREEDEPTH
 70
  3020
  9
$PICKSTYLE
 70
     1
  9
$CMLSTYLE
  2
STANDARD
  9
$CMLJUST
 70
     0
  9
$CMLSCALE
 40
1.0
  9
$PROXYGRAPHICS
 70
     1
  9
$MEASUREMENT
 70
     1
  0
ENDSEC
  0
SECTION
  2
CLASSES
  0
CLASS
  1
ACDBDICTIONARYWDFLT
  2
AcDbDictionaryWithDefault
  3
ObjectDBX Classes
 90
        0
280
     0
281
     0
  0
CLASS
  1
VISUALSTYLE
  2
AcDbVisualStyle
  3
ObjectDBX Classes
 90
     4095
280
     0
281
     0
  0
CLASS
  1
MATERIAL
  2
AcDbMaterial
  3
ObjectDBX Classes
 90
     1153
280
     0
281
     0
  0
CLASS
  1
SCALE
  2
AcDbScale
  3
ObjectDBX Classes
 90
     1153
280
     0
281
     0
  0
CLASS
  1
TABLESTYLE
  2
AcDbTableStyle
  3
ObjectDBX Classes
 90
     4095
280
     0
281
     0
  0
CLASS
  1
MLEADERSTYLE
  2
AcDbMLeaderStyle
  3
ACDB_MLEADERSTYLE_CLASS
 90
     4095
280
     0
281
     0
  0
CLASS
  1
SUN
  2
AcDbSun
  3
SCENEOE
 90
     1153
280
     0
281
     0
  0
CLASS
  1
DICTIONARYVAR
  2
AcDbDictionaryVar
  3
ObjectDBX Classes
 90
        0
280
     0
281
     0
  0
CLASS
  1
XRECORD
  2
AcDbXrecord
  3
ObjectDBX Classes
 90
        0
280
     0
281
     0
  0
CLASS
  1
LWPOLYLINE
  2
AcDbPolyline
  3
ObjectDBX Classes
 90
        0
280
     0
281
     1
  0
CLASS
  1
HATCH
  2
AcDbHatch
  3
ObjectDBX Classes
 90
        0
280
     0
281
     1
  0
CLASS
  1
ACDBPLACEHOLDER
  2
AcDbPlaceHolder
  3
ObjectDBX Classes
 90
        0
280
     0
281
     0
  0
CLASS
  1
LAYOUT
  2
AcDbLayout
  3
ObjectDBX Classes
 90
        0
280
     0
281
     0
  0
ENDSEC
  0
SECTION
  2
TABLES
  0
TABLE
  2
VPORT
  5
8
102
{ACAD_XDICTIONARY
360
351
102
}
330
0
100
AcDbSymbolTable
 70
     1
  0
VPORT
  5
29
330
8
100
AcDbSymbolTableRecord
100
AcDbViewportTableRecord
  2
*ACTIVE
 70
     0
 10
0.0
 20
0.0
 11
1.0
 21
1.0
 12
7536.8943790359
 22
-729.7202501595682
 13
0.0
 23
0.0
 14
0.5
 24
0.5
 15
0.5
 25
0.5
 16
0.0
 26
0.0
 36
1.0
 17
0.0
 27
0.0
 37
0.0
 40
182.0507864081363
 41
1.6
 42
50.0
 43
0.0
 44
0.0
 50
0.0
 51
0.0
 71
     0
 72
   100
 73
     1
 74
     3
 75
     0
 76
     0
 77
     0
 78
     0
  0
ENDTAB
  0
TABLE
  2
LTYPE
  5
5
330
0
100
AcDbSymbolTable
 70
     2
  0
LTYPE
  5
14
330
5
100
AcDbSymbolTableRecord
100
AcDbLinetypeTableRecord
  2
BYBLOCK
 70
     0
  3

 72
    65
 73
     0
 40
0.0
  0
LTYPE
  5
15
330
5
100
AcDbSymbolTableRecord
100
AcDbLinetypeTableRecord
  2
BYLAYER
 70
     0
  3

 72
    65
 73
     0
 40
0.0
  0
LTYPE
  5
16
330
5
100
AcDbSymbolTableRecord
100
AcDbLinetypeTableRecord
  2
CONTINUOUS
 70
     0
  3
Solid line
 72
    65
 73
     0
 40
0.0
  0
LTYPE
  5
E9
330
5
100
AcDbSymbolTableRecord
100
AcDbLinetypeTableRecord
  2
CENTER
 70
     0
  3

 72
    65
 73
     0
 40
0.0
  0
ENDTAB
  0
TABLE
  2
LAYER
  5
2
330
0
100
AcDbSymbolTable
 70
     2
  0
LAYER
  5
10
330
2
100
AcDbSymbolTableRecord
100
AcDbLayerTableRecord
  2
0
 70
     0
 62
     7
  6
CONTINUOUS
  0
LAYER
  5
6E
330
2
100
AcDbSymbolTableRecord
100
AcDbLayerTableRecord
  2
1
 70
     0
 62
     7
  6
CONTINUOUS
  0
ENDTAB
  0
TABLE
  2
STYLE
  5
3
330
0
100
AcDbSymbolTable
 70
     2
  0
STYLE
  5
11
330
3
100
AcDbSymbolTableRecord
100
AcDbTextStyleTableRecord
  2
STANDARD
 70
     0
 40
0.0
 41
1.0
 50
0.0
 71
     0
 42
0.2
  3
txt
  4

  0
STYLE
  5
6F
330
3
100
AcDbSymbolTableRecord
100
AcDbTextStyleTableRecord
  2
ＭＳ_ゴシック
 70
     0
 40
0.0
 41
1.0
 50
0.0
 71
     0
 42
0.2
  3
ＭＳ ゴシック.shx
  4

  0
ENDTAB
  0
TABLE
  2
VIEW
  5
6
330
0
100
AcDbSymbolTable
 70
     0
  0
ENDTAB
  0
TABLE
  2
UCS
  5
7
330
0
100
AcDbSymbolTable
 70
     0
  0
ENDTAB
  0
TABLE
  2
APPID
  5
9
330
0
100
AcDbSymbolTable
 70
     2
  0
APPID
  5
12
330
9
100
AcDbSymbolTableRecord
100
AcDbRegAppTableRecord
  2
ACAD
 70
     0
  0
APPID
  5
35B
330
9
100
AcDbSymbolTableRecord
100
AcDbRegAppTableRecord
  2
ACAD_MLEADERVER
 70
     0
  0
ENDTAB
  0
TABLE
  2
DIMSTYLE
  5
A
330
0
100
AcDbSymbolTable
 70
     1
  0
DIMSTYLE
105
27
330
A
100
AcDbSymbolTableRecord
100
AcDbDimStyleTableRecord
  2
STANDARD
 70
     0
  3

  4

  5

  6

  7

 40
1.0
 41
0.18
 42
0.0625
 43
0.38
 44
0.18
 45
0.0
 46
0.0
 47
0.0
 48
0.0
140
0.18
141
0.09
142
0.0
143
25.4
144
1.0
145
0.0
146
1.0
147
0.09
 71
     0
 72
     0
 73
     1
 74
     1
 75
     0
 76
     0
 77
     0
 78
     0
170
     0
171
     2
172
     0
173
     0
174
     0
175
     0
176
     0
177
     0
178
     0
270
     2
271
     4
272
     4
273
     2
274
     2
340
11
275
     0
280
     0
281
     0
282
     0
283
     1
284
     0
285
     0
286
     0
287
     3
288
     0
  0
ENDTAB
  0
TABLE
  2
BLOCK_RECORD
  5
1
330
0
100
AcDbSymbolTable
 70
     0
  0
BLOCK_RECORD
  5
1F
330
1
100
AcDbSymbolTableRecord
100
AcDbBlockTableRecord
  2
*MODEL_SPACE
  0
BLOCK_RECORD
  5
1B
330
1
100
AcDbSymbolTableRecord
100
AcDbBlockTableRecord
  2
*PAPER_SPACE
  0
ENDTAB
  0
ENDSEC
  0
SECTION
  2
BLOCKS
  0
BLOCK
  5
20
330
1F
100
AcDbEntity
  8
0
100
AcDbBlockBegin
  2
*MODEL_SPACE
 70
     0
 10
0.0
 20
0.0
 30
0.0
  3
*MODEL_SPACE
  1

  0
ENDBLK
  5
21
330
1F
100
AcDbEntity
  8
0
100
AcDbBlockEnd
  0
BLOCK
  5
1C
330
1B
100
AcDbEntity
 67
     1
  8
0
100
AcDbBlockBegin
  2
*PAPER_SPACE
 70
     0
 10
0.0
 20
0.0
 30
0.0
  3
*PAPER_SPACE
  1

  0
ENDBLK
  5
1D
330
1B
100
AcDbEntity
 67
     1
  8
0
100
AcDbBlockEnd
  0
ENDSEC
  0
SECTION
  2
ENTITIES
  0
LINE
  5
70
330
1F
100
AcDbEntity
  8
1
  6
CONTINUOUS
 62
     7
100
AcDbLine
 10
7517.5771101329
 20
-714.9224284325
 30
0.0
 11
7516.0426101329
 21
-713.0624284325
 31
0.0
  0
LINE
  5
71
330
1F
100
AcDbEntity
  8
1
  6
CONTINUOUS
 62
     7
100
AcDbLine
 10
7534.991997056
 20
-680.327285479
 30
0.0
 11
7534.991997056
 21
-680.606285479
 31
0.0
  0
LINE
  5
72
330
1F
100
AcDbEntity
  8
1
  6
CONTINUOUS
 62
     7
100
AcDbLine
 10
7497.8943790634
 20
-680.7948569555
 30
0.0
 11
7505.8943790631
 21
-680.7948569555
 31
0.0
  0
LINE
  5
73
330
1F
100
AcDbEntity
  8
1
  6
CONTINUOUS
 62
     7
100
AcDbLine
 10
7526.9581426787
 20
-680.606285479
 30
0.0
 11
7526.9581426787
 21
-680.327285479
 31
0.0
  0
LINE
  5
74
330
1F
100
AcDbEntity
  8
1
  6
CONTINUOUS
 62
     7
100
AcDbLine
 10
7608.042610133
 20
-712.7834284325
 30
0.0
 11
7614.831610133
 21
-712.7834284325
 31
0.0
  0
CIRCLE
  5
75
330
1F
100
AcDbEntity
  8
1
  6
CONTINUOUS
 62
     7
100
AcDbCircle
 10
7593.8943790631
 20
-678.4448569554
 30
0.0
 40
8.2999999999
  0
LINE
  5
76
330
1F
100
AcDbEntity
  8
1
  6
CONTINUOUS
 62
     7
100
AcDbLine
 10
7605.2632557557
 20
-714.9224284325
 30
0.0
 11
7606.7977557557
 21
-713.0624284325
 31
0.0
  0
LINE
  5
77
330
1F
100
AcDbEntity
  8
1
  6
CONTINUOUS
 62
     7
100
AcDbLine
 10
7488.5573600748
 20
-669.1948466367
 30
0.0
 11
7489.0033556015
 21
-669.1948466469
 31
0.0
  0
LINE
  5
78
330
1F
100
AcDbEntity
  8
1
  6
CONTINUOUS
 62
     7
100
AcDbLine
 10
7497.8943790634
 20
-678.5948569555
 30
0.0
 11
7505.8943790631
 21
-678.5948569555
 31
0.0
  0
LINE
  5
79
330
1F
100
AcDbEntity
  8
1
  6
CONTINUOUS
 62
     7
100
AcDbLine
 10
7531.8601726787
 20
-652.706285479
 30
0.0
 11
7528.8451126787
 21
-652.706285479
 31
0.0
  0
LINE
  5
7A
330
1F
100
AcDbEntity
  8
1
  6
CONTINUOUS
 62
     7
100
AcDbLine
 10
7497.8943790631
 20
-678.5948569555
 30
0.0
 11
7497.8943790631
 21
-680.7948569555
 31
0.0
  0
LINE
  5
7B
330
1F
100
AcDbEntity
  8
1
  6
CONTINUOUS
 62
     7
100
AcDbLine
 10
7633.8943790631
 20
-738.4448569401
 30
0.0
 11
7633.8943790631
 21
-744.9448569555
 31
0.0
  0
LINE
  5
7C
330
1F
100
AcDbEntity
  8
1
  6
CONTINUOUS
 62
     7
100
AcDbLine
 10
7589.8943790631
 20
-713.8448569554
 30
0.0
 11
7589.8943790631
 21
-716.0448569554
 31
0.0
  0
LINE
  5
7D
330
1F
100
AcDbEntity
  8
1
  6
CONTINUOUS
 62
     7
100
AcDbLine
 10
7522.8316101329
 20
-713.0624284325
 30
0.0
 11
7521.2971101329
 21
-714.9224284325
 31
0.0
  0
ARC
  5
7E
330
1F
100
AcDbEntity
  8
1
  6
CONTINUOUS
 62
     7
100
AcDbCircle
 10
7487.4256292996
 20
-721.6948672643
 30
0.0
 40
1.8739496698
100
AcDbArc
 50
151.2917378899
 51
155.85055523
  0
ARC
  5
7F
330
1F
100
AcDbEntity
  8
1
  6
CONTINUOUS
 62
     7
100
AcDbCircle
 10
7493.5092500926
 20
-671.6948466457
 30
0.0
 40
5.1529685774
100
AcDbArc
 50
150.9772253196
 51
209.0227747102
  0
LINE
  5
80
330
1F
100
AcDbEntity
  8
1
  6
CONTINUOUS
 62
     7
100
AcDbLine
 10
7509.5432557556
 20
-714.9224284325
 30
0.0
 11
7513.2632557556
 21
-714.9224284325
 31
0.0
  0
LINE
  5
81
330
1F
100
AcDbEntity
  8
1
  6
CONTINUOUS
 62
     7
100
AcDbLine
 10
7534.991997056
 20
-680.606285479
 30
0.0
 11
7541.780997056
 21
-680.606285479
 31
0.0
  0
LINE
  5
82
330
1F
100
AcDbEntity
  8
1
  6
CONTINUOUS
 62
     7
100
AcDbLine
 10
7517.5771101329
 20
-740.2184284325
 30
0.0
 11
7517.5771101329
 21
-714.9224284325
 31
0.0
  0
LINE
  5
83
330
1F
100
AcDbEntity
  8
1
  6
CONTINUOUS
 62
     7
100
AcDbLine
 10
7589.8943790634
 20
-713.8448569554
 30
0.0
 11
7597.8943790631
 21
-713.8448569554
 31
0.0
  0
LINE
  5
84
330
1F
100
AcDbEntity
  8
1
  6
CONTINUOUS
 62
     7
100
AcDbLine
 10
7508.0087557556
 20
-712.7834284325
 30
0.0
 11
7508.0087557556
 21
-713.0624284325
 31
0.0
  0
LINE
  5
85
330
1F
100
AcDbEntity
  8
1
  6
CONTINUOUS
 62
     7
100
AcDbLine
 10
7589.8943790634
 20
-716.0448569554
 30
0.0
 11
7597.8943790631
 21
-716.0448569554
 31
0.0
  0
LINE
  5
86
330
1F
100
AcDbEntity
  8
1
  6
CONTINUOUS
 62
     7
100
AcDbLine
 10
7601.3943790619
 20
-738.4448574192
 30
0.0
 11
7601.3943790619
 21
-744.9448569555
 31
0.0
  0
LINE
  5
87
330
1F
100
AcDbEntity
  8
1
  6
CONTINUOUS
 62
     7
100
AcDbLine
 10
7536.526497056
 20
-678.467285479
 30
0.0
 11
7534.991997056
 21
-680.327285479
 31
0.0
  0
ARC
  5
88
330
1F
100
AcDbEntity
  8
1
  6
CONTINUOUS
 62
     7
100
AcDbCircle
 10
7484.1384333433
 20
-671.6948466469
 30
0.0
 40
1.8739496698
100
AcDbArc
 50
331.2917378898999
 51
28.70826211010001
  0
LINE
  5
89
330
1F
100
AcDbEntity
  8
1
  6
CONTINUOUS
 62
     7
100
AcDbLine
 10
7551.8943790631
 20
-714.7948569555
 30
0.0
 11
7551.8943790631
 21
-712.5948569555
 31
0.0
  0
LINE
  5
8A
330
1F
100
AcDbEntity
  8
1
  6
CONTINUOUS
 62
     7
100
AcDbLine
 10
7543.8943790631
 20
-712.5948569555
 30
0.0
 11
7543.8943790631
 21
-714.7948569555
 31
0.0
  0
LINE
  5
8B
330
1F
100
AcDbEntity
  8
1
  6
CONTINUOUS
 62
     7
100
AcDbLine
 10
7533.7471426787
 20
-680.327285479
 30
0.0
 11
7533.7471426787
 21
-680.606285479
 31
0.0
  0
LINE
  5
8C
330
1F
100
AcDbEntity
  8
1
  6
CONTINUOUS
 62
     7
100
AcDbLine
 10
7609.929580133
 20
-740.6834284325
 30
0.0
 11
7612.944640133
 21
-740.6834284325
 31
0.0
  0
ARC
  5
8D
330
1F
100
AcDbEntity
  8
1
  6
CONTINUOUS
 62
     7
100
AcDbCircle
 10
7493.5092500926
 20
-721.6948672655
 30
0.0
 40
5.1529685774
100
AcDbArc
 50
150.9772252898
 51
209.0227746804
  0
LINE
  5
8E
330
1F
100
AcDbEntity
  8
1
  6
CONTINUOUS
 62
     7
100
AcDbLine
 10
7633.8943790631
 20
-654.9448569401
 30
0.0
 11
7633.8943790631
 21
-648.4448569555
 31
0.0
  0
LINE
  5
8F
330
1F
100
AcDbEntity
  8
1
  6
CONTINUOUS
 62
     7
100
AcDbLine
 10
7497.8943790631
 20
-712.5948569555
 30
0.0
 11
7497.8943790631
 21
-714.7948569555
 31
0.0
  0
ARC
  5
90
330
1F
100
AcDbEntity
  8
1
  6
CONTINUOUS
 62
     7
100
AcDbCircle
 10
7484.1384333433
 20
-721.6948672643
 30
0.0
 40
1.8739496698
100
AcDbArc
 50
331.2917378898999
 51
28.70826211010001
  0
ARC
  5
91
330
1F
100
AcDbEntity
  8
1
  6
CONTINUOUS
 62
     7
100
AcDbCircle
 10
7593.8943790631
 20
-714.9448569554
 30
0.0
 40
8.2999999999
100
AcDbArc
 50
15.0945739612
 51
337.1539515506
  0
LINE
  5
92
330
1F
100
AcDbEntity
  8
1
  6
CONTINUOUS
 62
     7
100
AcDbLine
 10
7528.4926426787
 20
-653.171285479
 30
0.0
 11
7528.4926426787
 21
-678.467285479
 31
0.0
  0
LINE
  5
93
330
1F
100
AcDbEntity
  8
1
  6
CONTINUOUS
 62
     7
100
AcDbLine
 10
7541.780997056
 20
-680.606285479
 30
0.0
 11
7541.780997056
 21
-680.327285479
 31
0.0
  0
CIRCLE
  5
94
330
1F
100
AcDbEntity
  8
1
  6
CONTINUOUS
 62
     7
100
AcDbCircle
 10
7427.3617123535
 20
-721.695041451
 30
0.0
 40
1.5324489293
  0
ARC
  5
95
330
1F
100
AcDbEntity
  8
1
  6
CONTINUOUS
 62
     7
100
AcDbCircle
 10
7487.4256292996
 20
-671.6948466469
 30
0.0
 40
1.8739496698
100
AcDbArc
 50
204.14944477
 51
208.7082621101
  0
LINE
  5
96
330
1F
100
AcDbEntity
  8
1
  6
CONTINUOUS
 62
     7
100
AcDbLine
 10
7488.5573600748
 20
-724.1948672745
 30
0.0
 11
7489.0033556015
 21
-724.1948672643
 31
0.0
  0
LINE
  5
97
330
1F
100
AcDbEntity
  8
1
  6
CONTINUOUS
 62
     7
100
AcDbLine
 10
7520.9446401329
 20
-740.6834284325
 30
0.0
 11
7521.2971101329
 21
-740.2184284325
 31
0.0
  0
LINE
  5
98
330
1F
100
AcDbEntity
  8
1
  6
CONTINUOUS
 62
     7
100
AcDbLine
 10
7514.7977557556
 20
-712.7834284325
 30
0.0
 11
7508.0087557556
 21
-712.7834284325
 31
0.0
  0
LINE
  5
99
330
1F
100
AcDbEntity
  8
1
  6
CONTINUOUS
 62
     7
100
AcDbLine
 10
7613.297110133
 20
-714.9224284325
 30
0.0
 11
7609.577110133
 21
-714.9224284325
 31
0.0
  0
LINE
  5
9A
330
1F
100
AcDbEntity
  8
1
  6
CONTINUOUS
 62
     7
100
AcDbLine
 10
7609.577110133
 20
-714.9224284325
 30
0.0
 11
7608.042610133
 21
-713.0624284325
 31
0.0
  0
ARC
  5
9B
330
1F
100
AcDbEntity
  8
1
  6
CONTINUOUS
 62
     7
100
AcDbCircle
 10
7493.0632547
 20
-721.6946960469
 30
0.0
 40
5.1529685774
100
AcDbArc
 50
150.9772252898
 51
209.0227746804
  0
LINE
  5
9C
330
1F
100
AcDbEntity
  8
1
  6
CONTINUOUS
 62
     7
100
AcDbLine
 10
7509.8957257556
 20
-740.6834284325
 30
0.0
 11
7509.5432557556
 21
-740.2184284325
 31
0.0
  0
ARC
  5
9D
330
1F
100
AcDbEntity
  8
1
  6
CONTINUOUS
 62
     7
100
AcDbCircle
 10
7484.4974611104
 20
-671.6948466457
 30
0.0
 40
5.1529685774
100
AcDbArc
 50
330.9772252898
 51
29.0227746804
  0
LINE
  5
9E
330
1F
100
AcDbEntity
  8
1
  6
CONTINUOUS
 62
     7
100
AcDbLine
 10
7612.944640133
 20
-740.6834284325
 30
0.0
 11
7613.297110133
 21
-740.2184284325
 31
0.0
  0
LINE
  5
9F
330
1F
100
AcDbEntity
  8
1
  6
CONTINUOUS
 62
     7
100
AcDbLine
 10
7614.831610133
 20
-713.0624284325
 30
0.0
 11
7613.297110133
 21
-714.9224284325
 31
0.0
  0
LINE
  5
A0
330
1F
100
AcDbEntity
  8
1
  6
CONTINUOUS
 62
     7
100
AcDbLine
 10
7516.0426101329
 20
-712.7834284325
 30
0.0
 11
7522.8316101329
 21
-712.7834284325
 31
0.0
  0
LINE
  5
A1
330
1F
100
AcDbEntity
  8
1
  6
CONTINUOUS
 62
     7
100
AcDbLine
 10
7532.2126426787
 20
-678.467285479
 30
0.0
 11
7533.7471426787
 21
-680.327285479
 31
0.0
  0
LINE
  5
A2
330
1F
100
AcDbEntity
  8
1
  6
CONTINUOUS
 62
     7
100
AcDbLine
 10
7601.5432557557
 20
-740.2184284325
 30
0.0
 11
7601.5432557557
 21
-714.9224284325
 31
0.0
  0
LINE
  5
A3
330
1F
100
AcDbEntity
  8
1
  6
CONTINUOUS
 62
     7
100
AcDbLine
 10
7532.2126426787
 20
-653.171285479
 30
0.0
 11
7531.8601726787
 21
-652.706285479
 31
0.0
  0
LINE
  5
A4
330
1F
100
AcDbEntity
  8
1
  6
CONTINUOUS
 62
     7
100
AcDbLine
 10
7522.8316101329
 20
-712.7834284325
 30
0.0
 11
7522.8316101329
 21
-713.0624284325
 31
0.0
  0
LINE
  5
A5
330
1F
100
AcDbEntity
  8
1
  6
CONTINUOUS
 62
     7
100
AcDbLine
 10
7512.9107857556
 20
-740.6834284325
 30
0.0
 11
7509.8957257556
 21
-740.6834284325
 31
0.0
  0
LINE
  5
A6
330
1F
100
AcDbEntity
  8
1
  6
CONTINUOUS
 62
     7
100
AcDbLine
 10
7543.8943790634
 20
-712.5948569555
 30
0.0
 11
7551.8943790631
 21
-712.5948569555
 31
0.0
  0
LINE
  5
A7
330
1F
100
AcDbEntity
  8
1
  6
CONTINUOUS
 62
     7
100
AcDbLine
 10
7528.8451126787
 20
-652.706285479
 30
0.0
 11
7528.4926426787
 21
-653.171285479
 31
0.0
  0
ARC
  5
A8
330
1F
100
AcDbEntity
  8
1
  6
CONTINUOUS
 62
     7
100
AcDbCircle
 10
7485.7097545757
 20
-717.46216593
 30
0.0
 40
3.3333333333
100
AcDbArc
 50
271.242443116
 51
328.6804656519
  0
LINE
  5
A9
330
1F
100
AcDbEntity
  8
1
  6
CONTINUOUS
 62
     7
100
AcDbLine
 10
7488.9934002686
 20
-723.3282005976
 30
0.0
 11
7488.9934002686
 21
-720.061533931
 31
0.0
  0
LINE
  5
AA
330
1F
100
AcDbEntity
  8
1
  6
CONTINUOUS
 62
     7
100
AcDbLine
 10
7543.8943790634
 20
-714.7948569555
 30
0.0
 11
7551.8943790631
 21
-714.7948569555
 31
0.0
  0
LINE
  5
AB
330
1F
100
AcDbEntity
  8
1
  6
CONTINUOUS
 62
     7
100
AcDbLine
 10
7488.9934002686
 20
-670.0615133136
 30
0.0
 11
7488.9934002686
 21
-673.3281799802
 31
0.0
  0
LINE
  5
AC
330
1F
100
AcDbEntity
  8
1
  6
CONTINUOUS
 62
     7
100
AcDbLine
 10
7601.5432557557
 20
-714.9224284325
 30
0.0
 11
7605.2632557557
 21
-714.9224284325
 31
0.0
  0
LINE
  5
AD
330
1F
100
AcDbEntity
  8
1
  6
CONTINUOUS
 62
     7
100
AcDbLine
 10
7514.7977557556
 20
-713.0624284325
 30
0.0
 11
7514.7977557556
 21
-712.7834284325
 31
0.0
  0
LINE
  5
AE
330
1F
100
AcDbEntity
  8
1
  6
CONTINUOUS
 62
     7
100
AcDbLine
 10
7606.7977557557
 20
-713.0624284325
 30
0.0
 11
7606.7977557557
 21
-712.7834284325
 31
0.0
  0
LINE
  5
AF
330
1F
100
AcDbEntity
  8
1
  6
CONTINUOUS
 62
     7
100
AcDbLine
 10
7600.0087557557
 20
-712.7834284325
 30
0.0
 11
7600.0087557557
 21
-713.0624284325
 31
0.0
  0
LINE
  5
B0
330
1F
100
AcDbEntity
  8
1
  6
CONTINUOUS
 62
     7
100
AcDbLine
 10
7600.0087557557
 20
-713.0624284325
 30
0.0
 11
7601.5432557557
 21
-714.9224284325
 31
0.0
  0
LINE
  5
B1
330
1F
100
AcDbEntity
  8
1
  6
CONTINUOUS
 62
     7
100
AcDbLine
 10
7601.8957257557
 20
-740.6834284325
 30
0.0
 11
7601.5432557557
 21
-740.2184284325
 31
0.0
  0
LINE
  5
B2
330
1F
100
AcDbEntity
  8
1
  6
CONTINUOUS
 62
     7
100
AcDbLine
 10
7605.2632557557
 20
-740.2184284325
 30
0.0
 11
7605.2632557557
 21
-714.9224284325
 31
0.0
  0
LINE
  5
B3
330
1F
100
AcDbEntity
  8
1
  6
CONTINUOUS
 62
     7
100
AcDbLine
 10
7419.8943802545
 20
-673.7733986892
 30
0.0
 11
7419.8943793889
 21
-673.1947663728
 31
0.0
  0
LINE
  5
B4
330
1F
100
AcDbEntity
  8
1
  6
CONTINUOUS
 62
     7
100
AcDbLine
 10
7614.831610133
 20
-712.7834284325
 30
0.0
 11
7614.831610133
 21
-713.0624284325
 31
0.0
  0
LINE
  5
B5
330
1F
100
AcDbEntity
  8
1
  6
CONTINUOUS
 62
     7
100
AcDbLine
 10
7517.5771101329
 20
-740.2184284325
 30
0.0
 11
7517.9295801329
 21
-740.6834284325
 31
0.0
  0
LINE
  5
B6
330
1F
100
AcDbEntity
  8
1
  6
CONTINUOUS
 62
     7
100
AcDbLine
 10
7605.2632557557
 20
-740.2184284325
 30
0.0
 11
7604.9107857557
 21
-740.6834284325
 31
0.0
  0
ARC
  5
B7
330
1F
100
AcDbEntity
  8
1
  6
CONTINUOUS
 62
     7
100
AcDbCircle
 10
7475.9443790631
 20
-744.6448569555
 30
0.0
 40
0.3
100
AcDbArc
 50
180.0
 51
270.0
  0
LINE
  5
B8
330
1F
100
AcDbEntity
  8
1
  6
CONTINUOUS
 62
     7
100
AcDbLine
 10
7667.8943790631
 20
-646.6948569555
 30
0.0
 11
7667.8943790631
 21
-746.6948569555
 31
0.0
  0
LINE
  5
B9
330
1F
100
AcDbEntity
  8
1
  6
CONTINUOUS
 62
     7
100
AcDbLine
 10
7513.2632557556
 20
-740.2184284325
 30
0.0
 11
7512.9107857556
 21
-740.6834284325
 31
0.0
  0
LINE
  5
BA
330
1F
100
AcDbEntity
  8
1
  6
CONTINUOUS
 62
     7
100
AcDbLine
 10
7608.042610133
 20
-713.0624284325
 30
0.0
 11
7608.042610133
 21
-712.7834284325
 31
0.0
  0
LINE
  5
BB
330
1F
100
AcDbEntity
  8
1
  6
CONTINUOUS
 62
     7
100
AcDbLine
 10
7532.2126426787
 20
-653.171285479
 30
0.0
 11
7532.2126426787
 21
-678.467285479
 31
0.0
  0
LINE
  5
BC
330
1F
100
AcDbEntity
  8
1
  6
CONTINUOUS
 62
     7
100
AcDbLine
 10
7665.1443790631
 20
-744.6448569555
 30
0.0
 11
7665.1443790631
 21
-648.7448569555
 31
0.0
  0
LINE
  5
BD
330
1F
100
AcDbEntity
  8
1
  6
CONTINUOUS
 62
     7
100
AcDbLine
 10
7513.2632557556
 20
-740.2184284325
 30
0.0
 11
7513.2632557556
 21
-714.9224284325
 31
0.0
  0
LINE
  5
BE
330
1F
100
AcDbEntity
  8
1
  6
CONTINUOUS
 62
     7
100
AcDbLine
 10
7508.0087557556
 20
-713.0624284325
 30
0.0
 11
7509.5432557556
 21
-714.9224284325
 31
0.0
  0
LINE
  5
BF
330
1F
100
AcDbEntity
  8
1
  6
CONTINUOUS
 62
     7
100
AcDbLine
 10
7604.9107857557
 20
-740.6834284325
 30
0.0
 11
7601.8957257557
 21
-740.6834284325
 31
0.0
  0
LINE
  5
C0
330
1F
100
AcDbEntity
  8
1
  6
CONTINUOUS
 62
     7
100
AcDbLine
 10
7521.2971101329
 20
-740.2184284325
 30
0.0
 11
7521.2971101329
 21
-714.9224284325
 31
0.0
  0
LINE
  5
C1
330
1F
100
AcDbEntity
  8
1
  6
CONTINUOUS
 62
     7
100
AcDbLine
 10
7540.246497056
 20
-653.171285479
 30
0.0
 11
7540.246497056
 21
-678.467285479
 31
0.0
  0
LINE
  5
C2
330
1F
100
AcDbEntity
  8
1
  6
CONTINUOUS
 62
     7
100
AcDbLine
 10
7526.9581426787
 20
-680.327285479
 30
0.0
 11
7528.4926426787
 21
-678.467285479
 31
0.0
  0
LINE
  5
C3
330
1F
100
AcDbEntity
  8
1
  6
CONTINUOUS
 62
     7
100
AcDbLine
 10
7614.6943790631
 20
-650.4448569555
 30
0.0
 11
7615.9943790629
 21
-650.44485696
 31
0.0
  0
CIRCLE
  5
C4
330
1F
100
AcDbEntity
  8
1
  6
CONTINUOUS
 62
     7
100
AcDbCircle
 10
7639.8943790631
 20
-678.4448569401
 30
0.0
 40
8.0
  0
LINE
  5
C5
330
1F
100
AcDbEntity
  8
1
  6
CONTINUOUS
 62
     7
100
AcDbLine
 10
7615.9943790631
 20
-744.9448569555
 30
0.0
 11
7615.994379063
 21
-648.4448569401
 31
0.0
  0
LINE
  5
C6
330
1F
100
AcDbEntity
  8
1
  6
CONTINUOUS
 62
     7
100
AcDbLine
 10
7533.7471426787
 20
-680.606285479
 30
0.0
 11
7526.9581426787
 21
-680.606285479
 31
0.0
  0
LINE
  5
C7
330
1F
100
AcDbEntity
  8
1
  6
CONTINUOUS
 62
     7
100
AcDbLine
 10
7411.1118320854
 20
-732.2295359554
 30
0.0
 11
7405.8943790089
 21
-732.2750679786
 31
0.0
  0
LINE
  5
C8
330
1F
100
AcDbEntity
  8
1
  6
CONTINUOUS
 62
     7
100
AcDbLine
 10
7419.8943793889
 20
-695.1948575607
 30
0.0
 11
7419.8943793889
 21
-694.6424957486
 31
0.0
  0
LINE
  5
C9
330
1F
100
AcDbEntity
  8
1
  6
CONTINUOUS
 62
     7
100
AcDbLine
 10
7609.577110133
 20
-740.2184284325
 30
0.0
 11
7609.929580133
 21
-740.6834284325
 31
0.0
  0
LINE
  5
CA
330
1F
100
AcDbEntity
  8
1
  6
CONTINUOUS
 62
     7
100
AcDbLine
 10
7516.0426101329
 20
-713.0624284325
 30
0.0
 11
7516.0426101329
 21
-712.7834284325
 31
0.0
  0
LINE
  5
CB
330
1F
100
AcDbEntity
  8
1
  6
CONTINUOUS
 62
     7
100
AcDbLine
 10
7513.2632557556
 20
-714.9224284325
 30
0.0
 11
7514.7977557556
 21
-713.0624284325
 31
0.0
  0
LINE
  5
CC
330
1F
100
AcDbEntity
  8
1
  6
CONTINUOUS
 62
     7
100
AcDbLine
 10
7408.6443790088
 20
-694.5443184826
 30
0.0
 11
7408.6443790088
 21
-698.8453954224
 31
0.0
  0
ARC
  5
CD
330
1F
100
AcDbEntity
  8
1
  6
CONTINUOUS
 62
     7
100
AcDbCircle
 10
7467.3943790631
 20
-649.3344773453
 30
0.0
 40
0.5
100
AcDbArc
 50
180.0
 51
251.5650511769
  0
LINE
  5
CE
330
1F
100
AcDbEntity
  8
1
  6
CONTINUOUS
 62
     7
100
AcDbLine
 10
7528.4926426787
 20
-678.467285479
 30
0.0
 11
7532.2126426787
 21
-678.467285479
 31
0.0
  0
LINE
  5
CF
330
1F
100
AcDbEntity
  8
1
  6
CONTINUOUS
 62
     7
100
AcDbLine
 10
7521.2971101329
 20
-714.9224284325
 30
0.0
 11
7517.5771101329
 21
-714.9224284325
 31
0.0
  0
LINE
  5
D0
330
1F
100
AcDbEntity
  8
1
  6
CONTINUOUS
 62
     7
100
AcDbLine
 10
7613.297110133
 20
-740.2184284325
 30
0.0
 11
7613.297110133
 21
-714.9224284325
 31
0.0
  0
LINE
  5
D1
330
1F
100
AcDbEntity
  8
1
  6
CONTINUOUS
 62
     7
100
AcDbLine
 10
7573.8943790631
 20
-744.9448569554
 30
0.0
 11
7573.0943790631
 21
-742.9448569554
 31
0.0
  0
LINE
  5
D2
330
1F
100
AcDbEntity
  8
1
  6
CONTINUOUS
 62
     7
100
AcDbLine
 10
7540.246497056
 20
-678.467285479
 30
0.0
 11
7536.526497056
 21
-678.467285479
 31
0.0
  0
LINE
  5
D3
330
1F
100
AcDbEntity
  8
1
  6
CONTINUOUS
 62
     7
100
AcDbLine
 10
7517.9295801329
 20
-740.6834284325
 30
0.0
 11
7520.9446401329
 21
-740.6834284325
 31
0.0
  0
LINE
  5
D4
330
1F
100
AcDbEntity
  8
1
  6
CONTINUOUS
 62
     7
100
AcDbLine
 10
7536.526497056
 20
-653.171285479
 30
0.0
 11
7536.526497056
 21
-678.467285479
 31
0.0
  0
LINE
  5
D5
330
1F
100
AcDbEntity
  8
1
  6
CONTINUOUS
 62
     7
100
AcDbLine
 10
7509.5432557556
 20
-740.2184284325
 30
0.0
 11
7509.5432557556
 21
-714.9224284325
 31
0.0
  0
LINE
  5
D6
330
1F
100
AcDbEntity
  8
1
  6
CONTINUOUS
 62
     7
100
AcDbLine
 10
7606.7977557557
 20
-712.7834284325
 30
0.0
 11
7600.0087557557
 21
-712.7834284325
 31
0.0
  0
LINE
  5
D7
330
1F
100
AcDbEntity
  8
1
  6
CONTINUOUS
 62
     7
100
AcDbLine
 10
7609.577110133
 20
-740.2184284325
 30
0.0
 11
7609.577110133
 21
-714.9224284325
 31
0.0
  0
LINE
  5
D8
330
1F
100
AcDbEntity
  8
1
  6
CONTINUOUS
 62
     7
100
AcDbLine
 10
7536.526497056
 20
-653.171285479
 30
0.0
 11
7536.878967056
 21
-652.706285479
 31
0.0
  0
LINE
  5
D9
330
1F
100
AcDbEntity
  8
1
  6
CONTINUOUS
 62
     7
100
AcDbLine
 10
7419.8943802545
 20
-670.1948517893
 30
0.0
 11
7419.8943802545
 21
-669.6163151536
 31
0.0
  0
LINE
  5
DA
330
1F
100
AcDbEntity
  8
1
  6
CONTINUOUS
 62
     7
100
AcDbLine
 10
7541.780997056
 20
-680.327285479
 30
0.0
 11
7540.246497056
 21
-678.467285479
 31
0.0
  0
LINE
  5
DB
330
1F
100
AcDbEntity
  8
1
  6
CONTINUOUS
 62
     7
100
AcDbLine
 10
7521.894379063
 20
-744.9448569554
 30
0.0
 11
7522.6943790631
 21
-742.9448569554
 31
0.0
  0
LINE
  5
DC
330
1F
100
AcDbEntity
  8
1
  6
CONTINUOUS
 62
     7
100
AcDbLine
 10
7521.894379063
 20
-648.4448569555
 30
0.0
 11
7522.6943790631
 21
-650.4448569555
 31
0.0
  0
CIRCLE
  5
DD
330
1F
100
AcDbEntity
  8
1
  6
CONTINUOUS
 62
     7
100
AcDbCircle
 10
7532.8943790631
 20
-696.6948569555
 30
0.0
 40
2.0
  0
LINE
  5
DE
330
1F
100
AcDbEntity
  8
1
  6
CONTINUOUS
 62
     7
100
AcDbLine
 10
7589.8943790634
 20
-679.5448569554
 30
0.0
 11
7597.8943790631
 21
-679.5448569554
 31
0.0
  0
ARC
  5
DF
330
1F
100
AcDbEntity
  8
1
  6
CONTINUOUS
 62
     7
100
AcDbCircle
 10
7527.1443790631
 20
-727.4448569547
 30
0.0
 40
0.75
100
AcDbArc
 50
180.0
 51
0.0
  0
CIRCLE
  5
E0
330
1F
100
AcDbEntity
  8
1
  6
CONTINUOUS
 62
     7
100
AcDbCircle
 10
7639.894379063
 20
-654.9448564916
 30
0.0
 40
2.1
  0
CIRCLE
  5
E1
330
1F
100
AcDbEntity
  8
1
  6
CONTINUOUS
 62
     7
100
AcDbCircle
 10
7606.894379063
 20
-654.9448569551
 30
0.0
 40
2.0
  0
ARC
  5
E2
330
1F
100
AcDbEntity
  8
1
  6
CONTINUOUS
 62
     7
100
AcDbCircle
 10
7614.6443790631
 20
-665.9448569562
 30
0.0
 40
0.75
100
AcDbArc
 50
0.0
 51
180.0
  0
ARC
  5
E3
330
1F
100
AcDbEntity
  8
1
  6
CONTINUOUS
 62
     7
100
AcDbCircle
 10
7527.1443790631
 20
-665.9448569562
 30
0.0
 40
0.75
100
AcDbArc
 50
0.0
 51
180.0
  0
LINE
  5
E4
330
1F
100
AcDbEntity
  8
1
  6
CONTINUOUS
 62
     7
100
AcDbLine
 10
7664.8443790631
 20
-648.4448569555
 30
0.0
 11
7475.9443790631
 21
-648.4448569555
 31
0.0
  0
CIRCLE
  5
E5
330
1F
100
AcDbEntity
  8
1
  6
CONTINUOUS
 62
     7
100
AcDbCircle
 10
7608.8943790631
 20
-681.6948569554
 30
0.0
 40
1.4
  0
LINE
  5
E6
330
1F
100
AcDbEntity
  8
1
  6
CONTINUOUS
 62
     7
100
AcDbLine
 10
7569.3943790631
 20
-665.9448569562
 30
0.0
 11
7569.3943790631
 21
-727.4448569547
 31
0.0
  0
LINE
  5
E7
330
1F
100
AcDbEntity
  8
1
  6
CONTINUOUS
 62
     7
100
AcDbLine
 10
7586.3732442322
 20
-686.4718446131
 30
0.0
 11
7587.7720437661
 21
-684.0490527507
 31
0.0
  0
LINE
  5
E8
330
1F
100
AcDbEntity
  8
1
  6
CENTER
 62
     1
100
AcDbLine
 10
7465.8943790631
 20
-696.6948569556
 30
0.0
 11
7669.8943790631
 21
-696.6948569561
 31
0.0
  0
LINE
  5
EA
330
1F
100
AcDbEntity
  8
1
  6
CONTINUOUS
 62
     7
100
AcDbLine
 10
7592.102170785
 20
-686.5490527507
 30
0.0
 11
7590.7033712511
 21
-688.9718446131
 31
0.0
  0
LINE
  5
EB
330
1F
100
AcDbEntity
  8
1
  6
CONTINUOUS
 62
     7
100
AcDbLine
 10
7601.4155138939
 20
-670.4178692978
 30
0.0
 11
7600.01671436
 21
-672.8406611602
 31
0.0
  0
CIRCLE
  5
EC
330
1F
100
AcDbEntity
  8
1
  6
CONTINUOUS
 62
     7
100
AcDbCircle
 10
7560.894379063
 20
-738.4448496616
 30
0.0
 40
2.0
  0
LINE
  5
ED
330
1F
100
AcDbEntity
  8
1
  6
CONTINUOUS
 62
     7
100
AcDbLine
 10
7595.6865873411
 20
-670.3406611602
 30
0.0
 11
7597.085386875
 21
-667.9178692978
 31
0.0
  0
CIRCLE
  5
EE
330
1F
100
AcDbEntity
  8
1
  6
CONTINUOUS
 62
     7
100
AcDbCircle
 10
7583.9943790631
 20
-714.9448569554
 30
0.0
 40
1.0
  0
ARC
  5
EF
330
1F
100
AcDbEntity
  8
1
  6
CONTINUOUS
 62
     7
100
AcDbCircle
 10
7608.8943790631
 20
-711.6948569555
 30
0.0
 40
2.0
100
AcDbArc
 50
327.0241329921
 51
259.7342179571
  0
LINE
  5
F0
330
1F
100
AcDbEntity
  8
1
  6
CONTINUOUS
 62
     7
100
AcDbLine
 10
7615.3943790631
 20
-665.9448569562
 30
0.0
 11
7615.3943790631
 21
-727.4448569547
 31
0.0
  0
LINE
  5
F1
330
1F
100
AcDbEntity
  8
1
  6
CONTINUOUS
 62
     7
100
AcDbLine
 10
7572.3943790631
 20
-665.9448569562
 30
0.0
 11
7572.3943790631
 21
-727.4448569547
 31
0.0
  0
LINE
  5
F2
330
1F
100
AcDbEntity
  8
1
  6
CONTINUOUS
 62
     7
100
AcDbLine
 10
7567.8943790631
 20
-727.4448569547
 30
0.0
 11
7567.8943790631
 21
-665.9448569562
 31
0.0
  0
LINE
  5
F3
330
1F
100
AcDbEntity
  8
1
  6
CONTINUOUS
 62
     7
100
AcDbLine
 10
7481.8943790631
 20
-672.7589141961
 30
0.0
 11
7481.8943790631
 21
-720.9284650759
 31
0.0
  0
LINE
  5
F4
330
1F
100
AcDbEntity
  8
1
  6
CONTINUOUS
 62
     7
100
AcDbLine
 10
7595.6865873411
 20
-706.8406611602
 30
0.0
 11
7597.085386875
 21
-704.4178692978
 31
0.0
  0
ARC
  5
F5
330
1F
100
AcDbEntity
  8
1
  6
CONTINUOUS
 62
     7
100
AcDbCircle
 10
7593.8943790631
 20
-678.4448569554
 30
0.0
 40
11.0
100
AcDbArc
 50
226.863441213
 51
253.1365587869
  0
LINE
  5
F6
330
1F
100
AcDbEntity
  8
1
  6
CONTINUOUS
 62
     7
100
AcDbLine
 10
7481.8943790631
 20
-722.7591992918
 30
0.0
 11
7481.8943790631
 21
-727.4448569547
 31
0.0
  0
CIRCLE
  5
F7
330
1F
100
AcDbEntity
  8
1
  6
CONTINUOUS
 62
     7
100
AcDbCircle
 10
7486.8943790631
 20
-696.6948569555
 30
0.0
 40
2.0
  0
ARC
  5
F8
330
1F
100
AcDbEntity
  8
1
  6
CONTINUOUS
 62
     7
100
AcDbCircle
 10
7593.8943790631
 20
-714.9448569554
 30
0.0
 40
11.0
100
AcDbArc
 50
226.863441213
 51
253.1365587869
  0
LINE
  5
F9
330
1F
100
AcDbEntity
  8
1
  6
CONTINUOUS
 62
     7
100
AcDbLine
 10
7592.102170785
 20
-723.0490527507
 30
0.0
 11
7590.7033712511
 21
-725.4718446131
 31
0.0
  0
LINE
  5
FA
330
1F
100
AcDbEntity
  8
1
  6
CONTINUOUS
 62
     7
100
AcDbLine
 10
7480.3943790631
 20
-727.4448569547
 30
0.0
 11
7480.3943790631
 21
-722.4617984093
 31
0.0
  0
LINE
  5
FB
330
1F
100
AcDbEntity
  8
1
  6
CONTINUOUS
 62
     7
100
AcDbLine
 10
7481.8943790631
 20
-665.9448569562
 30
0.0
 11
7481.8943790631
 21
-670.9281799802
 31
0.0
  0
CIRCLE
  5
FC
330
1F
100
AcDbEntity
  8
1
  6
CONTINUOUS
 62
     7
100
AcDbCircle
 10
7639.894379063
 20
-738.4448574193
 30
0.0
 40
4.0
  0
LINE
  5
FD
330
1F
100
AcDbEntity
  8
1
  6
CONTINUOUS
 62
     7
100
AcDbLine
 10
7523.3943790631
 20
-665.9448569562
 30
0.0
 11
7523.3943790631
 21
-727.4448569547
 31
0.0
  0
CIRCLE
  5
FE
330
1F
100
AcDbEntity
  8
1
  6
CONTINUOUS
 62
     7
100
AcDbCircle
 10
7578.8943790631
 20
-696.6948569555
 30
0.0
 40
2.0
  0
CIRCLE
  5
FF
330
1F
100
AcDbEntity
  8
1
  6
CONTINUOUS
 62
     7
100
AcDbCircle
 10
7578.8943790631
 20
-711.6948569555
 30
0.0
 40
1.4
  0
LINE
  5
100
330
1F
100
AcDbEntity
  8
1
  6
CONTINUOUS
 62
     7
100
AcDbLine
 10
7589.8943790631
 20
-677.3448569554
 30
0.0
 11
7589.8943790631
 21
-679.5448569554
 31
0.0
  0
CIRCLE
  5
101
330
1F
100
AcDbEntity
  8
1
  6
CONTINUOUS
 62
     7
100
AcDbCircle
 10
7578.8943790631
 20
-681.6948569555
 30
0.0
 40
2.0
  0
ARC
  5
102
330
1F
100
AcDbEntity
  8
1
  6
CONTINUOUS
 62
     7
100
AcDbCircle
 10
7481.1443790631
 20
-665.9448569562
 30
0.0
 40
0.75
100
AcDbArc
 50
0.0
 51
180.0
  0
ARC
  5
103
330
1F
100
AcDbEntity
  8
1
  6
CONTINUOUS
 62
     7
100
AcDbCircle
 10
7573.1443790631
 20
-665.9448569562
 30
0.0
 40
0.75
100
AcDbArc
 50
0.0
 51
180.0
  0
CIRCLE
  5
104
330
1F
100
AcDbEntity
  8
1
  6
CONTINUOUS
 62
     7
100
AcDbCircle
 10
7593.8943790619
 20
-665.6948569555
 30
0.0
 40
1.4
  0
CIRCLE
  5
105
330
1F
100
AcDbEntity
  8
1
  6
CONTINUOUS
 62
     7
100
AcDbCircle
 10
7639.894379063
 20
-654.9448564916
 30
0.0
 40
4.0
  0
CIRCLE
  5
106
330
1F
100
AcDbEntity
  8
1
  6
CONTINUOUS
 62
     7
100
AcDbCircle
 10
7603.7943790631
 20
-678.4448569554
 30
0.0
 40
1.0
  0
LINE
  5
107
330
1F
100
AcDbEntity
  8
1
  6
CONTINUOUS
 62
     7
100
AcDbLine
 10
7601.4155138939
 20
-706.9178692978
 30
0.0
 11
7600.01671436
 21
-709.3406611602
 31
0.0
  0
ARC
  5
108
330
1F
100
AcDbEntity
  8
1
  6
CONTINUOUS
 62
     7
100
AcDbCircle
 10
7568.6443790631
 20
-727.4448569547
 30
0.0
 40
0.75
100
AcDbArc
 50
180.0
 51
0.0
  0
ARC
  5
109
330
1F
100
AcDbEntity
  8
1
  6
CONTINUOUS
 62
     7
100
AcDbCircle
 10
7481.1443790631
 20
-727.4448569547
 30
0.0
 40
0.75
100
AcDbArc
 50
180.0
 51
0.0
  0
ARC
  5
10A
330
1F
100
AcDbEntity
  8
1
  6
CONTINUOUS
 62
     7
100
AcDbCircle
 10
7593.8943790631
 20
-678.4448569554
 30
0.0
 40
11.0
100
AcDbArc
 50
46.8634412131
 51
73.1365587869
  0
LINE
  5
10B
330
1F
100
AcDbEntity
  8
1
  6
CONTINUOUS
 62
     7
100
AcDbLine
 10
7480.3943790631
 20
-720.9284650759
 30
0.0
 11
7480.3943790631
 21
-672.4615133136
 31
0.0
  0
LINE
  5
10C
330
1F
100
AcDbEntity
  8
1
  6
CONTINUOUS
 62
     7
100
AcDbLine
 10
7597.8943790631
 20
-679.5448569554
 30
0.0
 11
7597.8943790631
 21
-677.3448569554
 31
0.0
  0
CIRCLE
  5
10D
330
1F
100
AcDbEntity
  8
1
  6
CONTINUOUS
 62
     7
100
AcDbCircle
 10
7562.8943790631
 20
-696.6948569555
 30
0.0
 40
2.0
  0
ARC
  5
10E
330
1F
100
AcDbEntity
  8
1
  6
CONTINUOUS
 62
     7
100
AcDbCircle
 10
7522.6443790631
 20
-727.4448569547
 30
0.0
 40
0.75
100
AcDbArc
 50
180.0
 51
0.0
  0
ARC
  5
10F
330
1F
100
AcDbEntity
  8
1
  6
CONTINUOUS
 62
     7
100
AcDbCircle
 10
7593.8943790631
 20
-714.9448569554
 30
0.0
 40
11.0
100
AcDbArc
 50
46.8634412131
 51
73.1365587869
  0
LINE
  5
110
330
1F
100
AcDbEntity
  8
1
  6
CONTINUOUS
 62
     7
100
AcDbLine
 10
7589.8943790634
 20
-677.3448569554
 30
0.0
 11
7597.8943790631
 21
-677.3448569554
 31
0.0
  0
ARC
  5
111
330
1F
100
AcDbEntity
  8
1
  6
CONTINUOUS
 62
     7
100
AcDbCircle
 10
7568.6443790631
 20
-665.9448569562
 30
0.0
 40
0.75
100
AcDbArc
 50
0.0
 51
180.0
  0
LINE
  5
112
330
1F
100
AcDbEntity
  8
1
  6
CONTINUOUS
 62
     7
100
AcDbLine
 10
7480.3943790631
 20
-670.9281799802
 30
0.0
 11
7480.3943790631
 21
-665.9448569562
 31
0.0
  0
LINE
  5
113
330
1F
100
AcDbEntity
  8
1
  6
CONTINUOUS
 62
     7
100
AcDbLine
 10
7586.3732442322
 20
-722.9718446131
 30
0.0
 11
7587.7720437661
 21
-720.5490527507
 31
0.0
  0
CIRCLE
  5
114
330
1F
100
AcDbEntity
  8
1
  6
CONTINUOUS
 62
     7
100
AcDbCircle
 10
7516.8943790631
 20
-696.6948569555
 30
0.0
 40
2.0
  0
ARC
  5
115
330
1F
100
AcDbEntity
  8
1
  6
CONTINUOUS
 62
     7
100
AcDbCircle
 10
7614.6443790631
 20
-727.4448569547
 30
0.0
 40
0.75
100
AcDbArc
 50
180.0
 51
0.0
  0
CIRCLE
  5
116
330
1F
100
AcDbEntity
  8
1
  6
CONTINUOUS
 62
     7
100
AcDbCircle
 10
7593.8943790619
 20
-727.6948569554
 30
0.0
 40
1.4
  0
ARC
  5
117
330
1F
100
AcDbEntity
  8
1
  6
CONTINUOUS
 62
     7
100
AcDbCircle
 10
7522.6443790631
 20
-665.9448569562
 30
0.0
 40
0.75
100
AcDbArc
 50
0.0
 51
180.0
  0
CIRCLE
  5
118
330
1F
100
AcDbEntity
  8
1
  6
CONTINUOUS
 62
     7
100
AcDbCircle
 10
7608.8943790631
 20
-696.6948569555
 30
0.0
 40
2.0
  0
CIRCLE
  5
119
330
1F
100
AcDbEntity
  8
1
  6
CONTINUOUS
 62
     7
100
AcDbCircle
 10
7639.894379063
 20
-738.4448574193
 30
0.0
 40
2.1
  0
LINE
  5
11A
330
1F
100
AcDbEntity
  8
1
  6
CONTINUOUS
 62
     7
100
AcDbLine
 10
7573.0943790631
 20
-650.4448569555
 30
0.0
 11
7571.7443790636
 21
-650.4448569555
 31
0.0
  0
ARC
  5
11B
330
1F
100
AcDbEntity
  8
1
  6
CONTINUOUS
 62
     7
100
AcDbCircle
 10
7475.9443790631
 20
-648.7448569555
 30
0.0
 40
0.3
100
AcDbArc
 50
90.0
 51
180.0
  0
ARC
  5
11C
330
1F
100
AcDbEntity
  8
1
  6
CONTINUOUS
 62
     7
100
AcDbCircle
 10
7666.8943790631
 20
-646.6948569555
 30
0.0
 40
1.0
100
AcDbArc
 50
0.0
 51
90.0
  0
ARC
  5
11D
330
1F
100
AcDbEntity
  8
1
  6
CONTINUOUS
 62
     7
100
AcDbCircle
 10
7467.3943790631
 20
-744.0552365655
 30
0.0
 40
0.5
100
AcDbArc
 50
108.4349488231
 51
180.0
  0
LINE
  5
11E
330
1F
100
AcDbEntity
  8
1
  6
CONTINUOUS
 62
     7
100
AcDbLine
 10
7408.6443790088
 20
-719.5181379426
 30
0.0
 11
7408.6443790088
 21
-723.8715760252
 31
0.0
  0
LINE
  5
11F
330
1F
100
AcDbEntity
  8
1
  6
CONTINUOUS
 62
     7
100
AcDbLine
 10
7570.0443790625
 20
-742.9448569554
 30
0.0
 11
7570.0443790625
 21
-744.9448569554
 31
0.0
  0
LINE
  5
120
330
1F
100
AcDbEntity
  8
1
  6
CONTINUOUS
 62
     7
100
AcDbLine
 10
7408.8443790089
 20
-732.2493237186
 30
0.0
 11
7408.8443790089
 21
-728.1751453424
 31
0.0
  0
ARC
  5
121
330
1F
100
AcDbEntity
  8
1
  6
CONTINUOUS
 62
     7
100
AcDbCircle
 10
7573.1443790631
 20
-727.4448569547
 30
0.0
 40
0.75
100
AcDbArc
 50
180.0
 51
0.0
  0
ARC
  5
122
330
1F
100
AcDbEntity
  8
1
  6
CONTINUOUS
 62
     7
100
AcDbCircle
 10
7472.3943790631
 20
-741.3344773454
 30
0.0
 40
0.5
100
AcDbArc
 50
288.4349488231001
 51
0.0
  0
LINE
  5
123
330
1F
100
AcDbEntity
  8
1
  6
CONTINUOUS
 62
     7
100
AcDbLine
 10
7527.0943790631
 20
-650.4448569555
 30
0.0
 11
7525.944379197
 21
-650.4448569504
 31
0.0
  0
LINE
  5
124
330
1F
100
AcDbEntity
  8
1
  6
CONTINUOUS
 62
     7
100
AcDbLine
 10
7419.8943793889
 20
-723.7733987592
 30
0.0
 11
7419.8943793889
 21
-723.194862116
 31
0.0
  0
LINE
  5
125
330
1F
100
AcDbEntity
  8
1
  6
CONTINUOUS
 62
     7
100
AcDbLine
 10
7522.6943790631
 20
-650.4448569555
 30
0.0
 11
7523.8443789292
 21
-650.4448569605
 31
0.0
  0
LINE
  5
126
330
1F
100
AcDbEntity
  8
1
  6
CONTINUOUS
 62
     7
100
AcDbLine
 10
7419.8943802545
 20
-698.7472181488
 30
0.0
 11
7419.8943802545
 21
-698.1948595208
 31
0.0
  0
LINE
  5
127
330
1F
100
AcDbEntity
  8
1
  6
CONTINUOUS
 62
     7
100
AcDbLine
 10
7568.6943790631
 20
-742.9448569554
 30
0.0
 11
7570.0443790625
 21
-742.9448569554
 31
0.0
  0
LINE
  5
128
330
1F
100
AcDbEntity
  8
1
  6
CONTINUOUS
 62
     7
100
AcDbLine
 10
7536.878967056
 20
-652.706285479
 30
0.0
 11
7539.894027056
 21
-652.706285479
 31
0.0
  0
CIRCLE
  5
129
330
1F
100
AcDbEntity
  8
1
  6
CONTINUOUS
 62
     7
100
AcDbCircle
 10
7560.894379063
 20
-654.9448569551
 30
0.0
 40
2.0
  0
CIRCLE
  5
12A
330
1F
100
AcDbEntity
  8
1
  6
CONTINUOUS
 62
     7
100
AcDbCircle
 10
7488.8943790631
 20
-738.4448569558
 30
0.0
 40
2.0
  0
LINE
  5
12B
330
1F
100
AcDbEntity
  8
1
  6
CONTINUOUS
 62
     7
100
AcDbLine
 10
7567.894379063
 20
-648.4448569555
 30
0.0
 11
7568.6943790631
 21
-650.4448569555
 31
0.0
  0
LINE
  5
12C
330
1F
100
AcDbEntity
  8
1
  6
CONTINUOUS
 62
     7
100
AcDbLine
 10
7475.9443790631
 20
-744.9448569555
 30
0.0
 11
7664.8443790631
 21
-744.9448569555
 31
0.0
  0
LINE
  5
12D
330
1F
100
AcDbEntity
  8
1
  6
CONTINUOUS
 62
     7
100
AcDbLine
 10
7571.7443790636
 20
-742.9448569554
 30
0.0
 11
7571.7443790636
 21
-744.9448569554
 31
0.0
  0
LINE
  5
12E
330
1F
100
AcDbEntity
  8
1
  6
CONTINUOUS
 62
     7
100
AcDbLine
 10
7472.5524929461
 20
-651.5808949164
 30
0.0
 11
7467.2362651801
 21
-649.8088189944
 31
0.0
  0
ARC
  5
12F
330
1F
100
AcDbEntity
  8
1
  6
CONTINUOUS
 62
     7
100
AcDbCircle
 10
7664.1804382348
 20
-806.1948569555
 30
0.0
 40
3.5
100
AcDbArc
 50
270.0
 51
359.5000000000001
  0
LINE
  5
130
330
1F
100
AcDbEntity
  8
1
  6
CONTINUOUS
 62
     7
100
AcDbLine
 10
7475.6443790631
 20
-648.7448569555
 30
0.0
 11
7475.6443790631
 21
-744.6448569555
 31
0.0
  0
LINE
  5
131
330
1F
100
AcDbEntity
  8
1
  6
CONTINUOUS
 62
     7
100
AcDbLine
 10
7522.6943790631
 20
-742.9448569554
 30
0.0
 11
7523.8443790631
 21
-742.9448569503
 31
0.0
  0
LINE
  5
132
330
1F
100
AcDbEntity
  8
1
  6
CONTINUOUS
 62
     7
100
AcDbLine
 10
7567.894379063
 20
-744.9448569554
 30
0.0
 11
7568.6943790631
 21
-742.9448569554
 31
0.0
  0
LINE
  5
133
330
1F
100
AcDbEntity
  8
1
  6
CONTINUOUS
 62
     7
100
AcDbLine
 10
7527.8943790631
 20
-744.9448569554
 30
0.0
 11
7527.0943790631
 21
-742.9448569554
 31
0.0
  0
CIRCLE
  5
134
330
1F
100
AcDbEntity
  8
1
  6
CONTINUOUS
 62
     7
100
AcDbCircle
 10
7583.9943790631
 20
-678.4448569554
 30
0.0
 40
1.0
  0
ARC
  5
135
330
1F
100
AcDbEntity
  8
1
  6
CONTINUOUS
 62
     7
100
AcDbCircle
 10
7472.3943790631
 20
-652.0552365654
 30
0.0
 40
0.5
100
AcDbArc
 50
0.0
 51
71.56505117690001
  0
LINE
  5
136
330
1F
100
AcDbEntity
  8
1
  6
CONTINUOUS
 62
     7
100
AcDbLine
 10
7573.8943790631
 20
-727.4448569547
 30
0.0
 11
7573.8943790631
 21
-665.9448569562
 31
0.0
  0
ARC
  5
137
330
1F
100
AcDbEntity
  8
1
  6
CONTINUOUS
 62
     7
100
AcDbCircle
 10
7664.8443790631
 20
-744.6448569555
 30
0.0
 40
0.3
100
AcDbArc
 50
270.0
 51
0.0
  0
ARC
  5
138
330
1F
100
AcDbEntity
  8
1
  6
CONTINUOUS
 62
     7
100
AcDbCircle
 10
7666.8943790631
 20
-746.6948569555
 30
0.0
 40
1.0
100
AcDbArc
 50
270.0
 51
0.0
  0
ARC
  5
139
330
1F
100
AcDbEntity
  8
1
  6
CONTINUOUS
 62
     7
100
AcDbCircle
 10
7664.8443790631
 20
-648.7448569555
 30
0.0
 40
0.3
100
AcDbArc
 50
0.0
 51
90.0
  0
LINE
  5
13A
330
1F
100
AcDbEntity
  8
1
  6
CONTINUOUS
 62
     7
100
AcDbLine
 10
7408.6443790088
 20
-669.5181378801
 30
0.0
 11
7408.6443790088
 21
-673.8715759627
 31
0.0
  0
LINE
  5
13B
330
1F
100
AcDbEntity
  8
1
  6
CONTINUOUS
 62
     7
100
AcDbLine
 10
7613.894379063
 20
-648.4448569555
 30
0.0
 11
7614.6943790631
 21
-650.4448569555
 31
0.0
  0
LINE
  5
13C
330
1F
100
AcDbEntity
  8
1
  6
CONTINUOUS
 62
     7
100
AcDbLine
 10
7527.0943790631
 20
-742.9448569554
 30
0.0
 11
7525.9443790631
 21
-742.9448569605
 31
0.0
  0
CIRCLE
  5
13D
330
1F
100
AcDbEntity
  8
1
  6
CONTINUOUS
 62
     7
100
AcDbCircle
 10
7580.8943790633
 20
-654.9448569551
 30
0.0
 40
2.0
  0
LINE
  5
13E
330
1F
100
AcDbEntity
  8
1
  6
CONTINUOUS
 62
     7
100
AcDbLine
 10
7411.1118320854
 20
-728.1949331056
 30
0.0
 11
7405.8943790089
 21
-728.1494010824
 31
0.0
  0
LINE
  5
13F
330
1F
100
AcDbEntity
  8
1
  6
CONTINUOUS
 62
     7
100
AcDbLine
 10
7419.8943802545
 20
-720.1949475324
 30
0.0
 11
7419.8943802545
 21
-719.6163152161
 31
0.0
  0
LINE
  5
140
330
1F
100
AcDbEntity
  8
1
  6
CONTINUOUS
 62
     7
100
AcDbLine
 10
7613.894379063
 20
-744.9448569554
 30
0.0
 11
7614.6943790631
 21
-742.9448569554
 31
0.0
  0
LINE
  5
141
330
1F
100
AcDbEntity
  8
1
  6
CONTINUOUS
 62
     7
100
AcDbLine
 10
7573.0943790631
 20
-742.9448569554
 30
0.0
 11
7571.7443790636
 21
-742.9448569554
 31
0.0
  0
LINE
  5
142
330
1F
100
AcDbEntity
  8
1
  6
CONTINUOUS
 62
     7
100
AcDbLine
 10
7539.894027056
 20
-652.706285479
 30
0.0
 11
7540.246497056
 21
-653.171285479
 31
0.0
  0
LINE
  5
143
330
1F
100
AcDbEntity
  8
1
  6
CONTINUOUS
 62
     7
100
AcDbLine
 10
7573.8943790631
 20
-648.4448569555
 30
0.0
 11
7573.0943790631
 21
-650.4448569555
 31
0.0
  0
LINE
  5
144
330
1F
100
AcDbEntity
  8
1
  6
CONTINUOUS
 62
     7
100
AcDbLine
 10
7568.6943790631
 20
-650.4448569555
 30
0.0
 11
7570.0443790625
 21
-650.4448569555
 31
0.0
  0
LINE
  5
145
330
1F
100
AcDbEntity
  8
1
  6
CONTINUOUS
 62
     7
100
AcDbLine
 10
7614.6943790631
 20
-742.9448569554
 30
0.0
 11
7615.994379063
 21
-742.9448569508
 31
0.0
  0
LINE
  5
146
330
1F
100
AcDbEntity
  8
1
  6
CONTINUOUS
 62
     7
100
AcDbLine
 10
7526.3943790631
 20
-665.9448569562
 30
0.0
 11
7526.3943790631
 21
-727.4448569547
 31
0.0
  0
LINE
  5
147
330
1F
100
AcDbEntity
  8
1
  6
CONTINUOUS
 62
     7
100
AcDbLine
 10
7472.5524929461
 20
-741.8088189944
 30
0.0
 11
7467.2362651801
 21
-743.5808949165
 31
0.0
  0
LINE
  5
148
330
1F
100
AcDbEntity
  8
1
  6
CONTINUOUS
 62
     7
100
AcDbLine
 10
7527.8943790631
 20
-648.4448569555
 30
0.0
 11
7527.0943790631
 21
-650.4448569555
 31
0.0
  0
LINE
  5
149
330
1F
100
AcDbEntity
  8
1
  6
CONTINUOUS
 62
     7
100
AcDbLine
 10
7408.8443790089
 20
-661.140390186
 30
0.0
 11
7408.8443790089
 21
-665.2145685622
 31
0.0
  0
CIRCLE
  5
14A
330
1F
100
AcDbEntity
  8
1
  6
CONTINUOUS
 62
     7
100
AcDbCircle
 10
7488.8943790631
 20
-654.9448569551
 30
0.0
 40
2.0
  0
LINE
  5
14B
330
1F
100
AcDbEntity
  8
1
  6
CONTINUOUS
 62
     7
100
AcDbLine
 10
7590.6252058131
 20
-661.6948569554
 30
0.0
 11
7597.1635523131
 21
-661.6948569554
 31
0.0
  0
LINE
  5
14C
330
1F
100
AcDbEntity
  8
1
  6
CONTINUOUS
 62
     7
100
AcDbLine
 10
7516.394379063
 20
-688.6948569555
 30
0.0
 11
7516.3546422323
 21
-688.6948569555
 31
0.0
  0
LINE
  5
14D
330
1F
100
AcDbEntity
  8
0
  6
CONTINUOUS
 62
     7
100
AcDbLine
 10
7525.944379039499
 20
-742.9448569605
 30
0.0
 11
7525.944379039
 21
-744.9448569555
 31
0.0
  0
LINE
  5
14E
330
1F
100
AcDbEntity
  8
0
  6
CONTINUOUS
 62
     7
100
AcDbLine
 10
7525.9443790631
 20
-648.4448569555
 30
0.0
 11
7525.944379062602
 21
-650.4448569504
 31
0.0
  0
LINE
  5
14F
330
1F
100
AcDbEntity
  8
1
  6
CONTINUOUS
 62
     7
100
AcDbLine
 10
7578.8943790631
 20
-730.6948569555
 30
0.0
 11
7590.3943790631
 21
-730.6948569555
 31
0.0
  0
LINE
  5
150
330
1F
100
AcDbEntity
  8
1
  6
CONTINUOUS
 62
     7
100
AcDbLine
 10
7605.2632557557
 20
-730.0948569555
 30
0.0
 11
7608.8943790627
 21
-730.0948569555
 31
0.0
  0
ARC
  5
151
330
1F
100
AcDbEntity
  8
1
  6
CONTINUOUS
 62
     7
100
AcDbCircle
 10
7593.8943790631
 20
-654.9448564916
 30
0.0
 40
7.5
100
AcDbArc
 50
295.8419246345
 51
0.0000027973999863
  0
ARC
  5
152
330
1F
100
AcDbEntity
  8
1
  6
CONTINUOUS
 62
     7
100
AcDbCircle
 10
7578.8943790631
 20
-725.6948569554
 30
0.0
 40
5.0
100
AcDbArc
 50
180.0
 51
270.0
  0
ARC
  5
153
330
1F
100
AcDbEntity
  8
1
  6
CONTINUOUS
 62
     7
100
AcDbCircle
 10
7608.8943790631
 20
-725.6948569555
 30
0.0
 40
5.0
100
AcDbArc
 50
270.0
 51
277.8480394625
  0
CIRCLE
  5
154
330
1F
100
AcDbEntity
  8
1
  6
CONTINUOUS
 62
     7
100
AcDbCircle
 10
7532.8943790631
 20
-711.6948569555
 30
0.0
 40
1.4
  0
CIRCLE
  5
155
330
1F
100
AcDbEntity
  8
1
  6
CONTINUOUS
 62
     7
100
AcDbCircle
 10
7562.8943790631
 20
-681.6948569554
 30
0.0
 40
1.4
  0
ARC
  5
156
330
1F
100
AcDbEntity
  8
1
  6
CONTINUOUS
 62
     7
100
AcDbCircle
 10
7608.8943790631
 20
-725.6948569555
 30
0.0
 40
5.0
100
AcDbArc
 50
331.7083232332
 51
0.0
  0
ARC
  5
157
330
1F
100
AcDbEntity
  8
1
  6
CONTINUOUS
 62
     7
100
AcDbCircle
 10
7608.8943790627
 20
-725.6948569552
 30
0.0
 40
4.4
100
AcDbArc
 50
270.0
 51
278.9264326673999
  0
LINE
  5
158
330
1F
100
AcDbEntity
  8
0
  6
CONTINUOUS
 62
     7
100
AcDbLine
 10
7523.844379082001
 20
-742.9448569503
 30
0.0
 11
7523.8443790824
 21
-744.9448569555
 31
0.0
  0
ARC
  5
159
330
1F
100
AcDbEntity
  8
1
  6
CONTINUOUS
 62
     7
100
AcDbCircle
 10
7593.8943790631
 20
-654.9448564916
 30
0.0
 40
7.5
100
AcDbArc
 50
180.0000035433
 51
244.1580753655
  0
LINE
  5
15A
330
1F
100
AcDbEntity
  8
1
  6
CONTINUOUS
 62
     7
100
AcDbLine
 10
7597.3943790631
 20
-730.6948569555
 30
0.0
 11
7601.5432557557
 21
-730.6948569555
 31
0.0
  0
CIRCLE
  5
15B
330
1F
100
AcDbEntity
  8
1
  6
CONTINUOUS
 62
     7
100
AcDbCircle
 10
7593.8943790631
 20
-738.4448574192
 30
0.0
 40
4.0
  0
ARC
  5
15C
330
1F
100
AcDbEntity
  8
1
  6
CONTINUOUS
 62
     7
100
AcDbCircle
 10
7593.8943790631
 20
-738.4448574192
 30
0.0
 40
7.5
100
AcDbArc
 50
0.0
 51
64.15807536549998
  0
LINE
  5
15D
330
1F
100
AcDbEntity
  8
1
  6
CONTINUOUS
 62
     7
100
AcDbLine
 10
7601.3943790631
 20
-648.4448569555
 30
0.0
 11
7601.3943790631
 21
-654.9448564916
 31
0.0
  0
CIRCLE
  5
15E
330
1F
100
AcDbEntity
  8
1
  6
CONTINUOUS
 62
     7
100
AcDbCircle
 10
7580.894379063
 20
-738.4448569554
 30
0.0
 40
2.0
  0
CIRCLE
  5
15F
330
1F
100
AcDbEntity
  8
1
  6
CONTINUOUS
 62
     7
100
AcDbCircle
 10
7562.8943790631
 20
-711.6948569555
 30
0.0
 40
2.0
  0
LINE
  5
160
330
1F
100
AcDbEntity
  8
1
  6
CONTINUOUS
 62
     7
100
AcDbLine
 10
7590.6252058131
 20
-731.6948569554
 30
0.0
 11
7597.1635523131
 21
-731.6948569554
 31
0.0
  0
ARC
  5
161
330
1F
100
AcDbEntity
  8
1
  6
CONTINUOUS
 62
     7
100
AcDbCircle
 10
7608.8943790631
 20
-667.6948569555
 30
0.0
 40
5.0
100
AcDbArc
 50
0.0
 51
90.0
  0
LINE
  5
162
330
1F
100
AcDbEntity
  8
0
  6
CONTINUOUS
 62
     7
100
AcDbLine
 10
7523.8443790631
 20
-648.4448569555
 30
0.0
 11
7523.8443790635
 21
-650.4448569605
 31
0.0
  0
ARC
  5
163
330
1F
100
AcDbEntity
  8
1
  6
CONTINUOUS
 62
     7
100
AcDbCircle
 10
7532.8943790631
 20
-681.6948569555
 30
0.0
 40
2.0
100
AcDbArc
 50
147.0241330125
 51
79.7001595845
  0
LINE
  5
164
330
1F
100
AcDbEntity
  8
1
  6
CONTINUOUS
 62
     7
100
AcDbLine
 10
7590.3943790631
 20
-662.6948569555
 30
0.0
 11
7578.8943790631
 21
-662.6948569555
 31
0.0
  0
ARC
  5
165
330
1F
100
AcDbEntity
  8
1
  6
CONTINUOUS
 62
     7
100
AcDbCircle
 10
7560.3943801017
 20
-795.694856953
 30
0.0
 40
8.65
100
AcDbArc
 50
29.8821524854
 51
330.1178475145999
  0
LINE
  5
166
330
1F
100
AcDbEntity
  8
1
  6
CONTINUOUS
 62
     7
100
AcDbLine
 10
7619.8943797689
 20
-791.385274029
 30
0.0
 11
7619.8943797689
 21
-800.004439877
 31
0.0
  0
CIRCLE
  5
167
330
1F
100
AcDbEntity
  8
1
  6
CONTINUOUS
 62
     7
100
AcDbCircle
 10
7593.8943790631
 20
-738.4448574192
 30
0.0
 40
2.1
  0
LINE
  5
168
330
1F
100
AcDbEntity
  8
1
  6
CONTINUOUS
 62
     7
100
AcDbLine
 10
7604.3943790631
 20
-663.2948569554
 30
0.0
 11
7608.8943790627
 21
-663.2948569554
 31
0.0
  0
LINE
  5
169
330
1F
100
AcDbEntity
  8
1
  6
CONTINUOUS
 62
     7
100
AcDbLine
 10
7613.294379063
 20
-725.6948569552
 30
0.0
 11
7613.2943793659
 21
-714.9224284325
 31
0.0
  0
CIRCLE
  5
16A
330
1F
100
AcDbEntity
  8
1
  6
CONTINUOUS
 62
     7
100
AcDbCircle
 10
7593.8943790631
 20
-654.9448564916
 30
0.0
 40
4.0
  0
ARC
  5
16B
330
1F
100
AcDbEntity
  8
1
  6
CONTINUOUS
 62
     7
100
AcDbCircle
 10
7578.8943790631
 20
-667.6948569555
 30
0.0
 40
5.0
100
AcDbArc
 50
90.0
 51
180.0
  0
CIRCLE
  5
16C
330
1F
100
AcDbEntity
  8
1
  6
CONTINUOUS
 62
     7
100
AcDbCircle
 10
7654.3943797656
 20
-795.6948569556
 30
0.0
 40
10.65
  0
LINE
  5
16D
330
1F
100
AcDbEntity
  8
1
  6
CONTINUOUS
 62
     7
100
AcDbLine
 10
7567.8943797698
 20
-791.385274029
 30
0.0
 11
7567.8943797698
 21
-800.004439877
 31
0.0
  0
LINE
  5
16E
330
1F
100
AcDbEntity
  8
1
  6
CONTINUOUS
 62
     7
100
AcDbLine
 10
7466.8943790631
 20
-676.6948569555
 30
0.0
 11
7466.8943790631
 21
-672.6948569555
 31
0.0
  0
CIRCLE
  5
16F
330
1F
100
AcDbEntity
  8
1
  6
CONTINUOUS
 62
     7
100
AcDbCircle
 10
7593.8943790631
 20
-654.9448564916
 30
0.0
 40
2.1
  0
LINE
  5
170
330
1F
100
AcDbEntity
  8
1
  6
CONTINUOUS
 62
     7
100
AcDbLine
 10
7613.294379063
 20
-667.6948569557
 30
0.0
 11
7613.2943790734
 21
-686.1948569554
 31
0.0
  0
LINE
  5
171
330
1F
100
AcDbEntity
  8
1
  6
CONTINUOUS
 62
     7
100
AcDbLine
 10
7583.3943790631
 20
-663.2948569554
 30
0.0
 11
7578.8943790634
 21
-663.2948569554
 31
0.0
  0
LINE
  5
172
330
1F
100
AcDbEntity
  8
1
  6
CONTINUOUS
 62
     7
100
AcDbLine
 10
7571.9443797712
 20
-790.6948569557
 30
0.0
 11
7571.944379649
 21
-800.6948569557
 31
0.0
  0
LINE
  5
173
330
1F
100
AcDbEntity
  8
1
  6
CONTINUOUS
 62
     7
100
AcDbLine
 10
7613.8943790631
 20
-665.9448569562
 30
0.0
 11
7613.8943790631
 21
-712.7834284325
 31
0.0
  0
LINE
  5
174
330
1F
100
AcDbEntity
  8
1
  6
CONTINUOUS
 62
     7
100
AcDbLine
 10
7466.8943790631
 20
-649.3344773453
 30
0.0
 11
7466.8943790631
 21
-646.1948569555
 31
0.0
  0
ARC
  5
175
330
1F
100
AcDbEntity
  8
1
  6
CONTINUOUS
 62
     7
100
AcDbCircle
 10
7471.1443790631
 20
-671.6948569555
 30
0.0
 40
0.75
100
AcDbArc
 50
270.0
 51
90.0
  0
LINE
  5
176
330
1F
100
AcDbEntity
  8
1
  6
CONTINUOUS
 62
     7
100
AcDbLine
 10
7466.8943790631
 20
-714.6948569557
 30
0.0
 11
7466.8943790631
 21
-678.6948569555
 31
0.0
  0
LINE
  5
177
330
1F
100
AcDbEntity
  8
1
  6
CONTINUOUS
 62
     7
100
AcDbLine
 10
7605.2632557557
 20
-730.6948569555
 30
0.0
 11
7608.8943790631
 21
-730.6948569555
 31
0.0
  0
CIRCLE
  5
178
330
1F
100
AcDbEntity
  8
1
  6
CONTINUOUS
 62
     7
100
AcDbCircle
 10
7486.3943797706
 20
-795.6948569555
 30
0.0
 40
10.65
  0
LINE
  5
179
330
1F
100
AcDbEntity
  8
1
  6
CONTINUOUS
 62
     7
100
AcDbLine
 10
7628.4943794467
 20
-799.6948568956
 30
0.0
 11
7628.4943794467
 21
-791.6948533582
 31
0.0
  0
ARC
  5
17A
330
1F
100
AcDbEntity
  8
1
  6
CONTINUOUS
 62
     7
100
AcDbCircle
 10
7467.6443790631
 20
-671.6948569555
 30
0.0
 40
0.75
100
AcDbArc
 50
90.0
 51
270.0
  0
LINE
  5
17B
330
1F
100
AcDbEntity
  8
1
  6
CONTINUOUS
 62
     7
100
AcDbLine
 10
7574.4943790631
 20
-725.6948569552
 30
0.0
 11
7574.4943790534
 21
-707.1948569555
 31
0.0
  0
LINE
  5
17C
330
1F
100
AcDbEntity
  8
1
  6
CONTINUOUS
 62
     7
100
AcDbLine
 10
7613.8943790631
 20
-714.198466093
 30
0.0
 11
7613.8943790631
 21
-727.4448569547
 31
0.0
  0
ARC
  5
17D
330
1F
100
AcDbEntity
  8
1
  6
CONTINUOUS
 62
     7
100
AcDbCircle
 10
7593.8943790631
 20
-738.4448574192
 30
0.0
 40
7.5
100
AcDbArc
 50
115.8419246345
 51
179.9999964567
  0
LINE
  5
17E
330
1F
100
AcDbEntity
  8
1
  6
CONTINUOUS
 62
     7
100
AcDbLine
 10
7608.8943790631
 20
-662.6948569555
 30
0.0
 11
7597.394379063
 21
-662.6948569554
 31
0.0
  0
LINE
  5
17F
330
1F
100
AcDbEntity
  8
1
  6
CONTINUOUS
 62
     7
100
AcDbLine
 10
7628.4943794467
 20
-799.6948568966
 30
0.0
 11
7626.2943794467
 21
-799.6948568956
 31
0.0
  0
LINE
  5
180
330
1F
100
AcDbEntity
  8
1
  6
CONTINUOUS
 62
     7
100
AcDbLine
 10
7626.2943794467
 20
-799.6948568956
 30
0.0
 11
7626.2943794467
 21
-791.6948533582
 31
0.0
  0
LINE
  5
181
330
1F
100
AcDbEntity
  8
1
  6
CONTINUOUS
 62
     7
100
AcDbLine
 10
7586.3943790643
 20
-738.4448574192
 30
0.0
 11
7586.3943790643
 21
-744.9448569555
 31
0.0
  0
LINE
  5
182
330
1F
100
AcDbEntity
  8
1
  6
CONTINUOUS
 62
     7
100
AcDbLine
 10
7586.3943790643
 20
-654.9448564916
 30
0.0
 11
7586.3943790643
 21
-648.4448569555
 31
0.0
  0
CIRCLE
  5
183
330
1F
100
AcDbEntity
  8
1
  6
CONTINUOUS
 62
     7
100
AcDbCircle
 10
7547.8943790619
 20
-727.6948569554
 30
0.0
 40
1.4
  0
LINE
  5
184
330
1F
100
AcDbEntity
  8
1
  6
CONTINUOUS
 62
     7
100
AcDbLine
 10
7465.8943790631
 20
-670.6948569555
 30
0.0
 11
7465.8943790631
 21
-672.6948569555
 31
0.0
  0
LINE
  5
185
330
1F
100
AcDbEntity
  8
1
  6
CONTINUOUS
 62
     7
100
AcDbLine
 10
7628.4943794467
 20
-791.6948568966
 30
0.0
 11
7626.2943794467
 21
-791.6948568956
 31
0.0
  0
ARC
  5
186
330
1F
100
AcDbEntity
  8
1
  6
CONTINUOUS
 62
     7
100
AcDbCircle
 10
7578.8943790634
 20
-725.6948569552
 30
0.0
 40
4.4
100
AcDbArc
 50
180.0
 51
270.0
  0
LINE
  5
187
330
1F
100
AcDbEntity
  8
1
  6
CONTINUOUS
 62
     7
100
AcDbLine
 10
7617.9910555551
 20
-790.6948569557
 30
0.0
 11
7615.7977039826
 21
-790.6948569557
 31
0.0
  0
LINE
  5
188
330
1F
100
AcDbEntity
  8
1
  6
CONTINUOUS
 62
     7
100
AcDbLine
 10
7615.8443797675
 20
-790.6948569557
 30
0.0
 11
7615.8443798897
 21
-800.6948569557
 31
0.0
  0
LINE
  5
189
330
1F
100
AcDbEntity
  8
1
  6
CONTINUOUS
 62
     7
100
AcDbLine
 10
7583.3943790631
 20
-730.0948569555
 30
0.0
 11
7578.8943790634
 21
-730.0948569555
 31
0.0
  0
ARC
  5
18A
330
1F
100
AcDbEntity
  8
1
  6
CONTINUOUS
 62
     7
100
AcDbCircle
 10
7627.394379437
 20
-795.694856953
 30
0.0
 40
8.65
100
AcDbArc
 50
209.8821524854
 51
150.1178475146
  0
LINE
  5
18B
330
1F
100
AcDbEntity
  8
1
  6
CONTINUOUS
 62
     7
100
AcDbLine
 10
7613.2943790698
 20
-712.7834284325
 30
0.0
 11
7613.2943790727
 21
-707.1948569555
 31
0.0
  0
LINE
  5
18C
330
1F
100
AcDbEntity
  8
1
  6
CONTINUOUS
 62
     7
100
AcDbLine
 10
7617.991055558
 20
-800.6948569557
 30
0.0
 11
7615.7977039797
 21
-800.6948569557
 31
0.0
  0
ARC
  5
18D
330
1F
100
AcDbEntity
  8
1
  6
CONTINUOUS
 62
     7
100
AcDbCircle
 10
7606.3943801007
 20
-795.694856953
 30
0.0
 40
8.65
100
AcDbArc
 50
29.8821524854
 51
330.1178475145999
  0
LINE
  5
18E
330
1F
100
AcDbEntity
  8
1
  6
CONTINUOUS
 62
     7
100
AcDbLine
 10
7574.4943790631
 20
-667.6948569557
 30
0.0
 11
7574.4943790527
 21
-686.1948569554
 31
0.0
  0
LINE
  5
18F
330
1F
100
AcDbEntity
  8
1
  6
CONTINUOUS
 62
     7
100
AcDbLine
 10
7467.6443790631
 20
-670.9448569555
 30
0.0
 11
7472.8943790631
 21
-670.9448569555
 31
0.0
  0
ARC
  5
190
330
1F
100
AcDbEntity
  8
1
  6
CONTINUOUS
 62
     7
100
AcDbCircle
 10
7608.8943790627
 20
-667.6948569557
 30
0.0
 40
4.4
100
AcDbArc
 50
0.0
 51
90.0
  0
LINE
  5
191
330
1F
100
AcDbEntity
  8
1
  6
CONTINUOUS
 62
     7
100
AcDbLine
 10
7617.9443797702
 20
-790.6948569557
 30
0.0
 11
7617.944379648
 21
-800.6948569557
 31
0.0
  0
ARC
  5
192
330
1F
100
AcDbEntity
  8
1
  6
CONTINUOUS
 62
     7
100
AcDbCircle
 10
7560.3943801017
 20
-795.694856953
 30
0.0
 40
10.65
100
AcDbArc
 50
28.0007790272
 51
331.9992209395
  0
LINE
  5
193
330
1F
100
AcDbEntity
  8
1
  6
CONTINUOUS
 62
     7
100
AcDbLine
 10
7573.8943797698
 20
-791.3852740292
 30
0.0
 11
7573.8943797698
 21
-800.0044398768
 31
0.0
  0
LINE
  5
194
330
1F
100
AcDbEntity
  8
1
  6
CONTINUOUS
 62
     7
100
AcDbLine
 10
7569.8443797685
 20
-790.6948569557
 30
0.0
 11
7569.8443798907
 21
-800.6948569557
 31
0.0
  0
ARC
  5
195
330
1F
100
AcDbEntity
  8
1
  6
CONTINUOUS
 62
     7
100
AcDbCircle
 10
7578.8943790634
 20
-667.6948569557
 30
0.0
 40
4.4
100
AcDbArc
 50
90.0
 51
180.0
  0
LINE
  5
196
330
1F
100
AcDbEntity
  8
1
  6
CONTINUOUS
 62
     7
100
AcDbLine
 10
7515.4943801114
 20
-799.6948568956
 30
0.0
 11
7515.4943801114
 21
-791.6948533582
 31
0.0
  0
LINE
  5
197
330
1F
100
AcDbEntity
  8
1
  6
CONTINUOUS
 62
     7
100
AcDbLine
 10
7583.3943790631
 20
-668.1948569554
 30
0.0
 11
7583.3943790631
 21
-663.2948569554
 31
0.0
  0
LINE
  5
198
330
1F
100
AcDbEntity
  8
1
  6
CONTINUOUS
 62
     7
100
AcDbLine
 10
7573.8943790631
 20
-693.1948569554
 30
0.0
 11
7576.9310353788
 21
-692.6427376253
 31
0.0
  0
LINE
  5
199
330
1F
100
AcDbEntity
  8
1
  6
CONTINUOUS
 62
     7
100
AcDbLine
 10
7567.294379063
 20
-725.6948569552
 30
0.0
 11
7567.2943790727
 21
-707.1948569555
 31
0.0
  0
LINE
  5
19A
330
1F
100
AcDbEntity
  8
1
  6
CONTINUOUS
 62
     7
100
AcDbLine
 10
7579.3943790631
 20
-689.691127895
 30
0.0
 11
7579.3943790631
 21
-686.1948569554
 31
0.0
  0
LINE
  5
19B
330
1F
100
AcDbEntity
  8
1
  6
CONTINUOUS
 62
     7
100
AcDbLine
 10
7533.3943790631
 20
-686.1948569554
 30
0.0
 11
7528.4943790631
 21
-686.1948569554
 31
0.0
  0
LINE
  5
19C
330
1F
100
AcDbEntity
  8
1
  6
CONTINUOUS
 62
     7
100
AcDbLine
 10
7582.4943794477
 20
-799.6948568966
 30
0.0
 11
7580.2943794477
 21
-799.6948568956
 31
0.0
  0
LINE
  5
19D
330
1F
100
AcDbEntity
  8
1
  6
CONTINUOUS
 62
     7
100
AcDbLine
 10
7608.3943790631
 20
-689.691127895
 30
0.0
 11
7608.3943790631
 21
-686.1948569554
 31
0.0
  0
LINE
  5
19E
330
1F
100
AcDbEntity
  8
1
  6
CONTINUOUS
 62
     7
100
AcDbLine
 10
7586.8906500026
 20
-725.1948569555
 30
0.0
 11
7583.3943790631
 21
-725.1948569555
 31
0.0
  0
LINE
  5
19F
330
1F
100
AcDbEntity
  8
1
  6
CONTINUOUS
 62
     7
100
AcDbLine
 10
7600.8981081235
 20
-668.1948569555
 30
0.0
 11
7604.3943790631
 21
-668.1948569555
 31
0.0
  0
LINE
  5
1A0
330
1F
100
AcDbEntity
  8
1
  6
CONTINUOUS
 62
     7
100
AcDbLine
 10
7583.3943790631
 20
-725.1948569555
 30
0.0
 11
7583.3943790631
 21
-730.0948569555
 31
0.0
  0
LINE
  5
1A1
330
1F
100
AcDbEntity
  8
1
  6
CONTINUOUS
 62
     7
100
AcDbLine
 10
7597.3943790631
 20
-730.6948569555
 30
0.0
 11
7597.9464983932
 21
-727.6582006397
 31
0.0
  0
LINE
  5
1A2
330
1F
100
AcDbEntity
  8
1
  6
CONTINUOUS
 62
     7
100
AcDbLine
 10
7608.3943790631
 20
-686.1948569554
 30
0.0
 11
7613.2943790631
 21
-686.1948569554
 31
0.0
  0
ARC
  5
1A3
330
1F
100
AcDbEntity
  8
1
  6
CONTINUOUS
 62
     7
100
AcDbCircle
 10
7586.8906500026
 20
-665.1948569566
 30
0.0
 40
3.0
100
AcDbArc
 50
270.0
 51
349.6951535312
  0
LINE
  5
1A4
330
1F
100
AcDbEntity
  8
1
  6
CONTINUOUS
 62
     7
100
AcDbLine
 10
7561.4943801114
 20
-799.6948568966
 30
0.0
 11
7559.2943801114
 21
-799.6948568956
 31
0.0
  0
ARC
  5
1A5
330
1F
100
AcDbEntity
  8
1
  6
CONTINUOUS
 62
     7
100
AcDbCircle
 10
7600.8981081235
 20
-728.1948569543
 30
0.0
 40
3.0
100
AcDbArc
 50
90.0
 51
169.6951535312
  0
ARC
  5
1A6
330
1F
100
AcDbEntity
  8
1
  6
CONTINUOUS
 62
     7
100
AcDbCircle
 10
7426.8767729995
 20
-721.6948569839
 30
0.0
 40
2.0176060199
100
AcDbArc
 50
270.995654763
 51
90.0
  0
LINE
  5
1A7
330
1F
100
AcDbEntity
  8
1
  6
CONTINUOUS
 62
     7
100
AcDbLine
 10
7573.8943790631
 20
-700.1948569555
 30
0.0
 11
7576.9310353788
 21
-700.7469762856
 31
0.0
  0
ARC
  5
1A8
330
1F
100
AcDbEntity
  8
1
  6
CONTINUOUS
 62
     7
100
AcDbCircle
 10
7426.8765514358
 20
-671.6948569214
 30
0.0
 40
2.0176098821
100
AcDbArc
 50
269.9980542526
 51
90.00194574699998
  0
LINE
  5
1A9
330
1F
100
AcDbEntity
  8
1
  6
CONTINUOUS
 62
     7
100
AcDbLine
 10
7579.3943790631
 20
-707.1948569555
 30
0.0
 11
7574.4943790631
 21
-707.1948569555
 31
0.0
  0
ARC
  5
1AA
330
1F
100
AcDbEntity
  8
1
  6
CONTINUOUS
 62
     7
100
AcDbCircle
 10
7576.3943790642
 20
-703.6985860159
 30
0.0
 40
3.0
100
AcDbArc
 50
0.0
 51
79.6951535313
  0
ARC
  5
1AB
330
1F
100
AcDbEntity
  8
1
  6
CONTINUOUS
 62
     7
100
AcDbCircle
 10
7586.8906500026
 20
-728.1948569543
 30
0.0
 40
3.0
100
AcDbArc
 50
10.3048464688
 51
90.0
  0
LINE
  5
1AC
330
1F
100
AcDbEntity
  8
1
  6
CONTINUOUS
 62
     7
100
AcDbLine
 10
7613.8943790631
 20
-700.1948569555
 30
0.0
 11
7610.8577227473
 21
-700.7469762856
 31
0.0
  0
ARC
  5
1AD
330
1F
100
AcDbEntity
  8
1
  6
CONTINUOUS
 62
     7
100
AcDbCircle
 10
7600.8981081235
 20
-665.1948569566
 30
0.0
 40
3.0
100
AcDbArc
 50
190.3048464688
 51
270.0
  0
LINE
  5
1AE
330
1F
100
AcDbEntity
  8
1
  6
CONTINUOUS
 62
     7
100
AcDbLine
 10
7605.2943801104
 20
-799.6948568956
 30
0.0
 11
7605.2943801104
 21
-791.6948533582
 31
0.0
  0
ARC
  5
1AF
330
1F
100
AcDbEntity
  8
1
  6
CONTINUOUS
 62
     7
100
AcDbCircle
 10
7411.0767729624
 20
-730.2122345305
 30
0.0
 40
2.017606052
100
AcDbArc
 50
270.9956556587
 51
90.0
  0
LINE
  5
1B0
330
1F
100
AcDbEntity
  8
1
  6
CONTINUOUS
 62
     7
100
AcDbLine
 10
7608.3943790631
 20
-707.1948569555
 30
0.0
 11
7613.2943790631
 21
-707.1948569555
 31
0.0
  0
LINE
  5
1B1
330
1F
100
AcDbEntity
  8
1
  6
CONTINUOUS
 62
     7
100
AcDbLine
 10
7613.8943790631
 20
-693.1948569554
 30
0.0
 11
7610.8577227473
 21
-692.6427376253
 31
0.0
  0
LINE
  5
1B2
330
1F
100
AcDbEntity
  8
1
  6
CONTINUOUS
 62
     7
100
AcDbLine
 10
7567.8943790631
 20
-693.1948569554
 30
0.0
 11
7564.8577227473
 21
-692.6427376253
 31
0.0
  0
LINE
  5
1B3
330
1F
100
AcDbEntity
  8
1
  6
CONTINUOUS
 62
     7
100
AcDbLine
 10
7597.3943790631
 20
-662.6948569555
 30
0.0
 11
7597.9464983932
 21
-665.7315132712
 31
0.0
  0
LINE
  5
1B4
330
1F
100
AcDbEntity
  8
1
  6
CONTINUOUS
 62
     7
100
AcDbLine
 10
7486.8943790631
 20
-730.6948569554
 30
0.0
 11
7498.3943790631
 21
-730.6948569554
 31
0.0
  0
LINE
  5
1B5
330
1F
100
AcDbEntity
  8
1
  6
CONTINUOUS
 62
     7
100
AcDbLine
 10
7567.294379063
 20
-667.6948569557
 30
0.0
 11
7567.2943790734
 21
-686.1948569554
 31
0.0
  0
LINE
  5
1B6
330
1F
100
AcDbEntity
  8
1
  6
CONTINUOUS
 62
     7
100
AcDbLine
 10
7505.3943790631
 20
-730.6948569554
 30
0.0
 11
7509.5432557556
 21
-730.6948569554
 31
0.0
  0
LINE
  5
1B7
330
1F
100
AcDbEntity
  8
1
  6
CONTINUOUS
 62
     7
100
AcDbLine
 10
7533.3943790631
 20
-703.6985860159
 30
0.0
 11
7533.3943790631
 21
-707.1948569555
 31
0.0
  0
LINE
  5
1B8
330
1F
100
AcDbEntity
  8
1
  6
CONTINUOUS
 62
     7
100
AcDbLine
 10
7562.3943790631
 20
-703.6985860159
 30
0.0
 11
7562.3943790631
 21
-707.1948569555
 31
0.0
  0
LINE
  5
1B9
330
1F
100
AcDbEntity
  8
1
  6
CONTINUOUS
 62
     7
100
AcDbLine
 10
7516.8943790631
 20
-662.6948569554
 30
0.0
 11
7505.394379063
 21
-662.6948569554
 31
0.0
  0
LINE
  5
1BA
330
1F
100
AcDbEntity
  8
1
  6
CONTINUOUS
 62
     7
100
AcDbLine
 10
7579.3943790631
 20
-686.1948569554
 30
0.0
 11
7574.4943790631
 21
-686.1948569554
 31
0.0
  0
LINE
  5
1BB
330
1F
100
AcDbEntity
  8
1
  6
CONTINUOUS
 62
     7
100
AcDbLine
 10
7533.3943790631
 20
-689.691127895
 30
0.0
 11
7533.3943790631
 21
-686.1948569554
 31
0.0
  0
LINE
  5
1BC
330
1F
100
AcDbEntity
  8
1
  6
CONTINUOUS
 62
     7
100
AcDbLine
 10
7536.4943794477
 20
-799.6948568956
 30
0.0
 11
7536.4943794477
 21
-791.6948533582
 31
0.0
  0
LINE
  5
1BD
330
1F
100
AcDbEntity
  8
1
  6
CONTINUOUS
 62
     7
100
AcDbLine
 10
7590.3943790631
 20
-662.6948569555
 30
0.0
 11
7589.8422597329
 21
-665.7315132712
 31
0.0
  0
LINE
  5
1BE
330
1F
100
AcDbEntity
  8
1
  6
CONTINUOUS
 62
     7
100
AcDbLine
 10
7544.3943790631
 20
-730.6948569555
 30
0.0
 11
7543.8422597329
 21
-727.6582006397
 31
0.0
  0
ARC
  5
1BF
330
1F
100
AcDbEntity
  8
1
  6
CONTINUOUS
 62
     7
100
AcDbCircle
 10
7530.3943790642
 20
-703.6985860159
 30
0.0
 40
3.0
100
AcDbArc
 50
0.0
 51
79.6951535313
  0
LINE
  5
1C0
330
1F
100
AcDbEntity
  8
1
  6
CONTINUOUS
 62
     7
100
AcDbLine
 10
7590.3943790631
 20
-730.6948569555
 30
0.0
 11
7589.8422597329
 21
-727.6582006397
 31
0.0
  0
LINE
  5
1C1
330
1F
100
AcDbEntity
  8
1
  6
CONTINUOUS
 62
     7
100
AcDbLine
 10
7582.4943794477
 20
-791.6948568966
 30
0.0
 11
7580.2943794477
 21
-791.6948568956
 31
0.0
  0
LINE
  5
1C2
330
1F
100
AcDbEntity
  8
1
  6
CONTINUOUS
 62
     7
100
AcDbLine
 10
7608.3943790631
 20
-703.6985860159
 30
0.0
 11
7608.3943790631
 21
-707.1948569555
 31
0.0
  0
LINE
  5
1C3
330
1F
100
AcDbEntity
  8
1
  6
CONTINUOUS
 62
     7
100
AcDbLine
 10
7534.2943794477
 20
-799.6948568956
 30
0.0
 11
7534.2943794477
 21
-791.6948533582
 31
0.0
  0
LINE
  5
1C4
330
1F
100
AcDbEntity
  8
1
  6
CONTINUOUS
 62
     7
100
AcDbLine
 10
7582.4943794477
 20
-799.6948568956
 30
0.0
 11
7582.4943794477
 21
-791.6948533582
 31
0.0
  0
LINE
  5
1C5
330
1F
100
AcDbEntity
  8
1
  6
CONTINUOUS
 62
     7
100
AcDbLine
 10
7600.8981081235
 20
-725.1948569555
 30
0.0
 11
7601.5432557557
 21
-725.1948569555
 31
0.0
  0
LINE
  5
1C6
330
1F
100
AcDbEntity
  8
1
  6
CONTINUOUS
 62
     7
100
AcDbLine
 10
7540.8906500026
 20
-668.1948569555
 30
0.0
 11
7540.246497056
 21
-668.1948569546
 31
0.0
  0
LINE
  5
1C7
330
1F
100
AcDbEntity
  8
1
  6
CONTINUOUS
 62
     7
100
AcDbLine
 10
7561.4943801114
 20
-799.6948568956
 30
0.0
 11
7561.4943801114
 21
-791.6948533582
 31
0.0
  0
LINE
  5
1C8
330
1F
100
AcDbEntity
  8
1
  6
CONTINUOUS
 62
     7
100
AcDbLine
 10
7604.3943790631
 20
-668.1948569555
 30
0.0
 11
7604.3943790631
 21
-663.2948569554
 31
0.0
  0
LINE
  5
1C9
330
1F
100
AcDbEntity
  8
1
  6
CONTINUOUS
 62
     7
100
AcDbLine
 10
7579.3943790631
 20
-703.6985860159
 30
0.0
 11
7579.3943790631
 21
-707.1948569555
 31
0.0
  0
LINE
  5
1CA
330
1F
100
AcDbEntity
  8
1
  6
CONTINUOUS
 62
     7
100
AcDbLine
 10
7562.3943790631
 20
-707.1948569555
 30
0.0
 11
7567.2943790631
 21
-707.1948569555
 31
0.0
  0
LINE
  5
1CB
330
1F
100
AcDbEntity
  8
1
  6
CONTINUOUS
 62
     7
100
AcDbLine
 10
7580.2943794477
 20
-799.6948568956
 30
0.0
 11
7580.2943794477
 21
-791.6948533582
 31
0.0
  0
LINE
  5
1CC
330
1F
100
AcDbEntity
  8
1
  6
CONTINUOUS
 62
     7
100
AcDbLine
 10
7586.8906500026
 20
-668.1948569555
 30
0.0
 11
7583.3943790631
 21
-668.1948569554
 31
0.0
  0
ARC
  5
1CD
330
1F
100
AcDbEntity
  8
1
  6
CONTINUOUS
 62
     7
100
AcDbCircle
 10
7554.8981081235
 20
-728.1948569543
 30
0.0
 40
3.0
100
AcDbArc
 50
90.0
 51
169.6951535312
  0
LINE
  5
1CE
330
1F
100
AcDbEntity
  8
1
  6
CONTINUOUS
 62
     7
100
AcDbLine
 10
7558.3943790631
 20
-725.1948569555
 30
0.0
 11
7558.3943790631
 21
-730.0948569555
 31
0.0
  0
LINE
  5
1CF
330
1F
100
AcDbEntity
  8
1
  6
CONTINUOUS
 62
     7
100
AcDbLine
 10
7515.4943801114
 20
-799.6948568966
 30
0.0
 11
7513.2943801114
 21
-799.6948568956
 31
0.0
  0
LINE
  5
1D0
330
1F
100
AcDbEntity
  8
1
  6
CONTINUOUS
 62
     7
100
AcDbLine
 10
7551.3943790631
 20
-730.6948569555
 30
0.0
 11
7551.9464983932
 21
-727.6582006397
 31
0.0
  0
ARC
  5
1D1
330
1F
100
AcDbEntity
  8
1
  6
CONTINUOUS
 62
     7
100
AcDbCircle
 10
7576.3943790642
 20
-689.691127895
 30
0.0
 40
3.0
100
AcDbArc
 50
280.3048464687
 51
0.0
  0
ARC
  5
1D2
330
1F
100
AcDbEntity
  8
1
  6
CONTINUOUS
 62
     7
100
AcDbCircle
 10
7611.3943790619
 20
-703.6985860159
 30
0.0
 40
3.0
100
AcDbArc
 50
100.3048464688
 51
180.0
  0
LINE
  5
1D3
330
1F
100
AcDbEntity
  8
1
  6
CONTINUOUS
 62
     7
100
AcDbLine
 10
7558.3943790631
 20
-668.1948569555
 30
0.0
 11
7558.3943790631
 21
-663.2948569554
 31
0.0
  0
LINE
  5
1D4
330
1F
100
AcDbEntity
  8
1
  6
CONTINUOUS
 62
     7
100
AcDbLine
 10
7533.3943790631
 20
-707.1948569555
 30
0.0
 11
7528.4943790631
 21
-707.1948569555
 31
0.0
  0
LINE
  5
1D5
330
1F
100
AcDbEntity
  8
1
  6
CONTINUOUS
 62
     7
100
AcDbLine
 10
7498.3943790631
 20
-662.6948569554
 30
0.0
 11
7486.8943790631
 21
-662.6948569554
 31
0.0
  0
ARC
  5
1D6
330
1F
100
AcDbEntity
  8
1
  6
CONTINUOUS
 62
     7
100
AcDbCircle
 10
7485.7097545757
 20
-725.9275685986
 30
0.0
 40
3.3333333333
100
AcDbArc
 50
31.3195344206
 51
88.75755688400001
  0
ARC
  5
1D7
330
1F
100
AcDbEntity
  8
1
  6
CONTINUOUS
 62
     7
100
AcDbCircle
 10
7639.8943790631
 20
-738.4448569401
 30
0.0
 40
6.0
100
AcDbArc
 50
0.0
 51
180.0
  0
ARC
  5
1D8
330
1F
100
AcDbEntity
  8
1
  6
CONTINUOUS
 62
     7
100
AcDbCircle
 10
7485.7097545757
 20
-675.9275479812
 30
0.0
 40
3.3333333333
100
AcDbArc
 50
31.3195343481
 51
88.75755688400001
  0
CIRCLE
  5
1D9
330
1F
100
AcDbEntity
  8
1
  6
CONTINUOUS
 62
     7
100
AcDbCircle
 10
7639.8943790631
 20
-714.9448569401
 30
0.0
 40
8.0
  0
LINE
  5
1DA
330
1F
100
AcDbEntity
  8
1
  6
CONTINUOUS
 62
     7
100
AcDbLine
 10
7475.6443790631
 20
-670.9281793618
 30
0.0
 11
7485.7820313214
 21
-670.9281799803
 31
0.0
  0
CIRCLE
  5
1DB
330
1F
100
AcDbEntity
  8
1
  6
CONTINUOUS
 62
     7
100
AcDbCircle
 10
7501.8943790631
 20
-679.6948569555
 30
0.0
 40
10.65
  0
ARC
  5
1DC
330
1F
100
AcDbEntity
  8
1
  6
CONTINUOUS
 62
     7
100
AcDbCircle
 10
7501.8943790631
 20
-713.6948569555
 30
0.0
 40
10.65
100
AcDbArc
 50
4.9093861789
 51
315.9064293784
  0
LINE
  5
1DD
330
1F
100
AcDbEntity
  8
1
  6
CONTINUOUS
 62
     7
100
AcDbLine
 10
7513.2943801114
 20
-799.6948568956
 30
0.0
 11
7513.2943801114
 21
-791.6948533582
 31
0.0
  0
ARC
  5
1DE
330
1F
100
AcDbEntity
  8
1
  6
CONTINUOUS
 62
     7
100
AcDbCircle
 10
7485.7097545757
 20
-667.4621453126
 30
0.0
 40
3.3333333333
100
AcDbArc
 50
271.242443116
 51
328.6804655794
  0
ARC
  5
1DF
330
1F
100
AcDbEntity
  8
1
  6
CONTINUOUS
 62
     7
100
AcDbCircle
 10
7484.4974611104
 20
-721.6948672655
 30
0.0
 40
5.1529685774
100
AcDbArc
 50
330.9772253196
 51
29.0227747102
  0
LINE
  5
1E0
330
1F
100
AcDbEntity
  8
1
  6
CONTINUOUS
 62
     7
100
AcDbLine
 10
7543.8943790634
 20
-680.7948569555
 30
0.0
 11
7551.8943790631
 21
-680.7948569555
 31
0.0
  0
LINE
  5
1E1
330
1F
100
AcDbEntity
  8
1
  6
CONTINUOUS
 62
     7
100
AcDbLine
 10
7497.8943790634
 20
-712.5948569555
 30
0.0
 11
7505.8943790631
 21
-712.5948569555
 31
0.0
  0
LINE
  5
1E2
330
1F
100
AcDbEntity
  8
1
  6
CONTINUOUS
 62
     7
100
AcDbLine
 10
7485.7820313214
 20
-672.4615133137
 30
0.0
 11
7475.6443790631
 21
-672.4615113945
 31
0.0
  0
LINE
  5
1E3
330
1F
100
AcDbEntity
  8
1
  6
CONTINUOUS
 62
     7
100
AcDbLine
 10
7485.7820313214
 20
-722.4617984094
 30
0.0
 11
7475.6443790631
 21
-722.4617964902
 31
0.0
  0
ARC
  5
1E4
330
1F
100
AcDbEntity
  8
1
  6
CONTINUOUS
 62
     7
100
AcDbCircle
 10
7493.0632547
 20
-671.6950178643
 30
0.0
 40
5.1529685774
100
AcDbArc
 50
150.9772253196
 51
209.0227747102
  0
LINE
  5
1E5
330
1F
100
AcDbEntity
  8
1
  6
CONTINUOUS
 62
     7
100
AcDbLine
 10
7607.4943801104
 20
-799.6948568966
 30
0.0
 11
7605.2943801104
 21
-799.6948568956
 31
0.0
  0
LINE
  5
1E6
330
1F
100
AcDbEntity
  8
1
  6
CONTINUOUS
 62
     7
100
AcDbLine
 10
7543.8943790631
 20
-678.5948569555
 30
0.0
 11
7543.8943790631
 21
-680.7948569555
 31
0.0
  0
LINE
  5
1E7
330
1F
100
AcDbEntity
  8
1
  6
CONTINUOUS
 62
     7
100
AcDbLine
 10
7489.0033556002
 20
-674.1948466469
 30
0.0
 11
7488.5572651888
 21
-674.1948466651
 31
0.0
  0
LINE
  5
1E8
330
1F
100
AcDbEntity
  8
1
  6
CONTINUOUS
 62
     7
100
AcDbLine
 10
7645.8943790631
 20
-654.9448569401
 30
0.0
 11
7645.8943790631
 21
-648.4448569555
 31
0.0
  0
CIRCLE
  5
1E9
330
1F
100
AcDbEntity
  8
1
  6
CONTINUOUS
 62
     7
100
AcDbCircle
 10
7427.3617123535
 20
-671.6946724558
 30
0.0
 40
1.5324489293
  0
LINE
  5
1EA
330
1F
100
AcDbEntity
  8
1
  6
CONTINUOUS
 62
     7
100
AcDbLine
 10
7497.8943790634
 20
-714.7948569555
 30
0.0
 11
7505.8943790631
 21
-714.7948569555
 31
0.0
  0
ARC
  5
1EB
330
1F
100
AcDbEntity
  8
1
  6
CONTINUOUS
 62
     7
100
AcDbCircle
 10
7487.4256292996
 20
-671.6948466469
 30
0.0
 40
1.8739496698
100
AcDbArc
 50
151.2917378899
 51
155.8505747346
  0
LINE
  5
1EC
330
1F
100
AcDbEntity
  8
1
  6
CONTINUOUS
 62
     7
100
AcDbLine
 10
7645.8943790631
 20
-738.4448569401
 30
0.0
 11
7645.8943790631
 21
-744.9448569555
 31
0.0
  0
ARC
  5
1ED
330
1F
100
AcDbEntity
  8
1
  6
CONTINUOUS
 62
     7
100
AcDbCircle
 10
7487.4256292996
 20
-721.6948672643
 30
0.0
 40
1.8739496698
100
AcDbArc
 50
204.1494252654
 51
208.7082621101
  0
LINE
  5
1EE
330
1F
100
AcDbEntity
  8
1
  6
CONTINUOUS
 62
     7
100
AcDbLine
 10
7489.0033556002
 20
-719.1948672643
 30
0.0
 11
7488.5572651888
 21
-719.1948672461
 31
0.0
  0
ARC
  5
1EF
330
1F
100
AcDbEntity
  8
1
  6
CONTINUOUS
 62
     7
100
AcDbCircle
 10
7411.0767729624
 20
-663.1774793741
 30
0.0
 40
2.017606052
100
AcDbArc
 50
270.0043443411
 51
89.0043443413
  0
LINE
  5
1F0
330
1F
100
AcDbEntity
  8
1
  6
CONTINUOUS
 62
     7
100
AcDbLine
 10
7543.8943790634
 20
-678.5948569555
 30
0.0
 11
7551.8943790631
 21
-678.5948569555
 31
0.0
  0
LINE
  5
1F1
330
1F
100
AcDbEntity
  8
1
  6
CONTINUOUS
 62
     7
100
AcDbLine
 10
7551.8943790631
 20
-680.7948569555
 30
0.0
 11
7551.8943790631
 21
-678.5948569555
 31
0.0
  0
ARC
  5
1F2
330
1F
100
AcDbEntity
  8
1
  6
CONTINUOUS
 62
     7
100
AcDbCircle
 10
7639.8943790631
 20
-654.9448569401
 30
0.0
 40
6.0
100
AcDbArc
 50
180.0
 51
0.0
  0
LINE
  5
1F3
330
1F
100
AcDbEntity
  8
1
  6
CONTINUOUS
 62
     7
100
AcDbLine
 10
7505.8943790631
 20
-680.7948569555
 30
0.0
 11
7505.8943790631
 21
-678.5948569555
 31
0.0
  0
LINE
  5
1F4
330
1F
100
AcDbEntity
  8
1
  6
CONTINUOUS
 62
     7
100
AcDbLine
 10
7561.4943801114
 20
-791.6948568966
 30
0.0
 11
7559.2943801114
 21
-791.6948568956
 31
0.0
  0
LINE
  5
1F5
330
1F
100
AcDbEntity
  8
1
  6
CONTINUOUS
 62
     7
100
AcDbLine
 10
7597.8943790631
 20
-716.0448569554
 30
0.0
 11
7597.8943790631
 21
-713.8448569554
 31
0.0
  0
LINE
  5
1F6
330
1F
100
AcDbEntity
  8
1
  6
CONTINUOUS
 62
     7
100
AcDbLine
 10
7505.8943790631
 20
-714.7948569555
 30
0.0
 11
7505.8943790631
 21
-712.5948569555
 31
0.0
  0
ARC
  5
1F7
330
1F
100
AcDbEntity
  8
1
  6
CONTINUOUS
 62
     7
100
AcDbCircle
 10
7547.8943790631
 20
-679.6948569555
 30
0.0
 40
10.65
100
AcDbArc
 50
184.9093861819
 51
135.898739416
  0
LINE
  5
1F8
330
1F
100
AcDbEntity
  8
1
  6
CONTINUOUS
 62
     7
100
AcDbLine
 10
7488.5719905263
 20
-671.6850578227
 30
0.0
 11
7489.4347206766
 21
-671.6850578227
 31
0.0
  0
LINE
  5
1F9
330
1F
100
AcDbEntity
  8
1
  6
CONTINUOUS
 62
     7
100
AcDbLine
 10
7475.6443790631
 20
-720.9284650759
 30
0.0
 11
7485.7820313214
 21
-720.9284650759
 31
0.0
  0
LINE
  5
1FA
330
1F
100
AcDbEntity
  8
1
  6
CONTINUOUS
 62
     7
100
AcDbLine
 10
7488.5719905263
 20
-721.7046560885
 30
0.0
 11
7489.4347206766
 21
-721.7046560885
 31
0.0
  0
LINE
  5
1FB
330
1F
100
AcDbEntity
  8
1
  6
CONTINUOUS
 62
     7
100
AcDbLine
 10
7559.2943801114
 20
-799.6948568956
 30
0.0
 11
7559.2943801114
 21
-791.6948533582
 31
0.0
  0
LINE
  5
1FC
330
1F
100
AcDbEntity
  8
1
  6
CONTINUOUS
 62
     7
100
AcDbLine
 10
7607.4943801104
 20
-791.6948568966
 30
0.0
 11
7605.2943801104
 21
-791.6948568956
 31
0.0
  0
LINE
  5
1FD
330
1F
100
AcDbEntity
  8
1
  6
CONTINUOUS
 62
     7
100
AcDbLine
 10
7607.4943801104
 20
-799.6948568956
 30
0.0
 11
7607.4943801104
 21
-791.6948533582
 31
0.0
  0
LINE
  5
1FE
330
1F
100
AcDbEntity
  8
1
  6
CONTINUOUS
 62
     7
100
AcDbLine
 10
7515.4943801114
 20
-791.6948568966
 30
0.0
 11
7513.2943801114
 21
-791.6948568956
 31
0.0
  0
LINE
  5
1FF
330
1F
100
AcDbEntity
  8
1
  6
CONTINUOUS
 62
     7
100
AcDbLine
 10
7536.4943794477
 20
-791.6948568966
 30
0.0
 11
7534.2943794477
 21
-791.6948568956
 31
0.0
  0
LINE
  5
200
330
1F
100
AcDbEntity
  8
1
  6
CONTINUOUS
 62
     7
100
AcDbLine
 10
7536.4943794477
 20
-799.6948568966
 30
0.0
 11
7534.2943794477
 21
-799.6948568956
 31
0.0
  0
CIRCLE
  5
201
330
1F
100
AcDbEntity
  8
1
  6
CONTINUOUS
 62
     7
100
AcDbCircle
 10
7547.8943790631
 20
-713.6948569555
 30
0.0
 40
10.65
  0
LINE
  5
202
330
1F
100
AcDbEntity
  8
1
  6
CENTER
 62
     1
100
AcDbLine
 10
7570.8943790631
 20
-638.6948569555
 30
0.0
 11
7570.8943790631
 21
-754.9448569555
 31
0.0
  0
LINE
  5
203
330
1F
100
AcDbEntity
  8
1
  6
CENTER
 62
     1
100
AcDbLine
 10
7570.89437977
 20
-774.6948569555
 30
0.0
 11
7570.89437977
 21
-817.3448569555
 31
0.0
  0
LINE
  5
204
330
1F
100
AcDbEntity
  8
1
  6
CONTINUOUS
 62
     7
100
AcDbLine
 10
7428.8943790202
 20
-691.6948569522
 30
0.0
 11
7405.8943790088
 21
-691.8955749115
 31
0.0
  0
LINE
  5
205
330
1F
100
AcDbEntity
  8
1
  6
CONTINUOUS
 62
     7
100
AcDbLine
 10
7419.8943793889
 20
-695.1948575607
 30
0.0
 11
7425.2367019559
 21
-695.1948569526
 31
0.0
  0
LINE
  5
206
330
1F
100
AcDbEntity
  8
1
  6
CONTINUOUS
 62
     7
100
AcDbLine
 10
7613.8943797689
 20
-791.3852740292
 30
0.0
 11
7613.8943797689
 21
-800.0044398768
 31
0.0
  0
LINE
  5
207
330
1F
100
AcDbEntity
  8
1
  6
CONTINUOUS
 62
     7
100
AcDbLine
 10
7466.8943790632
 20
-670.6948569557
 30
0.0
 11
7466.8943790632
 21
-667.6948569556
 31
0.0
  0
LINE
  5
208
330
1F
100
AcDbEntity
  8
1
  6
CONTINUOUS
 62
     7
100
AcDbLine
 10
7466.8943790631
 20
-670.6948569555
 30
0.0
 11
7465.8943790631
 21
-670.6948569555
 31
0.0
  0
LINE
  5
209
330
1F
100
AcDbEntity
  8
1
  6
CONTINUOUS
 62
     7
100
AcDbLine
 10
7466.8943790631
 20
-744.0552365655
 30
0.0
 11
7466.8943790631
 21
-747.1948569555
 31
0.0
  0
LINE
  5
20A
330
1F
100
AcDbEntity
  8
1
  6
CONTINUOUS
 62
     7
100
AcDbLine
 10
7411.1118320854
 20
-661.1601779492
 30
0.0
 11
7405.8943790089
 21
-661.114645926
 31
0.0
  0
LINE
  5
20B
330
1F
100
AcDbEntity
  8
1
  6
CONTINUOUS
 62
     7
100
AcDbLine
 10
7429.8943790631
 20
-720.6948569528
 30
0.0
 11
7429.8943790631
 21
-722.6948569529
 31
0.0
  0
LINE
  5
20C
330
1F
100
AcDbEntity
  8
1
  6
CONTINUOUS
 62
     7
100
AcDbLine
 10
7428.2367017192
 20
-720.1948568922
 30
0.0
 11
7419.8943793889
 21
-720.1949475324
 31
0.0
  0
ARC
  5
20D
330
1F
100
AcDbEntity
  8
1
  6
CONTINUOUS
 62
     7
100
AcDbCircle
 10
7427.8943790631
 20
-670.6687905843
 30
0.0
 40
3.0
100
AcDbArc
 50
0.0
 51
89.5
  0
LINE
  5
20E
330
1F
100
AcDbEntity
  8
1
  6
CONTINUOUS
 62
     7
100
AcDbLine
 10
7422.1943790088
 20
-747.6948569524
 30
0.0
 11
7422.1943790088
 21
-746.6948569543
 31
0.0
  0
LINE
  5
20F
330
1F
100
AcDbEntity
  8
1
  6
CONTINUOUS
 62
     7
100
AcDbLine
 10
7405.8943790088
 20
-645.6948569543
 30
0.0
 11
7433.8943790088
 21
-645.6948569543
 31
0.0
  0
ARC
  5
210
330
1F
100
AcDbEntity
  8
1
  6
CONTINUOUS
 62
     7
100
AcDbCircle
 10
7433.5943790632
 20
-696.244856952
 30
0.0
 40
0.3
100
AcDbArc
 50
0.0
 51
90.0
  0
LINE
  5
211
330
1F
100
AcDbEntity
  8
1
  6
CONTINUOUS
 62
     7
100
AcDbLine
 10
7569.7977039836
 20
-790.6948569557
 30
0.0
 11
7571.9910555561
 21
-790.6948569557
 31
0.0
  0
LINE
  5
212
330
1F
100
AcDbEntity
  8
1
  6
CONTINUOUS
 62
     7
100
AcDbLine
 10
7425.2367019588
 20
-698.1948569515
 30
0.0
 11
7419.8943793889
 21
-698.1948595208
 31
0.0
  0
LINE
  5
213
330
1F
100
AcDbEntity
  8
1
  6
CONTINUOUS
 62
     7
100
AcDbLine
 10
7429.8943790631
 20
-716.6948569538
 30
0.0
 11
7429.8943790631
 21
-714.6948569538
 31
0.0
  0
LINE
  5
214
330
1F
100
AcDbEntity
  8
1
  6
CONTINUOUS
 62
     7
100
AcDbLine
 10
7405.8943790088
 20
-742.4980346518
 30
0.0
 11
7428.8943790631
 21
-741.6948569516
 31
0.0
  0
LINE
  5
215
330
1F
100
AcDbEntity
  8
1
  6
CONTINUOUS
 62
     7
100
AcDbLine
 10
7411.1118320854
 20
-665.194780799
 30
0.0
 11
7405.8943790089
 21
-665.2403128222
 31
0.0
  0
LINE
  5
216
330
1F
100
AcDbEntity
  8
1
  6
CONTINUOUS
 62
     7
100
AcDbLine
 10
7405.8943790088
 20
-701.4941389929
 30
0.0
 11
7428.8943790202
 21
-701.6948569522
 31
0.0
  0
LINE
  5
217
330
1F
100
AcDbEntity
  8
1
  6
CONTINUOUS
 62
     7
100
AcDbLine
 10
7426.9118320904
 20
-669.677555528
 30
0.0
 11
7405.8943790088
 21
-669.4941389937
 31
0.0
  0
LINE
  5
218
330
1F
100
AcDbEntity
  8
1
  6
CONTINUOUS
 62
     7
100
AcDbLine
 10
7405.8943790088
 20
-648.8916792532
 30
0.0
 11
7428.8943790631
 21
-649.6948569534
 31
0.0
  0
LINE
  5
219
330
1F
100
AcDbEntity
  8
1
  6
CONTINUOUS
 62
     7
100
AcDbLine
 10
7422.1943790088
 20
-746.6948569543
 30
0.0
 11
7428.894379063
 21
-746.6948569543
 31
0.0
  0
LINE
  5
21A
330
1F
100
AcDbEntity
  8
1
  6
CONTINUOUS
 62
     7
100
AcDbLine
 10
7419.8943793889
 20
-670.1948517893
 30
0.0
 11
7428.2367019271
 21
-670.194856917
 31
0.0
  0
LINE
  5
21B
330
1F
100
AcDbEntity
  8
1
  6
CONTINUOUS
 62
     7
100
AcDbLine
 10
7430.8943790631
 20
-716.6948569538
 30
0.0
 11
7429.8943790631
 21
-716.6948569538
 31
0.0
  0
LINE
  5
21C
330
1F
100
AcDbEntity
  8
1
  6
CONTINUOUS
 62
     7
100
AcDbLine
 10
7425.8943790632
 20
-696.7122345313
 30
0.0
 11
7425.8943790632
 21
-696.6774793736
 31
0.0
  0
LINE
  5
21D
330
1F
100
AcDbEntity
  8
1
  6
CONTINUOUS
 62
     7
100
AcDbLine
 10
7422.1943790088
 20
-646.6948569525
 30
0.0
 11
7428.894379063
 21
-646.6948569525
 31
0.0
  0
LINE
  5
21E
330
1F
100
AcDbEntity
  8
1
  6
CONTINUOUS
 62
     7
100
AcDbLine
 10
7433.5943790632
 20
-695.9448569522
 30
0.0
 11
7430.8943790632
 21
-695.9448569522
 31
0.0
  0
LINE
  5
21F
330
1F
100
AcDbEntity
  8
1
  6
CONTINUOUS
 62
     7
100
AcDbLine
 10
7422.1943790088
 20
-645.6948569543
 30
0.0
 11
7422.1943790088
 21
-646.6948569525
 31
0.0
  0
LINE
  5
220
330
1F
100
AcDbEntity
  8
1
  6
CONTINUOUS
 62
     7
100
AcDbLine
 10
7423.9118321321
 20
-694.6775555275
 30
0.0
 11
7405.8943790088
 21
-694.5203195962
 31
0.0
  0
LINE
  5
221
330
1F
100
AcDbEntity
  8
1
  6
CONTINUOUS
 62
     7
100
AcDbLine
 10
7405.8943790088
 20
-681.4941390442
 30
0.0
 11
7428.8943731788
 21
-681.6948569525
 31
0.0
  0
LINE
  5
222
330
1F
100
AcDbEntity
  8
1
  6
CONTINUOUS
 62
     7
100
AcDbLine
 10
7405.8943790088
 20
-744.4980346518
 30
0.0
 11
7428.8943790631
 21
-743.6948569516
 31
0.0
  0
ARC
  5
223
330
1F
100
AcDbEntity
  8
1
  6
CONTINUOUS
 62
     7
100
AcDbCircle
 10
7427.8943790631
 20
-722.7209233207
 30
0.0
 40
3.0
100
AcDbArc
 50
270.5000000000001
 51
0.0
  0
ARC
  5
224
330
1F
100
AcDbEntity
  8
1
  6
CONTINUOUS
 62
     7
100
AcDbCircle
 10
7606.3943801007
 20
-795.694856953
 30
0.0
 40
10.65
100
AcDbArc
 50
28.0007790272
 51
331.9992209395
  0
LINE
  5
225
330
1F
100
AcDbEntity
  8
1
  6
CONTINUOUS
 62
     7
100
AcDbLine
 10
7405.8943790088
 20
-650.8916792532
 30
0.0
 11
7428.8943790631
 21
-651.6948569534
 31
0.0
  0
ARC
  5
226
330
1F
100
AcDbEntity
  8
1
  6
CONTINUOUS
 62
     7
100
AcDbCircle
 10
7423.8943790632
 20
-696.7122345313
 30
0.0
 40
2.0
100
AcDbArc
 50
270.5000000000001
 51
0.0
  0
LINE
  5
227
330
1F
100
AcDbEntity
  8
1
  6
CONTINUOUS
 62
     7
100
AcDbLine
 10
7428.8943790631
 20
-645.6948569543
 30
0.0
 11
7428.8943790631
 21
-651.6948569534
 31
0.0
  0
LINE
  5
228
330
1F
100
AcDbEntity
  8
1
  6
CONTINUOUS
 62
     7
100
AcDbLine
 10
7429.8943790631
 20
-722.6948569529
 30
0.0
 11
7430.8943790631
 21
-722.6948569529
 31
0.0
  0
LINE
  5
229
330
1F
100
AcDbEntity
  8
1
  6
CONTINUOUS
 62
     7
100
AcDbLine
 10
7428.2367017192
 20
-673.1948570131
 30
0.0
 11
7419.8943793889
 21
-673.1947663728
 31
0.0
  0
LINE
  5
22A
330
1F
100
AcDbEntity
  8
1
  6
CONTINUOUS
 62
     7
100
AcDbLine
 10
7472.8943790631
 20
-672.4448569555
 30
0.0
 11
7467.6443790631
 21
-672.4448569555
 31
0.0
  0
ARC
  5
22B
330
1F
100
AcDbEntity
  8
1
  6
CONTINUOUS
 62
     7
100
AcDbCircle
 10
7433.5943790632
 20
-697.1448569525
 30
0.0
 40
0.3
100
AcDbArc
 50
270.0
 51
0.0
  0
LINE
  5
22C
330
1F
100
AcDbEntity
  8
1
  6
CONTINUOUS
 62
     7
100
AcDbLine
 10
7426.9118320904
 20
-673.7121583148
 30
0.0
 11
7405.8943790088
 21
-673.8955748491
 31
0.0
  0
LINE
  5
22D
330
1F
100
AcDbEntity
  8
1
  6
CONTINUOUS
 62
     7
100
AcDbLine
 10
7569.7977039807
 20
-800.6948569557
 30
0.0
 11
7571.991055559
 21
-800.6948569557
 31
0.0
  0
LINE
  5
22E
330
1F
100
AcDbEntity
  8
1
  6
CONTINUOUS
 62
     7
100
AcDbLine
 10
7419.8943793889
 20
-723.194862116
 30
0.0
 11
7428.2367019271
 21
-723.1948569883
 31
0.0
  0
LINE
  5
22F
330
1F
100
AcDbEntity
  8
1
  6
CONTINUOUS
 62
     7
100
AcDbLine
 10
7466.8943790631
 20
-720.6948569554
 30
0.0
 11
7466.8943790631
 21
-716.6948569554
 31
0.0
  0
LINE
  5
230
330
1F
100
AcDbEntity
  8
1
  6
CONTINUOUS
 62
     7
100
AcDbLine
 10
7465.8943790631
 20
-672.6948569555
 30
0.0
 11
7466.8943790631
 21
-672.6948569555
 31
0.0
  0
LINE
  5
231
330
1F
100
AcDbEntity
  8
1
  6
CONTINUOUS
 62
     7
100
AcDbLine
 10
7423.9118321342
 20
-698.7121583774
 30
0.0
 11
7405.8943790088
 21
-698.8693943088
 31
0.0
  0
LINE
  5
232
330
1F
100
AcDbEntity
  8
1
  6
CONTINUOUS
 62
     7
100
AcDbLine
 10
7405.8943790088
 20
-711.8955748608
 30
0.0
 11
7428.8943731788
 21
-711.6948569525
 31
0.0
  0
LINE
  5
233
330
1F
100
AcDbEntity
  8
1
  6
CONTINUOUS
 62
     7
100
AcDbLine
 10
7430.8943790631
 20
-720.6948569528
 30
0.0
 11
7429.8943790631
 21
-720.6948569528
 31
0.0
  0
LINE
  5
234
330
1F
100
AcDbEntity
  8
1
  6
CONTINUOUS
 62
     7
100
AcDbLine
 10
7428.8943790631
 20
-747.6948569507
 30
0.0
 11
7428.8943790631
 21
-741.6948569516
 31
0.0
  0
LINE
  5
235
330
1F
100
AcDbEntity
  8
1
  6
CONTINUOUS
 62
     7
100
AcDbLine
 10
7426.9118320904
 20
-719.6775555905
 30
0.0
 11
7405.8943790088
 21
-719.4941390561
 31
0.0
  0
ARC
  5
236
330
1F
100
AcDbEntity
  8
1
  6
CONTINUOUS
 62
     7
100
AcDbCircle
 10
7581.394379438
 20
-795.694856953
 30
0.0
 40
10.65
100
AcDbArc
 50
208.0007790605
 51
151.9992209728
  0
LINE
  5
237
330
1F
100
AcDbEntity
  8
1
  6
CONTINUOUS
 62
     7
100
AcDbLine
 10
7430.8943790631
 20
-672.6948569533
 30
0.0
 11
7429.8943790631
 21
-672.6948569533
 31
0.0
  0
LINE
  5
238
330
1F
100
AcDbEntity
  8
1
  6
CONTINUOUS
 62
     7
100
AcDbLine
 10
7405.8943790088
 20
-747.6948569507
 30
0.0
 11
7433.8943790088
 21
-747.6948569507
 31
0.0
  0
LINE
  5
239
330
1F
100
AcDbEntity
  8
1
  6
CONTINUOUS
 62
     7
100
AcDbLine
 10
7405.8943790088
 20
-725.9130286478
 30
0.0
 11
7427.9205586696
 21
-725.7208090899
 31
0.0
  0
LINE
  5
23A
330
1F
100
AcDbEntity
  8
1
  6
CONTINUOUS
 62
     7
100
AcDbLine
 10
7426.9118320904
 20
-723.7121583772
 30
0.0
 11
7405.8943790088
 21
-723.8955749116
 31
0.0
  0
ARC
  5
23B
330
1F
100
AcDbEntity
  8
1
  6
CONTINUOUS
 62
     7
100
AcDbCircle
 10
7627.394379437
 20
-795.694856953
 30
0.0
 40
10.65
100
AcDbArc
 50
208.0007790605
 51
151.9992209728
  0
CIRCLE
  5
23C
330
1F
100
AcDbEntity
  8
1
  6
CONTINUOUS
 62
     7
100
AcDbCircle
 10
7514.894379063
 20
-654.9448569551
 30
0.0
 40
2.0
  0
LINE
  5
23D
330
1F
100
AcDbEntity
  8
1
  6
CONTINUOUS
 62
     7
100
AcDbLine
 10
7532.8943790631
 20
-730.6948569555
 30
0.0
 11
7544.3943790631
 21
-730.6948569555
 31
0.0
  0
LINE
  5
23E
330
1F
100
AcDbEntity
  8
1
  6
CONTINUOUS
 62
     7
100
AcDbLine
 10
7478.3943790631
 20
-717.4448569555
 30
0.0
 11
7475.6443790631
 21
-717.4448569555
 31
0.0
  0
LINE
  5
23F
330
1F
100
AcDbEntity
  8
1
  6
CONTINUOUS
 62
     7
100
AcDbLine
 10
7478.3943790631
 20
-700.9448569574
 30
0.0
 11
7478.3943790631
 21
-692.4448569574
 31
0.0
  0
LINE
  5
240
330
1F
100
AcDbEntity
  8
1
  6
CONTINUOUS
 62
     7
100
AcDbLine
 10
7571.7443790636
 20
-744.9448569555
 30
0.0
 11
7571.7443790636
 21
-648.4448569555
 31
0.0
  0
LINE
  5
241
330
1F
100
AcDbEntity
  8
1
  6
CONTINUOUS
 62
     7
100
AcDbLine
 10
7475.6443790631
 20
-725.9448569555
 30
0.0
 11
7478.3943790631
 21
-725.9448569555
 31
0.0
  0
ARC
  5
242
330
1F
100
AcDbEntity
  8
1
  6
CONTINUOUS
 62
     7
100
AcDbCircle
 10
7467.3943790631
 20
-747.1948569555
 30
0.0
 40
0.5
100
AcDbArc
 50
180.0
 51
270.0
  0
CIRCLE
  5
243
330
1F
100
AcDbEntity
  8
1
  6
CONTINUOUS
 62
     7
100
AcDbCircle
 10
7534.894379063
 20
-738.4448569554
 30
0.0
 40
2.0
  0
LINE
  5
244
330
1F
100
AcDbEntity
  8
1
  6
CONTINUOUS
 62
     7
100
AcDbLine
 10
7478.3943790631
 20
-692.4448569574
 30
0.0
 11
7475.6443790631
 21
-692.4448569574
 31
0.0
  0
LINE
  5
245
330
1F
100
AcDbEntity
  8
1
  6
CONTINUOUS
 62
     7
100
AcDbLine
 10
7478.3943790631
 20
-720.9284650759
 30
0.0
 11
7478.3943790631
 21
-717.4448569555
 31
0.0
  0
LINE
  5
246
330
1F
100
AcDbEntity
  8
1
  6
CONTINUOUS
 62
     7
100
AcDbLine
 10
7478.3943790631
 20
-672.4615119151
 30
0.0
 11
7478.3943790631
 21
-675.9448569555
 31
0.0
  0
ARC
  5
247
330
1F
100
AcDbEntity
  8
1
  6
CONTINUOUS
 62
     7
100
AcDbCircle
 10
7467.3943790631
 20
-646.1948569555
 30
0.0
 40
0.5
100
AcDbArc
 50
90.0
 51
180.0
  0
LINE
  5
248
330
1F
100
AcDbEntity
  8
1
  6
CONTINUOUS
 62
     7
100
AcDbLine
 10
7478.3943790631
 20
-675.9448569555
 30
0.0
 11
7475.6443790631
 21
-675.9448569555
 31
0.0
  0
ARC
  5
249
330
1F
100
AcDbEntity
  8
1
  6
CONTINUOUS
 62
     7
100
AcDbCircle
 10
7611.3943790619
 20
-689.691127895
 30
0.0
 40
3.0
100
AcDbArc
 50
180.0
 51
259.6951535312
  0
LINE
  5
24A
330
1F
100
AcDbEntity
  8
1
  6
CONTINUOUS
 62
     7
100
AcDbLine
 10
7570.0443790625
 20
-742.9448569554
 30
0.0
 11
7570.0443790625
 21
-648.4448569555
 31
0.0
  0
LINE
  5
24B
330
1F
100
AcDbEntity
  8
1
  6
CONTINUOUS
 62
     7
100
AcDbLine
 10
7475.6443790631
 20
-700.9448569574
 30
0.0
 11
7478.3943790631
 21
-700.9448569574
 31
0.0
  0
LINE
  5
24C
330
1F
100
AcDbEntity
  8
1
  6
CONTINUOUS
 62
     7
100
AcDbLine
 10
7478.3943790631
 20
-667.4448569555
 30
0.0
 11
7478.3943790631
 21
-670.9281799802
 31
0.0
  0
CIRCLE
  5
24D
330
1F
100
AcDbEntity
  8
1
  6
CONTINUOUS
 62
     7
100
AcDbCircle
 10
7547.894379063
 20
-738.4448574193
 30
0.0
 40
4.0
  0
ARC
  5
24E
330
1F
100
AcDbEntity
  8
1
  6
CONTINUOUS
 62
     7
100
AcDbCircle
 10
7547.894379063
 20
-738.4448574193
 30
0.0
 40
7.5
100
AcDbArc
 50
115.8419246345
 51
180.0000027974
  0
LINE
  5
24F
330
1F
100
AcDbEntity
  8
1
  6
CONTINUOUS
 62
     7
100
AcDbLine
 10
7472.8943790631
 20
-744.1948569555
 30
0.0
 11
7472.8943790631
 21
-648.6652109555
 31
0.0
  0
LINE
  5
250
330
1F
100
AcDbEntity
  8
1
  6
CONTINUOUS
 62
     7
100
AcDbLine
 10
7666.8943790631
 20
-645.6948569555
 30
0.0
 11
7467.3943790631
 21
-645.6948569555
 31
0.0
  0
MTEXT
  5
251
330
1F
100
AcDbEntity
  8
1
 62
     7
100
AcDbMText
 10
7649.495352594156
 20
-818.0592797272726
 30
0.0
 40
3.0
 41
0.0
 71
     1
 72
     1
  1
{\fＭＳ ゴシック;\W0.877025;\Q14.999825;ＳＢＳ－４Ｗ}
  0
LINE
  5
252
330
1F
100
AcDbEntity
  8
1
  6
CONTINUOUS
 62
     7
100
AcDbLine
 10
7527.8943790631
 20
-693.1948569554
 30
0.0
 11
7530.9310353788
 21
-692.6427376253
 31
0.0
  0
ARC
  5
253
330
1F
100
AcDbEntity
  8
1
  6
CONTINUOUS
 62
     7
100
AcDbCircle
 10
7562.8943790631
 20
-667.6948569555
 30
0.0
 40
5.0
100
AcDbArc
 50
0.0
 51
90.0
  0
ARC
  5
254
330
1F
100
AcDbEntity
  8
1
  6
CONTINUOUS
 62
     7
100
AcDbCircle
 10
7532.8943790631
 20
-725.6948569554
 30
0.0
 40
5.0
100
AcDbArc
 50
180.0
 51
270.0
  0
LINE
  5
255
330
1F
100
AcDbEntity
  8
1
  6
CONTINUOUS
 62
     7
100
AcDbLine
 10
7558.3943790631
 20
-730.0948569555
 30
0.0
 11
7562.8943790627
 21
-730.0948569555
 31
0.0
  0
ARC
  5
256
330
1F
100
AcDbEntity
  8
1
  6
CONTINUOUS
 62
     7
100
AcDbCircle
 10
7540.8906500026
 20
-665.1948569566
 30
0.0
 40
3.0
100
AcDbArc
 50
270.0
 51
349.6951535312
  0
LINE
  5
257
330
1F
100
AcDbEntity
  8
1
  6
CONTINUOUS
 62
     7
100
AcDbLine
 10
7516.3943790631
 20
-707.1948569555
 30
0.0
 11
7521.2943790631
 21
-707.1948569555
 31
0.0
  0
ARC
  5
258
330
1F
100
AcDbEntity
  8
1
  6
CONTINUOUS
 62
     7
100
AcDbCircle
 10
7562.8943790631
 20
-725.6948569555
 30
0.0
 40
5.0
100
AcDbArc
 50
270.0
 51
0.0
  0
LINE
  5
259
330
1F
100
AcDbEntity
  8
1
  6
CONTINUOUS
 62
     7
100
AcDbLine
 10
7558.3943790631
 20
-663.2948569554
 30
0.0
 11
7562.8943790627
 21
-663.2948569554
 31
0.0
  0
ARC
  5
25A
330
1F
100
AcDbEntity
  8
1
  6
CONTINUOUS
 62
     7
100
AcDbCircle
 10
7554.8981081235
 20
-665.1948569566
 30
0.0
 40
3.0
100
AcDbArc
 50
190.3048464688
 51
270.0
  0
LINE
  5
25B
330
1F
100
AcDbEntity
  8
1
  6
CONTINUOUS
 62
     7
100
AcDbLine
 10
7562.3943790631
 20
-689.691127895
 30
0.0
 11
7562.3943790631
 21
-686.1948569554
 31
0.0
  0
ARC
  5
25C
330
1F
100
AcDbEntity
  8
1
  6
CONTINUOUS
 62
     7
100
AcDbCircle
 10
7540.8906500026
 20
-728.1948569543
 30
0.0
 40
3.0
100
AcDbArc
 50
10.3048464688
 51
90.0
  0
LINE
  5
25D
330
1F
100
AcDbEntity
  8
1
  6
CONTINUOUS
 62
     7
100
AcDbLine
 10
7528.4943793559
 20
-680.606285479
 30
0.0
 11
7528.4943790527
 21
-686.1948569554
 31
0.0
  0
LINE
  5
25E
330
1F
100
AcDbEntity
  8
1
  6
CONTINUOUS
 62
     7
100
AcDbLine
 10
7567.8943790631
 20
-700.1948569555
 30
0.0
 11
7564.8577227473
 21
-700.7469762856
 31
0.0
  0
LINE
  5
25F
330
1F
100
AcDbEntity
  8
1
  6
CONTINUOUS
 62
     7
100
AcDbLine
 10
7521.8943790631
 20
-700.1948569555
 30
0.0
 11
7518.8577227473
 21
-700.7469762856
 31
0.0
  0
ARC
  5
260
330
1F
100
AcDbEntity
  8
1
  6
CONTINUOUS
 62
     7
100
AcDbCircle
 10
7562.8943790627
 20
-667.6948569557
 30
0.0
 40
4.4
100
AcDbArc
 50
0.0
 51
90.0
  0
LINE
  5
261
330
1F
100
AcDbEntity
  8
1
  6
CONTINUOUS
 62
     7
100
AcDbLine
 10
7512.3943790631
 20
-668.1948569554
 30
0.0
 11
7512.3943790631
 21
-663.2948569554
 31
0.0
  0
LINE
  5
262
330
1F
100
AcDbEntity
  8
1
  6
CONTINUOUS
 62
     7
100
AcDbLine
 10
7521.8943790631
 20
-693.1948569554
 30
0.0
 11
7518.8577227473
 21
-692.6427376253
 31
0.0
  0
LINE
  5
263
330
1F
100
AcDbEntity
  8
1
  6
CONTINUOUS
 62
     7
100
AcDbLine
 10
7551.3943790631
 20
-662.6948569555
 30
0.0
 11
7551.9464983932
 21
-665.7315132712
 31
0.0
  0
ARC
  5
264
330
1F
100
AcDbEntity
  8
1
  6
CONTINUOUS
 62
     7
100
AcDbCircle
 10
7486.8943790631
 20
-725.6948569554
 30
0.0
 40
5.0
100
AcDbArc
 50
180.0
 51
270.0
  0
ARC
  5
265
330
1F
100
AcDbEntity
  8
1
  6
CONTINUOUS
 62
     7
100
AcDbCircle
 10
7532.8943790634
 20
-667.6948569557
 30
0.0
 40
4.4
100
AcDbArc
 50
90.0
 51
98.9133215379
  0
ARC
  5
266
330
1F
100
AcDbEntity
  8
1
  6
CONTINUOUS
 62
     7
100
AcDbCircle
 10
7562.8943790627
 20
-725.6948569552
 30
0.0
 40
4.4
100
AcDbArc
 50
270.0
 51
0.0
  0
ARC
  5
267
330
1F
100
AcDbEntity
  8
1
  6
CONTINUOUS
 62
     7
100
AcDbCircle
 10
7532.8943790631
 20
-667.6948569555
 30
0.0
 40
5.0
100
AcDbArc
 50
151.6842836316
 51
180.0
  0
LINE
  5
268
330
1F
100
AcDbEntity
  8
1
  6
CONTINUOUS
 62
     7
100
AcDbLine
 10
7562.8943790631
 20
-662.6948569555
 30
0.0
 11
7551.394379063
 21
-662.6948569554
 31
0.0
  0
ARC
  5
269
330
1F
100
AcDbEntity
  8
1
  6
CONTINUOUS
 62
     7
100
AcDbCircle
 10
7516.8943790631
 20
-725.6948569554
 30
0.0
 40
5.0
100
AcDbArc
 50
331.7083232323
 51
0.0
  0
ARC
  5
26A
330
1F
100
AcDbEntity
  8
1
  6
CONTINUOUS
 62
     7
100
AcDbCircle
 10
7565.3943790619
 20
-703.6985860159
 30
0.0
 40
3.0
100
AcDbArc
 50
100.3048464688
 51
180.0
  0
ARC
  5
26B
330
1F
100
AcDbEntity
  8
1
  6
CONTINUOUS
 62
     7
100
AcDbCircle
 10
7486.8943790631
 20
-667.6948569555
 30
0.0
 40
5.0
100
AcDbArc
 50
90.0
 51
180.0
  0
LINE
  5
26C
330
1F
100
AcDbEntity
  8
1
  6
CONTINUOUS
 62
     7
100
AcDbLine
 10
7527.8943790631
 20
-700.1948569555
 30
0.0
 11
7530.9310353788
 21
-700.7469762856
 31
0.0
  0
LINE
  5
26D
330
1F
100
AcDbEntity
  8
1
  6
CONTINUOUS
 62
     7
100
AcDbLine
 10
7536.526497056
 20
-663.2948569554
 30
0.0
 11
7532.8943790634
 21
-663.2948569554
 31
0.0
  0
LINE
  5
26E
330
1F
100
AcDbEntity
  8
1
  6
CONTINUOUS
 62
     7
100
AcDbLine
 10
7562.3943790631
 20
-686.1948569554
 30
0.0
 11
7567.2943790631
 21
-686.1948569554
 31
0.0
  0
ARC
  5
26F
330
1F
100
AcDbEntity
  8
1
  6
CONTINUOUS
 62
     7
100
AcDbCircle
 10
7565.3943790619
 20
-689.691127895
 30
0.0
 40
3.0
100
AcDbArc
 50
180.0
 51
259.6951535312
  0
LINE
  5
270
330
1F
100
AcDbEntity
  8
1
  6
CONTINUOUS
 62
     7
100
AcDbLine
 10
7544.3943790631
 20
-662.6948569555
 30
0.0
 11
7543.8422597329
 21
-665.7315132712
 31
0.0
  0
ARC
  5
271
330
1F
100
AcDbEntity
  8
1
  6
CONTINUOUS
 62
     7
100
AcDbCircle
 10
7508.8981081235
 20
-665.1948569566
 30
0.0
 40
3.0
100
AcDbArc
 50
190.3048464688
 51
270.0
  0
LINE
  5
272
330
1F
100
AcDbEntity
  8
1
  6
CONTINUOUS
 62
     7
100
AcDbLine
 10
7516.3943790631
 20
-703.6985860159
 30
0.0
 11
7516.3943790631
 21
-707.1948569555
 31
0.0
  0
ARC
  5
273
330
1F
100
AcDbEntity
  8
1
  6
CONTINUOUS
 62
     7
100
AcDbCircle
 10
7519.3943790619
 20
-703.6985860159
 30
0.0
 40
3.0
100
AcDbArc
 50
100.3048464687
 51
180.0
  0
LINE
  5
274
330
1F
100
AcDbEntity
  8
1
  6
CONTINUOUS
 62
     7
100
AcDbLine
 10
7482.4943786854
 20
-720.9284650759
 30
0.0
 11
7482.4943790534
 21
-707.1948569555
 31
0.0
  0
LINE
  5
275
330
1F
100
AcDbEntity
  8
1
  6
CONTINUOUS
 62
     7
100
AcDbLine
 10
7527.8943790631
 20
-665.9448569562
 30
0.0
 11
7527.8943790631
 21
-679.192453498
 31
0.0
  0
ARC
  5
276
330
1F
100
AcDbEntity
  8
1
  6
CONTINUOUS
 62
     7
100
AcDbCircle
 10
7516.8943790631
 20
-725.6948569554
 30
0.0
 40
5.0
100
AcDbArc
 50
270.0
 51
277.8480394621
  0
LINE
  5
277
330
1F
100
AcDbEntity
  8
1
  6
CONTINUOUS
 62
     7
100
AcDbLine
 10
7551.3943790631
 20
-730.6948569555
 30
0.0
 11
7562.8943790631
 21
-730.6948569555
 31
0.0
  0
LINE
  5
278
330
1F
100
AcDbEntity
  8
1
  6
CONTINUOUS
 62
     7
100
AcDbLine
 10
7513.2632557556
 20
-730.6948569554
 30
0.0
 11
7516.8943790631
 21
-730.6948569554
 31
0.0
  0
LINE
  5
279
330
1F
100
AcDbEntity
  8
1
  6
CONTINUOUS
 62
     7
100
AcDbLine
 10
7536.526497056
 20
-662.6948569555
 30
0.0
 11
7532.8943790631
 21
-662.6948569555
 31
0.0
  0
ARC
  5
27A
330
1F
100
AcDbEntity
  8
1
  6
CONTINUOUS
 62
     7
100
AcDbCircle
 10
7532.8943790634
 20
-725.6948569552
 30
0.0
 40
4.4
100
AcDbArc
 50
180.0
 51
270.0
  0
ARC
  5
27B
330
1F
100
AcDbEntity
  8
1
  6
CONTINUOUS
 62
     7
100
AcDbCircle
 10
7530.3943790642
 20
-689.691127895
 30
0.0
 40
3.0
100
AcDbArc
 50
280.3048464687
 51
0.0
  0
LINE
  5
27C
330
1F
100
AcDbEntity
  8
1
  6
CONTINUOUS
 62
     7
100
AcDbLine
 10
7544.3943790631
 20
-662.6948569555
 30
0.0
 11
7540.246497056
 21
-662.6948569555
 31
0.0
  0
LINE
  5
27D
330
1F
100
AcDbEntity
  8
1
  6
CONTINUOUS
 62
     7
100
AcDbLine
 10
7537.3943790631
 20
-730.0948569555
 30
0.0
 11
7532.8943790634
 21
-730.0948569555
 31
0.0
  0
LINE
  5
27E
330
1F
100
AcDbEntity
  8
1
  6
CONTINUOUS
 62
     7
100
AcDbLine
 10
7540.8906500026
 20
-725.1948569555
 30
0.0
 11
7537.3943790631
 21
-725.1948569555
 31
0.0
  0
LINE
  5
27F
330
1F
100
AcDbEntity
  8
1
  6
CONTINUOUS
 62
     7
100
AcDbLine
 10
7554.8981081235
 20
-725.1948569555
 30
0.0
 11
7558.3943790631
 21
-725.1948569555
 31
0.0
  0
ARC
  5
280
330
1F
100
AcDbEntity
  8
1
  6
CONTINUOUS
 62
     7
100
AcDbCircle
 10
7532.8943790631
 20
-667.6948569555
 30
0.0
 40
5.0
100
AcDbArc
 50
90.0
 51
97.8365335956
  0
LINE
  5
281
330
1F
100
AcDbEntity
  8
1
  6
CONTINUOUS
 62
     7
100
AcDbLine
 10
7528.4943790631
 20
-725.6948569552
 30
0.0
 11
7528.4943790534
 21
-707.1948569555
 31
0.0
  0
LINE
  5
282
330
1F
100
AcDbEntity
  8
1
  6
CONTINUOUS
 62
     7
100
AcDbLine
 10
7554.8981081235
 20
-668.1948569555
 30
0.0
 11
7558.3943790631
 21
-668.1948569555
 31
0.0
  0
LINE
  5
283
330
1F
100
AcDbEntity
  8
1
  6
CONTINUOUS
 62
     7
100
AcDbLine
 10
7537.3943790631
 20
-725.1948569555
 30
0.0
 11
7537.3943790631
 21
-730.0948569555
 31
0.0
  0
LINE
  5
284
330
1F
100
AcDbEntity
  8
1
  6
CONTINUOUS
 62
     7
100
AcDbLine
 10
7527.8943790631
 20
-680.606285479
 30
0.0
 11
7527.8943790631
 21
-727.4448569547
 31
0.0
  0
LINE
  5
285
330
1F
100
AcDbEntity
  8
1
  6
CONTINUOUS
 62
     7
100
AcDbLine
 10
7528.4943790631
 20
-667.6948569557
 30
0.0
 11
7528.494379057
 21
-678.467285479
 31
0.0
  0
LINE
  5
286
330
1F
100
AcDbEntity
  8
1
  6
CONTINUOUS
 62
     7
100
AcDbLine
 10
7491.3943790631
 20
-730.0948569554
 30
0.0
 11
7486.8943790634
 21
-730.0948569554
 31
0.0
  0
LINE
  5
287
330
1F
100
AcDbEntity
  8
1
  6
CONTINUOUS
 62
     7
100
AcDbLine
 10
7512.3943790631
 20
-663.2948569554
 30
0.0
 11
7516.8943790627
 21
-663.2948569554
 31
0.0
  0
ARC
  5
288
330
1F
100
AcDbEntity
  8
1
  6
CONTINUOUS
 62
     7
100
AcDbCircle
 10
7516.8943790627
 20
-725.6948569552
 30
0.0
 40
4.4
100
AcDbArc
 50
270.0
 51
278.9264326669
  0
LINE
  5
289
330
1F
100
AcDbEntity
  8
1
  6
CONTINUOUS
 62
     7
100
AcDbLine
 10
7491.3943790631
 20
-725.1948569554
 30
0.0
 11
7491.3943790631
 21
-730.0948569555
 31
0.0
  0
LINE
  5
28A
330
1F
100
AcDbEntity
  8
1
  6
CONTINUOUS
 62
     7
100
AcDbLine
 10
7521.8943790631
 20
-714.198466093
 30
0.0
 11
7521.8943790631
 21
-727.4448569547
 31
0.0
  0
ARC
  5
28B
330
1F
100
AcDbEntity
  8
1
  6
CONTINUOUS
 62
     7
100
AcDbCircle
 10
7486.8943790634
 20
-667.6948569557
 30
0.0
 40
4.4
100
AcDbArc
 50
90.0
 51
180.0
  0
LINE
  5
28C
330
1F
100
AcDbEntity
  8
1
  6
CONTINUOUS
 62
     7
100
AcDbLine
 10
7508.8981081235
 20
-725.1948569554
 30
0.0
 11
7509.5432557556
 21
-725.1948569554
 31
0.0
  0
LINE
  5
28D
330
1F
100
AcDbEntity
  8
1
  6
CONTINUOUS
 62
     7
100
AcDbLine
 10
7487.3943790631
 20
-707.1948569555
 30
0.0
 11
7482.4943790631
 21
-707.1948569555
 31
0.0
  0
LINE
  5
28E
330
1F
100
AcDbEntity
  8
1
  6
CONTINUOUS
 62
     7
100
AcDbLine
 10
7482.4943790631
 20
-667.6948569557
 30
0.0
 11
7482.4943790614
 21
-670.6484331517
 31
0.0
  0
LINE
  5
28F
330
1F
100
AcDbEntity
  8
1
  6
CONTINUOUS
 62
     7
100
AcDbLine
 10
7487.3943790631
 20
-703.6985860159
 30
0.0
 11
7487.3943790631
 21
-707.1948569555
 31
0.0
  0
LINE
  5
290
330
1F
100
AcDbEntity
  8
1
  6
CONTINUOUS
 62
     7
100
AcDbLine
 10
7466.8943790632
 20
-667.6948569555
 30
0.0
 11
7472.8943790631
 21
-667.6948569555
 31
0.0
  0
LINE
  5
291
330
1F
100
AcDbEntity
  8
1
  6
CONTINUOUS
 62
     7
100
AcDbLine
 10
7466.8943790632
 20
-725.6948569555
 30
0.0
 11
7472.8943790631
 21
-725.6948569555
 31
0.0
  0
LINE
  5
292
330
1F
100
AcDbEntity
  8
1
  6
CONTINUOUS
 62
     7
100
AcDbLine
 10
7478.3943790631
 20
-725.9448569555
 30
0.0
 11
7478.3943790631
 21
-722.4617970108
 31
0.0
  0
LINE
  5
293
330
1F
100
AcDbEntity
  8
1
  6
CONTINUOUS
 62
     7
100
AcDbLine
 10
7516.3943790631
 20
-686.1948569554
 30
0.0
 11
7521.2943790631
 21
-686.1948569554
 31
0.0
  0
LINE
  5
294
330
1F
100
AcDbEntity
  8
1
  6
CONTINUOUS
 62
     7
100
AcDbLine
 10
7487.3943790631
 20
-686.1948569554
 30
0.0
 11
7482.4943790631
 21
-686.1948569554
 31
0.0
  0
LINE
  5
295
330
1F
100
AcDbEntity
  8
1
  6
CONTINUOUS
 62
     7
100
AcDbLine
 10
7491.3943790631
 20
-663.2948569554
 30
0.0
 11
7486.8943790634
 21
-663.2948569554
 31
0.0
  0
LINE
  5
296
330
1F
100
AcDbEntity
  8
1
  6
CONTINUOUS
 62
     7
100
AcDbLine
 10
7521.294379063
 20
-725.6948569552
 30
0.0
 11
7521.2943790687
 21
-714.9224284325
 31
0.0
  0
LINE
  5
297
330
1F
100
AcDbEntity
  8
1
  6
CONTINUOUS
 62
     7
100
AcDbLine
 10
7482.4943793559
 20
-672.4615133136
 30
0.0
 11
7482.4943790527
 21
-686.1948569554
 31
0.0
  0
LINE
  5
298
330
1F
100
AcDbEntity
  8
1
  6
CONTINUOUS
 62
     7
100
AcDbLine
 10
7482.4943790631
 20
-725.6948569552
 30
0.0
 11
7482.4943787602
 21
-722.4617984093
 31
0.0
  0
LINE
  5
299
330
1F
100
AcDbEntity
  8
1
  6
CONTINUOUS
 62
     7
100
AcDbLine
 10
7516.3943790631
 20
-689.691127895
 30
0.0
 11
7516.3943790631
 21
-686.1948569554
 31
0.0
  0
LINE
  5
29A
330
1F
100
AcDbEntity
  8
1
  6
CONTINUOUS
 62
     7
100
AcDbLine
 10
7481.8943790631
 20
-693.1948569554
 30
0.0
 11
7484.9310353788
 21
-692.6427376253
 31
0.0
  0
ARC
  5
29B
330
1F
100
AcDbEntity
  8
1
  6
CONTINUOUS
 62
     7
100
AcDbCircle
 10
7484.3943790642
 20
-703.6985860159
 30
0.0
 40
3.0
100
AcDbArc
 50
0.0
 51
79.6951535312
  0
LINE
  5
29C
330
1F
100
AcDbEntity
  8
1
  6
CONTINUOUS
 62
     7
100
AcDbLine
 10
7505.3943790631
 20
-662.6948569554
 30
0.0
 11
7505.9464983932
 21
-665.7315132712
 31
0.0
  0
ARC
  5
29D
330
1F
100
AcDbEntity
  8
1
  6
CONTINUOUS
 62
     7
100
AcDbCircle
 10
7508.8981081235
 20
-728.1948569543
 30
0.0
 40
3.0
100
AcDbArc
 50
90.0
 51
169.6951535312
  0
LINE
  5
29E
330
1F
100
AcDbEntity
  8
1
  6
CONTINUOUS
 62
     7
100
AcDbLine
 10
7494.8906500026
 20
-668.1948569554
 30
0.0
 11
7491.3943790631
 21
-668.1948569554
 31
0.0
  0
LINE
  5
29F
330
1F
100
AcDbEntity
  8
1
  6
CONTINUOUS
 62
     7
100
AcDbLine
 10
7494.8906500026
 20
-725.1948569554
 30
0.0
 11
7491.3943790631
 21
-725.1948569554
 31
0.0
  0
LINE
  5
2A0
330
1F
100
AcDbEntity
  8
1
  6
CONTINUOUS
 62
     7
100
AcDbLine
 10
7498.3943790631
 20
-730.6948569554
 30
0.0
 11
7497.8422597329
 21
-727.6582006397
 31
0.0
  0
LINE
  5
2A1
330
1F
100
AcDbEntity
  8
1
  6
CONTINUOUS
 62
     7
100
AcDbLine
 10
7481.8943790631
 20
-700.1948569555
 30
0.0
 11
7484.9310353788
 21
-700.7469762856
 31
0.0
  0
ARC
  5
2A2
330
1F
100
AcDbEntity
  8
1
  6
CONTINUOUS
 62
     7
100
AcDbCircle
 10
7519.3943790619
 20
-689.691127895
 30
0.0
 40
3.0
100
AcDbArc
 50
180.0
 51
259.6951535313
  0
CIRCLE
  5
2A3
330
1F
100
AcDbEntity
  8
1
  6
CONTINUOUS
 62
     7
100
AcDbCircle
 10
7501.8943790619
 20
-665.6948569555
 30
0.0
 40
1.4
  0
ARC
  5
2A4
330
1F
100
AcDbEntity
  8
1
  6
CONTINUOUS
 62
     7
100
AcDbCircle
 10
7516.8943790631
 20
-667.6948569555
 30
0.0
 40
5.0
100
AcDbArc
 50
0.0
 51
90.0
  0
CIRCLE
  5
2A5
330
1F
100
AcDbEntity
  8
1
  6
CONTINUOUS
 62
     7
100
AcDbCircle
 10
7486.8943790631
 20
-681.6948569555
 30
0.0
 40
2.0
  0
LINE
  5
2A6
330
1F
100
AcDbEntity
  8
1
  6
CONTINUOUS
 62
     7
100
AcDbLine
 10
7521.8943790631
 20
-665.9448569562
 30
0.0
 11
7521.8943790631
 21
-712.7834284325
 31
0.0
  0
LINE
  5
2A7
330
1F
100
AcDbEntity
  8
1
  6
CONTINUOUS
 62
     7
100
AcDbLine
 10
7513.2632557556
 20
-730.0948569554
 30
0.0
 11
7516.8943790627
 21
-730.0948569554
 31
0.0
  0
ARC
  5
2A8
330
1F
100
AcDbEntity
  8
1
  6
CONTINUOUS
 62
     7
100
AcDbCircle
 10
7494.8906500026
 20
-728.1948569543
 30
0.0
 40
3.0
100
AcDbArc
 50
10.3048464688
 51
90.0
  0
CIRCLE
  5
2A9
330
1F
100
AcDbEntity
  8
1
  6
CONTINUOUS
 62
     7
100
AcDbCircle
 10
7516.8943790631
 20
-681.6948569554
 30
0.0
 40
1.4
  0
LINE
  5
2AA
330
1F
100
AcDbEntity
  8
1
  6
CONTINUOUS
 62
     7
100
AcDbLine
 10
7521.2943793659
 20
-712.7834284325
 30
0.0
 11
7521.2943790727
 21
-707.1948569555
 31
0.0
  0
ARC
  5
2AB
330
1F
100
AcDbEntity
  8
1
  6
CONTINUOUS
 62
     7
100
AcDbCircle
 10
7486.8943790634
 20
-725.6948569552
 30
0.0
 40
4.4
100
AcDbArc
 50
180.0
 51
270.0
  0
ARC
  5
2AC
330
1F
100
AcDbEntity
  8
1
  6
CONTINUOUS
 62
     7
100
AcDbCircle
 10
7484.3943790642
 20
-689.691127895
 30
0.0
 40
3.0
100
AcDbArc
 50
280.3048464688
 51
0.0
  0
LINE
  5
2AD
330
1F
100
AcDbEntity
  8
1
  6
CONTINUOUS
 62
     7
100
AcDbLine
 10
7505.3943790631
 20
-730.6948569554
 30
0.0
 11
7505.9464983932
 21
-727.6582006397
 31
0.0
  0
CIRCLE
  5
2AE
330
1F
100
AcDbEntity
  8
1
  6
CONTINUOUS
 62
     7
100
AcDbCircle
 10
7501.8943790619
 20
-727.6948569554
 30
0.0
 40
1.4
  0
LINE
  5
2AF
330
1F
100
AcDbEntity
  8
1
  6
CONTINUOUS
 62
     7
100
AcDbLine
 10
7487.3943790631
 20
-689.691127895
 30
0.0
 11
7487.3943790631
 21
-686.1948569554
 31
0.0
  0
CIRCLE
  5
2B0
330
1F
100
AcDbEntity
  8
1
  6
CONTINUOUS
 62
     7
100
AcDbCircle
 10
7486.8943790631
 20
-711.6948569555
 30
0.0
 40
1.4
  0
CIRCLE
  5
2B1
330
1F
100
AcDbEntity
  8
1
  6
CONTINUOUS
 62
     7
100
AcDbCircle
 10
7547.8943790619
 20
-665.6948569555
 30
0.0
 40
1.4
  0
ARC
  5
2B2
330
1F
100
AcDbEntity
  8
1
  6
CONTINUOUS
 62
     7
100
AcDbCircle
 10
7494.8906500026
 20
-665.1948569566
 30
0.0
 40
3.0
100
AcDbArc
 50
270.0
 51
349.6951535312
  0
LINE
  5
2B3
330
1F
100
AcDbEntity
  8
1
  6
CONTINUOUS
 62
     7
100
AcDbLine
 10
7498.3943790631
 20
-662.6948569554
 30
0.0
 11
7497.8422597329
 21
-665.7315132712
 31
0.0
  0
ARC
  5
2B4
330
1F
100
AcDbEntity
  8
1
  6
CONTINUOUS
 62
     7
100
AcDbCircle
 10
7516.8943790631
 20
-711.6948569555
 30
0.0
 40
2.0
100
AcDbArc
 50
327.0241329912
 51
259.734217954
  0
LINE
  5
2B5
330
1F
100
AcDbEntity
  8
1
  6
CONTINUOUS
 62
     7
100
AcDbLine
 10
7521.294379063
 20
-667.6948569557
 30
0.0
 11
7521.2943790734
 21
-686.1948569554
 31
0.0
  0
LINE
  5
2B6
330
1F
100
AcDbEntity
  8
1
  6
CONTINUOUS
 62
     7
100
AcDbLine
 10
7508.8981081235
 20
-668.1948569554
 30
0.0
 11
7512.3943790631
 21
-668.1948569554
 31
0.0
  0
LINE
  5
2B7
330
1F
100
AcDbEntity
  8
1
  6
CONTINUOUS
 62
     7
100
AcDbLine
 10
7491.3943790631
 20
-668.1948569554
 30
0.0
 11
7491.3943790631
 21
-663.2948569554
 31
0.0
  0
ARC
  5
2B8
330
1F
100
AcDbEntity
  8
1
  6
CONTINUOUS
 62
     7
100
AcDbCircle
 10
7516.8943790627
 20
-667.6948569557
 30
0.0
 40
4.4
100
AcDbArc
 50
0.0
 51
90.0
  0
LINE
  5
2B9
330
1F
100
AcDbEntity
  8
1
  6
CONTINUOUS
 62
     7
100
AcDbLine
 10
7475.6443790631
 20
-667.4448569555
 30
0.0
 11
7478.3943790631
 21
-667.4448569555
 31
0.0
  0
ARC
  5
2BA
330
1F
100
AcDbEntity
  8
1
  6
CONTINUOUS
 62
     7
100
AcDbCircle
 10
7501.8943790631
 20
-738.4448574193
 30
0.0
 40
7.5
100
AcDbArc
 50
0.0
 51
64.15807536549998
  0
LINE
  5
2BB
330
1F
100
AcDbEntity
  8
1
  6
CONTINUOUS
 62
     7
100
AcDbLine
 10
7498.6252058131
 20
-731.6948569555
 30
0.0
 11
7505.1635523131
 21
-731.6948569555
 31
0.0
  0
LINE
  5
2BC
330
1F
100
AcDbEntity
  8
1
  6
CONTINUOUS
 62
     7
100
AcDbLine
 10
7497.89437977
 20
-784.4448569733
 30
0.0
 11
7505.89437977
 21
-784.4448569733
 31
0.0
  0
LINE
  5
2BD
330
1F
100
AcDbEntity
  8
1
  6
CONTINUOUS
 62
     7
100
AcDbLine
 10
7466.8943797684
 20
-785.6948569555
 30
0.0
 11
7465.8943797684
 21
-784.6948569555
 31
0.0
  0
LINE
  5
2BE
330
1F
100
AcDbEntity
  8
1
  6
CONTINUOUS
 62
     7
100
AcDbLine
 10
7467.6443790631
 20
-695.9448569554
 30
0.0
 11
7472.8943790631
 21
-695.9448569554
 31
0.0
  0
LINE
  5
2BF
330
1F
100
AcDbEntity
  8
1
  6
CONTINUOUS
 62
     7
100
AcDbLine
 10
7466.8943790631
 20
-716.6948569554
 30
0.0
 11
7465.8943790631
 21
-716.6948569554
 31
0.0
  0
CIRCLE
  5
2C0
330
1F
100
AcDbEntity
  8
1
  6
CONTINUOUS
 62
     7
100
AcDbCircle
 10
7547.894379063
 20
-738.4448574193
 30
0.0
 40
2.1
  0
LINE
  5
2C1
330
1F
100
AcDbEntity
  8
1
  6
CONTINUOUS
 62
     7
100
AcDbLine
 10
7523.7977039836
 20
-790.6948569557
 30
0.0
 11
7525.9910555561
 21
-790.6948569557
 31
0.0
  0
CIRCLE
  5
2C2
330
1F
100
AcDbEntity
  8
1
  6
CONTINUOUS
 62
     7
100
AcDbCircle
 10
7501.8943790631
 20
-738.4448574193
 30
0.0
 40
2.1
  0
LINE
  5
2C3
330
1F
100
AcDbEntity
  8
1
  6
CONTINUOUS
 62
     7
100
AcDbLine
 10
7471.8943797681
 20
-793.3948569555
 30
0.0
 11
7466.8943797681
 21
-793.3948569555
 31
0.0
  0
ARC
  5
2C4
330
1F
100
AcDbEntity
  8
1
  6
CONTINUOUS
 62
     7
100
AcDbCircle
 10
7535.394379438
 20
-795.694856953
 30
0.0
 40
10.65
100
AcDbArc
 50
208.0007790605
 51
151.9992209728
  0
LINE
  5
2C5
330
1F
100
AcDbEntity
  8
1
  6
CONTINUOUS
 62
     7
100
AcDbLine
 10
7540.394379063
 20
-744.9448569555
 30
0.0
 11
7540.394379063
 21
-738.4448574193
 31
0.0
  0
ARC
  5
2C6
330
1F
100
AcDbEntity
  8
1
  6
CONTINUOUS
 62
     7
100
AcDbCircle
 10
7476.3943790601
 20
-649.1948569555
 30
0.0
 40
3.5
100
AcDbArc
 50
90.0
 51
180.0
  0
CIRCLE
  5
2C7
330
1F
100
AcDbEntity
  8
1
  6
CONTINUOUS
 62
     7
100
AcDbCircle
 10
7501.8943790631
 20
-738.4448574193
 30
0.0
 40
4.0
  0
ARC
  5
2C8
330
1F
100
AcDbEntity
  8
1
  6
CONTINUOUS
 62
     7
100
AcDbCircle
 10
7501.8943790631
 20
-738.4448574193
 30
0.0
 40
7.5
100
AcDbArc
 50
115.8419246345
 51
179.9999964567
  0
LINE
  5
2C9
330
1F
100
AcDbEntity
  8
1
  6
CONTINUOUS
 62
     7
100
AcDbLine
 10
7521.8943797698
 20
-791.385274029
 30
0.0
 11
7521.8943797698
 21
-800.004439877
 31
0.0
  0
LINE
  5
2CA
330
1F
100
AcDbEntity
  8
1
  6
CONTINUOUS
 62
     7
100
AcDbLine
 10
7476.89437977
 20
-786.6948569555
 30
0.0
 11
7466.8943797684
 21
-786.6948569555
 31
0.0
  0
LINE
  5
2CB
330
1F
100
AcDbEntity
  8
1
  6
CONTINUOUS
 62
     7
100
AcDbLine
 10
7471.8943797681
 20
-786.6948569814
 30
0.0
 11
7471.8943797681
 21
-793.3948569555
 31
0.0
  0
LINE
  5
2CC
330
1F
100
AcDbEntity
  8
1
  6
CONTINUOUS
 62
     7
100
AcDbLine
 10
7540.394379063
 20
-648.4448569555
 30
0.0
 11
7540.394379063
 21
-654.9448564916
 31
0.0
  0
ARC
  5
2CD
330
1F
100
AcDbEntity
  8
1
  6
CONTINUOUS
 62
     7
100
AcDbCircle
 10
7547.894379063
 20
-738.4448574193
 30
0.0
 40
7.5
100
AcDbArc
 50
0.0000035433
 51
64.15807536549998
  0
LINE
  5
2CE
330
1F
100
AcDbEntity
  8
1
  6
CONTINUOUS
 62
     7
100
AcDbLine
 10
7467.6443790631
 20
-722.4448569555
 30
0.0
 11
7472.8943790631
 21
-722.4448569555
 31
0.0
  0
ARC
  5
2CF
330
1F
100
AcDbEntity
  8
1
  6
CONTINUOUS
 62
     7
100
AcDbCircle
 10
7467.6443790631
 20
-721.6948569555
 30
0.0
 40
0.75
100
AcDbArc
 50
90.0
 51
270.0
  0
LINE
  5
2D0
330
1F
100
AcDbEntity
  8
1
  6
CONTINUOUS
 62
     7
100
AcDbLine
 10
7465.8943790631
 20
-714.6948569554
 30
0.0
 11
7466.8943790631
 21
-714.6948569554
 31
0.0
  0
LINE
  5
2D1
330
1F
100
AcDbEntity
  8
1
  6
CONTINUOUS
 62
     7
100
AcDbLine
 10
7509.3943790631
 20
-744.9448569555
 30
0.0
 11
7509.3943790631
 21
-738.4448574193
 31
0.0
  0
LINE
  5
2D2
330
1F
100
AcDbEntity
  8
1
  6
CONTINUOUS
 62
     7
100
AcDbLine
 10
7555.3943790618
 20
-738.4448574193
 30
0.0
 11
7555.3943790618
 21
-744.9448569555
 31
0.0
  0
ARC
  5
2D3
330
1F
100
AcDbEntity
  8
1
  6
CONTINUOUS
 62
     7
100
AcDbCircle
 10
7476.3943790601
 20
-744.1948569555
 30
0.0
 40
3.5
100
AcDbArc
 50
180.0
 51
270.0
  0
LINE
  5
2D4
330
1F
100
AcDbEntity
  8
1
  6
CONTINUOUS
 62
     7
100
AcDbLine
 10
7466.8943790631
 20
-722.6948569555
 30
0.0
 11
7465.8943790631
 21
-722.6948569555
 31
0.0
  0
ARC
  5
2D5
330
1F
100
AcDbEntity
  8
1
  6
CONTINUOUS
 62
     7
100
AcDbCircle
 10
7501.8943790631
 20
-654.9448564916
 30
0.0
 40
7.5
100
AcDbArc
 50
180.0000035433
 51
244.1580753655
  0
LINE
  5
2D6
330
1F
100
AcDbEntity
  8
1
  6
CONTINUOUS
 62
     7
100
AcDbLine
 10
7589.8943796916
 20
-787.444856976
 30
0.0
 11
7597.8943796916
 21
-787.444856976
 31
0.0
  0
LINE
  5
2D7
330
1F
100
AcDbEntity
  8
1
  6
CONTINUOUS
 62
     7
100
AcDbLine
 10
7505.89437977
 20
-784.4448569733
 30
0.0
 11
7505.89437977
 21
-787.4448569733
 31
0.0
  0
LINE
  5
2D8
330
1F
100
AcDbEntity
  8
1
  6
CONTINUOUS
 62
     7
100
AcDbLine
 10
7551.163552313
 20
-731.6948569555
 30
0.0
 11
7544.625205813
 21
-731.6948569555
 31
0.0
  0
LINE
  5
2D9
330
1F
100
AcDbEntity
  8
1
  6
CONTINUOUS
 62
     7
100
AcDbLine
 10
7465.8943790631
 20
-676.6948569555
 30
0.0
 11
7465.8943790631
 21
-678.6948569555
 31
0.0
  0
LINE
  5
2DA
330
1F
100
AcDbEntity
  8
1
  6
CONTINUOUS
 62
     7
100
AcDbLine
 10
7472.89437977
 20
-781.6948569554
 30
0.0
 11
7472.9380141092
 21
-786.6948569813
 31
0.0
  0
ARC
  5
2DB
330
1F
100
AcDbEntity
  8
1
  6
CONTINUOUS
 62
     7
100
AcDbCircle
 10
7547.894379063
 20
-654.9448564916
 30
0.0
 40
7.5
100
AcDbArc
 50
295.8419246345
 51
0.0
  0
LINE
  5
2DC
330
1F
100
AcDbEntity
  8
1
  6
CONTINUOUS
 62
     7
100
AcDbLine
 10
7465.8943790631
 20
-722.6948569555
 30
0.0
 11
7465.8943790631
 21
-720.6948569555
 31
0.0
  0
LINE
  5
2DD
330
1F
100
AcDbEntity
  8
1
  6
CONTINUOUS
 62
     7
100
AcDbLine
 10
7433.8943790088
 20
-645.6948569543
 30
0.0
 11
7433.8943790727
 21
-747.6948569533
 31
0.0
  0
ARC
  5
2DE
330
1F
100
AcDbEntity
  8
1
  6
CONTINUOUS
 62
     7
100
AcDbCircle
 10
7471.1443790631
 20
-721.6948569555
 30
0.0
 40
0.75
100
AcDbArc
 50
270.0
 51
90.0
  0
LINE
  5
2DF
330
1F
100
AcDbEntity
  8
1
  6
CONTINUOUS
 62
     7
100
AcDbLine
 10
7465.8943790631
 20
-678.6948569555
 30
0.0
 11
7466.8943790631
 21
-678.6948569555
 31
0.0
  0
LINE
  5
2E0
330
1F
100
AcDbEntity
  8
1
  6
CONTINUOUS
 62
     7
100
AcDbLine
 10
7466.8943797685
 20
-809.6948569555
 30
0.0
 11
7664.1804382348
 21
-809.6948569555
 31
0.0
  0
LINE
  5
2E1
330
1F
100
AcDbEntity
  8
1
  6
CONTINUOUS
 62
     7
100
AcDbLine
 10
7405.8943790087
 20
-747.6948569502
 30
0.0
 11
7405.8943790087
 21
-645.6948569539
 31
0.0
  0
CIRCLE
  5
2E2
330
1F
100
AcDbEntity
  8
1
  6
CONTINUOUS
 62
     7
100
AcDbCircle
 10
7501.8943790631
 20
-654.9448564916
 30
0.0
 40
4.0
  0
LINE
  5
2E3
330
1F
100
AcDbEntity
  8
1
  6
CENTER
 62
     1
100
AcDbLine
 10
7435.8943790631
 20
-696.6948569534
 30
0.0
 11
7403.8943790087
 21
-696.6948569534
 31
0.0
  0
CIRCLE
  5
2E4
330
1F
100
AcDbEntity
  8
1
  6
CONTINUOUS
 62
     7
100
AcDbCircle
 10
7501.8943790631
 20
-654.9448564916
 30
0.0
 40
2.1
  0
LINE
  5
2E5
330
1F
100
AcDbEntity
  8
1
  6
CONTINUOUS
 62
     7
100
AcDbLine
 10
7494.3943790643
 20
-654.9448564916
 30
0.0
 11
7494.3943790643
 21
-648.6652109555
 31
0.0
  0
LINE
  5
2E6
330
1F
100
AcDbEntity
  8
1
  6
CONTINUOUS
 62
     7
100
AcDbLine
 10
7472.8943790631
 20
-697.4448569554
 30
0.0
 11
7467.6443790631
 21
-697.4448569554
 31
0.0
  0
LINE
  5
2E7
330
1F
100
AcDbEntity
  8
1
  6
CONTINUOUS
 62
     7
100
AcDbLine
 10
7494.3943790643
 20
-738.4448574193
 30
0.0
 11
7494.3943790643
 21
-744.9448569555
 31
0.0
  0
ARC
  5
2E8
330
1F
100
AcDbEntity
  8
1
  6
CONTINUOUS
 62
     7
100
AcDbCircle
 10
7501.8943790631
 20
-654.9448564916
 30
0.0
 40
7.5
100
AcDbArc
 50
295.8419246345
 51
0.0000027973999863
  0
LINE
  5
2E9
330
1F
100
AcDbEntity
  8
1
  6
CONTINUOUS
 62
     7
100
AcDbLine
 10
7472.8943790631
 20
-720.9448569555
 30
0.0
 11
7467.6443790631
 21
-720.9448569555
 31
0.0
  0
CIRCLE
  5
2EA
330
1F
100
AcDbEntity
  8
1
  6
CONTINUOUS
 62
     7
100
AcDbCircle
 10
7547.894379063
 20
-654.9448564916
 30
0.0
 40
4.0
  0
LINE
  5
2EB
330
1F
100
AcDbEntity
  8
1
  6
CONTINUOUS
 62
     7
100
AcDbLine
 10
7466.8943790632
 20
-722.6948569552
 30
0.0
 11
7466.8943790632
 21
-725.6948569555
 31
0.0
  0
LINE
  5
2EC
330
1F
100
AcDbEntity
  8
1
  6
CONTINUOUS
 62
     7
100
AcDbLine
 10
7465.8943790631
 20
-716.6948569554
 30
0.0
 11
7465.8943790631
 21
-714.6948569554
 31
0.0
  0
ARC
  5
2ED
330
1F
100
AcDbEntity
  8
1
  6
CONTINUOUS
 62
     7
100
AcDbCircle
 10
7467.6443790631
 20
-696.6948569554
 30
0.0
 40
0.75
100
AcDbArc
 50
90.0
 51
270.0
  0
ARC
  5
2EE
330
1F
100
AcDbEntity
  8
1
  6
CONTINUOUS
 62
     7
100
AcDbCircle
 10
7547.894379063
 20
-654.9448564916
 30
0.0
 40
7.5
100
AcDbArc
 50
180.0
 51
244.1580753655
  0
CIRCLE
  5
2EF
330
1F
100
AcDbEntity
  8
1
  6
CONTINUOUS
 62
     7
100
AcDbCircle
 10
7547.894379063
 20
-654.9448564916
 30
0.0
 40
2.1
  0
LINE
  5
2F0
330
1F
100
AcDbEntity
  8
1
  6
CONTINUOUS
 62
     7
100
AcDbLine
 10
7498.6252058131
 20
-661.6948569554
 30
0.0
 11
7505.1635523131
 21
-661.6948569554
 31
0.0
  0
LINE
  5
2F1
330
1F
100
AcDbEntity
  8
1
  6
CONTINUOUS
 62
     7
100
AcDbLine
 10
7466.8943790631
 20
-676.6948569555
 30
0.0
 11
7465.8943790631
 21
-676.6948569555
 31
0.0
  0
LINE
  5
2F2
330
1F
100
AcDbEntity
  8
1
  6
CONTINUOUS
 62
     7
100
AcDbLine
 10
7551.163552313
 20
-661.6948569554
 30
0.0
 11
7544.625205813
 21
-661.6948569554
 31
0.0
  0
LINE
  5
2F3
330
1F
100
AcDbEntity
  8
1
  6
CONTINUOUS
 62
     7
100
AcDbLine
 10
7666.8943790631
 20
-747.6948569555
 30
0.0
 11
7467.3943790631
 21
-747.6948569555
 31
0.0
  0
LINE
  5
2F4
330
1F
100
AcDbEntity
  8
1
  6
CONTINUOUS
 62
     7
100
AcDbLine
 10
7509.3943790631
 20
-648.6652109555
 30
0.0
 11
7509.3943790631
 21
-654.9448564916
 31
0.0
  0
ARC
  5
2F5
330
1F
100
AcDbEntity
  8
1
  6
CONTINUOUS
 62
     7
100
AcDbCircle
 10
7471.1443790631
 20
-696.6948569554
 30
0.0
 40
0.75
100
AcDbArc
 50
270.0
 51
90.0
  0
LINE
  5
2F6
330
1F
100
AcDbEntity
  8
1
  6
CONTINUOUS
 62
     7
100
AcDbLine
 10
7465.8943790631
 20
-720.6948569555
 30
0.0
 11
7466.8943790631
 21
-720.6948569555
 31
0.0
  0
LINE
  5
2F7
330
1F
100
AcDbEntity
  8
1
  6
CONTINUOUS
 62
     7
100
AcDbLine
 10
7555.3943790618
 20
-654.9448564916
 30
0.0
 11
7555.3943790618
 21
-648.4448569555
 31
0.0
  0
LINE
  5
2F8
330
1F
100
AcDbEntity
  8
1
  6
CONTINUOUS
 62
     7
100
AcDbLine
 10
7466.8943797701
 20
-781.6948569555
 30
0.0
 11
7471.8943797684
 21
-781.6948569555
 31
0.0
  0
ARC
  5
2F9
330
1F
100
AcDbEntity
  8
1
  6
CONTINUOUS
 62
     7
100
AcDbCircle
 10
7514.3943801017
 20
-795.694856953
 30
0.0
 40
8.65
100
AcDbArc
 50
29.8821524854
 51
330.1178475145999
  0
LINE
  5
2FA
330
1F
100
AcDbEntity
  8
1
  6
CONTINUOUS
 62
     7
100
AcDbLine
 10
7472.8681991666
 20
-784.6948569555
 30
0.0
 11
7465.8943797684
 21
-784.6948569555
 31
0.0
  0
LINE
  5
2FB
330
1F
100
AcDbEntity
  8
1
  6
CONTINUOUS
 62
     7
100
AcDbLine
 10
7571.64437977
 20
-806.1948569555
 30
0.0
 11
7571.64437977
 21
-809.6949252025
 31
0.0
  0
LINE
  5
2FC
330
1F
100
AcDbEntity
  8
1
  6
CONTINUOUS
 62
     7
100
AcDbLine
 10
7635.8943797701
 20
-787.4448569733
 30
0.0
 11
7643.8943797701
 21
-787.4448569733
 31
0.0
  0
LINE
  5
2FD
330
1F
100
AcDbEntity
  8
1
  6
CONTINUOUS
 62
     7
100
AcDbLine
 10
7497.89437977
 20
-787.4448569733
 30
0.0
 11
7497.89437977
 21
-784.4448569733
 31
0.0
  0
LINE
  5
2FE
330
1F
100
AcDbEntity
  8
1
  6
CONTINUOUS
 62
     7
100
AcDbLine
 10
7471.8943797684
 20
-781.6948569555
 30
0.0
 11
7471.8943797684
 21
-782.6948569555
 31
0.0
  0
LINE
  5
2FF
330
1F
100
AcDbEntity
  8
1
  6
CONTINUOUS
 62
     7
100
AcDbLine
 10
7433.5943790631
 20
-720.9448569524
 30
0.0
 11
7430.8943790631
 21
-720.9448569524
 31
0.0
  0
ARC
  5
300
330
1F
100
AcDbEntity
  8
1
  6
CONTINUOUS
 62
     7
100
AcDbCircle
 10
7433.5943790631
 20
-722.1448569527
 30
0.0
 40
0.3
100
AcDbArc
 50
270.0
 51
0.0
  0
LINE
  5
301
330
1F
100
AcDbEntity
  8
1
  6
CONTINUOUS
 62
     7
100
AcDbLine
 10
7527.8943797698
 20
-791.3852740292
 30
0.0
 11
7527.8943797698
 21
-800.0044398768
 31
0.0
  0
LINE
  5
302
330
1F
100
AcDbEntity
  8
1
  6
CONTINUOUS
 62
     7
100
AcDbLine
 10
7433.5943790631
 20
-722.4448569527
 30
0.0
 11
7430.8943790631
 21
-722.4448569527
 31
0.0
  0
LINE
  5
303
330
1F
100
AcDbEntity
  8
1
  6
CONTINUOUS
 62
     7
100
AcDbLine
 10
7597.8943796916
 20
-787.444856976
 30
0.0
 11
7597.8943796916
 21
-784.444856976
 31
0.0
  0
LINE
  5
304
330
1F
100
AcDbEntity
  8
1
  6
CONTINUOUS
 62
     7
100
AcDbLine
 10
7466.8943797701
 20
-781.6948569555
 30
0.0
 11
7466.8943797685
 21
-809.6948569555
 31
0.0
  0
LINE
  5
305
330
1F
100
AcDbEntity
  8
1
  6
CONTINUOUS
 62
     7
100
AcDbLine
 10
7433.8943799163
 20
-672.4448569537
 30
0.0
 11
7430.8943790631
 21
-672.4448569537
 31
0.0
  0
LINE
  5
306
330
1F
100
AcDbEntity
  8
1
  6
CONTINUOUS
 62
     7
100
AcDbLine
 10
7429.8943790631
 20
-676.6948569529
 30
0.0
 11
7429.8943790631
 21
-678.6948569529
 31
0.0
  0
LINE
  5
307
330
1F
100
AcDbEntity
  8
1
  6
CONTINUOUS
 62
     7
100
AcDbLine
 10
7551.89437977
 20
-784.4448569733
 30
0.0
 11
7543.89437977
 21
-784.4448569733
 31
0.0
  0
LINE
  5
308
330
1F
100
AcDbEntity
  8
1
  6
CONTINUOUS
 62
     7
100
AcDbLine
 10
7597.8943796916
 20
-784.444856976
 30
0.0
 11
7589.8943796916
 21
-784.444856976
 31
0.0
  0
LINE
  5
309
330
1F
100
AcDbEntity
  8
1
  6
CENTER
 62
     1
100
AcDbLine
 10
7474.7443797693
 20
-795.6948569555
 30
0.0
 11
7667.0443797693
 21
-795.6948569555
 31
0.0
  0
LINE
  5
30A
330
1F
100
AcDbEntity
  8
1
  6
CONTINUOUS
 62
     7
100
AcDbLine
 10
7428.8943792587
 20
-711.6948568994
 30
0.0
 11
7428.8943790135
 21
-681.6948569525
 31
0.0
  0
LINE
  5
30B
330
1F
100
AcDbEntity
  8
1
  6
CONTINUOUS
 62
     7
100
AcDbLine
 10
7570.14437977
 20
-806.1948569555
 30
0.0
 11
7570.14437977
 21
-809.6949252025
 31
0.0
  0
ARC
  5
30C
330
1F
100
AcDbEntity
  8
1
  6
CONTINUOUS
 62
     7
100
AcDbCircle
 10
7433.5943790631
 20
-721.2448569524
 30
0.0
 40
0.3
100
AcDbArc
 50
0.0
 51
90.0
  0
LINE
  5
30D
330
1F
100
AcDbEntity
  8
1
  6
CONTINUOUS
 62
     7
100
AcDbLine
 10
7643.8943797701
 20
-787.4448569733
 30
0.0
 11
7643.8943797701
 21
-784.4448569733
 31
0.0
  0
LINE
  5
30E
330
1F
100
AcDbEntity
  8
1
  6
CONTINUOUS
 62
     7
100
AcDbLine
 10
7589.8943796916
 20
-784.444856976
 30
0.0
 11
7589.8943796916
 21
-787.444856976
 31
0.0
  0
ARC
  5
30F
330
1F
100
AcDbEntity
  8
1
  6
CONTINUOUS
 62
     7
100
AcDbCircle
 10
7581.394379438
 20
-795.694856953
 30
0.0
 40
8.65
100
AcDbArc
 50
209.8821524854
 51
150.1178475146
  0
LINE
  5
310
330
1F
100
AcDbEntity
  8
1
  6
CONTINUOUS
 62
     7
100
AcDbLine
 10
7433.5943790632
 20
-697.4448569525
 30
0.0
 11
7430.8943790632
 21
-697.4448569525
 31
0.0
  0
LINE
  5
311
330
1F
100
AcDbEntity
  8
1
  6
CONTINUOUS
 62
     7
100
AcDbLine
 10
7405.8943790088
 20
-667.4766852573
 30
0.0
 11
7427.9205586696
 21
-667.6689048151
 31
0.0
  0
LINE
  5
312
330
1F
100
AcDbEntity
  8
1
  6
CONTINUOUS
 62
     7
100
AcDbLine
 10
7543.89437977
 20
-784.4448569733
 30
0.0
 11
7543.89437977
 21
-787.4448569733
 31
0.0
  0
LINE
  5
313
330
1F
100
AcDbEntity
  8
1
  6
CONTINUOUS
 62
     7
100
AcDbLine
 10
7523.7977039807
 20
-800.6948569557
 30
0.0
 11
7525.991055559
 21
-800.6948569557
 31
0.0
  0
ARC
  5
314
330
1F
100
AcDbEntity
  8
1
  6
CONTINUOUS
 62
     7
100
AcDbCircle
 10
7423.8943790612
 20
-696.6774793736
 30
0.0
 40
2.0
100
AcDbArc
 50
0.0000000002
 51
89.5
  0
LINE
  5
315
330
1F
100
AcDbEntity
  8
1
  6
CONTINUOUS
 62
     7
100
AcDbLine
 10
7429.8943790631
 20
-714.6948569538
 30
0.0
 11
7430.8943790631
 21
-714.6948569538
 31
0.0
  0
LINE
  5
316
330
1F
100
AcDbEntity
  8
1
  6
CONTINUOUS
 62
     7
100
AcDbLine
 10
7525.9443797712
 20
-790.6948569557
 30
0.0
 11
7525.944379649
 21
-800.6948569557
 31
0.0
  0
ARC
  5
317
330
1F
100
AcDbEntity
  8
1
  6
CONTINUOUS
 62
     7
100
AcDbCircle
 10
7514.3943801017
 20
-795.694856953
 30
0.0
 40
10.65
100
AcDbArc
 50
28.0007790272
 51
331.9992209395
  0
LINE
  5
318
330
1F
100
AcDbEntity
  8
1
  6
CONTINUOUS
 62
     7
100
AcDbLine
 10
7667.8943797701
 20
-781.6948569555
 30
0.0
 11
7472.89437977
 21
-781.6948569555
 31
0.0
  0
LINE
  5
319
330
1F
100
AcDbEntity
  8
1
  6
CONTINUOUS
 62
     7
100
AcDbLine
 10
7429.8943790631
 20
-672.6948569533
 30
0.0
 11
7429.8943790631
 21
-670.6948569532
 31
0.0
  0
LINE
  5
31A
330
1F
100
AcDbEntity
  8
1
  6
CONTINUOUS
 62
     7
100
AcDbLine
 10
7543.89437977
 20
-787.4448569733
 30
0.0
 11
7551.89437977
 21
-787.4448569733
 31
0.0
  0
LINE
  5
31B
330
1F
100
AcDbEntity
  8
1
  6
CONTINUOUS
 62
     7
100
AcDbLine
 10
7635.8943797701
 20
-784.4448569733
 30
0.0
 11
7635.8943797701
 21
-787.4448569733
 31
0.0
  0
LINE
  5
31C
330
1F
100
AcDbEntity
  8
1
  6
CONTINUOUS
 62
     7
100
AcDbLine
 10
7429.8943790631
 20
-670.6948569532
 30
0.0
 11
7430.8943790631
 21
-670.6948569532
 31
0.0
  0
LINE
  5
31D
330
1F
100
AcDbEntity
  8
1
  6
CONTINUOUS
 62
     7
100
AcDbLine
 10
7430.8943790631
 20
-722.7209233207
 30
0.0
 11
7430.8943790631
 21
-670.6687905843
 31
0.0
  0
LINE
  5
31E
330
1F
100
AcDbEntity
  8
1
  6
CONTINUOUS
 62
     7
100
AcDbLine
 10
7472.89437977
 20
-781.6948569554
 30
0.0
 11
7472.8681991666
 21
-784.6948569555
 31
0.0
  0
LINE
  5
31F
330
1F
100
AcDbEntity
  8
1
  6
CONTINUOUS
 62
     7
100
AcDbLine
 10
7551.89437977
 20
-787.4448569733
 30
0.0
 11
7551.89437977
 21
-784.4448569733
 31
0.0
  0
LINE
  5
320
330
1F
100
AcDbEntity
  8
1
  6
CONTINUOUS
 62
     7
100
AcDbLine
 10
7523.8443797685
 20
-790.6948569557
 30
0.0
 11
7523.8443798907
 21
-800.6948569557
 31
0.0
  0
LINE
  5
321
330
1F
100
AcDbEntity
  8
1
  6
CONTINUOUS
 62
     7
100
AcDbLine
 10
7429.8943790631
 20
-678.6948569529
 30
0.0
 11
7430.8943790631
 21
-678.6948569529
 31
0.0
  0
LINE
  5
322
330
1F
100
AcDbEntity
  8
1
  6
CONTINUOUS
 62
     7
100
AcDbLine
 10
7505.89437977
 20
-787.4448569733
 30
0.0
 11
7497.89437977
 21
-787.4448569733
 31
0.0
  0
LINE
  5
323
330
1F
100
AcDbEntity
  8
1
  6
CONTINUOUS
 62
     7
100
AcDbLine
 10
7643.8943797701
 20
-784.4448569733
 30
0.0
 11
7635.8943797701
 21
-784.4448569733
 31
0.0
  0
LINE
  5
324
330
1F
100
AcDbEntity
  8
1
  6
CONTINUOUS
 62
     7
100
AcDbLine
 10
7667.8943797701
 20
-781.6948569555
 30
0.0
 11
7667.6803049656
 21
-806.2253998297
 31
0.0
  0
LINE
  5
325
330
1F
100
AcDbEntity
  8
1
  6
CONTINUOUS
 62
     7
100
AcDbLine
 10
7472.8856528928
 20
-782.6948580349
 30
0.0
 11
7471.1443797684
 21
-782.6948569555
 31
0.0
  0
LINE
  5
326
330
1F
100
AcDbEntity
  8
1
  6
CONTINUOUS
 62
     7
100
AcDbLine
 10
7433.8943799163
 20
-670.9448569534
 30
0.0
 11
7430.8943790631
 21
-670.9448569534
 31
0.0
  0
LINE
  5
327
330
1F
100
AcDbEntity
  8
1
  6
CONTINUOUS
 62
     7
100
AcDbLine
 10
7430.8943790631
 20
-676.6948569529
 30
0.0
 11
7429.8943790631
 21
-676.6948569529
 31
0.0
  0
ARC
  5
328
330
1F
100
AcDbEntity
  8
1
  6
CONTINUOUS
 62
     7
100
AcDbCircle
 10
7535.394379438
 20
-795.694856953
 30
0.0
 40
8.65
100
AcDbArc
 50
209.8821524854
 51
150.1178475146
  0
ENDSEC
  0
SECTION
  2
OBJECTS
  0
DICTIONARY
  5
C
330
0
100
AcDbDictionary
  3
ACAD_GROUP
350
D
  3
ACAD_LAYOUT
350
1A
  3
ACAD_MATERIAL
350
43
  3
ACAD_MLEADERSTYLE
350
6B
  3
ACAD_MLINESTYLE
350
17
  3
ACAD_PLOTSETTINGS
350
19
  3
ACAD_SCALELIST
350
47
  3
ACAD_VISUALSTYLE
350
2A
  3
ACDBHEADERROUNDTRIPXREC
350
329
  3
ACDBVARIABLEDICTIONARY
350
34A
  0
DICTIONARY
  5
351
330
8
100
AcDbDictionary
280
     1
  3
ACAD_XREC_ROUNDTRIP
360
352
  0
DICTIONARY
  5
D
102
{ACAD_REACTORS
330
C
102
}
330
C
100
AcDbDictionary
  0
DICTIONARY
  5
1A
102
{ACAD_REACTORS
330
C
102
}
330
C
100
AcDbDictionary
  0
DICTIONARY
  5
43
102
{ACAD_REACTORS
330
C
102
}
330
C
100
AcDbDictionary
  3
BYBLOCK
350
45
  3
BYLAYER
350
44
  3
GLOBAL
350
46
  0
DICTIONARY
  5
6B
102
{ACAD_REACTORS
330
C
102
}
330
C
100
AcDbDictionary
  3
STANDARD
350
6C
  0
DICTIONARY
  5
17
102
{ACAD_REACTORS
330
C
102
}
330
C
100
AcDbDictionary
  3
STANDARD
350
18
  0
DICTIONARY
  5
19
102
{ACAD_REACTORS
330
C
102
}
330
C
100
AcDbDictionary
  0
DICTIONARY
  5
47
102
{ACAD_REACTORS
330
C
102
}
330
C
100
AcDbDictionary
  3
A0
350
48
  3
A1
350
49
  3
A2
350
4A
  3
A3
350
4B
  3
A4
350
4C
  3
A5
350
4D
  3
A6
350
4E
  3
A7
350
4F
  3
A8
350
50
  3
A9
350
51
  3
B0
350
52
  3
B1
350
53
  3
B2
350
54
  3
B3
350
55
  3
B4
350
56
  3
B5
350
57
  3
B6
350
58
  3
B7
350
59
  3
B8
350
5A
  3
B9
350
5B
  3
C0
350
5C
  3
C1
350
5D
  3
C2
350
5E
  3
C3
350
5F
  3
C4
350
60
  3
C5
350
61
  3
C6
350
62
  3
C7
350
63
  3
C8
350
64
  3
C9
350
65
  3
D0
350
66
  3
D1
350
67
  3
D2
350
68
  0
DICTIONARY
  5
2A
102
{ACAD_REACTORS
330
C
102
}
330
C
100
AcDbDictionary
  3
2DWIREFRAME
350
2F
  3
BASIC
350
32
  3
BRIGHTEN
350
36
  3
COLORCHANGE
350
3A
  3
CONCEPTUAL
350
34
  3
DIM
350
35
  3
EDGECOLOROFF
350
3D
  3
FACEPATTERN
350
39
  3
FLAT
350
2B
  3
FLATWITHEDGES
350
2C
  3
GOURAUD
350
2D
  3
GOURAUDWITHEDGES
350
2E
  3
HIDDEN
350
31
  3
JITTEROFF
350
3B
  3
LINEPATTERN
350
38
  3
OVERHANGOFF
350
3C
  3
REALISTIC
350
33
  3
SHADED
350
42
  3
SHADED_WITH_EDGES
350
41
  3
SHADES_OF_GRAY
350
3E
  3
SKETCHY
350
3F
  3
THICKEN
350
37
  3
WIREFRAME
350
30
  3
X-RAY
350
40
  0
DICTIONARY
  5
329
102
{ACAD_REACTORS
330
C
102
}
330
C
100
AcDbDictionary
  3
CEPSNID
350
333
  3
CEPSNTYPE
350
332
  3
DIMSTYLEDATA
350
349
  3
FINGERPRINTGUID
350
334
  3
HYPERLINKBASE
350
32C
  3
INSUNITS
350
331
  3
LAYOUTDICT
350
32E
  3
LWETCUNION
350
330
  3
PLOTSETDICT
350
32F
  3
PSVPSCALE
350
336
  3
PUCSBASE
350
339
  3
PUCSORGBACK
350
33F
  3
PUCSORGBOTTOM
350
33B
  3
PUCSORGFRONT
350
33E
  3
PUCSORGLEFT
350
33C
  3
PUCSORGRIGHT
350
33D
  3
PUCSORGTOP
350
33A
  3
PUCSORTHOREF
350
337
  3
PUCSORTHOVIEW
350
338
  3
STYLESHEET
350
32D
  3
TSTACKALIGN
350
32A
  3
TSTACKSIZE
350
32B
  3
UCSBASE
350
342
  3
UCSORGBACK
350
348
  3
UCSORGBOTTOM
350
344
  3
UCSORGFRONT
350
347
  3
UCSORGLEFT
350
345
  3
UCSORGRIGHT
350
346
  3
UCSORGTOP
350
343
  3
UCSORTHOREF
350
340
  3
UCSORTHOVIEW
350
341
  3
VERSIONGUID
350
335
  0
DICTIONARY
  5
34A
102
{ACAD_REACTORS
330
C
102
}
330
C
100
AcDbDictionary
  3
CANNOSCALE
350
353
  3
CMLEADERSTYLE
350
34C
  3
CTABLESTYLE
350
34B
  3
DIMASSOC
350
34F
  3
HIDETEXT
350
350
  3
MSLTSCALE
350
354
  0
XRECORD
  5
352
102
{ACAD_REACTORS
330
351
102
}
330
351
100
AcDbXrecord
102
VTR_0.000_0.000_1.000_1.000_VISUALSTYLE
340
2F
102
VTR_0.000_0.000_1.000_1.000_GRIDDISPLAY
 70
     3
102
VTR_0.000_0.000_1.000_1.000_GRIDMAJOR
 70
     5
102
VTR_0.000_0.000_1.000_1.000_DEFAULTLIGHTING
280
     1
102
VTR_0.000_0.000_1.000_1.000_DEFAULTLIGHTINGTYPE
 70
     1
102
VTR_0.000_0.000_1.000_1.000_BRIGHTNESS
141
0.0
102
VTR_0.000_0.000_1.000_1.000_CONTRAST
142
0.0
  0
MATERIAL
  5
45
102
{ACAD_REACTORS
330
43
102
}
102
{ACAD_XDICTIONARY
360
357
102
}
330
43
100
AcDbMaterial
  1
BYBLOCK
  0
MATERIAL
  5
44
102
{ACAD_REACTORS
330
43
102
}
102
{ACAD_XDICTIONARY
360
355
102
}
330
43
100
AcDbMaterial
  1
BYLAYER
  0
MATERIAL
  5
46
102
{ACAD_REACTORS
330
43
102
}
102
{ACAD_XDICTIONARY
360
359
102
}
330
43
100
AcDbMaterial
  1
GLOBAL
  0
ACAD_PROXY_OBJECT
  5
6C
102
{ACAD_REACTORS
330
6B
102
}
330
6B
100
AcDbProxyObject
 90
      499
 91
      505
 93
      610
310
40901902A4063FBFFFFFE056BD1B81E855B9FC0AD7A3703D0AD73F4214DD185B99185C9900AD7A3703D0AC73F90141901A02B5E8DC0F42B1CFC02B5E8DC0F42B1CFE5764000000000000300FC0
340
14
340
0
340
11
340
0
 94
        0
1001
ACAD_MLEADERVER
1070
     2
  0
MLINESTYLE
  5
18
102
{ACAD_REACTORS
330
17
102
}
330
17
100
AcDbMlineStyle
  2
Standard
 70
     0
  3

 62
   256
 51
90.0
 52
90.0
 71
     2
 49
0.5
 62
   256
  6
BYLAYER
 49
-0.5
 62
   256
  6
BYLAYER
  0
ACAD_PROXY_OBJECT
  5
48
102
{ACAD_REACTORS
330
47
102
}
330
47
100
AcDbProxyObject
 90
      499
 91
      503
 93
       41
310
903313A31580
  0
ACAD_PROXY_OBJECT
  5
49
102
{ACAD_REACTORS
330
47
102
}
330
47
100
AcDbProxyObject
 90
      499
 91
      503
 93
      105
310
903313A324000000000000004000
  0
ACAD_PROXY_OBJECT
  5
4A
102
{ACAD_REACTORS
330
47
102
}
330
47
100
AcDbProxyObject
 90
      499
 91
      503
 93
      105
310
903313A344000000000000104000
  0
ACAD_PROXY_OBJECT
  5
4B
102
{ACAD_REACTORS
330
47
102
}
330
47
100
AcDbProxyObject
 90
      499
 91
      503
 93
      105
310
903313A354000000000000144000
  0
ACAD_PROXY_OBJECT
  5
4C
102
{ACAD_REACTORS
330
47
102
}
330
47
100
AcDbProxyObject
 90
      499
 91
      503
 93
      105
310
903313A384000000000000204000
  0
ACAD_PROXY_OBJECT
  5
4D
102
{ACAD_REACTORS
330
47
102
}
330
47
100
AcDbProxyObject
 90
      499
 91
      503
 93
      113
310
904313A31304000000000000244000
  0
ACAD_PROXY_OBJECT
  5
4E
102
{ACAD_REACTORS
330
47
102
}
330
47
100
AcDbProxyObject
 90
      499
 91
      503
 93
      113
310
904313A31364000000000000304000
  0
ACAD_PROXY_OBJECT
  5
4F
102
{ACAD_REACTORS
330
47
102
}
330
47
100
AcDbProxyObject
 90
      499
 91
      503
 93
      113
310
904313A32304000000000000344000
  0
ACAD_PROXY_OBJECT
  5
50
102
{ACAD_REACTORS
330
47
102
}
330
47
100
AcDbProxyObject
 90
      499
 91
      503
 93
      113
310
904313A333040000000000003E4000
  0
ACAD_PROXY_OBJECT
  5
51
102
{ACAD_REACTORS
330
47
102
}
330
47
100
AcDbProxyObject
 90
      499
 91
      503
 93
      113
310
904313A34304000000000000444000
  0
ACAD_PROXY_OBJECT
  5
52
102
{ACAD_REACTORS
330
47
102
}
330
47
100
AcDbProxyObject
 90
      499
 91
      503
 93
      113
310
904313A35304000000000000494000
  0
ACAD_PROXY_OBJECT
  5
53
102
{ACAD_REACTORS
330
47
102
}
330
47
100
AcDbProxyObject
 90
      499
 91
      503
 93
      121
310
905313A3130304000000000000594000
  0
ACAD_PROXY_OBJECT
  5
54
102
{ACAD_REACTORS
330
47
102
}
330
47
100
AcDbProxyObject
 90
      499
 91
      503
 93
      105
310
903323A310000000000000010100
  0
ACAD_PROXY_OBJECT
  5
55
102
{ACAD_REACTORS
330
47
102
}
330
47
100
AcDbProxyObject
 90
      499
 91
      503
 93
      105
310
903343A310000000000000410100
  0
ACAD_PROXY_OBJECT
  5
56
102
{ACAD_REACTORS
330
47
102
}
330
47
100
AcDbProxyObject
 90
      499
 91
      503
 93
      105
310
903383A310000000000000810100
  0
ACAD_PROXY_OBJECT
  5
57
102
{ACAD_REACTORS
330
47
102
}
330
47
100
AcDbProxyObject
 90
      499
 91
      503
 93
      113
310
90431303A310000000000000910100
  0
ACAD_PROXY_OBJECT
  5
58
102
{ACAD_REACTORS
330
47
102
}
330
47
100
AcDbProxyObject
 90
      499
 91
      503
 93
      121
310
9053130303A310000000000001650100
  0
ACAD_PROXY_OBJECT
  5
59
102
{ACAD_REACTORS
330
47
102
}
330
47
100
AcDbProxyObject
 90
      499
 91
      503
 93
      257
310
90E312F31323822203D2031272D3022000000000000200FC000000000000284000
  0
ACAD_PROXY_OBJECT
  5
5A
102
{ACAD_REACTORS
330
47
102
}
330
47
100
AcDbProxyObject
 90
      499
 91
      503
 93
      249
310
90D312F363422203D2031272D3022000000000000240FC000000000000284000
  0
ACAD_PROXY_OBJECT
  5
5B
102
{ACAD_REACTORS
330
47
102
}
330
47
100
AcDbProxyObject
 90
      499
 91
      503
 93
      249
310
90D312F333222203D2031272D3022000000000000280FC000000000000284000
  0
ACAD_PROXY_OBJECT
  5
5C
102
{ACAD_REACTORS
330
47
102
}
330
47
100
AcDbProxyObject
 90
      499
 91
      503
 93
      249
310
90D312F313622203D2031272D30220000000000002C0FC000000000000284000
  0
ACAD_PROXY_OBJECT
  5
5D
102
{ACAD_REACTORS
330
47
102
}
330
47
100
AcDbProxyObject
 90
      499
 91
      503
 93
      249
310
90D332F333222203D2031272D30220000000000002E0FC000000000000284000
  0
ACAD_PROXY_OBJECT
  5
5E
102
{ACAD_REACTORS
330
47
102
}
330
47
100
AcDbProxyObject
 90
      499
 91
      503
 93
      241
310
90C312F3822203D2031272D3022000000000000300FC000000000000284000
  0
ACAD_PROXY_OBJECT
  5
5F
102
{ACAD_REACTORS
330
47
102
}
330
47
100
AcDbProxyObject
 90
      499
 91
      503
 93
      249
310
90D332F313622203D2031272D3022000000000000320FC000000000000284000
  0
ACAD_PROXY_OBJECT
  5
60
102
{ACAD_REACTORS
330
47
102
}
330
47
100
AcDbProxyObject
 90
      499
 91
      503
 93
      241
310
90C312F3422203D2031272D3022000000000000340FC000000000000284000
  0
ACAD_PROXY_OBJECT
  5
61
102
{ACAD_REACTORS
330
47
102
}
330
47
100
AcDbProxyObject
 90
      499
 91
      503
 93
      241
310
90C332F3822203D2031272D3022000000000000360FC000000000000284000
  0
ACAD_PROXY_OBJECT
  5
62
102
{ACAD_REACTORS
330
47
102
}
330
47
100
AcDbProxyObject
 90
      499
 91
      503
 93
      241
310
90C312F3222203D2031272D3022000000000000380FC000000000000284000
  0
ACAD_PROXY_OBJECT
  5
63
102
{ACAD_REACTORS
330
47
102
}
330
47
100
AcDbProxyObject
 90
      499
 91
      503
 93
      241
310
90C332F3422203D2031272D30220000000000003A0FC000000000000284000
  0
ACAD_PROXY_OBJECT
  5
64
102
{ACAD_REACTORS
330
47
102
}
330
47
100
AcDbProxyObject
 90
      499
 91
      503
 93
      161
310
90A3122203D2031272D30224000000000000284000
  0
ACAD_PROXY_OBJECT
  5
65
102
{ACAD_REACTORS
330
47
102
}
330
47
100
AcDbProxyObject
 90
      499
 91
      503
 93
      257
310
90E312D312F3222203D2031272D30220000000000003E0FC000000000000284000
  0
ACAD_PROXY_OBJECT
  5
66
102
{ACAD_REACTORS
330
47
102
}
330
47
100
AcDbProxyObject
 90
      499
 91
      503
 93
      225
310
90A3322203D2031272D302200000000000002100000000000000284000
  0
ACAD_PROXY_OBJECT
  5
67
102
{ACAD_REACTORS
330
47
102
}
330
47
100
AcDbProxyObject
 90
      499
 91
      503
 93
      225
310
90A3622203D2031272D302200000000000006100000000000000284000
  0
ACAD_PROXY_OBJECT
  5
68
102
{ACAD_REACTORS
330
47
102
}
330
47
100
AcDbProxyObject
 90
      499
 91
      503
 93
      249
310
90D31272D3022203D2031272D30220000000000000A100000000000000284000
  0
ACAD_PROXY_OBJECT
  5
2F
102
{ACAD_REACTORS
330
2A
102
}
330
2A
100
AcDbProxyObject
 90
      499
 91
      501
 93
      436
310
42CC9915DA5C99599C985B595049028333333333333E33F0000000000000F90107901411070040501600405405064090741402480A0340
1001
ACAD
1000
AcDbSavedByObjectVersion
1070
     0
  0
ACAD_PROXY_OBJECT
  5
32
102
{ACAD_REACTORS
330
2A
102
}
330
2A
100
AcDbProxyObject
 90
      499
 91
      501
 93
      388
310
4150985CDA58D07406404333333333333E33F0000000000000F90107A41107004050150841D405064090741402480A0350
1001
ACAD
1000
AcDbSavedByObjectVersion
1070
     0
  0
ACAD_PROXY_OBJECT
  5
36
102
{ACAD_REACTORS
330
2A
102
}
330
2A
100
AcDbProxyObject
 90
      499
 91
      501
 93
      428
310
42109C9A59DA1D195B90C409028333333333333E33F0000000000000F9010790141107004050150841D405064090741402480A029950
1001
ACAD
1000
AcDbSavedByObjectVersion
1070
     0
  0
ACAD_PROXY_OBJECT
  5
3A
102
{ACAD_REACTORS
330
2A
102
}
330
2A
100
AcDbProxyObject
 90
      499
 91
      501
 93
      452
310
42D0DBDB1BDC90DA185B99D95104090240C333333333333E33F0000000000000F90108901411070040501508421405064090741402480A0350
1001
ACAD
1000
AcDbSavedByObjectVersion
1070
     0
  0
ACAD_PROXY_OBJECT
  5
34
102
{ACAD_REACTORS
330
2A
102
}
330
2A
100
AcDbProxyObject
 90
      499
 91
      501
 93
      500
310
4290DBDB98D95C1D1D585B10940D028333333333333E33F0000000000000F90107902409070040501000000000018199010841D405064090740C02480A0340
1001
ACAD
1000
AcDbSavedByObjectVersion
1070
     0
  0
ACAD_PROXY_OBJECT
  5
35
102
{ACAD_REACTORS
330
2A
102
}
330
2A
100
AcDbProxyObject
 90
      499
 91
      501
 93
      412
310
40D11A5B50B409028333333333333E33F0000000000000F9010790141107004050150841D405064090741402480A02677FFFFFD0
1001
ACAD
1000
AcDbSavedByObjectVersion
1070
     0
  0
ACAD_PROXY_OBJECT
  5
3D
102
{ACAD_REACTORS
330
2A
102
}
330
2A
100
AcDbProxyObject
 90
      499
 91
      501
 93
      452
310
43115919D950DBDB1BDC93D999916409028333333333333E33F0000000000000F9010790141107004050150841D405064090741402480A0350
1001
ACAD
1000
AcDbSavedByObjectVersion
1070
     0
  0
ACAD_PROXY_OBJECT
  5
39
102
{ACAD_REACTORS
330
2A
102
}
330
2A
100
AcDbProxyObject
 90
      499
 91
      501
 93
      444
310
42D19858D95C185D1D195C9B90F409028333333333333E33F0000000000000F9010790141107004050150841D405064090741402480A0350
1001
ACAD
1000
AcDbSavedByObjectVersion
1070
     0
  0
ACAD_PROXY_OBJECT
  5
2B
102
{ACAD_REACTORS
330
2A
102
}
330
2A
100
AcDbProxyObject
 90
      499
 91
      501
 93
      380
310
41119B185D240901404333333333333E33F0000000000000F9010740A907004050150841D405064090741402480A1B50
1001
ACAD
1000
AcDbSavedByObjectVersion
1070
     0
  0
ACAD_PROXY_OBJECT
  5
2C
102
{ACAD_REACTORS
330
2A
102
}
330
2A
100
AcDbProxyObject
 90
      499
 91
      501
 93
      468
310
43519B185D15DA5D1A115919D95CD0140901404333333333333E33F0000000000000F90107409019070040501600405405064090741402480A1B50
1001
ACAD
1000
AcDbSavedByObjectVersion
1070
     0
  0
ACAD_PROXY_OBJECT
  5
2D
102
{ACAD_REACTORS
330
2A
102
}
330
2A
100
AcDbProxyObject
 90
      499
 91
      501
 93
      404
310
41D1DBDD5C985D5910240902404333333333333E33F0000000000000F9010740A9070040501641D405064090741402480A1B50
1001
ACAD
1000
AcDbSavedByObjectVersion
1070
     0
  0
ACAD_PROXY_OBJECT
  5
2E
102
{ACAD_REACTORS
330
2A
102
}
330
2A
100
AcDbProxyObject
 90
      499
 91
      501
 93
      492
310
4411DBDD5C985D5915DA5D1A115919D95CD0340902404333333333333E33F0000000000000F90107409019070040501600405405064090741402480A1B50
1001
ACAD
1000
AcDbSavedByObjectVersion
1070
     0
  0
ACAD_PROXY_OBJECT
  5
31
102
{ACAD_REACTORS
330
2A
102
}
330
2A
100
AcDbProxyObject
 90
      499
 91
      501
 93
      476
310
41921A5919195B90640502408333333333333E33F0000000000000F901079024090700405020000000000001110200405405064090740C02480A0340
1001
ACAD
1000
AcDbSavedByObjectVersion
1070
     0
  0
ACAD_PROXY_OBJECT
  5
3B
102
{ACAD_REACTORS
330
2A
102
}
330
2A
100
AcDbProxyObject
 90
      499
 91
      501
 93
      428
310
42529A5D1D195C93D999914409028333333333333E33F0000000000000F9010790141107004050150A41D405064090741402480A0350
1001
ACAD
1000
AcDbSavedByObjectVersion
1070
     0
  0
ACAD_PROXY_OBJECT
  5
38
102
{ACAD_REACTORS
330
2A
102
}
330
2A
100
AcDbProxyObject
 90
      499
 91
      501
 93
      444
310
42D31A5B995C185D1D195C9B90E409028333333333333E33F0000000000000F9010790141107004050750841D405064090741402483A0350
1001
ACAD
1000
AcDbSavedByObjectVersion
1070
     0
  0
ACAD_PROXY_OBJECT
  5
3C
102
{ACAD_REACTORS
330
2A
102
}
330
2A
100
AcDbProxyObject
 90
      499
 91
      501
 93
      444
310
42D3DD995C9A185B99D3D999915409028333333333333E33F0000000000000F9010790141107004050150941D405064090741402480A0350
1001
ACAD
1000
AcDbSavedByObjectVersion
1070
     0
  0
ACAD_PROXY_OBJECT
  5
33
102
{ACAD_REACTORS
330
2A
102
}
330
2A
100
AcDbProxyObject
 90
      499
 91
      501
 93
      428
310
425499585B1A5CDD1A58D08409038333333333333E33F0000000000000F9010740A907004050150800405405064090740C02480A1B40
1001
ACAD
1000
AcDbSavedByObjectVersion
1070
     0
  0
ACAD_PROXY_OBJECT
  5
42
102
{ACAD_REACTORS
330
2A
102
}
330
2A
100
AcDbProxyObject
 90
      499
 91
      501
 93
      420
310
4194DA1859195911B40902404333333333333E33F0000000000000F9010740A41107004050150800405405064090840C02480A0B40
1001
ACAD
1000
AcDbSavedByObjectVersion
1070
     0
  0
ACAD_PROXY_OBJECT
  5
41
102
{ACAD_REACTORS
330
2A
102
}
330
2A
100
AcDbProxyObject
 90
      499
 91
      501
 93
      516
310
4454DA18591959081DDA5D1A08195919D95CD1A40902404333333333333E33F0000000000000F901074090142907004050250800405405064090740C02480A0B40
1001
ACAD
1000
AcDbSavedByObjectVersion
1070
     0
  0
ACAD_PROXY_OBJECT
  5
3E
102
{ACAD_REACTORS
330
2A
102
}
330
2A
100
AcDbProxyObject
 90
      499
 91
      501
 93
      532
310
4394DA1859195CC81BD98811DC985E5174090240C333333333333E33F0000000000000F901079024090741D01000000000000111010841D405064090740C02480A0340
1001
ACAD
1000
AcDbSavedByObjectVersion
1070
     0
  0
ACAD_PROXY_OBJECT
  5
3F
102
{ACAD_REACTORS
330
2A
102
}
330
2A
100
AcDbProxyObject
 90
      499
 91
      501
 93
      476
310
41D4DAD95D18DA1E51840502408333333333333E33F0000000000000F901079024090741D01000000000000111010B41D405064090741802480A0340
1001
ACAD
1000
AcDbSavedByObjectVersion
1070
     0
  0
ACAD_PROXY_OBJECT
  5
37
102
{ACAD_REACTORS
330
2A
102
}
330
2A
100
AcDbProxyObject
 90
      499
 91
      501
 93
      412
310
41D51A1A58DAD95B90D409028333333333333E33F0000000000000F9010790141107004050150C41D405064090741402480A0350
1001
ACAD
1000
AcDbSavedByObjectVersion
1070
     0
  0
ACAD_PROXY_OBJECT
  5
30
102
{ACAD_REACTORS
330
2A
102
}
330
2A
100
AcDbProxyObject
 90
      499
 91
      501
 93
      420
310
4255DA5C99599C985B595059028333333333333E33F0000000000000F90107901411070040501600405405064090740C02480A0340
1001
ACAD
1000
AcDbSavedByObjectVersion
1070
     0
  0
ACAD_PROXY_OBJECT
  5
40
102
{ACAD_REACTORS
330
2A
102
}
330
2A
100
AcDbProxyObject
 90
      499
 91
      501
 93
      404
310
41560B54985E51940902404000000000000E03F0000000000000F9010740501907004050150841D405064090740C02480A1B40
1001
ACAD
1000
AcDbSavedByObjectVersion
1070
     0
  0
XRECORD
  5
333
102
{ACAD_REACTORS
330
329
102
}
330
329
100
AcDbXrecord
340
0
  0
XRECORD
  5
332
102
{ACAD_REACTORS
330
329
102
}
330
329
100
AcDbXrecord
 90
        0
  0
XRECORD
  5
349
102
{ACAD_REACTORS
330
329
102
}
330
329
100
AcDbXrecord
1000
DSTYLE
1002
{
1070
   179
 70
     2
1070
   171
 70
     2
1070
   143
 40
25.4
1070
   274
 70
     2
1070
    41
 40
2.0
1070
   141
 40
0.09
1070
    43
 40
0.38
1070
   278
 70
    46
1070
    44
 40
1.0
1070
    42
 40
0.0625
1070
   147
 40
1.75
1070
   272
 70
     4
1070
    73
 70
     1
1070
   172
 70
     0
1070
    74
 70
     1
1070
   283
 70
     1
1070
   340
340
6F
1070
   140
 40
3.5
1070
   284
 70
     0
1070
    78
 70
     0
1002
}
  0
XRECORD
  5
334
102
{ACAD_REACTORS
330
329
102
}
330
329
100
AcDbXrecord
  1
{4D143015-23C0-4B10-8570-AE40690C057C}
  0
XRECORD
  5
32C
102
{ACAD_REACTORS
330
329
102
}
330
329
100
AcDbXrecord
  1

  0
XRECORD
  5
331
102
{ACAD_REACTORS
330
329
102
}
330
329
100
AcDbXrecord
 90
        4
  0
XRECORD
  5
32E
102
{ACAD_REACTORS
330
329
102
}
330
329
100
AcDbXrecord
340
1A
  0
XRECORD
  5
330
102
{ACAD_REACTORS
330
329
102
}
330
329
100
AcDbXrecord
 90
    10269
  0
XRECORD
  5
32F
102
{ACAD_REACTORS
330
329
102
}
330
329
100
AcDbXrecord
340
19
  0
XRECORD
  5
336
102
{ACAD_REACTORS
330
329
102
}
330
329
100
AcDbXrecord
 40
0.0
  0
XRECORD
  5
339
102
{ACAD_REACTORS
330
329
102
}
330
329
100
AcDbXrecord
340
0
  0
XRECORD
  5
33F
102
{ACAD_REACTORS
330
329
102
}
330
329
100
AcDbXrecord
 10
0.0
 20
0.0
 30
0.0
  0
XRECORD
  5
33B
102
{ACAD_REACTORS
330
329
102
}
330
329
100
AcDbXrecord
 10
0.0
 20
0.0
 30
0.0
  0
XRECORD
  5
33E
102
{ACAD_REACTORS
330
329
102
}
330
329
100
AcDbXrecord
 10
0.0
 20
0.0
 30
0.0
  0
XRECORD
  5
33C
102
{ACAD_REACTORS
330
329
102
}
330
329
100
AcDbXrecord
 10
0.0
 20
0.0
 30
0.0
  0
XRECORD
  5
33D
102
{ACAD_REACTORS
330
329
102
}
330
329
100
AcDbXrecord
 10
0.0
 20
0.0
 30
0.0
  0
XRECORD
  5
33A
102
{ACAD_REACTORS
330
329
102
}
330
329
100
AcDbXrecord
 10
0.0
 20
0.0
 30
0.0
  0
XRECORD
  5
337
102
{ACAD_REACTORS
330
329
102
}
330
329
100
AcDbXrecord
340
0
  0
XRECORD
  5
338
102
{ACAD_REACTORS
330
329
102
}
330
329
100
AcDbXrecord
 70
     0
  0
XRECORD
  5
32D
102
{ACAD_REACTORS
330
329
102
}
330
329
100
AcDbXrecord
  1

  0
XRECORD
  5
32A
102
{ACAD_REACTORS
330
329
102
}
330
329
100
AcDbXrecord
 90
        1
  0
XRECORD
  5
32B
102
{ACAD_REACTORS
330
329
102
}
330
329
100
AcDbXrecord
 90
       70
  0
XRECORD
  5
342
102
{ACAD_REACTORS
330
329
102
}
330
329
100
AcDbXrecord
340
0
  0
XRECORD
  5
348
102
{ACAD_REACTORS
330
329
102
}
330
329
100
AcDbXrecord
 10
0.0
 20
0.0
 30
0.0
  0
XRECORD
  5
344
102
{ACAD_REACTORS
330
329
102
}
330
329
100
AcDbXrecord
 10
0.0
 20
0.0
 30
0.0
  0
XRECORD
  5
347
102
{ACAD_REACTORS
330
329
102
}
330
329
100
AcDbXrecord
 10
0.0
 20
0.0
 30
0.0
  0
XRECORD
  5
345
102
{ACAD_REACTORS
330
329
102
}
330
329
100
AcDbXrecord
 10
0.0
 20
0.0
 30
0.0
  0
XRECORD
  5
346
102
{ACAD_REACTORS
330
329
102
}
330
329
100
AcDbXrecord
 10
0.0
 20
0.0
 30
0.0
  0
XRECORD
  5
343
102
{ACAD_REACTORS
330
329
102
}
330
329
100
AcDbXrecord
 10
0.0
 20
0.0
 30
0.0
  0
XRECORD
  5
340
102
{ACAD_REACTORS
330
329
102
}
330
329
100
AcDbXrecord
340
0
  0
XRECORD
  5
341
102
{ACAD_REACTORS
330
329
102
}
330
329
100
AcDbXrecord
 70
     0
  0
XRECORD
  5
335
102
{ACAD_REACTORS
330
329
102
}
330
329
100
AcDbXrecord
  1
{FAEB1C32-E019-11D5-929B-00C0DF256EC4}
  0
DICTIONARYVAR
  5
353
102
{ACAD_REACTORS
330
34A
102
}
330
34A
100
DictionaryVariables
280
     0
  1
1:1
  0
DICTIONARYVAR
  5
34C
102
{ACAD_REACTORS
330
34A
102
}
330
34A
100
DictionaryVariables
280
     0
  1
Standard
  0
DICTIONARYVAR
  5
34B
102
{ACAD_REACTORS
330
34A
102
}
330
34A
100
DictionaryVariables
280
     0
  1
Standard
  0
DICTIONARYVAR
  5
34F
102
{ACAD_REACTORS
330
34A
102
}
330
34A
100
DictionaryVariables
280
     0
  1
2
  0
DICTIONARYVAR
  5
350
102
{ACAD_REACTORS
330
34A
102
}
330
34A
100
DictionaryVariables
280
     0
  1
1
  0
DICTIONARYVAR
  5
354
102
{ACAD_REACTORS
330
34A
102
}
330
34A
100
DictionaryVariables
280
     0
  1
1
  0
DICTIONARY
  5
357
330
45
100
AcDbDictionary
280
     1
  3
ACAD_XREC_ROUNDTRIP
360
358
  0
DICTIONARY
  5
355
330
44
100
AcDbDictionary
280
     1
  3
ACAD_XREC_ROUNDTRIP
360
356
  0
DICTIONARY
  5
359
330
46
100
AcDbDictionary
280
     1
  3
ACAD_XREC_ROUNDTRIP
360
35A
  0
XRECORD
  5
358
102
{ACAD_REACTORS
330
357
102
}
330
357
100
AcDbXrecord
102
MATERIAL
148
0.0
149
0.0
149
0.0
 93
        0
 94
      127
282
     0
 72
     1
 77
     1
171
     1
175
     1
179
     1
273
     0
  0
XRECORD
  5
356
102
{ACAD_REACTORS
330
355
102
}
330
355
100
AcDbXrecord
102
MATERIAL
148
0.0
149
0.0
149
0.0
 93
        0
 94
      127
282
     0
 72
     1
 77
     1
171
     1
175
     1
179
     1
273
     0
  0
XRECORD
  5
35A
102
{ACAD_REACTORS
330
359
102
}
330
359
100
AcDbXrecord
102
MATERIAL
148
0.0
149
0.0
149
0.0
 93
        0
 94
      127
282
     0
 72
     1
 77
     1
171
     1
175
     1
179
     1
273
     0
  0
ENDSEC
  0
EOF
