  0
SECTION
  2
HEADER
  9
$ACADVER
  1
AC1006
  9
$DWGCODEPAGE
  3
ansi_932
  9
$INSBASE
 10
0.0
 20
0.0
 30
0.0
  9
$EXTMIN
 10
-100.1479563742185
 20
-452.409090909091
  9
$EXTMAX
 10
261.5000000000001
 20
-77.50000000000001
  9
$LIMMIN
 10
0.0
 20
0.0
  9
$LIMMAX
 10
12.0
 20
9.0
  9
$ORTHOMODE
 70
     0
  9
$REGENMODE
 70
     1
  9
$FILLMODE
 70
     1
  9
$QTEXTMODE
 70
     0
  9
$MIRRTEXT
 70
     1
  9
$DRAGMODE
 70
     2
  9
$LTSCALE
 40
1.0
  9
$OSMODE
 70
    37
  9
$ATTMODE
 70
     1
  9
$TEXTSIZE
 40
0.2
  9
$TRACEWID
 40
0.05
  9
$TEXTSTYLE
  7
STANDARD
  9
$CLAYER
  8
0
  9
$CELTYPE
  6
BYLAYER
  9
$CECOLOR
 62
   256
  9
$DIMSCALE
 40
1.0
  9
$DIMASZ
 40
3.0
  9
$DIMEXO
 40
0.0625
  9
$DIMDLI
 40
0.38
  9
$DIMRND
 40
0.0
  9
$DIMDLE
 40
0.0
  9
$DIMEXE
 40
1.5
  9
$DIMTP
 40
0.0
  9
$DIMTM
 40
0.0
  9
$DIMTXT
 40
3.0
  9
$DIMCEN
 40
0.09
  9
$DIMTSZ
 40
0.0
  9
$DIMTOL
 70
     0
  9
$DIMLIM
 70
     0
  9
$DIMTIH
 70
     1
  9
$DIMTOH
 70
     1
  9
$DIMSE1
 70
     0
  9
$DIMSE2
 70
     0
  9
$DIMTAD
 70
     1
  9
$DIMZIN
 70
     0
  9
$DIMBLK
  1

  9
$DIMASO
 70
     1
  9
$DIMSHO
 70
     1
  9
$DIMPOST
  1

  9
$DIMAPOST
  1

  9
$DIMALT
 70
     0
  9
$DIMALTD
 70
     2
  9
$DIMALTF
 40
25.4
  9
$DIMLFAC
 40
1.0
  9
$DIMTOFL
 70
     0
  9
$DIMTVP
 40
0.0
  9
$DIMTIX
 70
     0
  9
$DIMSOXD
 70
     0
  9
$DIMSAH
 70
     0
  9
$DIMBLK1
  1

  9
$DIMBLK2
  1

  9
$LUNITS
 70
     2
  9
$LUPREC
 70
     4
  9
$SKETCHINC
 40
0.1
  9
$FILLETRAD
 40
0.5
  9
$AUNITS
 70
     0
  9
$AUPREC
 70
     0
  9
$MENU
  1
.
  9
$ELEVATION
 40
0.0
  9
$THICKNESS
 40
0.0
  9
$LIMCHECK
 70
     0
  9
$CHAMFERA
 40
0.0
  9
$CHAMFERB
 40
0.0
  9
$SKPOLY
 70
     0
  9
$TDCREATE
 40
2460629.491059491
  9
$TDUPDATE
 40
2460629.491059757
  9
$TDINDWG
 40
0.0000000116
  9
$TDUSRTIMER
 40
0.0000000116
  9
$USRTIMER
 70
     1
  9
$ANGBASE
 50
0.0
  9
$ANGDIR
 70
     0
  9
$PDMODE
 70
     0
  9
$PDSIZE
 40
0.0
  9
$PLINEWID
 40
0.0
  9
$COORDS
 70
     1
  9
$SPLFRAME
 70
     0
  9
$SPLINETYPE
 70
     6
  9
$SPLINESEGS
 70
     8
  9
$ATTDIA
 70
     0
  9
$ATTREQ
 70
     1
  9
$HANDLING
 70
     1
  9
$HANDSEED
  5
36E
  9
$SURFTAB1
 70
     6
  9
$SURFTAB2
 70
     6
  9
$SURFTYPE
 70
     6
  9
$SURFU
 70
     6
  9
$SURFV
 70
     6
  9
$UCSNAME
  2

  9
$UCSORG
 10
0.0
 20
0.0
 30
0.0
  9
$UCSXDIR
 10
1.0
 20
0.0
 30
0.0
  9
$UCSYDIR
 10
0.0
 20
1.0
 30
0.0
  9
$USERI1
 70
     0
  9
$USERI2
 70
     0
  9
$USERI3
 70
     0
  9
$USERI4
 70
     0
  9
$USERI5
 70
     0
  9
$USERR1
 40
0.0
  9
$USERR2
 40
0.0
  9
$USERR3
 40
0.0
  9
$USERR4
 40
0.0
  9
$USERR5
 40
0.0
  9
$WORLDVIEW
 70
     1
  0
ENDSEC
  0
SECTION
  2
TABLES
  0
TABLE
  2
VPORT
 70
     1
  0
VPORT
  2
*ACTIVE
 70
     0
 10
0.0
 20
0.0
 11
1.0
 21
1.0
 12
80.67602181289078
 22
-264.9545454545455
 13
0.0
 23
0.0
 14
0.5
 24
0.5
 15
0.5
 25
0.5
 16
0.0
 26
0.0
 36
1.0
 17
0.0
 27
0.0
 37
0.0
 40
374.909090909091
 41
1.6
 42
50.0
 43
0.0
 44
0.0
 50
0.0
 51
0.0
 71
     0
 72
   100
 73
     1
 74
     3
 75
     0
 76
     0
 77
     0
 78
     0
  0
ENDTAB
  0
TABLE
  2
LTYPE
 70
     2
  0
LTYPE
  2
CONTINUOUS
 70
     0
  3
Solid line
 72
    65
 73
     0
 40
0.0
  0
LTYPE
  2
CENTER
 70
     0
  3

 72
    65
 73
     0
 40
0.0
  0
ENDTAB
  0
TABLE
  2
LAYER
 70
     2
  0
LAYER
  2
0
 70
     0
 62
     7
  6
CONTINUOUS
  0
LAYER
  2
1
 70
     0
 62
     7
  6
CONTINUOUS
  0
ENDTAB
  0
TABLE
  2
STYLE
 70
     2
  0
STYLE
  2
STANDARD
 70
     0
 40
0.0
 41
1.0
 50
0.0
 71
     0
 42
0.2
  3
txt
  4

  0
STYLE
  2
ＭＳ_ゴシック
 70
     0
 40
0.0
 41
1.0
 50
0.0
 71
     0
 42
0.2
  3
ＭＳ ゴシック.shx
  4

  0
ENDTAB
  0
TABLE
  2
VIEW
 70
     0
  0
ENDTAB
  0
TABLE
  2
UCS
 70
     0
  0
ENDTAB
  0
ENDSEC
  0
SECTION
  2
BLOCKS
  0
ENDSEC
  0
SECTION
  2
ENTITIES
  0
TEXT
  5
70
  8
1
  6
CONTINUOUS
 62
     7
 10
110.1716268600725
 20
-453.5492059522322
 30
0.0
 40
10.0
  1
SBTV-3HDF-K
  0
LINE
  5
71
  8
1
  6
CONTINUOUS
 62
     7
 10
128.9956746437654
 20
-233.5
 30
0.0
 11
128.9879774317012
 21
-233.5
 31
0.0
  0
LINE
  5
72
  8
1
  6
CONTINUOUS
 62
     7
 10
244.0
 20
-187.0
 30
0.0
 11
244.0
 21
-224.0
 31
0.0
  0
LINE
  5
73
  8
1
  6
CONTINUOUS
 62
     7
 10
137.0043253562345
 20
-131.5
 30
0.0
 11
137.0120225682988
 21
-131.5
 31
0.0
  0
LINE
  5
74
  8
1
  6
CONTINUOUS
 62
     7
 10
151.5
 20
-266.5
 30
0.0
 11
114.5
 21
-266.5
 31
0.0
  0
LINE
  5
75
  8
1
  6
CONTINUOUS
 62
     7
 10
105.5
 20
-266.5
 30
0.0
 11
68.5
 21
-266.5
 31
0.0
  0
LINE
  5
76
  8
1
  6
CONTINUOUS
 62
     7
 10
91.0261806033722
 20
-131.5
 30
0.0
 11
91.0261806033722
 21
-134.15
 31
0.0
  0
LINE
  5
77
  8
1
  6
CONTINUOUS
 62
     7
 10
203.3456746437654
 20
-131.5
 30
0.0
 11
203.328182830523
 21
-131.5
 31
0.0
  0
LINE
  5
78
  8
1
  6
CONTINUOUS
 62
     7
 10
128.9956746437654
 20
-230.8500000000001
 30
0.0
 11
128.9738193966278
 21
-230.8500000000001
 31
0.0
  0
LINE
  5
79
  8
1
  6
CONTINUOUS
 62
     7
 10
45.00432535623455
 20
-131.5
 30
0.0
 11
45.02618060337221
 21
-131.5
 31
0.0
  0
LINE
  5
7A
  8
1
  6
CONTINUOUS
 62
     7
 10
174.9738193966278
 20
-134.15
 30
0.0
 11
174.9738193966278
 21
-131.5
 31
0.0
  0
LINE
  5
7B
  8
1
  6
CONTINUOUS
 62
     7
 10
82.99567464376545
 20
-233.5
 30
0.0
 11
82.98797743170138
 21
-233.5
 31
0.0
  0
LINE
  5
7C
  8
1
  6
CONTINUOUS
 62
     7
 10
91.00432535623459
 20
-134.15
 30
0.0
 11
91.02618060337225
 21
-134.15
 31
0.0
  0
LINE
  5
7D
  8
1
  6
CONTINUOUS
 62
     7
 10
197.5
 20
-98.50000000000003
 30
0.0
 11
160.5
 21
-98.50000000000003
 31
0.0
  0
LINE
  5
7E
  8
1
  6
CONTINUOUS
 62
     7
 10
151.5
 20
-98.50000000000003
 30
0.0
 11
114.5
 21
-98.50000000000003
 31
0.0
  0
LINE
  5
7F
  8
1
  6
CONTINUOUS
 62
     7
 10
174.9956746437654
 20
-233.5
 30
0.0
 11
174.9879774317012
 21
-233.5
 31
0.0
  0
LINE
  5
80
  8
1
  6
CONTINUOUS
 62
     7
 10
244.0
 20
-178.0
 30
0.0
 11
243.9999999999998
 21
-141.0
 31
0.0
  0
LINE
  5
81
  8
1
  6
CONTINUOUS
 62
     7
 10
105.5
 20
-98.50000000000003
 30
0.0
 11
68.5
 21
-98.50000000000003
 31
0.0
  0
LINE
  5
82
  8
1
  6
CONTINUOUS
 62
     7
 10
82.99567464376545
 20
-230.8500000000001
 30
0.0
 11
82.97381939662785
 21
-230.8500000000001
 31
0.0
  0
LINE
  5
83
  8
1
  6
CONTINUOUS
 62
     7
 10
197.5
 20
-266.5
 30
0.0
 11
197.5
 21
-264.9999999999998
 31
0.0
  0
LINE
  5
84
  8
1
  6
CONTINUOUS
 62
     7
 10
242.4999999999998
 20
-138.0
 30
0.0
 11
244.0000000000002
 21
-138.0
 31
0.0
  0
LINE
  5
85
  8
1
  6
CONTINUOUS
 62
     7
 10
114.5
 20
-131.5
 30
0.0
 11
114.5
 21
-100.0000000000003
 31
0.0
  0
LINE
  5
86
  8
1
  6
CONTINUOUS
 62
     7
 10
111.5
 20
-98.50000000000003
 30
0.0
 11
114.5
 21
-98.50000000000003
 31
0.0
  0
LINE
  5
87
  8
1
  6
CONTINUOUS
 62
     7
 10
65.5
 20
-131.5
 30
0.0
 11
65.5
 21
-100.0000000000003
 31
0.0
  0
LINE
  5
88
  8
1
  6
CONTINUOUS
 62
     7
 10
114.5
 20
-233.5
 30
0.0
 11
114.5
 21
-264.9999999999998
 31
0.0
  0
LINE
  5
89
  8
1
  6
CONTINUOUS
 62
     7
 10
68.5
 20
-266.5
 30
0.0
 11
65.5
 21
-266.5
 31
0.0
  0
LINE
  5
8A
  8
1
  6
CONTINUOUS
 62
     7
 10
242.4999999999998
 20
-224.0
 30
0.0
 11
244.0000000000002
 21
-224.0
 31
0.0
  0
LINE
  5
8B
  8
1
  6
CONTINUOUS
 62
     7
 10
244.0000000000002
 20
-181.0
 30
0.0
 11
242.5000000000001
 21
-181.0
 31
0.0
  0
LINE
  5
8C
  8
1
  6
CONTINUOUS
 62
     7
 10
105.5
 20
-131.5
 30
0.0
 11
105.5
 21
-100.0000000000003
 31
0.0
  0
LINE
  5
8D
  8
1
  6
CONTINUOUS
 62
     7
 10
242.4999999999998
 20
-184.0
 30
0.0
 11
244.0000000000002
 21
-184.0
 31
0.0
  0
LINE
  5
8E
  8
1
  6
CONTINUOUS
 62
     7
 10
108.5
 20
-266.5
 30
0.0
 11
105.5
 21
-266.5
 31
0.0
  0
LINE
  5
8F
  8
1
  6
CONTINUOUS
 62
     7
 10
114.5
 20
-266.5
 30
0.0
 11
111.5
 21
-266.5
 31
0.0
  0
LINE
  5
90
  8
1
  6
CONTINUOUS
 62
     7
 10
111.5
 20
-100.0000000000003
 30
0.0
 11
111.5
 21
-98.50000000000003
 31
0.0
  0
LINE
  5
91
  8
1
  6
CONTINUOUS
 62
     7
 10
111.5
 20
-131.5
 30
0.0
 11
111.5
 21
-100.0000000000003
 31
0.0
  0
LINE
  5
92
  8
1
  6
CONTINUOUS
 62
     7
 10
211.0
 20
-187.0
 30
0.0
 11
242.4999999999998
 21
-187.0
 31
0.0
  0
LINE
  5
93
  8
1
  6
CONTINUOUS
 62
     7
 10
211.0
 20
-138.0
 30
0.0
 11
242.4999999999998
 21
-138.0
 31
0.0
  0
LINE
  5
94
  8
1
  6
CONTINUOUS
 62
     7
 10
68.5
 20
-131.5
 30
0.0
 11
68.5
 21
-100.0000000000003
 31
0.0
  0
LINE
  5
95
  8
1
  6
CONTINUOUS
 62
     7
 10
244.0000000000002
 20
-178.0
 30
0.0
 11
244.0000000000002
 21
-181.0
 31
0.0
  0
LINE
  5
96
  8
1
  6
CONTINUOUS
 62
     7
 10
244.0000000000002
 20
-141.0
 30
0.0
 11
242.5000000000001
 21
-141.0
 31
0.0
  0
LINE
  5
97
  8
1
  6
CONTINUOUS
 62
     7
 10
160.5
 20
-233.5
 30
0.0
 11
160.5
 21
-264.9999999999998
 31
0.0
  0
LINE
  5
98
  8
1
  6
CONTINUOUS
 62
     7
 10
211.0
 20
-227.0
 30
0.0
 11
242.4999999999998
 21
-227.0
 31
0.0
  0
LINE
  5
99
  8
1
  6
CONTINUOUS
 62
     7
 10
105.5
 20
-266.5
 30
0.0
 11
105.5
 21
-264.9999999999998
 31
0.0
  0
LINE
  5
9A
  8
1
  6
CONTINUOUS
 62
     7
 10
244.0000000000002
 20
-227.0
 30
0.0
 11
242.5000000000001
 21
-227.0
 31
0.0
  0
LINE
  5
9B
  8
1
  6
CONTINUOUS
 62
     7
 10
210.9999999999997
 20
-224.0
 30
0.0
 11
242.4999999999998
 21
-224.0
 31
0.0
  0
LINE
  5
9C
  8
1
  6
CONTINUOUS
 62
     7
 10
211.0
 20
-184.0
 30
0.0
 11
242.4999999999998
 21
-184.0
 31
0.0
  0
LINE
  5
9D
  8
1
  6
CONTINUOUS
 62
     7
 10
244.0000000000002
 20
-187.0
 30
0.0
 11
242.5000000000001
 21
-187.0
 31
0.0
  0
LINE
  5
9E
  8
1
  6
CONTINUOUS
 62
     7
 10
65.5
 20
-233.5
 30
0.0
 11
65.5
 21
-264.9999999999998
 31
0.0
  0
LINE
  5
9F
  8
1
  6
CONTINUOUS
 62
     7
 10
157.5
 20
-98.50000000000003
 30
0.0
 11
154.5
 21
-98.50000000000003
 31
0.0
  0
LINE
  5
A0
  8
1
  6
CONTINUOUS
 62
     7
 10
157.5
 20
-266.5
 30
0.0
 11
157.5
 21
-264.9999999999998
 31
0.0
  0
LINE
  5
A1
  8
1
  6
CONTINUOUS
 62
     7
 10
111.5
 20
-233.5
 30
0.0
 11
111.5
 21
-264.9999999999998
 31
0.0
  0
LINE
  5
A2
  8
1
  6
CONTINUOUS
 62
     7
 10
108.5
 20
-264.9999999999998
 30
0.0
 11
108.5
 21
-266.5
 31
0.0
  0
LINE
  5
A3
  8
1
  6
CONTINUOUS
 62
     7
 10
210.9999999999997
 20
-178.0
 30
0.0
 11
242.4999999999998
 21
-178.0
 31
0.0
  0
LINE
  5
A4
  8
1
  6
CONTINUOUS
 62
     7
 10
105.5
 20
-233.5
 30
0.0
 11
105.5
 21
-264.9999999999998
 31
0.0
  0
LINE
  5
A5
  8
1
  6
CONTINUOUS
 62
     7
 10
151.5
 20
-266.5
 30
0.0
 11
151.5
 21
-264.9999999999998
 31
0.0
  0
LINE
  5
A6
  8
1
  6
CONTINUOUS
 62
     7
 10
211.0
 20
-141.0
 30
0.0
 11
242.4999999999998
 21
-141.0
 31
0.0
  0
LINE
  5
A7
  8
1
  6
CONTINUOUS
 62
     7
 10
157.5
 20
-233.5
 30
0.0
 11
157.5
 21
-264.9999999999998
 31
0.0
  0
LINE
  5
A8
  8
1
  6
CONTINUOUS
 62
     7
 10
154.5
 20
-233.5
 30
0.0
 11
154.5
 21
-264.9999999999998
 31
0.0
  0
LINE
  5
A9
  8
1
  6
CONTINUOUS
 62
     7
 10
154.5
 20
-266.5
 30
0.0
 11
151.5
 21
-266.5
 31
0.0
  0
LINE
  5
AA
  8
1
  6
CONTINUOUS
 62
     7
 10
160.5
 20
-264.9999999999998
 30
0.0
 11
160.5
 21
-266.5
 31
0.0
  0
LINE
  5
AB
  8
1
  6
CONTINUOUS
 62
     7
 10
200.5
 20
-266.5
 30
0.0
 11
197.5
 21
-266.5
 31
0.0
  0
LINE
  5
AC
  8
1
  6
CONTINUOUS
 62
     7
 10
160.5
 20
-266.5
 30
0.0
 11
157.5
 21
-266.5
 31
0.0
  0
LINE
  5
AD
  8
1
  6
CONTINUOUS
 62
     7
 10
244.0000000000002
 20
-184.0
 30
0.0
 11
244.0000000000002
 21
-187.0
 31
0.0
  0
LINE
  5
AE
  8
1
  6
CONTINUOUS
 62
     7
 10
154.5
 20
-264.9999999999998
 30
0.0
 11
154.5
 21
-266.5
 31
0.0
  0
LINE
  5
AF
  8
1
  6
CONTINUOUS
 62
     7
 10
200.5
 20
-264.9999999999998
 30
0.0
 11
200.5
 21
-266.5
 31
0.0
  0
LINE
  5
B0
  8
1
  6
CONTINUOUS
 62
     7
 10
244.0000000000002
 20
-138.0
 30
0.0
 11
244.0000000000002
 21
-141.0
 31
0.0
  0
LINE
  5
B1
  8
1
  6
CONTINUOUS
 62
     7
 10
114.5
 20
-98.50000000000003
 30
0.0
 11
114.5
 21
-100.0000000000003
 31
0.0
  0
LINE
  5
B2
  8
1
  6
CONTINUOUS
 62
     7
 10
151.5
 20
-233.5
 30
0.0
 11
151.5
 21
-264.9999999999998
 31
0.0
  0
LINE
  5
B3
  8
1
  6
CONTINUOUS
 62
     7
 10
111.5
 20
-98.50000000000003
 30
0.0
 11
108.5
 21
-98.50000000000003
 31
0.0
  0
LINE
  5
B4
  8
1
  6
CONTINUOUS
 62
     7
 10
108.5
 20
-233.5
 30
0.0
 11
108.5
 21
-264.9999999999998
 31
0.0
  0
LINE
  5
B5
  8
1
  6
CONTINUOUS
 62
     7
 10
65.5
 20
-266.5
 30
0.0
 11
65.5
 21
-264.9999999999998
 31
0.0
  0
LINE
  5
B6
  8
1
  6
CONTINUOUS
 62
     7
 10
242.4999999999998
 20
-178.0
 30
0.0
 11
244.0000000000002
 21
-178.0
 31
0.0
  0
LINE
  5
B7
  8
1
  6
CONTINUOUS
 62
     7
 10
108.5
 20
-131.5
 30
0.0
 11
108.5
 21
-100.0000000000003
 31
0.0
  0
LINE
  5
B8
  8
1
  6
CONTINUOUS
 62
     7
 10
68.5
 20
-233.5
 30
0.0
 11
68.5
 21
-264.9999999999998
 31
0.0
  0
LINE
  5
B9
  8
1
  6
CONTINUOUS
 62
     7
 10
211.0
 20
-181.0
 30
0.0
 11
242.4999999999998
 21
-181.0
 31
0.0
  0
LINE
  5
BA
  8
1
  6
CONTINUOUS
 62
     7
 10
244.0000000000002
 20
-224.0
 30
0.0
 11
244.0000000000002
 21
-227.0
 31
0.0
  0
LINE
  5
BB
  8
1
  6
CONTINUOUS
 62
     7
 10
249.0010661339051
 20
-278.5
 30
0.0
 11
250.3666039575384
 21
-278.3655284713242
 31
0.0
  0
LINE
  5
BC
  8
1
  6
CONTINUOUS
 62
     7
 10
250.3666039575384
 20
-278.3655284713242
 30
0.0
 11
251.6796032957537
 21
-277.9672795532846
 31
0.0
  0
LINE
  5
BD
  8
1
  6
CONTINUOUS
 62
     7
 10
251.6796032957537
 20
-277.9672795532846
 30
0.0
 11
252.8896258236765
 21
-277.3205518128528
 31
0.0
  0
LINE
  5
BE
  8
1
  6
CONTINUOUS
 62
     7
 10
252.8896258236765
 20
-277.3205518128528
 30
0.0
 11
253.9501890278796
 21
-276.4501890278797
 31
0.0
  0
LINE
  5
BF
  8
1
  6
CONTINUOUS
 62
     7
 10
253.9501890278796
 20
-276.4501890278797
 30
0.0
 11
254.8205518128529
 21
-275.3896258236765
 31
0.0
  0
LINE
  5
C0
  8
1
  6
CONTINUOUS
 62
     7
 10
254.8205518128529
 20
-275.3896258236765
 30
0.0
 11
255.4672795532846
 21
-274.1796032957534
 31
0.0
  0
LINE
  5
C1
  8
1
  6
CONTINUOUS
 62
     7
 10
255.4672795532846
 20
-274.1796032957534
 30
0.0
 11
255.8655284713243
 21
-272.8666039575384
 31
0.0
  0
LINE
  5
C2
  8
1
  6
CONTINUOUS
 62
     7
 10
255.8655284713243
 20
-272.8666039575384
 30
0.0
 11
256.0
 21
-271.5010661339052
 31
0.0
  0
LINE
  5
C3
  8
1
  6
CONTINUOUS
 62
     7
 10
256.0000000000002
 20
-93.49893386609482
 30
0.0
 11
255.8655284713243
 21
-92.13339604246163
 31
0.0
  0
LINE
  5
C4
  8
1
  6
CONTINUOUS
 62
     7
 10
255.8655284713243
 20
-92.13339604246163
 30
0.0
 11
255.4672795532846
 21
-90.82039670424635
 31
0.0
  0
LINE
  5
C5
  8
1
  6
CONTINUOUS
 62
     7
 10
255.4672795532846
 20
-90.82039670424635
 30
0.0
 11
254.820551812853
 21
-89.61037417632367
 31
0.0
  0
LINE
  5
C6
  8
1
  6
CONTINUOUS
 62
     7
 10
254.820551812853
 20
-89.61037417632367
 30
0.0
 11
253.9501890278798
 21
-88.54981097212023
 31
0.0
  0
LINE
  5
C7
  8
1
  6
CONTINUOUS
 62
     7
 10
253.9501890278798
 20
-88.54981097212023
 30
0.0
 11
252.8896258236767
 21
-87.67944818714723
 31
0.0
  0
LINE
  5
C8
  8
1
  6
CONTINUOUS
 62
     7
 10
252.8896258236767
 20
-87.67944818714723
 30
0.0
 11
251.6796032957537
 21
-87.03272044671539
 31
0.0
  0
LINE
  5
C9
  8
1
  6
CONTINUOUS
 62
     7
 10
251.6796032957537
 20
-87.03272044671539
 30
0.0
 11
250.3666039575384
 21
-86.63447152867587
 31
0.0
  0
LINE
  5
CA
  8
1
  6
CONTINUOUS
 62
     7
 10
250.3666039575384
 20
-86.63447152867587
 30
0.0
 11
249.0010661339054
 21
-86.50000000000001
 31
0.0
  0
LINE
  5
CB
  8
1
  6
CONTINUOUS
 62
     7
 10
69.52618060337224
 20
-139.723724204288
 30
0.0
 11
69.47814661797008
 21
-139.2360068280328
 31
0.0
  0
LINE
  5
CC
  8
1
  6
CONTINUOUS
 62
     7
 10
69.47814661797003
 20
-139.2360068280328
 30
0.0
 11
69.335890402483
 21
-138.7670376614284
 31
0.0
  0
LINE
  5
CD
  8
1
  6
CONTINUOUS
 62
     7
 10
69.335890402483
 20
-138.7670376614284
 30
0.0
 11
69.10487825514622
 21
-138.3348371847662
 31
0.0
  0
LINE
  5
CE
  8
1
  6
CONTINUOUS
 62
     7
 10
69.10487825514622
 20
-138.3348371847662
 30
0.0
 11
68.7939869852352
 21
-137.9560130147648
 31
0.0
  0
LINE
  5
CF
  8
1
  6
CONTINUOUS
 62
     7
 10
68.7939869852352
 20
-137.9560130147648
 30
0.0
 11
68.41516281523357
 21
-137.6451217448538
 31
0.0
  0
LINE
  5
D0
  8
1
  6
CONTINUOUS
 62
     7
 10
68.41516281523363
 20
-137.6451217448538
 30
0.0
 11
67.98296233857165
 21
-137.414109597517
 31
0.0
  0
LINE
  5
D1
  8
1
  6
CONTINUOUS
 62
     7
 10
67.9829623385716
 20
-137.414109597517
 30
0.0
 11
67.51399317196716
 21
-137.27185338203
 31
0.0
  0
LINE
  5
D2
  8
1
  6
CONTINUOUS
 62
     7
 10
67.51399317196716
 20
-137.27185338203
 30
0.0
 11
67.0262757957118
 21
-137.2238193966276
 31
0.0
  0
LINE
  5
D3
  8
1
  6
CONTINUOUS
 62
     7
 10
113.0000951923396
 20
-227.75
 30
0.0
 11
113.487812568595
 21
-227.7019660145978
 31
0.0
  0
LINE
  5
D4
  8
1
  6
CONTINUOUS
 62
     7
 10
113.487812568595
 20
-227.7019660145978
 30
0.0
 11
113.9567817351991
 21
-227.5597097991108
 31
0.0
  0
LINE
  5
D5
  8
1
  6
CONTINUOUS
 62
     7
 10
113.9567817351992
 20
-227.5597097991108
 30
0.0
 11
114.3889822118614
 21
-227.328697651774
 31
0.0
  0
LINE
  5
D6
  8
1
  6
CONTINUOUS
 62
     7
 10
114.3889822118614
 20
-227.328697651774
 30
0.0
 11
114.7678063818628
 21
-227.0178063818628
 31
0.0
  0
LINE
  5
D7
  8
1
  6
CONTINUOUS
 62
     7
 10
114.7678063818628
 20
-227.0178063818628
 30
0.0
 11
115.078697651774
 21
-226.6389822118614
 31
0.0
  0
LINE
  5
D8
  8
1
  6
CONTINUOUS
 62
     7
 10
115.078697651774
 20
-226.6389822118614
 30
0.0
 11
115.3097097991108
 21
-226.2067817351992
 31
0.0
  0
LINE
  5
D9
  8
1
  6
CONTINUOUS
 62
     7
 10
115.3097097991108
 20
-226.2067817351992
 30
0.0
 11
115.4519660145978
 21
-225.737812568595
 31
0.0
  0
LINE
  5
DA
  8
1
  6
CONTINUOUS
 62
     7
 10
115.4519660145978
 20
-225.737812568595
 30
0.0
 11
115.5
 21
-225.2500951923396
 31
0.0
  0
LINE
  5
DB
  8
1
  6
CONTINUOUS
 62
     7
 10
152.9999048076604
 20
-137.25
 30
0.0
 11
152.512187431405
 21
-137.2980339854022
 31
0.0
  0
LINE
  5
DC
  8
1
  6
CONTINUOUS
 62
     7
 10
152.5121874314049
 20
-137.2980339854022
 30
0.0
 11
152.0432182648008
 21
-137.4402902008892
 31
0.0
  0
LINE
  5
DD
  8
1
  6
CONTINUOUS
 62
     7
 10
152.0432182648008
 20
-137.4402902008892
 30
0.0
 11
151.6110177881386
 21
-137.671302348226
 31
0.0
  0
LINE
  5
DE
  8
1
  6
CONTINUOUS
 62
     7
 10
151.6110177881386
 20
-137.671302348226
 30
0.0
 11
151.2321936181372
 21
-137.9821936181372
 31
0.0
  0
LINE
  5
DF
  8
1
  6
CONTINUOUS
 62
     7
 10
151.2321936181372
 20
-137.9821936181372
 30
0.0
 11
150.921302348226
 21
-138.3610177881386
 31
0.0
  0
LINE
  5
E0
  8
1
  6
CONTINUOUS
 62
     7
 10
150.921302348226
 20
-138.3610177881386
 30
0.0
 11
150.6902902008891
 21
-138.7932182648008
 31
0.0
  0
LINE
  5
E1
  8
1
  6
CONTINUOUS
 62
     7
 10
150.6902902008892
 20
-138.7932182648008
 30
0.0
 11
150.5480339854022
 21
-139.262187431405
 31
0.0
  0
LINE
  5
E2
  8
1
  6
CONTINUOUS
 62
     7
 10
150.5480339854022
 20
-139.262187431405
 30
0.0
 11
150.5
 21
-139.7499048076604
 31
0.0
  0
LINE
  5
E3
  8
1
  6
CONTINUOUS
 62
     7
 10
104.4738193966278
 20
-225.2762757957118
 30
0.0
 11
104.52185338203
 21
-225.7639931719672
 31
0.0
  0
LINE
  5
E4
  8
1
  6
CONTINUOUS
 62
     7
 10
104.52185338203
 20
-225.7639931719672
 30
0.0
 11
104.664109597517
 21
-226.2329623385716
 31
0.0
  0
LINE
  5
E5
  8
1
  6
CONTINUOUS
 62
     7
 10
104.664109597517
 20
-226.2329623385716
 30
0.0
 11
104.8951217448538
 21
-226.6651628152336
 31
0.0
  0
LINE
  5
E6
  8
1
  6
CONTINUOUS
 62
     7
 10
104.8951217448538
 20
-226.6651628152336
 30
0.0
 11
105.2060130147648
 21
-227.0439869852353
 31
0.0
  0
LINE
  5
E7
  8
1
  6
CONTINUOUS
 62
     7
 10
105.2060130147647
 20
-227.0439869852353
 30
0.0
 11
105.5848371847664
 21
-227.3548782551462
 31
0.0
  0
LINE
  5
E8
  8
1
  6
CONTINUOUS
 62
     7
 10
105.5848371847664
 20
-227.3548782551462
 30
0.0
 11
106.0170376614284
 21
-227.585890402483
 31
0.0
  0
LINE
  5
E9
  8
1
  6
CONTINUOUS
 62
     7
 10
106.0170376614283
 20
-227.585890402483
 30
0.0
 11
106.4860068280328
 21
-227.72814661797
 31
0.0
  0
LINE
  5
EA
  8
1
  6
CONTINUOUS
 62
     7
 10
106.4860068280328
 20
-227.72814661797
 30
0.0
 11
106.9737242042882
 21
-227.7761806033722
 31
0.0
  0
LINE
  5
EB
  8
1
  6
CONTINUOUS
 62
     7
 10
36.64999999999996
 20
-230.3500000000001
 30
0.0
 11
36.65960772563115
 21
-230.447545161008
 31
0.0
  0
LINE
  5
EC
  8
1
  6
CONTINUOUS
 62
     7
 10
36.65960772563115
 20
-230.447545161008
 30
0.0
 11
36.68806168301658
 21
-230.5413417161826
 31
0.0
  0
LINE
  5
ED
  8
1
  6
CONTINUOUS
 62
     7
 10
36.68806168301663
 20
-230.5413417161826
 30
0.0
 11
36.73426840253147
 21
-230.6277851165098
 31
0.0
  0
LINE
  5
EE
  8
1
  6
CONTINUOUS
 62
     7
 10
36.73426840253147
 20
-230.6277851165098
 30
0.0
 11
36.79645218585726
 21
-230.7035533905932
 31
0.0
  0
LINE
  5
EF
  8
1
  6
CONTINUOUS
 62
     7
 10
36.79645218585726
 20
-230.7035533905932
 30
0.0
 11
36.87222334507445
 21
-230.7657348061512
 31
0.0
  0
LINE
  5
F0
  8
1
  6
CONTINUOUS
 62
     7
 10
36.87222334507445
 20
-230.7657348061512
 30
0.0
 11
36.95867003702685
 21
-230.8119397662556
 31
0.0
  0
LINE
  5
F1
  8
1
  6
CONTINUOUS
 62
     7
 10
36.9586700370268
 20
-230.8119397662556
 30
0.0
 11
37.05247016382257
 21
-230.8403926402017
 31
0.0
  0
LINE
  5
F2
  8
1
  6
CONTINUOUS
 62
     7
 10
37.05247016382263
 20
-230.8403926402017
 30
0.0
 11
37.15001903919279
 21
-230.8500000000001
 31
0.0
  0
LINE
  5
F3
  8
1
  6
CONTINUOUS
 62
     7
 10
150.5
 20
-225.2500951923396
 30
0.0
 11
150.5480339854022
 21
-225.737812568595
 31
0.0
  0
LINE
  5
F4
  8
1
  6
CONTINUOUS
 62
     7
 10
150.5480339854022
 20
-225.737812568595
 30
0.0
 11
150.6902902008891
 21
-226.2067817351992
 31
0.0
  0
LINE
  5
F5
  8
1
  6
CONTINUOUS
 62
     7
 10
150.6902902008892
 20
-226.2067817351992
 30
0.0
 11
150.921302348226
 21
-226.6389822118614
 31
0.0
  0
LINE
  5
F6
  8
1
  6
CONTINUOUS
 62
     7
 10
150.921302348226
 20
-226.6389822118614
 30
0.0
 11
151.2321936181372
 21
-227.0178063818628
 31
0.0
  0
LINE
  5
F7
  8
1
  6
CONTINUOUS
 62
     7
 10
151.2321936181372
 20
-227.0178063818628
 30
0.0
 11
151.6110177881386
 21
-227.328697651774
 31
0.0
  0
LINE
  5
F8
  8
1
  6
CONTINUOUS
 62
     7
 10
151.6110177881386
 20
-227.328697651774
 30
0.0
 11
152.0432182648008
 21
-227.5597097991108
 31
0.0
  0
LINE
  5
F9
  8
1
  6
CONTINUOUS
 62
     7
 10
152.0432182648008
 20
-227.5597097991108
 30
0.0
 11
152.5121874314049
 21
-227.7019660145978
 31
0.0
  0
LINE
  5
FA
  8
1
  6
CONTINUOUS
 62
     7
 10
152.5121874314049
 20
-227.7019660145978
 30
0.0
 11
152.9999048076604
 21
-227.75
 31
0.0
  0
LINE
  5
FB
  8
1
  6
CONTINUOUS
 62
     7
 10
69.5
 20
-139.7499048076604
 30
0.0
 11
69.45196601459763
 21
-139.262187431405
 31
0.0
  0
LINE
  5
FC
  8
1
  6
CONTINUOUS
 62
     7
 10
69.45196601459757
 20
-139.262187431405
 30
0.0
 11
69.30970979911055
 21
-138.7932182648008
 31
0.0
  0
LINE
  5
FD
  8
1
  6
CONTINUOUS
 62
     7
 10
69.30970979911055
 20
-138.7932182648008
 30
0.0
 11
69.07869765177377
 21
-138.3610177881386
 31
0.0
  0
LINE
  5
FE
  8
1
  6
CONTINUOUS
 62
     7
 10
69.07869765177377
 20
-138.3610177881386
 30
0.0
 11
68.76780638186275
 21
-137.9821936181372
 31
0.0
  0
LINE
  5
FF
  8
1
  6
CONTINUOUS
 62
     7
 10
68.76780638186275
 20
-137.9821936181372
 30
0.0
 11
68.38898221186135
 21
-137.671302348226
 31
0.0
  0
LINE
  5
100
  8
1
  6
CONTINUOUS
 62
     7
 10
68.3889822118614
 20
-137.671302348226
 30
0.0
 11
67.9567817351992
 21
-137.4402902008892
 31
0.0
  0
LINE
  5
101
  8
1
  6
CONTINUOUS
 62
     7
 10
67.95678173519914
 20
-137.4402902008892
 30
0.0
 11
67.48781256859476
 21
-137.2980339854022
 31
0.0
  0
LINE
  5
102
  8
1
  6
CONTINUOUS
 62
     7
 10
67.48781256859482
 20
-137.2980339854022
 30
0.0
 11
67.00009519233963
 21
-137.25
 31
0.0
  0
LINE
  5
103
  8
1
  6
CONTINUOUS
 62
     7
 10
113.0262757957118
 20
-227.7761806033722
 30
0.0
 11
113.5139931719671
 21
-227.72814661797
 31
0.0
  0
LINE
  5
104
  8
1
  6
CONTINUOUS
 62
     7
 10
113.5139931719672
 20
-227.72814661797
 30
0.0
 11
113.9829623385716
 21
-227.585890402483
 31
0.0
  0
LINE
  5
105
  8
1
  6
CONTINUOUS
 62
     7
 10
113.9829623385716
 20
-227.585890402483
 30
0.0
 11
114.4151628152336
 21
-227.3548782551462
 31
0.0
  0
LINE
  5
106
  8
1
  6
CONTINUOUS
 62
     7
 10
114.4151628152336
 20
-227.3548782551462
 30
0.0
 11
114.7939869852352
 21
-227.0439869852353
 31
0.0
  0
LINE
  5
107
  8
1
  6
CONTINUOUS
 62
     7
 10
114.7939869852352
 20
-227.0439869852353
 30
0.0
 11
115.1048782551463
 21
-226.6651628152336
 31
0.0
  0
LINE
  5
108
  8
1
  6
CONTINUOUS
 62
     7
 10
115.1048782551463
 20
-226.6651628152336
 30
0.0
 11
115.335890402483
 21
-226.2329623385716
 31
0.0
  0
LINE
  5
109
  8
1
  6
CONTINUOUS
 62
     7
 10
115.335890402483
 20
-226.2329623385716
 30
0.0
 11
115.4781466179701
 21
-225.7639931719672
 31
0.0
  0
LINE
  5
10A
  8
1
  6
CONTINUOUS
 62
     7
 10
115.4781466179701
 20
-225.7639931719672
 30
0.0
 11
115.5261806033722
 21
-225.2762757957118
 31
0.0
  0
LINE
  5
10B
  8
1
  6
CONTINUOUS
 62
     7
 10
150.4738193966277
 20
-225.2762757957118
 30
0.0
 11
150.5218533820299
 21
-225.7639931719672
 31
0.0
  0
LINE
  5
10C
  8
1
  6
CONTINUOUS
 62
     7
 10
150.5218533820299
 20
-225.7639931719672
 30
0.0
 11
150.664109597517
 21
-226.2329623385716
 31
0.0
  0
LINE
  5
10D
  8
1
  6
CONTINUOUS
 62
     7
 10
150.664109597517
 20
-226.2329623385716
 30
0.0
 11
150.8951217448538
 21
-226.6651628152336
 31
0.0
  0
LINE
  5
10E
  8
1
  6
CONTINUOUS
 62
     7
 10
150.8951217448538
 20
-226.6651628152336
 30
0.0
 11
151.2060130147648
 21
-227.0439869852353
 31
0.0
  0
LINE
  5
10F
  8
1
  6
CONTINUOUS
 62
     7
 10
151.2060130147648
 20
-227.0439869852353
 30
0.0
 11
151.5848371847664
 21
-227.3548782551462
 31
0.0
  0
LINE
  5
110
  8
1
  6
CONTINUOUS
 62
     7
 10
151.5848371847665
 20
-227.3548782551462
 30
0.0
 11
152.0170376614286
 21
-227.585890402483
 31
0.0
  0
LINE
  5
111
  8
1
  6
CONTINUOUS
 62
     7
 10
152.0170376614286
 20
-227.585890402483
 30
0.0
 11
152.4860068280328
 21
-227.72814661797
 31
0.0
  0
LINE
  5
112
  8
1
  6
CONTINUOUS
 62
     7
 10
152.4860068280328
 20
-227.72814661797
 30
0.0
 11
152.9737242042882
 21
-227.7761806033722
 31
0.0
  0
LINE
  5
113
  8
1
  6
CONTINUOUS
 62
     7
 10
37.15001903919279
 20
-134.15
 30
0.0
 11
37.05247016382263
 21
-134.1596073597984
 31
0.0
  0
LINE
  5
114
  8
1
  6
CONTINUOUS
 62
     7
 10
37.05247016382263
 20
-134.1596073597984
 30
0.0
 11
36.95867003702685
 21
-134.1880602337444
 31
0.0
  0
LINE
  5
115
  8
1
  6
CONTINUOUS
 62
     7
 10
36.9586700370268
 20
-134.1880602337444
 30
0.0
 11
36.8722233450744
 21
-134.2342651938488
 31
0.0
  0
LINE
  5
116
  8
1
  6
CONTINUOUS
 62
     7
 10
36.87222334507445
 20
-134.2342651938488
 30
0.0
 11
36.79645218585726
 21
-134.2964466094068
 31
0.0
  0
LINE
  5
117
  8
1
  6
CONTINUOUS
 62
     7
 10
36.79645218585726
 20
-134.2964466094068
 30
0.0
 11
36.73426840253147
 21
-134.3722148834902
 31
0.0
  0
LINE
  5
118
  8
1
  6
CONTINUOUS
 62
     7
 10
36.73426840253147
 20
-134.3722148834902
 30
0.0
 11
36.68806168301663
 21
-134.4586582838174
 31
0.0
  0
LINE
  5
119
  8
1
  6
CONTINUOUS
 62
     7
 10
36.68806168301663
 20
-134.4586582838174
 30
0.0
 11
36.6596077256312
 21
-134.552454838992
 31
0.0
  0
LINE
  5
11A
  8
1
  6
CONTINUOUS
 62
     7
 10
36.65960772563115
 20
-134.552454838992
 30
0.0
 11
36.64999999999996
 21
-134.65
 31
0.0
  0
LINE
  5
11B
  8
1
  6
CONTINUOUS
 62
     7
 10
29.00000000000002
 20
-271.5010661339052
 30
0.0
 11
29.13447152867582
 21
-272.8666039575384
 31
0.0
  0
LINE
  5
11C
  8
1
  6
CONTINUOUS
 62
     7
 10
29.13447152867576
 20
-272.8666039575384
 30
0.0
 11
29.5327204467154
 21
-274.1796032957536
 31
0.0
  0
LINE
  5
11D
  8
1
  6
CONTINUOUS
 62
     7
 10
29.5327204467154
 20
-274.1796032957536
 30
0.0
 11
30.17944818714718
 21
-275.3896258236765
 31
0.0
  0
LINE
  5
11E
  8
1
  6
CONTINUOUS
 62
     7
 10
30.17944818714724
 20
-275.3896258236765
 30
0.0
 11
31.04981097212039
 21
-276.4501890278797
 31
0.0
  0
LINE
  5
11F
  8
1
  6
CONTINUOUS
 62
     7
 10
31.04981097212034
 20
-276.4501890278797
 30
0.0
 11
32.11037417632356
 21
-277.3205518128528
 31
0.0
  0
LINE
  5
120
  8
1
  6
CONTINUOUS
 62
     7
 10
32.11037417632356
 20
-277.3205518128528
 30
0.0
 11
33.32039670424658
 21
-277.9672795532846
 31
0.0
  0
LINE
  5
121
  8
1
  6
CONTINUOUS
 62
     7
 10
33.32039670424658
 20
-277.9672795532846
 30
0.0
 11
34.63339604246157
 21
-278.3655284713242
 31
0.0
  0
LINE
  5
122
  8
1
  6
CONTINUOUS
 62
     7
 10
34.63339604246163
 20
-278.3655284713242
 30
0.0
 11
35.99893386609482
 21
-278.5
 31
0.0
  0
LINE
  5
123
  8
1
  6
CONTINUOUS
 62
     7
 10
60.97372420428826
 20
-137.2238193966276
 30
0.0
 11
60.48600682803284
 21
-137.27185338203
 31
0.0
  0
LINE
  5
124
  8
1
  6
CONTINUOUS
 62
     7
 10
60.48600682803284
 20
-137.27185338203
 30
0.0
 11
60.0170376614284
 21
-137.414109597517
 31
0.0
  0
LINE
  5
125
  8
1
  6
CONTINUOUS
 62
     7
 10
60.0170376614284
 20
-137.414109597517
 30
0.0
 11
59.58483718476643
 21
-137.6451217448538
 31
0.0
  0
LINE
  5
126
  8
1
  6
CONTINUOUS
 62
     7
 10
59.58483718476637
 20
-137.6451217448538
 30
0.0
 11
59.20601301476474
 21
-137.9560130147648
 31
0.0
  0
LINE
  5
127
  8
1
  6
CONTINUOUS
 62
     7
 10
59.2060130147648
 20
-137.9560130147648
 30
0.0
 11
58.89512174485378
 21
-138.3348371847662
 31
0.0
  0
LINE
  5
128
  8
1
  6
CONTINUOUS
 62
     7
 10
58.89512174485378
 20
-138.3348371847662
 30
0.0
 11
58.664109597517
 21
-138.7670376614284
 31
0.0
  0
LINE
  5
129
  8
1
  6
CONTINUOUS
 62
     7
 10
58.664109597517
 20
-138.7670376614284
 30
0.0
 11
58.52185338202997
 21
-139.2360068280328
 31
0.0
  0
LINE
  5
12A
  8
1
  6
CONTINUOUS
 62
     7
 10
58.52185338202997
 20
-139.2360068280328
 30
0.0
 11
58.47381939662782
 21
-139.723724204288
 31
0.0
  0
LINE
  5
12B
  8
1
  6
CONTINUOUS
 62
     7
 10
60.99990480766038
 20
-137.25
 30
0.0
 11
60.51218743140518
 21
-137.2980339854022
 31
0.0
  0
LINE
  5
12C
  8
1
  6
CONTINUOUS
 62
     7
 10
60.51218743140518
 20
-137.2980339854022
 30
0.0
 11
60.0432182648008
 21
-137.4402902008892
 31
0.0
  0
LINE
  5
12D
  8
1
  6
CONTINUOUS
 62
     7
 10
60.04321826480086
 20
-137.4402902008892
 30
0.0
 11
59.61101778813865
 21
-137.671302348226
 31
0.0
  0
LINE
  5
12E
  8
1
  6
CONTINUOUS
 62
     7
 10
59.6110177881386
 20
-137.671302348226
 30
0.0
 11
59.2321936181372
 21
-137.9821936181372
 31
0.0
  0
LINE
  5
12F
  8
1
  6
CONTINUOUS
 62
     7
 10
59.23219361813725
 20
-137.9821936181372
 30
0.0
 11
58.92130234822623
 21
-138.3610177881386
 31
0.0
  0
LINE
  5
130
  8
1
  6
CONTINUOUS
 62
     7
 10
58.92130234822623
 20
-138.3610177881386
 30
0.0
 11
58.69029020088945
 21
-138.7932182648008
 31
0.0
  0
LINE
  5
131
  8
1
  6
CONTINUOUS
 62
     7
 10
58.69029020088945
 20
-138.7932182648008
 30
0.0
 11
58.54803398540243
 21
-139.262187431405
 31
0.0
  0
LINE
  5
132
  8
1
  6
CONTINUOUS
 62
     7
 10
58.54803398540243
 20
-139.262187431405
 30
0.0
 11
58.50000000000005
 21
-139.7499048076604
 31
0.0
  0
LINE
  5
133
  8
1
  6
CONTINUOUS
 62
     7
 10
115.5
 20
-139.7499048076604
 30
0.0
 11
115.4519660145978
 21
-139.262187431405
 31
0.0
  0
LINE
  5
134
  8
1
  6
CONTINUOUS
 62
     7
 10
115.4519660145978
 20
-139.262187431405
 30
0.0
 11
115.3097097991108
 21
-138.7932182648008
 31
0.0
  0
LINE
  5
135
  8
1
  6
CONTINUOUS
 62
     7
 10
115.3097097991108
 20
-138.7932182648008
 30
0.0
 11
115.078697651774
 21
-138.3610177881386
 31
0.0
  0
LINE
  5
136
  8
1
  6
CONTINUOUS
 62
     7
 10
115.078697651774
 20
-138.3610177881386
 30
0.0
 11
114.7678063818628
 21
-137.9821936181372
 31
0.0
  0
LINE
  5
137
  8
1
  6
CONTINUOUS
 62
     7
 10
114.7678063818628
 20
-137.9821936181372
 30
0.0
 11
114.3889822118614
 21
-137.671302348226
 31
0.0
  0
LINE
  5
138
  8
1
  6
CONTINUOUS
 62
     7
 10
114.3889822118614
 20
-137.671302348226
 30
0.0
 11
113.9567817351992
 21
-137.4402902008892
 31
0.0
  0
LINE
  5
139
  8
1
  6
CONTINUOUS
 62
     7
 10
113.9567817351992
 20
-137.4402902008892
 30
0.0
 11
113.487812568595
 21
-137.2980339854022
 31
0.0
  0
LINE
  5
13A
  8
1
  6
CONTINUOUS
 62
     7
 10
113.487812568595
 20
-137.2980339854022
 30
0.0
 11
113.0000951923396
 21
-137.25
 31
0.0
  0
LINE
  5
13B
  8
1
  6
CONTINUOUS
 62
     7
 10
115.5261806033722
 20
-139.723724204288
 30
0.0
 11
115.47814661797
 21
-139.2360068280328
 31
0.0
  0
LINE
  5
13C
  8
1
  6
CONTINUOUS
 62
     7
 10
115.4781466179701
 20
-139.2360068280328
 30
0.0
 11
115.335890402483
 21
-138.7670376614284
 31
0.0
  0
LINE
  5
13D
  8
1
  6
CONTINUOUS
 62
     7
 10
115.335890402483
 20
-138.7670376614284
 30
0.0
 11
115.1048782551463
 21
-138.3348371847662
 31
0.0
  0
LINE
  5
13E
  8
1
  6
CONTINUOUS
 62
     7
 10
115.1048782551463
 20
-138.3348371847662
 30
0.0
 11
114.7939869852352
 21
-137.9560130147648
 31
0.0
  0
LINE
  5
13F
  8
1
  6
CONTINUOUS
 62
     7
 10
114.7939869852352
 20
-137.9560130147648
 30
0.0
 11
114.4151628152336
 21
-137.6451217448538
 31
0.0
  0
LINE
  5
140
  8
1
  6
CONTINUOUS
 62
     7
 10
114.4151628152336
 20
-137.6451217448538
 30
0.0
 11
113.9829623385716
 21
-137.414109597517
 31
0.0
  0
LINE
  5
141
  8
1
  6
CONTINUOUS
 62
     7
 10
113.9829623385716
 20
-137.414109597517
 30
0.0
 11
113.5139931719672
 21
-137.27185338203
 31
0.0
  0
LINE
  5
142
  8
1
  6
CONTINUOUS
 62
     7
 10
113.5139931719672
 20
-137.27185338203
 30
0.0
 11
113.0262757957118
 21
-137.2238193966276
 31
0.0
  0
LINE
  5
143
  8
1
  6
CONTINUOUS
 62
     7
 10
159.0000951923396
 20
-227.75
 30
0.0
 11
159.4878125685948
 21
-227.7019660145978
 31
0.0
  0
LINE
  5
144
  8
1
  6
CONTINUOUS
 62
     7
 10
159.4878125685948
 20
-227.7019660145978
 30
0.0
 11
159.9567817351992
 21
-227.5597097991108
 31
0.0
  0
LINE
  5
145
  8
1
  6
CONTINUOUS
 62
     7
 10
159.9567817351992
 20
-227.5597097991108
 30
0.0
 11
160.3889822118614
 21
-227.328697651774
 31
0.0
  0
LINE
  5
146
  8
1
  6
CONTINUOUS
 62
     7
 10
160.3889822118614
 20
-227.328697651774
 30
0.0
 11
160.7678063818628
 21
-227.0178063818628
 31
0.0
  0
LINE
  5
147
  8
1
  6
CONTINUOUS
 62
     7
 10
160.7678063818628
 20
-227.0178063818628
 30
0.0
 11
161.0786976517738
 21
-226.6389822118614
 31
0.0
  0
LINE
  5
148
  8
1
  6
CONTINUOUS
 62
     7
 10
161.0786976517737
 20
-226.6389822118614
 30
0.0
 11
161.3097097991106
 21
-226.2067817351992
 31
0.0
  0
LINE
  5
149
  8
1
  6
CONTINUOUS
 62
     7
 10
161.3097097991106
 20
-226.2067817351992
 30
0.0
 11
161.4519660145976
 21
-225.737812568595
 31
0.0
  0
LINE
  5
14A
  8
1
  6
CONTINUOUS
 62
     7
 10
161.4519660145975
 20
-225.737812568595
 30
0.0
 11
161.5
 21
-225.2500951923396
 31
0.0
  0
LINE
  5
14B
  8
1
  6
CONTINUOUS
 62
     7
 10
36.64999999999996
 20
-222.4999048076604
 30
0.0
 11
36.60196601459759
 21
-222.012187431405
 31
0.0
  0
LINE
  5
14C
  8
1
  6
CONTINUOUS
 62
     7
 10
36.60196601459764
 20
-222.012187431405
 30
0.0
 11
36.45970979911078
 21
-221.5432182648006
 31
0.0
  0
LINE
  5
14D
  8
1
  6
CONTINUOUS
 62
     7
 10
36.45970979911073
 20
-221.5432182648006
 30
0.0
 11
36.22869765177394
 21
-221.1110177881386
 31
0.0
  0
LINE
  5
14E
  8
1
  6
CONTINUOUS
 62
     7
 10
36.22869765177394
 20
-221.1110177881386
 30
0.0
 11
35.91780638186282
 21
-220.732193618137
 31
0.0
  0
LINE
  5
14F
  8
1
  6
CONTINUOUS
 62
     7
 10
35.91780638186282
 20
-220.732193618137
 30
0.0
 11
35.53898221186142
 21
-220.421302348226
 31
0.0
  0
LINE
  5
150
  8
1
  6
CONTINUOUS
 62
     7
 10
35.53898221186147
 20
-220.421302348226
 30
0.0
 11
35.10678173519921
 21
-220.1902902008892
 31
0.0
  0
LINE
  5
151
  8
1
  6
CONTINUOUS
 62
     7
 10
35.10678173519921
 20
-220.1902902008892
 30
0.0
 11
34.63781256859482
 21
-220.0480339854022
 31
0.0
  0
LINE
  5
152
  8
1
  6
CONTINUOUS
 62
     7
 10
34.63781256859478
 20
-220.0480339854022
 30
0.0
 11
34.15009519233958
 21
-220.0
 31
0.0
  0
LINE
  5
153
  8
1
  6
CONTINUOUS
 62
     7
 10
35.99893386609476
 20
-86.50000000000001
 30
0.0
 11
34.63339604246157
 21
-86.63447152867587
 31
0.0
  0
LINE
  5
154
  8
1
  6
CONTINUOUS
 62
     7
 10
34.63339604246163
 20
-86.63447152867587
 30
0.0
 11
33.32039670424641
 21
-87.03272044671517
 31
0.0
  0
LINE
  5
155
  8
1
  6
CONTINUOUS
 62
     7
 10
33.32039670424636
 20
-87.03272044671517
 30
0.0
 11
32.11037417632356
 21
-87.67944818714723
 31
0.0
  0
LINE
  5
156
  8
1
  6
CONTINUOUS
 62
     7
 10
32.11037417632356
 20
-87.67944818714723
 30
0.0
 11
31.04981097212017
 21
-88.54981097212023
 31
0.0
  0
LINE
  5
157
  8
1
  6
CONTINUOUS
 62
     7
 10
31.04981097212023
 20
-88.54981097212023
 30
0.0
 11
30.17944818714724
 21
-89.61037417632367
 31
0.0
  0
LINE
  5
158
  8
1
  6
CONTINUOUS
 62
     7
 10
30.17944818714724
 20
-89.61037417632367
 30
0.0
 11
29.53272044671523
 21
-90.82039670424635
 31
0.0
  0
LINE
  5
159
  8
1
  6
CONTINUOUS
 62
     7
 10
29.53272044671518
 20
-90.82039670424635
 30
0.0
 11
29.13447152867576
 21
-92.13339604246163
 31
0.0
  0
LINE
  5
15A
  8
1
  6
CONTINUOUS
 62
     7
 10
29.13447152867576
 20
-92.13339604246163
 30
0.0
 11
28.99999999999997
 21
-93.49893386609482
 31
0.0
  0
LINE
  5
15B
  8
1
  6
CONTINUOUS
 62
     7
 10
161.5
 20
-139.7499048076604
 30
0.0
 11
161.4519660145975
 21
-139.262187431405
 31
0.0
  0
LINE
  5
15C
  8
1
  6
CONTINUOUS
 62
     7
 10
161.4519660145975
 20
-139.262187431405
 30
0.0
 11
161.3097097991106
 21
-138.7932182648008
 31
0.0
  0
LINE
  5
15D
  8
1
  6
CONTINUOUS
 62
     7
 10
161.3097097991106
 20
-138.7932182648008
 30
0.0
 11
161.0786976517738
 21
-138.3610177881386
 31
0.0
  0
LINE
  5
15E
  8
1
  6
CONTINUOUS
 62
     7
 10
161.0786976517737
 20
-138.3610177881386
 30
0.0
 11
160.7678063818628
 21
-137.9821936181372
 31
0.0
  0
LINE
  5
15F
  8
1
  6
CONTINUOUS
 62
     7
 10
160.7678063818628
 20
-137.9821936181372
 30
0.0
 11
160.3889822118614
 21
-137.6713023482262
 31
0.0
  0
LINE
  5
160
  8
1
  6
CONTINUOUS
 62
     7
 10
160.3889822118614
 20
-137.6713023482262
 30
0.0
 11
159.9567817351992
 21
-137.4402902008892
 31
0.0
  0
LINE
  5
161
  8
1
  6
CONTINUOUS
 62
     7
 10
159.9567817351992
 20
-137.4402902008892
 30
0.0
 11
159.4878125685948
 21
-137.2980339854022
 31
0.0
  0
LINE
  5
162
  8
1
  6
CONTINUOUS
 62
     7
 10
159.4878125685948
 20
-137.2980339854022
 30
0.0
 11
159.0000951923395
 21
-137.25
 31
0.0
  0
LINE
  5
163
  8
1
  6
CONTINUOUS
 62
     7
 10
58.49999999999999
 20
-225.2500951923396
 30
0.0
 11
58.54803398540237
 21
-225.737812568595
 31
0.0
  0
LINE
  5
164
  8
1
  6
CONTINUOUS
 62
     7
 10
58.54803398540243
 20
-225.737812568595
 30
0.0
 11
58.69029020088945
 21
-226.2067817351992
 31
0.0
  0
LINE
  5
165
  8
1
  6
CONTINUOUS
 62
     7
 10
58.69029020088945
 20
-226.2067817351992
 30
0.0
 11
58.92130234822623
 21
-226.6389822118614
 31
0.0
  0
LINE
  5
166
  8
1
  6
CONTINUOUS
 62
     7
 10
58.92130234822623
 20
-226.6389822118614
 30
0.0
 11
59.23219361813725
 21
-227.0178063818628
 31
0.0
  0
LINE
  5
167
  8
1
  6
CONTINUOUS
 62
     7
 10
59.23219361813725
 20
-227.0178063818628
 30
0.0
 11
59.61101778813865
 21
-227.328697651774
 31
0.0
  0
LINE
  5
168
  8
1
  6
CONTINUOUS
 62
     7
 10
59.6110177881386
 20
-227.328697651774
 30
0.0
 11
60.0432182648008
 21
-227.5597097991108
 31
0.0
  0
LINE
  5
169
  8
1
  6
CONTINUOUS
 62
     7
 10
60.04321826480086
 20
-227.5597097991108
 30
0.0
 11
60.51218743140524
 21
-227.7019660145978
 31
0.0
  0
LINE
  5
16A
  8
1
  6
CONTINUOUS
 62
     7
 10
60.51218743140518
 20
-227.7019660145978
 30
0.0
 11
60.99990480766038
 21
-227.75
 31
0.0
  0
LINE
  5
16B
  8
1
  6
CONTINUOUS
 62
     7
 10
159.0262757957118
 20
-227.7761806033722
 30
0.0
 11
159.5139931719672
 21
-227.72814661797
 31
0.0
  0
LINE
  5
16C
  8
1
  6
CONTINUOUS
 62
     7
 10
159.5139931719671
 20
-227.72814661797
 30
0.0
 11
159.9829623385714
 21
-227.585890402483
 31
0.0
  0
LINE
  5
16D
  8
1
  6
CONTINUOUS
 62
     7
 10
159.9829623385714
 20
-227.585890402483
 30
0.0
 11
160.4151628152336
 21
-227.3548782551462
 31
0.0
  0
LINE
  5
16E
  8
1
  6
CONTINUOUS
 62
     7
 10
160.4151628152336
 20
-227.3548782551462
 30
0.0
 11
160.7939869852352
 21
-227.0439869852353
 31
0.0
  0
LINE
  5
16F
  8
1
  6
CONTINUOUS
 62
     7
 10
160.7939869852352
 20
-227.0439869852353
 30
0.0
 11
161.1048782551462
 21
-226.6651628152336
 31
0.0
  0
LINE
  5
170
  8
1
  6
CONTINUOUS
 62
     7
 10
161.1048782551462
 20
-226.6651628152336
 30
0.0
 11
161.335890402483
 21
-226.2329623385716
 31
0.0
  0
LINE
  5
171
  8
1
  6
CONTINUOUS
 62
     7
 10
161.335890402483
 20
-226.2329623385716
 30
0.0
 11
161.47814661797
 21
-225.7639931719672
 31
0.0
  0
LINE
  5
172
  8
1
  6
CONTINUOUS
 62
     7
 10
161.47814661797
 20
-225.7639931719672
 30
0.0
 11
161.5261806033722
 21
-225.2762757957118
 31
0.0
  0
LINE
  5
173
  8
1
  6
CONTINUOUS
 62
     7
 10
106.9999048076604
 20
-137.25
 30
0.0
 11
106.512187431405
 21
-137.2980339854022
 31
0.0
  0
LINE
  5
174
  8
1
  6
CONTINUOUS
 62
     7
 10
106.512187431405
 20
-137.2980339854022
 30
0.0
 11
106.0432182648008
 21
-137.4402902008892
 31
0.0
  0
LINE
  5
175
  8
1
  6
CONTINUOUS
 62
     7
 10
106.0432182648008
 20
-137.4402902008892
 30
0.0
 11
105.6110177881386
 21
-137.671302348226
 31
0.0
  0
LINE
  5
176
  8
1
  6
CONTINUOUS
 62
     7
 10
105.6110177881386
 20
-137.671302348226
 30
0.0
 11
105.2321936181372
 21
-137.9821936181372
 31
0.0
  0
LINE
  5
177
  8
1
  6
CONTINUOUS
 62
     7
 10
105.2321936181372
 20
-137.9821936181372
 30
0.0
 11
104.9213023482259
 21
-138.3610177881386
 31
0.0
  0
LINE
  5
178
  8
1
  6
CONTINUOUS
 62
     7
 10
104.9213023482259
 20
-138.3610177881386
 30
0.0
 11
104.6902902008892
 21
-138.7932182648008
 31
0.0
  0
LINE
  5
179
  8
1
  6
CONTINUOUS
 62
     7
 10
104.6902902008892
 20
-138.7932182648008
 30
0.0
 11
104.5480339854021
 21
-139.262187431405
 31
0.0
  0
LINE
  5
17A
  8
1
  6
CONTINUOUS
 62
     7
 10
104.5480339854021
 20
-139.262187431405
 30
0.0
 11
104.5
 21
-139.7499048076604
 31
0.0
  0
LINE
  5
17B
  8
1
  6
CONTINUOUS
 62
     7
 10
161.5261806033722
 20
-139.723724204288
 30
0.0
 11
161.47814661797
 21
-139.2360068280328
 31
0.0
  0
LINE
  5
17C
  8
1
  6
CONTINUOUS
 62
     7
 10
161.47814661797
 20
-139.2360068280328
 30
0.0
 11
161.335890402483
 21
-138.7670376614284
 31
0.0
  0
LINE
  5
17D
  8
1
  6
CONTINUOUS
 62
     7
 10
161.335890402483
 20
-138.7670376614284
 30
0.0
 11
161.1048782551462
 21
-138.3348371847662
 31
0.0
  0
LINE
  5
17E
  8
1
  6
CONTINUOUS
 62
     7
 10
161.1048782551462
 20
-138.3348371847662
 30
0.0
 11
160.7939869852352
 21
-137.9560130147648
 31
0.0
  0
LINE
  5
17F
  8
1
  6
CONTINUOUS
 62
     7
 10
160.7939869852352
 20
-137.9560130147648
 30
0.0
 11
160.4151628152336
 21
-137.6451217448538
 31
0.0
  0
LINE
  5
180
  8
1
  6
CONTINUOUS
 62
     7
 10
160.4151628152336
 20
-137.6451217448538
 30
0.0
 11
159.9829623385714
 21
-137.414109597517
 31
0.0
  0
LINE
  5
181
  8
1
  6
CONTINUOUS
 62
     7
 10
159.9829623385714
 20
-137.414109597517
 30
0.0
 11
159.5139931719671
 21
-137.27185338203
 31
0.0
  0
LINE
  5
182
  8
1
  6
CONTINUOUS
 62
     7
 10
159.5139931719671
 20
-137.27185338203
 30
0.0
 11
159.0262757957118
 21
-137.2238193966276
 31
0.0
  0
LINE
  5
183
  8
1
  6
CONTINUOUS
 62
     7
 10
104.5
 20
-225.2500951923396
 30
0.0
 11
104.5480339854022
 21
-225.737812568595
 31
0.0
  0
LINE
  5
184
  8
1
  6
CONTINUOUS
 62
     7
 10
104.5480339854021
 20
-225.737812568595
 30
0.0
 11
104.6902902008892
 21
-226.2067817351992
 31
0.0
  0
LINE
  5
185
  8
1
  6
CONTINUOUS
 62
     7
 10
104.6902902008892
 20
-226.2067817351992
 30
0.0
 11
104.9213023482259
 21
-226.6389822118614
 31
0.0
  0
LINE
  5
186
  8
1
  6
CONTINUOUS
 62
     7
 10
104.9213023482259
 20
-226.6389822118614
 30
0.0
 11
105.2321936181372
 21
-227.0178063818628
 31
0.0
  0
LINE
  5
187
  8
1
  6
CONTINUOUS
 62
     7
 10
105.2321936181372
 20
-227.0178063818628
 30
0.0
 11
105.6110177881386
 21
-227.328697651774
 31
0.0
  0
LINE
  5
188
  8
1
  6
CONTINUOUS
 62
     7
 10
105.6110177881386
 20
-227.328697651774
 30
0.0
 11
106.0432182648008
 21
-227.5597097991108
 31
0.0
  0
LINE
  5
189
  8
1
  6
CONTINUOUS
 62
     7
 10
106.0432182648008
 20
-227.5597097991108
 30
0.0
 11
106.5121874314052
 21
-227.7019660145976
 31
0.0
  0
LINE
  5
18A
  8
1
  6
CONTINUOUS
 62
     7
 10
106.5121874314052
 20
-227.7019660145976
 30
0.0
 11
106.9999048076604
 21
-227.75
 31
0.0
  0
LINE
  5
18B
  8
1
  6
CONTINUOUS
 62
     7
 10
67.02627579571185
 20
-227.7761806033722
 30
0.0
 11
67.51399317196721
 21
-227.72814661797
 31
0.0
  0
LINE
  5
18C
  8
1
  6
CONTINUOUS
 62
     7
 10
67.51399317196716
 20
-227.72814661797
 30
0.0
 11
67.9829623385716
 21
-227.585890402483
 31
0.0
  0
LINE
  5
18D
  8
1
  6
CONTINUOUS
 62
     7
 10
67.9829623385716
 20
-227.585890402483
 30
0.0
 11
68.41516281523357
 21
-227.3548782551462
 31
0.0
  0
LINE
  5
18E
  8
1
  6
CONTINUOUS
 62
     7
 10
68.41516281523363
 20
-227.3548782551462
 30
0.0
 11
68.79398698523525
 21
-227.0439869852353
 31
0.0
  0
LINE
  5
18F
  8
1
  6
CONTINUOUS
 62
     7
 10
68.7939869852352
 20
-227.0439869852353
 30
0.0
 11
69.10487825514622
 21
-226.6651628152336
 31
0.0
  0
LINE
  5
190
  8
1
  6
CONTINUOUS
 62
     7
 10
69.10487825514622
 20
-226.6651628152336
 30
0.0
 11
69.335890402483
 21
-226.2329623385716
 31
0.0
  0
LINE
  5
191
  8
1
  6
CONTINUOUS
 62
     7
 10
69.335890402483
 20
-226.2329623385716
 30
0.0
 11
69.47814661797003
 21
-225.7639931719672
 31
0.0
  0
LINE
  5
192
  8
1
  6
CONTINUOUS
 62
     7
 10
69.47814661797003
 20
-225.7639931719672
 30
0.0
 11
69.52618060337218
 21
-225.2762757957118
 31
0.0
  0
LINE
  5
193
  8
1
  6
CONTINUOUS
 62
     7
 10
58.47381939662777
 20
-225.2762757957118
 30
0.0
 11
58.52185338202992
 21
-225.7639931719672
 31
0.0
  0
LINE
  5
194
  8
1
  6
CONTINUOUS
 62
     7
 10
58.52185338202997
 20
-225.7639931719672
 30
0.0
 11
58.664109597517
 21
-226.2329623385716
 31
0.0
  0
LINE
  5
195
  8
1
  6
CONTINUOUS
 62
     7
 10
58.664109597517
 20
-226.2329623385716
 30
0.0
 11
58.89512174485378
 21
-226.6651628152336
 31
0.0
  0
LINE
  5
196
  8
1
  6
CONTINUOUS
 62
     7
 10
58.89512174485378
 20
-226.6651628152336
 30
0.0
 11
59.2060130147648
 21
-227.0439869852353
 31
0.0
  0
LINE
  5
197
  8
1
  6
CONTINUOUS
 62
     7
 10
59.2060130147648
 20
-227.0439869852353
 30
0.0
 11
59.58483718476643
 21
-227.3548782551462
 31
0.0
  0
LINE
  5
198
  8
1
  6
CONTINUOUS
 62
     7
 10
59.58483718476637
 20
-227.3548782551462
 30
0.0
 11
60.01703766142835
 21
-227.585890402483
 31
0.0
  0
LINE
  5
199
  8
1
  6
CONTINUOUS
 62
     7
 10
60.0170376614284
 20
-227.585890402483
 30
0.0
 11
60.48600682803284
 21
-227.72814661797
 31
0.0
  0
LINE
  5
19A
  8
1
  6
CONTINUOUS
 62
     7
 10
60.48600682803284
 20
-227.72814661797
 30
0.0
 11
60.97372420428826
 21
-227.7761806033722
 31
0.0
  0
LINE
  5
19B
  8
1
  6
CONTINUOUS
 62
     7
 10
34.15009519233958
 20
-145.0
 30
0.0
 11
34.63781256859478
 21
-144.9519660145978
 31
0.0
  0
LINE
  5
19C
  8
1
  6
CONTINUOUS
 62
     7
 10
34.63781256859478
 20
-144.9519660145978
 30
0.0
 11
35.10678173519916
 21
-144.8097097991108
 31
0.0
  0
LINE
  5
19D
  8
1
  6
CONTINUOUS
 62
     7
 10
35.10678173519921
 20
-144.8097097991108
 30
0.0
 11
35.53898221186147
 21
-144.578697651774
 31
0.0
  0
LINE
  5
19E
  8
1
  6
CONTINUOUS
 62
     7
 10
35.53898221186147
 20
-144.578697651774
 30
0.0
 11
35.91780638186287
 21
-144.2678063818628
 31
0.0
  0
LINE
  5
19F
  8
1
  6
CONTINUOUS
 62
     7
 10
35.91780638186282
 20
-144.2678063818628
 30
0.0
 11
36.22869765177394
 21
-143.8889822118614
 31
0.0
  0
LINE
  5
1A0
  8
1
  6
CONTINUOUS
 62
     7
 10
36.22869765177394
 20
-143.8889822118614
 30
0.0
 11
36.45970979911073
 21
-143.4567817351992
 31
0.0
  0
LINE
  5
1A1
  8
1
  6
CONTINUOUS
 62
     7
 10
36.45970979911073
 20
-143.4567817351992
 30
0.0
 11
36.60196601459759
 21
-142.987812568595
 31
0.0
  0
LINE
  5
1A2
  8
1
  6
CONTINUOUS
 62
     7
 10
36.60196601459764
 20
-142.987812568595
 30
0.0
 11
36.65000000000001
 21
-142.5000951923396
 31
0.0
  0
LINE
  5
1A3
  8
1
  6
CONTINUOUS
 62
     7
 10
67.00009519233963
 20
-227.75
 30
0.0
 11
67.48781256859482
 21
-227.7019660145978
 31
0.0
  0
LINE
  5
1A4
  8
1
  6
CONTINUOUS
 62
     7
 10
67.48781256859482
 20
-227.7019660145978
 30
0.0
 11
67.9567817351992
 21
-227.5597097991108
 31
0.0
  0
LINE
  5
1A5
  8
1
  6
CONTINUOUS
 62
     7
 10
67.95678173519914
 20
-227.5597097991108
 30
0.0
 11
68.38898221186135
 21
-227.328697651774
 31
0.0
  0
LINE
  5
1A6
  8
1
  6
CONTINUOUS
 62
     7
 10
68.3889822118614
 20
-227.328697651774
 30
0.0
 11
68.7678063818628
 21
-227.0178063818628
 31
0.0
  0
LINE
  5
1A7
  8
1
  6
CONTINUOUS
 62
     7
 10
68.76780638186275
 20
-227.0178063818628
 30
0.0
 11
69.07869765177377
 21
-226.6389822118614
 31
0.0
  0
LINE
  5
1A8
  8
1
  6
CONTINUOUS
 62
     7
 10
69.07869765177377
 20
-226.6389822118614
 30
0.0
 11
69.30970979911055
 21
-226.2067817351992
 31
0.0
  0
LINE
  5
1A9
  8
1
  6
CONTINUOUS
 62
     7
 10
69.30970979911055
 20
-226.2067817351992
 30
0.0
 11
69.45196601459757
 21
-225.737812568595
 31
0.0
  0
LINE
  5
1AA
  8
1
  6
CONTINUOUS
 62
     7
 10
69.45196601459757
 20
-225.737812568595
 30
0.0
 11
69.49999999999994
 21
-225.2500951923396
 31
0.0
  0
LINE
  5
1AB
  8
1
  6
CONTINUOUS
 62
     7
 10
106.9737242042882
 20
-137.2238193966276
 30
0.0
 11
106.4860068280328
 21
-137.27185338203
 31
0.0
  0
LINE
  5
1AC
  8
1
  6
CONTINUOUS
 62
     7
 10
106.4860068280328
 20
-137.27185338203
 30
0.0
 11
106.0170376614283
 21
-137.414109597517
 31
0.0
  0
LINE
  5
1AD
  8
1
  6
CONTINUOUS
 62
     7
 10
106.0170376614283
 20
-137.414109597517
 30
0.0
 11
105.5848371847664
 21
-137.6451217448538
 31
0.0
  0
LINE
  5
1AE
  8
1
  6
CONTINUOUS
 62
     7
 10
105.5848371847664
 20
-137.6451217448538
 30
0.0
 11
105.2060130147648
 21
-137.9560130147648
 31
0.0
  0
LINE
  5
1AF
  8
1
  6
CONTINUOUS
 62
     7
 10
105.2060130147647
 20
-137.9560130147648
 30
0.0
 11
104.8951217448538
 21
-138.3348371847662
 31
0.0
  0
LINE
  5
1B0
  8
1
  6
CONTINUOUS
 62
     7
 10
104.8951217448538
 20
-138.3348371847662
 30
0.0
 11
104.664109597517
 21
-138.7670376614284
 31
0.0
  0
LINE
  5
1B1
  8
1
  6
CONTINUOUS
 62
     7
 10
104.664109597517
 20
-138.7670376614284
 30
0.0
 11
104.52185338203
 21
-139.2360068280328
 31
0.0
  0
LINE
  5
1B2
  8
1
  6
CONTINUOUS
 62
     7
 10
104.52185338203
 20
-139.2360068280328
 30
0.0
 11
104.4738193966278
 21
-139.723724204288
 31
0.0
  0
LINE
  5
1B3
  8
1
  6
CONTINUOUS
 62
     7
 10
152.9737242042882
 20
-137.2238193966276
 30
0.0
 11
152.4860068280329
 21
-137.27185338203
 31
0.0
  0
LINE
  5
1B4
  8
1
  6
CONTINUOUS
 62
     7
 10
152.4860068280328
 20
-137.27185338203
 30
0.0
 11
152.0170376614286
 21
-137.414109597517
 31
0.0
  0
LINE
  5
1B5
  8
1
  6
CONTINUOUS
 62
     7
 10
152.0170376614286
 20
-137.414109597517
 30
0.0
 11
151.5848371847664
 21
-137.6451217448538
 31
0.0
  0
LINE
  5
1B6
  8
1
  6
CONTINUOUS
 62
     7
 10
151.5848371847665
 20
-137.6451217448538
 30
0.0
 11
151.2060130147648
 21
-137.9560130147648
 31
0.0
  0
LINE
  5
1B7
  8
1
  6
CONTINUOUS
 62
     7
 10
151.2060130147648
 20
-137.9560130147648
 30
0.0
 11
150.8951217448538
 21
-138.3348371847662
 31
0.0
  0
LINE
  5
1B8
  8
1
  6
CONTINUOUS
 62
     7
 10
150.8951217448538
 20
-138.3348371847662
 30
0.0
 11
150.664109597517
 21
-138.7670376614284
 31
0.0
  0
LINE
  5
1B9
  8
1
  6
CONTINUOUS
 62
     7
 10
150.664109597517
 20
-138.7670376614284
 30
0.0
 11
150.5218533820299
 21
-139.2360068280328
 31
0.0
  0
LINE
  5
1BA
  8
1
  6
CONTINUOUS
 62
     7
 10
150.5218533820299
 20
-139.2360068280328
 30
0.0
 11
150.4738193966277
 21
-139.723724204288
 31
0.0
  0
LINE
  5
1BB
  8
1
  6
CONTINUOUS
 62
     7
 10
174.9956746437654
 20
-230.8500000000001
 30
0.0
 11
175.4956556052973
 21
-230.8500000000001
 31
0.0
  0
LINE
  5
1BC
  8
1
  6
CONTINUOUS
 62
     7
 10
89.10000000000007
 20
-137.15
 30
0.0
 11
89.50000000000003
 21
-137.15
 31
0.0
  0
LINE
  5
1BD
  8
1
  6
CONTINUOUS
 62
     7
 10
89.50000000000003
 20
-137.15
 30
0.0
 11
90.50000000000003
 21
-134.15
 31
0.0
  0
ARC
  5
1BE
  8
1
  6
CONTINUOUS
 62
     7
 10
110.0
 20
-140.75
 30
0.0
 40
5.50000000000006
 50
180.0
 51
245.3800226713433
  0
LINE
  5
1BF
  8
1
  6
CONTINUOUS
 62
     7
 10
130.9
 20
-134.15
 30
0.0
 11
135.1000000000001
 21
-134.15
 31
0.0
  0
LINE
  5
1C0
  8
1
  6
CONTINUOUS
 62
     7
 10
135.4999999999999
 20
-137.15
 30
0.0
 11
136.4999999999999
 21
-134.15
 31
0.0
  0
LINE
  5
1C1
  8
1
  6
CONTINUOUS
 62
     7
 10
69.5
 20
-139.7499048076604
 30
0.0
 11
69.5
 21
-140.75
 31
0.0
  0
LINE
  5
1C2
  8
1
  6
CONTINUOUS
 62
     7
 10
136.4999999999999
 20
-134.15
 30
0.0
 11
136.5043443947024
 21
-134.15
 31
0.0
  0
LINE
  5
1C3
  8
1
  6
CONTINUOUS
 62
     7
 10
66.29128784747785
 20
-145.75
 30
0.0
 11
61.70871215252222
 21
-145.75
 31
0.0
  0
LINE
  5
1C4
  8
1
  6
CONTINUOUS
 62
     7
 10
29.00000000000002
 20
-228.5
 30
0.0
 11
29.00000000000002
 21
-182.5
 31
0.0
  0
LINE
  5
1C5
  8
1
  6
CONTINUOUS
 62
     7
 10
83.50000000000001
 20
-230.8500000000001
 30
0.0
 11
83.49565560529743
 21
-230.8500000000001
 31
0.0
  0
LINE
  5
1C6
  8
1
  6
CONTINUOUS
 62
     7
 10
90.50434439470267
 20
-230.8500000000001
 30
0.0
 11
90.50000000000003
 21
-230.8500000000001
 31
0.0
  0
LINE
  5
1C7
  8
1
  6
CONTINUOUS
 62
     7
 10
150.4738193966277
 20
-225.2762757957118
 30
0.0
 11
150.4738193966277
 21
-230.8500000000001
 31
0.0
  0
LINE
  5
1C8
  8
1
  6
CONTINUOUS
 62
     7
 10
84.89999999999998
 20
-227.8500000000001
 30
0.0
 11
84.49999999999996
 21
-227.8500000000001
 31
0.0
  0
LINE
  5
1C9
  8
1
  6
CONTINUOUS
 62
     7
 10
161.5261806033722
 20
-230.8500000000001
 30
0.0
 11
161.5261806033722
 21
-225.2762757957118
 31
0.0
  0
LINE
  5
1CA
  8
1
  6
CONTINUOUS
 62
     7
 10
44.50434439470263
 20
-230.8500000000001
 30
0.0
 11
37.15001903919279
 21
-230.8500000000001
 31
0.0
  0
LINE
  5
1CB
  8
1
  6
CONTINUOUS
 62
     7
 10
131.9
 20
-137.15
 30
0.0
 11
130.9
 21
-137.15
 31
0.0
  0
LINE
  5
1CC
  8
1
  6
CONTINUOUS
 62
     7
 10
128.9956746437654
 20
-230.8500000000001
 30
0.0
 11
129.4956556052973
 21
-230.8500000000001
 31
0.0
  0
LINE
  5
1CD
  8
1
  6
CONTINUOUS
 62
     7
 10
45.02618060337227
 20
-233.5
 30
0.0
 11
45.02618060337227
 21
-230.8500000000001
 31
0.0
  0
LINE
  5
1CE
  8
1
  6
CONTINUOUS
 62
     7
 10
83.49565560529737
 20
-134.15
 30
0.0
 11
83.49999999999996
 21
-134.15
 31
0.0
  0
LINE
  5
1CF
  8
1
  6
CONTINUOUS
 62
     7
 10
84.50000000000001
 20
-137.15
 30
0.0
 11
83.50000000000001
 21
-134.15
 31
0.0
  0
LINE
  5
1D0
  8
1
  6
CONTINUOUS
 62
     7
 10
130.9
 20
-227.8500000000001
 30
0.0
 11
131.9
 21
-227.8500000000001
 31
0.0
  0
LINE
  5
1D1
  8
1
  6
CONTINUOUS
 62
     7
 10
83.49565560529737
 20
-131.5
 30
0.0
 11
90.50434439470261
 21
-131.5
 31
0.0
  0
LINE
  5
1D2
  8
1
  6
CONTINUOUS
 62
     7
 10
89.10000000000007
 20
-230.8500000000001
 30
0.0
 11
88.00000000000001
 21
-230.8500000000001
 31
0.0
  0
LINE
  5
1D3
  8
1
  6
CONTINUOUS
 62
     7
 10
87.99999999999997
 20
-230.8500000000001
 30
0.0
 11
85.99999999999996
 21
-230.8500000000001
 31
0.0
  0
LINE
  5
1D4
  8
1
  6
CONTINUOUS
 62
     7
 10
131.9
 20
-134.15
 30
0.0
 11
131.9
 21
-137.15
 31
0.0
  0
LINE
  5
1D5
  8
1
  6
CONTINUOUS
 62
     7
 10
150.5
 20
-224.25
 30
0.0
 11
150.5
 21
-225.2500951923396
 31
0.0
  0
LINE
  5
1D6
  8
1
  6
CONTINUOUS
 62
     7
 10
85.89999999999998
 20
-134.15
 30
0.0
 11
85.89999999999998
 21
-137.15
 31
0.0
  0
LINE
  5
1D7
  8
1
  6
CONTINUOUS
 62
     7
 10
129.4956556052974
 20
-233.5
 30
0.0
 11
128.9956746437654
 21
-233.5
 31
0.0
  0
LINE
  5
1D8
  8
1
  6
CONTINUOUS
 62
     7
 10
130.9
 20
-137.15
 30
0.0
 11
130.9
 21
-134.15
 31
0.0
  0
LINE
  5
1D9
  8
1
  6
CONTINUOUS
 62
     7
 10
85.99999999999996
 20
-230.8500000000001
 30
0.0
 11
84.89999999999998
 21
-230.8500000000001
 31
0.0
  0
LINE
  5
1DA
  8
1
  6
CONTINUOUS
 62
     7
 10
85.89999999999998
 20
-137.15
 30
0.0
 11
84.89999999999998
 21
-137.15
 31
0.0
  0
LINE
  5
1DB
  8
1
  6
CONTINUOUS
 62
     7
 10
129.4956556052974
 20
-134.15
 30
0.0
 11
129.5
 21
-134.15
 31
0.0
  0
LINE
  5
1DC
  8
1
  6
CONTINUOUS
 62
     7
 10
89.50000000000003
 20
-227.8500000000001
 30
0.0
 11
90.50000000000003
 21
-230.8500000000001
 31
0.0
  0
LINE
  5
1DD
  8
1
  6
CONTINUOUS
 62
     7
 10
84.89999999999998
 20
-134.15
 30
0.0
 11
85.99999999999996
 21
-134.15
 31
0.0
  0
ARC
  5
1DE
  8
1
  6
CONTINUOUS
 62
     7
 10
110.0
 20
-140.75
 30
0.0
 40
5.50000000000006
 50
294.6199773286565
 51
0.0
  0
LINE
  5
1DF
  8
1
  6
CONTINUOUS
 62
     7
 10
84.50000000000001
 20
-227.8500000000001
 30
0.0
 11
83.50000000000001
 21
-230.8500000000001
 31
0.0
  0
LINE
  5
1E0
  8
1
  6
CONTINUOUS
 62
     7
 10
135.1
 20
-137.15
 30
0.0
 11
135.4999999999999
 21
-137.15
 31
0.0
  0
LINE
  5
1E1
  8
1
  6
CONTINUOUS
 62
     7
 10
60.97372420428826
 20
-227.7761806033722
 30
0.0
 11
67.02627579571185
 21
-227.7761806033722
 31
0.0
  0
LINE
  5
1E2
  8
1
  6
CONTINUOUS
 62
     7
 10
187.8543443947024
 20
-233.5
 30
0.0
 11
175.4956556052973
 21
-233.5
 31
0.0
  0
ARC
  5
1E3
  8
1
  6
CONTINUOUS
 62
     7
 10
64.00000000000006
 20
-224.25
 30
0.0
 40
5.499999999999949
 50
114.6199773286568
 51
180.0
  0
LINE
  5
1E4
  8
1
  6
CONTINUOUS
 62
     7
 10
84.89999999999998
 20
-137.15
 30
0.0
 11
84.49999999999996
 21
-137.15
 31
0.0
  0
LINE
  5
1E5
  8
1
  6
CONTINUOUS
 62
     7
 10
130.9
 20
-137.15
 30
0.0
 11
130.5
 21
-137.15
 31
0.0
  0
LINE
  5
1E6
  8
1
  6
CONTINUOUS
 62
     7
 10
45.00432535623455
 20
-233.5
 30
0.0
 11
45.02618060337221
 21
-233.5
 31
0.0
  0
LINE
  5
1E7
  8
1
  6
CONTINUOUS
 62
     7
 10
82.99567464376545
 20
-230.8500000000001
 30
0.0
 11
83.49565560529743
 21
-230.8500000000001
 31
0.0
  0
LINE
  5
1E8
  8
1
  6
CONTINUOUS
 62
     7
 10
45.02618060337227
 20
-230.8500000000001
 30
0.0
 11
45.00432535623461
 21
-230.8500000000001
 31
0.0
  0
LINE
  5
1E9
  8
1
  6
CONTINUOUS
 62
     7
 10
90.50000000000003
 20
-134.15
 30
0.0
 11
90.50434439470267
 21
-134.15
 31
0.0
  0
LINE
  5
1EA
  8
1
  6
CONTINUOUS
 62
     7
 10
85.89999999999998
 20
-227.8500000000001
 30
0.0
 11
85.89999999999998
 21
-230.8500000000001
 31
0.0
  0
LINE
  5
1EB
  8
1
  6
CONTINUOUS
 62
     7
 10
84.89999999999998
 20
-137.15
 30
0.0
 11
84.89999999999998
 21
-134.15
 31
0.0
  0
LINE
  5
1EC
  8
1
  6
CONTINUOUS
 62
     7
 10
130.4999999999999
 20
-137.15
 30
0.0
 11
129.4999999999999
 21
-134.15
 31
0.0
  0
LINE
  5
1ED
  8
1
  6
CONTINUOUS
 62
     7
 10
90.50434439470267
 20
-233.5
 30
0.0
 11
83.49565560529743
 21
-233.5
 31
0.0
  0
ARC
  5
1EE
  8
1
  6
CONTINUOUS
 62
     7
 10
34.00000000000003
 20
-228.5
 30
0.0
 40
5.000000000000004
 50
180.0
 51
270.0
  0
LINE
  5
1EF
  8
1
  6
CONTINUOUS
 62
     7
 10
175.4956556052973
 20
-131.5
 30
0.0
 11
187.8543443947026
 21
-131.5
 31
0.0
  0
LINE
  5
1F0
  8
1
  6
CONTINUOUS
 62
     7
 10
188.3543253562346
 20
-131.5
 30
0.0
 11
188.371817169477
 21
-131.5
 31
0.0
  0
LINE
  5
1F1
  8
1
  6
CONTINUOUS
 62
     7
 10
83.49565560529737
 20
-134.15
 30
0.0
 11
82.9956746437654
 21
-134.15
 31
0.0
  0
LINE
  5
1F2
  8
1
  6
CONTINUOUS
 62
     7
 10
34.15009519233958
 20
-220.0
 30
0.0
 11
31.64999999999996
 21
-220.0
 31
0.0
  0
LINE
  5
1F3
  8
1
  6
CONTINUOUS
 62
     7
 10
175.4956556052973
 20
-233.5
 30
0.0
 11
174.9956746437654
 21
-233.5
 31
0.0
  0
LINE
  5
1F4
  8
1
  6
CONTINUOUS
 62
     7
 10
89.10000000000007
 20
-227.8500000000001
 30
0.0
 11
89.50000000000003
 21
-227.8500000000001
 31
0.0
  0
LINE
  5
1F5
  8
1
  6
CONTINUOUS
 62
     7
 10
129.4956556052974
 20
-131.5
 30
0.0
 11
136.5043443947027
 21
-131.5
 31
0.0
  0
LINE
  5
1F6
  8
1
  6
CONTINUOUS
 62
     7
 10
44.50434439470263
 20
-233.5
 30
0.0
 11
34.00000000000003
 21
-233.5
 31
0.0
  0
LINE
  5
1F7
  8
1
  6
CONTINUOUS
 62
     7
 10
91.0261806033722
 20
-230.8500000000001
 30
0.0
 11
91.00432535623453
 21
-230.8500000000001
 31
0.0
  0
LINE
  5
1F8
  8
1
  6
CONTINUOUS
 62
     7
 10
85.99999999999996
 20
-134.15
 30
0.0
 11
87.99999999999997
 21
-134.15
 31
0.0
  0
ARC
  5
1F9
  8
1
  6
CONTINUOUS
 62
     7
 10
64.00000000000006
 20
-140.75
 30
0.0
 40
5.499999999999949
 50
180.0
 51
245.3800226713433
  0
LINE
  5
1FA
  8
1
  6
CONTINUOUS
 62
     7
 10
84.89999999999998
 20
-230.8500000000001
 30
0.0
 11
84.89999999999998
 21
-227.8500000000001
 31
0.0
  0
LINE
  5
1FB
  8
1
  6
CONTINUOUS
 62
     7
 10
128.9956746437654
 20
-131.5
 30
0.0
 11
129.4956556052973
 21
-131.5
 31
0.0
  0
LINE
  5
1FC
  8
1
  6
CONTINUOUS
 62
     7
 10
58.47381939662777
 20
-225.2762757957118
 30
0.0
 11
58.47381939662777
 21
-230.8500000000001
 31
0.0
  0
LINE
  5
1FD
  8
1
  6
CONTINUOUS
 62
     7
 10
137.0261806033722
 20
-230.8500000000001
 30
0.0
 11
137.0043253562346
 21
-230.8500000000001
 31
0.0
  0
LINE
  5
1FE
  8
1
  6
CONTINUOUS
 62
     7
 10
174.9738193966278
 20
-230.8500000000001
 30
0.0
 11
174.9738193966278
 21
-233.5
 31
0.0
  0
LINE
  5
1FF
  8
1
  6
CONTINUOUS
 62
     7
 10
45.02618060337227
 20
-131.5
 30
0.0
 11
45.02618060337227
 21
-134.15
 31
0.0
  0
LINE
  5
200
  8
1
  6
CONTINUOUS
 62
     7
 10
128.9738193966278
 20
-134.15
 30
0.0
 11
128.9738193966278
 21
-131.5
 31
0.0
  0
LINE
  5
201
  8
1
  6
CONTINUOUS
 62
     7
 10
69.52618060337224
 20
-139.7237242042882
 30
0.0
 11
69.52618060337224
 21
-134.15
 31
0.0
  0
LINE
  5
202
  8
1
  6
CONTINUOUS
 62
     7
 10
91.0261806033722
 20
-233.5
 30
0.0
 11
91.0261806033722
 21
-230.8500000000001
 31
0.0
  0
LINE
  5
203
  8
1
  6
CONTINUOUS
 62
     7
 10
137.0261806033722
 20
-233.5
 30
0.0
 11
137.0261806033722
 21
-230.8500000000001
 31
0.0
  0
LINE
  5
204
  8
1
  6
CONTINUOUS
 62
     7
 10
115.5261806033724
 20
-230.8500000000001
 30
0.0
 11
115.5261806033724
 21
-225.2762757957118
 31
0.0
  0
LINE
  5
205
  8
1
  6
CONTINUOUS
 62
     7
 10
69.52618060337224
 20
-230.8500000000001
 30
0.0
 11
69.52618060337224
 21
-225.2762757957118
 31
0.0
  0
LINE
  5
206
  8
1
  6
CONTINUOUS
 62
     7
 10
83.49565560529737
 20
-233.5
 30
0.0
 11
82.9956746437654
 21
-233.5
 31
0.0
  0
LINE
  5
207
  8
1
  6
CONTINUOUS
 62
     7
 10
67.00009519233963
 20
-227.75
 30
0.0
 11
60.99990480766043
 21
-227.75
 31
0.0
  0
LINE
  5
208
  8
1
  6
CONTINUOUS
 62
     7
 10
128.9738193966278
 20
-134.15
 30
0.0
 11
128.9956746437654
 21
-134.15
 31
0.0
  0
LINE
  5
209
  8
1
  6
CONTINUOUS
 62
     7
 10
129.4956556052974
 20
-134.15
 30
0.0
 11
128.9956746437654
 21
-134.15
 31
0.0
  0
LINE
  5
20A
  8
1
  6
CONTINUOUS
 62
     7
 10
104.4738193966278
 20
-225.2762757957118
 30
0.0
 11
104.4738193966278
 21
-230.8500000000001
 31
0.0
  0
LINE
  5
20B
  8
1
  6
CONTINUOUS
 62
     7
 10
203.3456746437654
 20
-131.5
 30
0.0
 11
203.8456556052974
 21
-131.5
 31
0.0
  0
LINE
  5
20C
  8
1
  6
CONTINUOUS
 62
     7
 10
175.4956556052973
 20
-134.15
 30
0.0
 11
174.9956746437654
 21
-134.15
 31
0.0
  0
LINE
  5
20D
  8
1
  6
CONTINUOUS
 62
     7
 10
91.00432535623459
 20
-233.5
 30
0.0
 11
91.01202256829865
 21
-233.5
 31
0.0
  0
LINE
  5
20E
  8
1
  6
CONTINUOUS
 62
     7
 10
137.0043253562345
 20
-233.5
 30
0.0
 11
137.0120225682988
 21
-233.5
 31
0.0
  0
LINE
  5
20F
  8
1
  6
CONTINUOUS
 62
     7
 10
174.9956746437654
 20
-131.5
 30
0.0
 11
175.4956556052973
 21
-131.5
 31
0.0
  0
LINE
  5
210
  8
1
  6
CONTINUOUS
 62
     7
 10
82.97381939662785
 20
-134.15
 30
0.0
 11
82.97381939662785
 21
-131.5
 31
0.0
  0
LINE
  5
211
  8
1
  6
CONTINUOUS
 62
     7
 10
69.5
 20
-225.2500951923396
 30
0.0
 11
69.5
 21
-224.25
 31
0.0
  0
LINE
  5
212
  8
1
  6
CONTINUOUS
 62
     7
 10
82.99567464376545
 20
-131.5
 30
0.0
 11
82.98797743170138
 21
-131.5
 31
0.0
  0
LINE
  5
213
  8
1
  6
CONTINUOUS
 62
     7
 10
128.9956746437654
 20
-131.5
 30
0.0
 11
128.9879774317012
 21
-131.5
 31
0.0
  0
LINE
  5
214
  8
1
  6
CONTINUOUS
 62
     7
 10
82.97381939662785
 20
-134.15
 30
0.0
 11
82.99567464376545
 21
-134.15
 31
0.0
  0
LINE
  5
215
  8
1
  6
CONTINUOUS
 62
     7
 10
137.0261806033722
 20
-131.5
 30
0.0
 11
137.0261806033722
 21
-134.15
 31
0.0
  0
LINE
  5
216
  8
1
  6
CONTINUOUS
 62
     7
 10
174.9738193966278
 20
-134.15
 30
0.0
 11
174.9956746437655
 21
-134.15
 31
0.0
  0
LINE
  5
217
  8
1
  6
CONTINUOUS
 62
     7
 10
58.49999999999999
 20
-224.25
 30
0.0
 11
58.49999999999999
 21
-225.2500951923396
 31
0.0
  0
LINE
  5
218
  8
1
  6
CONTINUOUS
 62
     7
 10
106.9737242042882
 20
-227.7761806033722
 30
0.0
 11
113.0262757957118
 21
-227.7761806033722
 31
0.0
  0
LINE
  5
219
  8
1
  6
CONTINUOUS
 62
     7
 10
174.9956746437654
 20
-131.5
 30
0.0
 11
174.9879774317014
 21
-131.5
 31
0.0
  0
LINE
  5
21A
  8
1
  6
CONTINUOUS
 62
     7
 10
128.9738193966278
 20
-230.8500000000001
 30
0.0
 11
128.9738193966278
 21
-233.5
 31
0.0
  0
LINE
  5
21B
  8
1
  6
CONTINUOUS
 62
     7
 10
150.4738193966277
 20
-134.15
 30
0.0
 11
150.4738193966277
 21
-139.7237242042882
 31
0.0
  0
LINE
  5
21C
  8
1
  6
CONTINUOUS
 62
     7
 10
45.00432535623455
 20
-134.15
 30
0.0
 11
45.02618060337221
 21
-134.15
 31
0.0
  0
LINE
  5
21D
  8
1
  6
CONTINUOUS
 62
     7
 10
82.97381939662785
 20
-230.8500000000001
 30
0.0
 11
82.97381939662785
 21
-233.5
 31
0.0
  0
LINE
  5
21E
  8
1
  6
CONTINUOUS
 62
     7
 10
91.00432535623459
 20
-131.5
 30
0.0
 11
91.01202256829865
 21
-131.5
 31
0.0
  0
LINE
  5
21F
  8
1
  6
CONTINUOUS
 62
     7
 10
174.9956746437654
 20
-230.8500000000001
 30
0.0
 11
174.9738193966276
 21
-230.8500000000001
 31
0.0
  0
LINE
  5
220
  8
1
  6
CONTINUOUS
 62
     7
 10
137.0043253562345
 20
-134.15
 30
0.0
 11
137.0261806033722
 21
-134.15
 31
0.0
  0
LINE
  5
221
  8
1
  6
CONTINUOUS
 62
     7
 10
174.9879774317014
 20
-131.5
 30
0.0
 11
169.9446148618626
 21
-131.5
 31
0.0
  0
LINE
  5
222
  8
1
  6
CONTINUOUS
 62
     7
 10
65.5
 20
-98.50000000000003
 30
0.0
 11
68.5
 21
-98.50000000000003
 31
0.0
  0
LINE
  5
223
  8
1
  6
CONTINUOUS
 62
     7
 10
123.9446148618626
 20
-131.5
 30
0.0
 11
96.05538513813738
 21
-131.5
 31
0.0
  0
LINE
  5
224
  8
1
  6
CONTINUOUS
 62
     7
 10
68.5
 20
-98.50000000000003
 30
0.0
 11
68.5
 21
-100.0000000000003
 31
0.0
  0
LINE
  5
225
  8
1
  6
CONTINUOUS
 62
     7
 10
197.5
 20
-131.5
 30
0.0
 11
197.5
 21
-100.0000000000003
 31
0.0
  0
LINE
  5
226
  8
1
  6
CONTINUOUS
 62
     7
 10
188.371817169477
 20
-131.5
 30
0.0
 11
203.328182830523
 21
-131.5
 31
0.0
  0
LINE
  5
227
  8
1
  6
CONTINUOUS
 62
     7
 10
197.5
 20
-233.5
 30
0.0
 11
197.5
 21
-264.9999999999998
 31
0.0
  0
LINE
  5
228
  8
1
  6
CONTINUOUS
 62
     7
 10
105.5
 20
-100.0000000000003
 30
0.0
 11
105.5
 21
-98.50000000000003
 31
0.0
  0
LINE
  5
229
  8
1
  6
CONTINUOUS
 62
     7
 10
77.94461486186255
 20
-131.5
 30
0.0
 11
45.02618060337221
 21
-131.5
 31
0.0
  0
LINE
  5
22A
  8
1
  6
CONTINUOUS
 62
     7
 10
154.5
 20
-98.50000000000003
 30
0.0
 11
154.5
 21
-100.0000000000003
 31
0.0
  0
LINE
  5
22B
  8
1
  6
CONTINUOUS
 62
     7
 10
200.5
 20
-131.5
 30
0.0
 11
200.5
 21
-100.0000000000003
 31
0.0
  0
LINE
  5
22C
  8
1
  6
CONTINUOUS
 62
     7
 10
151.5
 20
-98.50000000000003
 30
0.0
 11
154.5
 21
-98.50000000000003
 31
0.0
  0
LINE
  5
22D
  8
1
  6
CONTINUOUS
 62
     7
 10
151.5
 20
-131.5
 30
0.0
 11
151.5
 21
-100.0000000000003
 31
0.0
  0
LINE
  5
22E
  8
1
  6
CONTINUOUS
 62
     7
 10
96.05538513813738
 20
-233.5
 30
0.0
 11
91.0120225682986
 21
-233.5
 31
0.0
  0
LINE
  5
22F
  8
1
  6
CONTINUOUS
 62
     7
 10
174.9738193966278
 20
-230.8500000000001
 30
0.0
 11
161.5261806033723
 21
-230.8500000000001
 31
0.0
  0
LINE
  5
230
  8
1
  6
CONTINUOUS
 62
     7
 10
157.5
 20
-100.0000000000003
 30
0.0
 11
157.5
 21
-98.50000000000003
 31
0.0
  0
LINE
  5
231
  8
1
  6
CONTINUOUS
 62
     7
 10
111.5
 20
-266.5
 30
0.0
 11
111.5
 21
-264.9999999999998
 31
0.0
  0
LINE
  5
232
  8
1
  6
CONTINUOUS
 62
     7
 10
105.5
 20
-98.50000000000003
 30
0.0
 11
108.5
 21
-98.50000000000003
 31
0.0
  0
LINE
  5
233
  8
1
  6
CONTINUOUS
 62
     7
 10
104.4738193966278
 20
-230.8500000000001
 30
0.0
 11
91.02618060337225
 21
-230.8500000000001
 31
0.0
  0
LINE
  5
234
  8
1
  6
CONTINUOUS
 62
     7
 10
77.94461486186255
 20
-233.5
 30
0.0
 11
45.02618060337221
 21
-233.5
 31
0.0
  0
LINE
  5
235
  8
1
  6
CONTINUOUS
 62
     7
 10
123.9446148618626
 20
-233.5
 30
0.0
 11
128.9879774317012
 21
-233.5
 31
0.0
  0
LINE
  5
236
  8
1
  6
CONTINUOUS
 62
     7
 10
137.0120225682986
 20
-131.5
 30
0.0
 11
142.0553851381374
 21
-131.5
 31
0.0
  0
LINE
  5
237
  8
1
  6
CONTINUOUS
 62
     7
 10
58.47381939662777
 20
-230.8500000000001
 30
0.0
 11
45.02618060337221
 21
-230.8500000000001
 31
0.0
  0
LINE
  5
238
  8
1
  6
CONTINUOUS
 62
     7
 10
45.02618060337227
 20
-134.15
 30
0.0
 11
58.47381939662782
 21
-134.15
 31
0.0
  0
LINE
  5
239
  8
1
  6
CONTINUOUS
 62
     7
 10
108.5
 20
-98.50000000000003
 30
0.0
 11
108.5
 21
-100.0000000000003
 31
0.0
  0
LINE
  5
23A
  8
1
  6
CONTINUOUS
 62
     7
 10
115.5261806033724
 20
-134.15
 30
0.0
 11
128.9738193966278
 21
-134.15
 31
0.0
  0
LINE
  5
23B
  8
1
  6
CONTINUOUS
 62
     7
 10
197.5
 20
-100.0000000000003
 30
0.0
 11
197.5
 21
-98.50000000000003
 31
0.0
  0
LINE
  5
23C
  8
1
  6
CONTINUOUS
 62
     7
 10
142.0553851381374
 20
-233.5
 30
0.0
 11
137.0120225682986
 21
-233.5
 31
0.0
  0
LINE
  5
23D
  8
1
  6
CONTINUOUS
 62
     7
 10
77.94461486186255
 20
-233.5
 30
0.0
 11
82.98797743170132
 21
-233.5
 31
0.0
  0
LINE
  5
23E
  8
1
  6
CONTINUOUS
 62
     7
 10
69.52618060337224
 20
-134.15
 30
0.0
 11
82.97381939662785
 21
-134.15
 31
0.0
  0
LINE
  5
23F
  8
1
  6
CONTINUOUS
 62
     7
 10
169.9446148618626
 20
-131.5
 30
0.0
 11
142.0553851381374
 21
-131.5
 31
0.0
  0
LINE
  5
240
  8
1
  6
CONTINUOUS
 62
     7
 10
91.0261806033722
 20
-134.15
 30
0.0
 11
104.4738193966277
 21
-134.15
 31
0.0
  0
LINE
  5
241
  8
1
  6
CONTINUOUS
 62
     7
 10
160.5
 20
-131.5
 30
0.0
 11
160.5
 21
-100.0000000000003
 31
0.0
  0
LINE
  5
242
  8
1
  6
CONTINUOUS
 62
     7
 10
151.5
 20
-100.0000000000003
 30
0.0
 11
151.5
 21
-98.50000000000003
 31
0.0
  0
LINE
  5
243
  8
1
  6
CONTINUOUS
 62
     7
 10
114.5
 20
-264.9999999999998
 30
0.0
 11
114.5
 21
-266.5
 31
0.0
  0
LINE
  5
244
  8
1
  6
CONTINUOUS
 62
     7
 10
65.5
 20
-100.0000000000003
 30
0.0
 11
65.5
 21
-98.50000000000003
 31
0.0
  0
LINE
  5
245
  8
1
  6
CONTINUOUS
 62
     7
 10
68.5
 20
-264.9999999999998
 30
0.0
 11
68.5
 21
-266.5
 31
0.0
  0
LINE
  5
246
  8
1
  6
CONTINUOUS
 62
     7
 10
188.371817169477
 20
-233.5
 30
0.0
 11
203.328182830523
 21
-233.5
 31
0.0
  0
LINE
  5
247
  8
1
  6
CONTINUOUS
 62
     7
 10
137.0261806033722
 20
-134.15
 30
0.0
 11
150.4738193966278
 21
-134.15
 31
0.0
  0
LINE
  5
248
  8
1
  6
CONTINUOUS
 62
     7
 10
157.5
 20
-98.50000000000003
 30
0.0
 11
160.5
 21
-98.50000000000003
 31
0.0
  0
LINE
  5
249
  8
1
  6
CONTINUOUS
 62
     7
 10
157.5
 20
-131.5
 30
0.0
 11
157.5
 21
-100.0000000000003
 31
0.0
  0
LINE
  5
24A
  8
1
  6
CONTINUOUS
 62
     7
 10
91.01202256829865
 20
-131.5
 30
0.0
 11
96.05538513813744
 21
-131.5
 31
0.0
  0
LINE
  5
24B
  8
1
  6
CONTINUOUS
 62
     7
 10
82.97381939662785
 20
-230.8500000000001
 30
0.0
 11
69.5261806033724
 21
-230.8500000000001
 31
0.0
  0
LINE
  5
24C
  8
1
  6
CONTINUOUS
 62
     7
 10
169.9446148618626
 20
-233.5
 30
0.0
 11
142.0553851381374
 21
-233.5
 31
0.0
  0
LINE
  5
24D
  8
1
  6
CONTINUOUS
 62
     7
 10
197.5
 20
-266.5
 30
0.0
 11
160.5
 21
-266.5
 31
0.0
  0
LINE
  5
24E
  8
1
  6
CONTINUOUS
 62
     7
 10
169.9446148618626
 20
-233.5
 30
0.0
 11
174.9879774317014
 21
-233.5
 31
0.0
  0
LINE
  5
24F
  8
1
  6
CONTINUOUS
 62
     7
 10
128.9738193966278
 20
-230.8500000000001
 30
0.0
 11
115.5261806033723
 21
-230.8500000000001
 31
0.0
  0
LINE
  5
250
  8
1
  6
CONTINUOUS
 62
     7
 10
123.9446148618626
 20
-233.5
 30
0.0
 11
96.05538513813738
 21
-233.5
 31
0.0
  0
LINE
  5
251
  8
1
  6
CONTINUOUS
 62
     7
 10
128.9879774317012
 20
-131.5
 30
0.0
 11
123.9446148618626
 21
-131.5
 31
0.0
  0
LINE
  5
252
  8
1
  6
CONTINUOUS
 62
     7
 10
150.4738193966277
 20
-230.8500000000001
 30
0.0
 11
137.0261806033722
 21
-230.8500000000001
 31
0.0
  0
LINE
  5
253
  8
1
  6
CONTINUOUS
 62
     7
 10
77.94461486186255
 20
-131.5
 30
0.0
 11
82.98797743170132
 21
-131.5
 31
0.0
  0
LINE
  5
254
  8
1
  6
CONTINUOUS
 62
     7
 10
160.5
 20
-98.50000000000003
 30
0.0
 11
160.5
 21
-100.0000000000003
 31
0.0
  0
LINE
  5
255
  8
1
  6
CONTINUOUS
 62
     7
 10
200.5
 20
-98.50000000000003
 30
0.0
 11
200.5
 21
-100.0000000000003
 31
0.0
  0
LINE
  5
256
  8
1
  6
CONTINUOUS
 62
     7
 10
197.5
 20
-98.50000000000003
 30
0.0
 11
200.5
 21
-98.50000000000003
 31
0.0
  0
LINE
  5
257
  8
1
  6
CONTINUOUS
 62
     7
 10
200.5
 20
-233.5
 30
0.0
 11
200.5
 21
-264.9999999999998
 31
0.0
  0
LINE
  5
258
  8
1
  6
CONTINUOUS
 62
     7
 10
154.5
 20
-131.5
 30
0.0
 11
154.5
 21
-100.0000000000003
 31
0.0
  0
LINE
  5
259
  8
1
  6
CONTINUOUS
 62
     7
 10
-53.6479563742184
 20
-92.50000000000003
 30
0.0
 11
-53.64795637421859
 21
-181.0
 31
0.0
  0
LINE
  5
25A
  8
1
  6
CONTINUOUS
 62
     7
 10
260.0
 20
-182.5
 30
0.0
 11
261.4999999999998
 21
-181.0
 31
0.0
  0
LINE
  5
25B
  8
1
  6
CONTINUOUS
 62
     7
 10
206.5
 20
-233.5
 30
0.0
 11
206.5
 21
-239.5
 31
0.0
  0
LINE
  5
25C
  8
1
  6
CONTINUOUS
 62
     7
 10
90.50434439470267
 20
-131.5
 30
0.0
 11
91.00432535623459
 21
-131.5
 31
0.0
  0
LINE
  5
25D
  8
1
  6
CONTINUOUS
 62
     7
 10
36.64999999999996
 20
-142.5000951923396
 30
0.0
 11
36.64999999999996
 21
-134.65
 31
0.0
  0
LINE
  5
25E
  8
1
  6
CONTINUOUS
 62
     7
 10
31.64999999999996
 20
-145.0
 30
0.0
 11
34.15009519233958
 21
-145.0
 31
0.0
  0
LINE
  5
25F
  8
1
  6
CONTINUOUS
 62
     7
 10
87.99999999999997
 20
-134.15
 30
0.0
 11
87.99999999999997
 21
-146.5
 31
0.0
  0
CIRCLE
  5
260
  8
1
  6
CONTINUOUS
 62
     7
 10
64.00000000000006
 20
-140.75
 30
0.0
 40
1.649999999999929
  0
LINE
  5
261
  8
1
  6
CONTINUOUS
 62
     7
 10
187.8543443947026
 20
-131.5
 30
0.0
 11
188.3543253562346
 21
-131.5
 31
0.0
  0
ARC
  5
262
  8
1
  6
CONTINUOUS
 62
     7
 10
246.4999999999998
 20
-92.50000000000003
 30
0.0
 40
15.00000000000001
 50
0.0
 51
90.0
  0
LINE
  5
263
  8
1
  6
CONTINUOUS
 62
     7
 10
261.5000000000001
 20
-181.0
 30
0.0
 11
261.5000000000001
 21
-92.50000000000003
 31
0.0
  0
LINE
  5
264
  8
1
  6
CONTINUOUS
 62
     7
 10
261.4999999999998
 20
-272.5
 30
0.0
 11
261.4999999999998
 21
-184.0
 31
0.0
  0
ARC
  5
265
  8
1
  6
CONTINUOUS
 62
     7
 10
38.49999999999998
 20
-92.50000000000003
 30
0.0
 40
15.00000000000001
 50
90.0
 51
180.0
  0
LINE
  5
266
  8
1
  6
CONTINUOUS
 62
     7
 10
-53.64795637421859
 20
-184.0
 30
0.0
 11
-53.6479563742184
 21
-272.5
 31
0.0
  0
LINE
  5
267
  8
1
  6
CONTINUOUS
 62
     7
 10
29.00000000000002
 20
-271.5010661339052
 30
0.0
 11
29.00000000000002
 21
-228.5
 31
0.0
  0
LINE
  5
268
  8
1
  6
CONTINUOUS
 62
     7
 10
87.99999999999997
 20
-147.5
 30
0.0
 11
87.99999999999997
 21
-217.5
 31
0.0
  0
LINE
  5
269
  8
1
  6
CONTINUOUS
 62
     7
 10
249.0010661339051
 20
-278.5
 30
0.0
 11
35.99893386609482
 21
-278.5
 31
0.0
  0
ARC
  5
26A
  8
1
  6
CONTINUOUS
 62
     7
 10
56.00000000000005
 20
-125.5
 30
0.0
 40
0.4999999999999449
 50
0.0
 51
90.0
  0
LINE
  5
26B
  8
1
  6
CONTINUOUS
 62
     7
 10
56.49999999999999
 20
-233.5
 30
0.0
 11
56.49999999999999
 21
-239.5
 31
0.0
  0
LINE
  5
26C
  8
1
  6
CONTINUOUS
 62
     7
 10
-53.1479563742184
 20
-77.50000000000001
 30
0.0
 11
-53.1479563742184
 21
-92.50000000000003
 31
0.0
  0
LINE
  5
26D
  8
1
  6
CONTINUOUS
 62
     7
 10
-53.1479563742184
 20
-287.5
 30
0.0
 11
-53.6479563742184
 21
-287.5
 31
0.0
  0
LINE
  5
26E
  8
1
  6
CONTINUOUS
 62
     7
 10
85.99999999999996
 20
-134.15
 30
0.0
 11
85.99999999999996
 21
-230.8500000000001
 31
0.0
  0
LINE
  5
26F
  8
1
  6
CONTINUOUS
 62
     7
 10
23.49999999999996
 20
-184.0
 30
0.0
 11
23.49999999999996
 21
-272.5
 31
0.0
  0
LINE
  5
270
  8
1
  6
CONTINUOUS
 62
     7
 10
25.00000000000002
 20
-182.5
 30
0.0
 11
23.50000000000002
 21
-184.0
 31
0.0
  0
LINE
  5
271
  8
1
  6
CONTINUOUS
 62
     7
 10
35.99893386609476
 20
-86.50000000000001
 30
0.0
 11
249.0010661339053
 21
-86.50000000000001
 31
0.0
  0
LINE
  5
272
  8
1
  6
CONTINUOUS
 62
     7
 10
256.0
 20
-93.49893386609482
 30
0.0
 11
256.0
 21
-271.5010661339052
 31
0.0
  0
LINE
  5
273
  8
1
  6
CONTINUOUS
 62
     7
 10
41.49999999999998
 20
-239.5
 30
0.0
 11
41.49999999999998
 21
-233.5
 31
0.0
  0
LINE
  5
274
  8
1
  6
CONTINUOUS
 62
     7
 10
87.99999999999997
 20
-218.5
 30
0.0
 11
87.99999999999997
 21
-230.8500000000001
 31
0.0
  0
LINE
  5
275
  8
1
  6
CONTINUOUS
 62
     7
 10
29.00000000000002
 20
-136.5
 30
0.0
 11
29.00000000000002
 21
-93.49893386609465
 31
0.0
  0
ARC
  5
276
  8
1
  6
CONTINUOUS
 62
     7
 10
42.00000000000004
 20
-239.5
 30
0.0
 40
0.4999999999999449
 50
180.0
 51
270.0
  0
ARC
  5
277
  8
1
  6
CONTINUOUS
 62
     7
 10
246.4999999999998
 20
-272.5
 30
0.0
 40
15.00000000000001
 50
270.0
 51
0.0
  0
LINE
  5
278
  8
1
  6
CONTINUOUS
 62
     7
 10
136.5043443947026
 20
-131.5
 30
0.0
 11
137.0043253562345
 21
-131.5
 31
0.0
  0
CIRCLE
  5
279
  8
1
  6
CONTINUOUS
 62
     7
 10
64.00000000000006
 20
-140.75
 30
0.0
 40
1.649999999999929
  0
LINE
  5
27A
  8
1
  6
CONTINUOUS
 62
     7
 10
87.99999999999997
 20
-230.8500000000001
 30
0.0
 11
85.99999999999996
 21
-230.8500000000001
 31
0.0
  0
LINE
  5
27B
  8
1
  6
CONTINUOUS
 62
     7
 10
23.49999999999996
 20
-92.50000000000003
 30
0.0
 11
23.49999999999996
 21
-181.0
 31
0.0
  0
LINE
  5
27C
  8
1
  6
CONTINUOUS
 62
     7
 10
23.49999999999996
 20
-181.0
 30
0.0
 11
24.99999999999996
 21
-182.5
 31
0.0
  0
LINE
  5
27D
  8
1
  6
CONTINUOUS
 62
     7
 10
136.5043443947026
 20
-230.8500000000001
 30
0.0
 11
137.0043253562345
 21
-230.8500000000001
 31
0.0
  0
CIRCLE
  5
27E
  8
1
  6
CONTINUOUS
 62
     7
 10
64.00000000000006
 20
-224.25
 30
0.0
 40
1.649999999999929
  0
LINE
  5
27F
  8
1
  6
CONTINUOUS
 62
     7
 10
87.99999999999997
 20
-134.15
 30
0.0
 11
85.99999999999996
 21
-134.15
 31
0.0
  0
LINE
  5
280
  8
1
  6
CONTINUOUS
 62
     7
 10
29.00000000000002
 20
-228.5
 30
0.0
 11
29.00000000000002
 21
-182.5
 31
0.0
  0
LINE
  5
281
  8
1
  6
CONTINUOUS
 62
     7
 10
261.5000000000001
 20
-184.0
 30
0.0
 11
260.0000000000002
 21
-182.5
 31
0.0
  0
LINE
  5
282
  8
1
  6
CONTINUOUS
 62
     7
 10
115.5261806033724
 20
-139.7237242042882
 30
0.0
 11
115.5261806033724
 21
-134.15
 31
0.0
  0
CIRCLE
  5
283
  8
1
  6
CONTINUOUS
 62
     7
 10
156.0
 20
-224.25
 30
0.0
 40
1.649999999999929
  0
CIRCLE
  5
284
  8
1
  6
CONTINUOUS
 62
     7
 10
110.0
 20
-224.25
 30
0.0
 40
1.65000000000004
  0
ARC
  5
285
  8
1
  6
CONTINUOUS
 62
     7
 10
38.49999999999998
 20
-272.5
 30
0.0
 40
15.00000000000001
 50
180.0
 51
270.0
  0
LINE
  5
286
  8
1
  6
CONTINUOUS
 62
     7
 10
29.00000000000002
 20
-182.5
 30
0.0
 11
29.00000000000002
 21
-136.5
 31
0.0
  0
ARC
  5
287
  8
1
  6
CONTINUOUS
 62
     7
 10
56.00000000000005
 20
-239.5
 30
0.0
 40
0.4999999999999449
 50
270.0
 51
0.0
  0
CIRCLE
  5
288
  8
1
  6
CONTINUOUS
 62
     7
 10
110.0
 20
-140.75
 30
0.0
 40
1.65000000000004
  0
LINE
  5
289
  8
1
  6
CONTINUOUS
 62
     7
 10
41.49999999999998
 20
-131.5
 30
0.0
 11
41.49999999999998
 21
-125.5
 31
0.0
  0
LINE
  5
28A
  8
1
  6
CONTINUOUS
 62
     7
 10
246.4999999999998
 20
-77.50000000000001
 30
0.0
 11
38.50000000000004
 21
-77.50000000000001
 31
0.0
  0
LINE
  5
28B
  8
1
  6
CONTINUOUS
 62
     7
 10
56.00000000000005
 20
-240.0
 30
0.0
 11
42.00000000000004
 21
-240.0
 31
0.0
  0
ARC
  5
28C
  8
1
  6
CONTINUOUS
 62
     7
 10
205.9999999999999
 20
-233.5
 30
0.0
 40
0.500000000000056
 50
0.0
 51
2.865983989176883
  0
ARC
  5
28D
  8
1
  6
CONTINUOUS
 62
     7
 10
205.9999999999999
 20
-239.5
 30
0.0
 40
0.500000000000056
 50
270.0
 51
0.0
  0
ARC
  5
28E
  8
1
  6
CONTINUOUS
 62
     7
 10
205.9999999999999
 20
-131.5
 30
0.0
 40
0.500000000000056
 50
357.1340160085214
 51
0.0
  0
ARC
  5
28F
  8
1
  6
CONTINUOUS
 62
     7
 10
205.9999999999999
 20
-125.5
 30
0.0
 40
0.500000000000056
 50
0.0
 51
90.0
  0
LINE
  5
290
  8
1
  6
CONTINUOUS
 62
     7
 10
42.00000000000004
 20
-125.0
 30
0.0
 11
56.00000000000005
 21
-125.0
 31
0.0
  0
LINE
  5
291
  8
1
  6
CONTINUOUS
 62
     7
 10
206.5
 20
-125.5
 30
0.0
 11
206.5
 21
-131.5
 31
0.0
  0
ARC
  5
292
  8
1
  6
CONTINUOUS
 62
     7
 10
42.00000000000004
 20
-125.5
 30
0.0
 40
0.4999999999999449
 50
90.0
 51
180.0
  0
CIRCLE
  5
293
  8
1
  6
CONTINUOUS
 62
     7
 10
156.0
 20
-140.75
 30
0.0
 40
1.649999999999929
  0
LINE
  5
294
  8
1
  6
CONTINUOUS
 62
     7
 10
38.49999999999998
 20
-287.5
 30
0.0
 11
246.4999999999998
 21
-287.5
 31
0.0
  0
LINE
  5
295
  8
1
  6
CONTINUOUS
 62
     7
 10
56.49999999999999
 20
-125.5
 30
0.0
 11
56.49999999999999
 21
-131.5
 31
0.0
  0
LINE
  5
296
  8
1
  6
CONTINUOUS
 62
     7
 10
205.9999999999999
 20
-240.0
 30
0.0
 11
200.4999999999999
 21
-240.0
 31
0.0
  0
LINE
  5
297
  8
1
  6
CONTINUOUS
 62
     7
 10
200.5
 20
-125.0
 30
0.0
 11
206.0
 21
-125.0
 31
0.0
  0
LINE
  5
298
  8
1
  6
CONTINUOUS
 62
     7
 10
-53.1479563742184
 20
-181.0
 30
0.0
 11
-53.14795637421859
 21
-182.5
 31
0.0
  0
CIRCLE
  5
299
  8
1
  6
CONTINUOUS
 62
     7
 10
179.0000000000001
 20
-371.6479563742184
 30
0.0
 40
19.24999999999999
  0
ARC
  5
29A
  8
1
  6
CONTINUOUS
 62
     7
 10
-96.6479563742185
 20
-90.25110094006693
 30
0.0
 40
3.500000000000003
 50
91.0
 51
180.0
  0
LINE
  5
29B
  8
1
  6
CONTINUOUS
 62
     2
 10
-53.1479563742184
 20
-230.25
 30
0.0
 11
-53.1479563742184
 21
-218.25
 31
0.0
  0
LINE
  5
29C
  8
1
  6
CONTINUOUS
 62
     7
 10
36.75049172069256
 20
-395.1479563742185
 30
0.0
 11
32.75110094006695
 21
-395.1479563742185
 31
0.0
  0
LINE
  5
29D
  8
1
  6
CONTINUOUS
 62
     7
 10
-100.1479563742185
 20
-94.25049172069261
 30
0.0
 11
-100.1479563742185
 21
-90.25110094006693
 31
0.0
  0
LINE
  5
29E
  8
1
  6
CONTINUOUS
 62
     7
 10
29.25163400701958
 20
-391.709039796749
 30
0.0
 11
28.49999999999997
 21
-348.6479563742184
 31
0.0
  0
LINE
  5
29F
  8
1
  6
CONTINUOUS
 62
     7
 10
-53.1479563742184
 20
-272.5
 30
0.0
 11
-53.1479563742184
 21
-287.5
 31
0.0
  0
LINE
  5
2A0
  8
1
  6
CONTINUOUS
 62
     7
 10
-53.14795637421859
 20
-182.5
 30
0.0
 11
-53.14795637421859
 21
-184.0
 31
0.0
  0
LINE
  5
2A1
  8
1
  6
CONTINUOUS
 62
     7
 10
-53.6479563742184
 20
-287.5
 30
0.0
 11
-53.6479563742184
 21
-272.5
 31
0.0
  0
ARC
  5
2A2
  8
1
  6
CONTINUOUS
 62
     7
 10
-96.6479563742185
 20
-274.748899059933
 30
0.0
 40
3.500000000000003
 50
180.0
 51
269.0
  0
LINE
  5
2A3
  8
1
  6
CONTINUOUS
 62
     7
 10
-53.6479563742184
 20
-279.0
 30
0.0
 11
-96.709039796749
 21
-278.2483659929803
 31
0.0
  0
LINE
  5
2A4
  8
1
  6
CONTINUOUS
 62
     7
 10
-53.64795637421859
 20
-181.0
 30
0.0
 11
-53.64795637421859
 21
-182.5
 31
0.0
  0
LINE
  5
2A5
  8
1
  6
CONTINUOUS
 62
     7
 10
252.2488990599329
 20
-395.1479563742185
 30
0.0
 11
248.2495082793072
 21
-395.1479563742185
 31
0.0
  0
LINE
  5
2A6
  8
1
  6
CONTINUOUS
 62
     7
 10
32.75110094006695
 20
-395.1479563742185
 30
0.0
 11
29.80300915071998
 21
-395.1479563742185
 31
0.0
  0
LINE
  5
2A7
  8
1
  6
CONTINUOUS
 62
     7
 10
-100.1479563742185
 20
-152.5
 30
0.0
 11
-100.1479563742185
 21
-94.25049172069261
 31
0.0
  0
LINE
  5
2A8
  8
1
  6
CONTINUOUS
 62
     7
 10
29.30308530314163
 20
-394.6566825774372
 30
0.0
 11
29.259022621133
 21
-392.1323332158162
 31
0.0
  0
LINE
  5
2A9
  8
1
  6
CONTINUOUS
 62
     7
 10
261.4999999999998
 20
-348.1479563742184
 30
0.0
 11
261.4999999999998
 21
-348.6479563742184
 31
0.0
  0
LINE
  5
2AA
  8
1
  6
CONTINUOUS
 62
     7
 10
-53.14795637421859
 20
-184.0
 30
0.0
 11
-53.1479563742184
 21
-272.5
 31
0.0
  0
LINE
  5
2AB
  8
1
  6
CONTINUOUS
 62
     7
 10
-53.1479563742184
 20
-92.50000000000003
 30
0.0
 11
-53.1479563742184
 21
-181.0
 31
0.0
  0
CIRCLE
  5
2AC
  8
1
  6
CONTINUOUS
 62
     7
 10
86.99999999999996
 20
-371.6479563742184
 30
0.0
 40
19.24999999999999
  0
LINE
  5
2AD
  8
1
  6
CONTINUOUS
 62
     7
 10
-53.6479563742184
 20
-77.50000000000001
 30
0.0
 11
-53.1479563742184
 21
-77.50000000000001
 31
0.0
  0
LINE
  5
2AE
  8
1
  6
CONTINUOUS
 62
     7
 10
246.4999999999998
 20
-348.1479563742184
 30
0.0
 11
261.4999999999998
 21
-348.1479563742184
 31
0.0
  0
CIRCLE
  5
2AF
  8
1
  6
CONTINUOUS
 62
     7
 10
49.00000000000004
 20
-371.6479563742184
 30
0.0
 40
10.64999999999994
  0
ARC
  5
2B0
  8
1
  6
CONTINUOUS
 62
     7
 10
252.2488990599329
 20
-391.6479563742184
 30
0.0
 40
3.500000000000059
 50
270.0
 51
358.9999999999999
  0
CIRCLE
  5
2B1
  8
1
  6
CONTINUOUS
 62
     7
 10
133.0
 20
-371.6479563742184
 30
0.0
 40
19.24999999999999
  0
LINE
  5
2B2
  8
1
  6
CONTINUOUS
 62
     7
 10
261.4999999999998
 20
-348.6479563742184
 30
0.0
 11
246.4999999999998
 21
-348.6479563742184
 31
0.0
  0
LINE
  5
2B3
  8
1
  6
CONTINUOUS
 62
     7
 10
-100.1479563742185
 20
-212.5
 30
0.0
 11
-100.1479563742185
 21
-152.5
 31
0.0
  0
LINE
  5
2B4
  8
1
  6
CONTINUOUS
 62
     7
 10
38.49999999999998
 20
-348.6479563742184
 30
0.0
 11
23.49999999999996
 21
-348.6479563742184
 31
0.0
  0
CIRCLE
  5
2B5
  8
1
  6
CONTINUOUS
 62
     7
 10
49.00000000000004
 20
-371.6479563742184
 30
0.0
 40
10.64999999999994
  0
CIRCLE
  5
2B6
  8
1
  6
CONTINUOUS
 62
     7
 10
133.0
 20
-371.6479563742184
 30
0.0
 40
19.24999999999999
  0
LINE
  5
2B7
  8
1
  6
CONTINUOUS
 62
     7
 10
38.49999999999998
 20
-348.1479563742184
 30
0.0
 11
246.4999999999998
 21
-348.1479563742184
 31
0.0
  0
LINE
  5
2B8
  8
1
  6
CONTINUOUS
 62
     7
 10
-100.1479563742185
 20
-274.748899059933
 30
0.0
 11
-100.1479563742185
 21
-270.7495082793074
 31
0.0
  0
LINE
  5
2B9
  8
1
  6
CONTINUOUS
 62
     7
 10
-100.1479563742185
 20
-270.7495082793074
 30
0.0
 11
-100.1479563742185
 21
-212.5
 31
0.0
  0
LINE
  5
2BA
  8
1
  6
CONTINUOUS
 62
     7
 10
-96.709039796749
 20
-86.75163400701969
 30
0.0
 11
-53.6479563742184
 21
-85.99999999999996
 31
0.0
  0
LINE
  5
2BB
  8
1
  6
CONTINUOUS
 62
     7
 10
-53.6479563742184
 20
-92.50000000000003
 30
0.0
 11
-53.6479563742184
 21
-77.50000000000001
 31
0.0
  0
LINE
  5
2BC
  8
1
  6
CONTINUOUS
 62
     7
 10
23.49999999999996
 20
-348.1479563742184
 30
0.0
 11
38.49999999999998
 21
-348.1479563742184
 31
0.0
  0
ARC
  5
2BD
  8
1
  6
CONTINUOUS
 62
     7
 10
29.80300915071998
 20
-394.6479563742184
 30
0.0
 40
0.500000000000056
 50
181.000000000001
 51
270.0
  0
CIRCLE
  5
2BE
  8
1
  6
CONTINUOUS
 62
     7
 10
179.0000000000001
 20
-371.6479563742184
 30
0.0
 40
19.24999999999999
  0
LINE
  5
2BF
  8
1
  6
CONTINUOUS
 62
     7
 10
-53.64795637421859
 20
-182.5
 30
0.0
 11
-53.64795637421859
 21
-184.0
 31
0.0
  0
LINE
  5
2C0
  8
1
  6
CONTINUOUS
 62
     7
 10
248.2495082793072
 20
-395.1479563742185
 30
0.0
 11
36.75049172069262
 21
-395.1479563742185
 31
0.0
  0
CIRCLE
  5
2C1
  8
1
  6
CONTINUOUS
 62
     7
 10
86.99999999999996
 20
-371.6479563742184
 30
0.0
 40
19.24999999999999
  0
LINE
  5
2C2
  8
1
  6
CONTINUOUS
 62
     7
 10
23.49999999999996
 20
-348.6479563742184
 30
0.0
 11
23.49999999999996
 21
-348.1479563742184
 31
0.0
  0
LINE
  5
2C3
  8
1
  6
CONTINUOUS
 62
     7
 10
38.49999999999998
 20
-348.6479563742184
 30
0.0
 11
246.4999999999998
 21
-348.6479563742184
 31
0.0
  0
LINE
  5
2C4
  8
1
  6
CONTINUOUS
 62
     7
 10
256.4999999999998
 20
-348.6479563742184
 30
0.0
 11
255.7483659929804
 21
-391.709039796749
 31
0.0
  0
LINE
  5
2C5
  8
1
  6
CONTINUOUS
 62
     7
 10
44.50434439470263
 20
-131.5
 30
0.0
 11
45.00432535623461
 21
-131.5
 31
0.0
  0
ARC
  5
2C6
  8
1
  6
CONTINUOUS
 62
     7
 10
205.9999999999999
 20
-228.5
 30
0.0
 40
5.000000000000004
 50
270.0
 51
0.0
  0
LINE
  5
2C7
  8
1
  6
CONTINUOUS
 62
     7
 10
150.5
 20
-140.75
 30
0.0
 11
150.5
 21
-139.7499048076604
 31
0.0
  0
LINE
  5
2C8
  8
1
  6
CONTINUOUS
 62
     7
 10
152.9737242042882
 20
-137.2238193966276
 30
0.0
 11
159.0262757957118
 21
-137.2238193966276
 31
0.0
  0
LINE
  5
2C9
  8
1
  6
CONTINUOUS
 62
     7
 10
104.5
 20
-224.25
 30
0.0
 11
104.5
 21
-225.2500951923396
 31
0.0
  0
LINE
  5
2CA
  8
1
  6
CENTER
 62
     1
 10
34.34999999999999
 20
-371.6479563742184
 30
0.0
 11
110.25
 21
-371.6479563742184
 31
0.0
  0
ARC
  5
2CC
  8
1
  6
CONTINUOUS
 62
     7
 10
156.0
 20
-140.75
 30
0.0
 40
5.499999999999949
 50
294.6199773286566
 51
0.0
  0
LINE
  5
2CD
  8
1
  6
CONTINUOUS
 62
     7
 10
106.9737242042882
 20
-137.2238193966276
 30
0.0
 11
113.0262757957118
 21
-137.2238193966276
 31
0.0
  0
LINE
  5
2CE
  8
1
  6
CONTINUOUS
 62
     7
 10
89.10000000000007
 20
-227.8500000000001
 30
0.0
 11
89.10000000000007
 21
-230.8500000000001
 31
0.0
  0
LINE
  5
2CF
  8
1
  6
CONTINUOUS
 62
     7
 10
203.8456556052974
 20
-131.5
 30
0.0
 11
206.0
 21
-131.5
 31
0.0
  0
LINE
  5
2D0
  8
1
  6
CONTINUOUS
 62
     7
 10
134.1
 20
-227.8500000000001
 30
0.0
 11
135.1
 21
-227.8500000000001
 31
0.0
  0
LINE
  5
2D1
  8
1
  6
CONTINUOUS
 62
     7
 10
89.10000000000007
 20
-134.15
 30
0.0
 11
89.10000000000007
 21
-137.15
 31
0.0
  0
LINE
  5
2D2
  8
1
  6
CONTINUOUS
 62
     7
 10
211.0
 20
-136.5
 30
0.0
 11
211.0
 21
-228.5
 31
0.0
  0
LINE
  5
2D3
  8
1
  6
CONTINUOUS
 62
     7
 10
136.5043443947026
 20
-233.5
 30
0.0
 11
129.4956556052973
 21
-233.5
 31
0.0
  0
LINE
  5
2D4
  8
1
  6
CONTINUOUS
 62
     7
 10
88.10000000000007
 20
-227.8500000000001
 30
0.0
 11
89.10000000000007
 21
-227.8500000000001
 31
0.0
  0
LINE
  5
2D5
  8
1
  6
CONTINUOUS
 62
     7
 10
58.49999999999999
 20
-140.75
 30
0.0
 11
58.49999999999999
 21
-139.7499048076604
 31
0.0
  0
LINE
  5
2D6
  8
1
  6
CONTINUOUS
 62
     7
 10
106.9999048076604
 20
-137.25
 30
0.0
 11
113.0000951923396
 21
-137.25
 31
0.0
  0
LINE
  5
2D7
  8
1
  6
CONTINUOUS
 62
     7
 10
135.1
 20
-227.8500000000001
 30
0.0
 11
135.4999999999999
 21
-227.8500000000001
 31
0.0
  0
LINE
  5
2D8
  8
1
  6
CONTINUOUS
 62
     7
 10
135.1
 20
-137.15
 30
0.0
 11
134.1
 21
-137.15
 31
0.0
  0
ARC
  5
2D9
  8
1
  6
CONTINUOUS
 62
     7
 10
205.9999999999999
 20
-136.5
 30
0.0
 40
5.000000000000004
 50
0.0
 51
89.99999999999982
  0
LINE
  5
2DA
  8
1
  6
CONTINUOUS
 62
     7
 10
158.2912878474779
 20
-145.75
 30
0.0
 11
153.7087121525222
 21
-145.75
 31
0.0
  0
LINE
  5
2DB
  8
1
  6
CONTINUOUS
 62
     7
 10
129.4999999999999
 20
-230.8500000000001
 30
0.0
 11
129.4956556052973
 21
-230.8500000000001
 31
0.0
  0
LINE
  5
2DC
  8
1
  6
CONTINUOUS
 62
     7
 10
135.1
 20
-230.8500000000001
 30
0.0
 11
130.8999999999999
 21
-230.8500000000001
 31
0.0
  0
LINE
  5
2DD
  8
1
  6
CONTINUOUS
 62
     7
 10
134.1
 20
-137.15
 30
0.0
 11
134.1
 21
-134.15
 31
0.0
  0
LINE
  5
2DE
  8
1
  6
CONTINUOUS
 62
     7
 10
112.2912878474778
 20
-145.75
 30
0.0
 11
107.7087121525221
 21
-145.75
 31
0.0
  0
LINE
  5
2DF
  8
1
  6
CONTINUOUS
 62
     7
 10
112.291287847478
 20
-219.25
 30
0.0
 11
107.7087121525222
 21
-219.25
 31
0.0
  0
LINE
  5
2E0
  8
1
  6
CONTINUOUS
 62
     7
 10
88.10000000000007
 20
-137.15
 30
0.0
 11
88.10000000000007
 21
-134.15
 31
0.0
  0
LINE
  5
2E1
  8
1
  6
CONTINUOUS
 62
     7
 10
87.99999999999997
 20
-134.15
 30
0.0
 11
89.10000000000001
 21
-134.15
 31
0.0
  0
LINE
  5
2E2
  8
1
  6
CONTINUOUS
 62
     7
 10
130.9
 20
-227.8500000000001
 30
0.0
 11
130.5
 21
-227.8500000000001
 31
0.0
  0
ARC
  5
2E3
  8
1
  6
CONTINUOUS
 62
     7
 10
156.0
 20
-140.75
 30
0.0
 40
5.499999999999949
 50
180.0
 51
245.3800226713433
  0
LINE
  5
2E4
  8
1
  6
CONTINUOUS
 62
     7
 10
161.5
 20
-225.2500951923396
 30
0.0
 11
161.5
 21
-224.25
 31
0.0
  0
LINE
  5
2E5
  8
1
  6
CONTINUOUS
 62
     7
 10
135.1
 20
-227.8500000000001
 30
0.0
 11
135.1
 21
-230.8500000000001
 31
0.0
  0
LINE
  5
2E6
  8
1
  6
CONTINUOUS
 62
     7
 10
104.4738193966278
 20
-134.15
 30
0.0
 11
104.4738193966278
 21
-139.7237242042882
 31
0.0
  0
LINE
  5
2E7
  8
1
  6
CONTINUOUS
 62
     7
 10
130.9
 20
-230.8500000000001
 30
0.0
 11
130.9
 21
-227.8500000000001
 31
0.0
  0
LINE
  5
2E8
  8
1
  6
CONTINUOUS
 62
     7
 10
135.4999999999999
 20
-227.8500000000001
 30
0.0
 11
136.4999999999999
 21
-230.8500000000001
 31
0.0
  0
LINE
  5
2E9
  8
1
  6
CONTINUOUS
 62
     7
 10
161.5261806033722
 20
-139.7237242042882
 30
0.0
 11
161.5261806033722
 21
-134.15
 31
0.0
  0
LINE
  5
2EA
  8
1
  6
CONTINUOUS
 62
     7
 10
104.5
 20
-140.75
 30
0.0
 11
104.5
 21
-139.7499048076604
 31
0.0
  0
LINE
  5
2EB
  8
1
  6
CONTINUOUS
 62
     7
 10
36.64999999999996
 20
-230.3500000000001
 30
0.0
 11
36.64999999999996
 21
-222.4999048076604
 31
0.0
  0
ARC
  5
2EC
  8
1
  6
CONTINUOUS
 62
     7
 10
156.0
 20
-224.25
 30
0.0
 40
5.499999999999949
 50
0.0
 51
65.38002267134324
  0
ARC
  5
2ED
  8
1
  6
CONTINUOUS
 62
     7
 10
64.00000000000006
 20
-224.25
 30
0.0
 40
5.499999999999949
 50
0.0
 51
65.38002267134324
  0
LINE
  5
2EE
  8
1
  6
CENTER
 62
     1
 10
63.74999999999997
 20
-371.6479563742184
 30
0.0
 11
110.25
 21
-371.6479563742184
 31
0.0
  0
LINE
  5
2EF
  8
1
  6
CONTINUOUS
 62
     7
 10
113.0000951923396
 20
-227.75
 30
0.0
 11
106.9999048076604
 21
-227.75
 31
0.0
  0
LINE
  5
2F0
  8
1
  6
CONTINUOUS
 62
     7
 10
130.4999999999999
 20
-227.8500000000001
 30
0.0
 11
129.4999999999999
 21
-230.8500000000001
 31
0.0
  0
LINE
  5
2F1
  8
1
  6
CONTINUOUS
 62
     7
 10
66.29128784747795
 20
-219.25
 30
0.0
 11
61.70871215252216
 21
-219.25
 31
0.0
  0
LINE
  5
2F2
  8
1
  6
CONTINUOUS
 62
     7
 10
152.9999048076604
 20
-137.25
 30
0.0
 11
159.0000951923396
 21
-137.25
 31
0.0
  0
LINE
  5
2F3
  8
1
  6
CONTINUOUS
 62
     7
 10
158.2912878474779
 20
-219.25
 30
0.0
 11
153.708712152522
 21
-219.25
 31
0.0
  0
LINE
  5
2F4
  8
1
  6
CONTINUOUS
 62
     7
 10
135.1
 20
-134.15
 30
0.0
 11
135.1
 21
-137.15
 31
0.0
  0
LINE
  5
2F5
  8
1
  6
CONTINUOUS
 62
     7
 10
60.99990480766038
 20
-137.25
 30
0.0
 11
67.00009519233957
 21
-137.25
 31
0.0
  0
LINE
  5
2F6
  8
1
  6
CONTINUOUS
 62
     7
 10
60.97372420428826
 20
-137.2238193966276
 30
0.0
 11
67.02627579571185
 21
-137.2238193966276
 31
0.0
  0
LINE
  5
2F7
  8
1
  6
CONTINUOUS
 62
     7
 10
134.1
 20
-230.8500000000001
 30
0.0
 11
134.1
 21
-227.8500000000001
 31
0.0
  0
LINE
  5
2F8
  8
1
  6
CONTINUOUS
 62
     7
 10
36.68483131584144
 20
-142.534926508181
 30
0.0
 11
36.68483131584144
 21
-222.465073491819
 31
0.0
  0
LINE
  5
2F9
  8
1
  6
CONTINUOUS
 62
     7
 10
205.9999999999999
 20
-233.5
 30
0.0
 11
203.8456556052976
 21
-233.5
 31
0.0
  0
LINE
  5
2FA
  8
1
  6
CONTINUOUS
 62
     7
 10
131.9
 20
-227.8500000000001
 30
0.0
 11
131.9
 21
-230.8500000000001
 31
0.0
  0
LINE
  5
2FB
  8
1
  6
CONTINUOUS
 62
     7
 10
45.00432535623455
 20
-134.15
 30
0.0
 11
44.50434439470258
 21
-134.15
 31
0.0
  0
LINE
  5
2FC
  8
1
  6
CONTINUOUS
 62
     7
 10
82.99567464376545
 20
-131.5
 30
0.0
 11
83.49565560529743
 21
-131.5
 31
0.0
  0
ARC
  5
2FD
  8
1
  6
CONTINUOUS
 62
     7
 10
156.0
 20
-224.25
 30
0.0
 40
5.499999999999949
 50
114.6199773286568
 51
180.0
  0
LINE
  5
2FE
  8
1
  6
CONTINUOUS
 62
     7
 10
84.89999999999998
 20
-227.8500000000001
 30
0.0
 11
85.89999999999998
 21
-227.8500000000001
 31
0.0
  0
ARC
  5
2FF
  8
1
  6
CONTINUOUS
 62
     7
 10
110.0
 20
-224.25
 30
0.0
 40
5.50000000000006
 50
114.6199773286568
 51
180.0
  0
LINE
  5
300
  8
1
  6
CONTINUOUS
 62
     7
 10
89.10000000000007
 20
-137.15
 30
0.0
 11
88.10000000000007
 21
-137.15
 31
0.0
  0
LINE
  5
301
  8
1
  6
CONTINUOUS
 62
     7
 10
136.5043443947026
 20
-230.8500000000001
 30
0.0
 11
136.4999999999999
 21
-230.8500000000001
 31
0.0
  0
LINE
  5
302
  8
1
  6
CONTINUOUS
 62
     7
 10
115.5
 20
-225.2500951923396
 30
0.0
 11
115.5
 21
-224.25
 31
0.0
  0
LINE
  5
303
  8
1
  6
CONTINUOUS
 62
     7
 10
161.5
 20
-139.7499048076604
 30
0.0
 11
161.5
 21
-140.75
 31
0.0
  0
LINE
  5
304
  8
1
  6
CONTINUOUS
 62
     7
 10
88.10000000000007
 20
-230.8500000000001
 30
0.0
 11
88.10000000000007
 21
-227.8500000000001
 31
0.0
  0
LINE
  5
305
  8
1
  6
CONTINUOUS
 62
     7
 10
58.47381939662777
 20
-134.15
 30
0.0
 11
58.47381939662777
 21
-139.7237242042882
 31
0.0
  0
LINE
  5
306
  8
1
  6
CENTER
 62
     1
 10
110.0
 20
-287.5
 30
0.0
 11
110.0
 21
-77.50000000000001
 31
0.0
  0
LINE
  5
307
  8
1
  6
CONTINUOUS
 62
     7
 10
176.0
 20
-151.0
 30
0.0
 11
176.0
 21
-214.0
 31
0.0
  0
LINE
  5
308
  8
1
  6
CENTER
 62
     1
 10
58.13041714906142
 20
-224.25
 30
0.0
 11
161.8695828509387
 21
-224.25
 31
0.0
  0
LINE
  5
309
  8
1
  6
CONTINUOUS
 62
     7
 10
173.5
 20
-216.5
 30
0.0
 11
138.4999999999999
 21
-216.5
 31
0.0
  0
LINE
  5
30A
  8
1
  6
CENTER
 62
     1
 10
-100.1479563742185
 20
-182.5
 30
0.0
 11
-53.1479563742184
 21
-182.5
 31
0.0
  0
ARC
  5
30B
  8
1
  6
CONTINUOUS
 62
     7
 10
92.50000000000003
 20
-151.0
 30
0.0
 40
2.499999999999947
 50
90.0
 51
180.0000000000013
  0
LINE
  5
30C
  8
1
  6
CENTER
 62
     1
 10
156.0
 20
-233.5
 30
0.0
 11
156.0
 21
-131.5
 31
0.0
  0
LINE
  5
30D
  8
1
  6
CONTINUOUS
 62
     7
 10
130.0000000000002
 20
-151.0
 30
0.0
 11
129.9999999999999
 21
-214.0
 31
0.0
  0
LINE
  5
30E
  8
1
  6
CONTINUOUS
 62
     7
 10
90.00000000000074
 20
-214.0
 30
0.0
 11
89.99999999999997
 21
-151.0
 31
0.0
  0
LINE
  5
30F
  8
1
  6
CONTINUOUS
 62
     7
 10
127.5000000000001
 20
-216.5
 30
0.0
 11
92.50000000000003
 21
-216.5
 31
0.0
  0
LINE
  5
310
  8
1
  6
CONTINUOUS
 62
     7
 10
92.50000000000003
 20
-148.4999999999998
 30
0.0
 11
127.5000000000001
 21
-148.5
 31
0.0
  0
LINE
  5
311
  8
1
  6
CONTINUOUS
 62
     7
 10
44.00000000000004
 20
-214.0
 30
0.0
 11
44.00000000000004
 21
-151.0
 31
0.0
  0
ARC
  5
312
  8
1
  6
CONTINUOUS
 62
     7
 10
156.0
 20
-182.5
 30
0.0
 40
8.299999999999974
 50
359.9999999999998
 51
180.0
  0
LINE
  5
313
  8
1
  6
CENTER
 62
     1
 10
87.00000000000018
 20
-98.50000000000003
 30
0.0
 11
86.99999999999974
 21
-266.5
 31
0.0
  0
LINE
  5
314
  8
1
  6
CONTINUOUS
 62
     7
 10
138.4999999999999
 20
-148.5
 30
0.0
 11
173.5
 21
-148.5
 31
0.0
  0
LINE
  5
315
  8
1
  6
CONTINUOUS
 62
     7
 10
31.64999999999996
 20
-220.0
 30
0.0
 11
31.64999999999996
 21
-145.0
 31
0.0
  0
LINE
  5
316
  8
1
  6
CENTER
 62
     1
 10
133.0
 20
-98.50000000000003
 30
0.0
 11
132.9999999999998
 21
-266.5
 31
0.0
  0
LINE
  5
317
  8
1
  6
CENTER
 62
     1
 10
133.0
 20
-394.8979563742186
 30
0.0
 11
133.0
 21
-348.3979563742185
 31
0.0
  0
LINE
  5
318
  8
1
  6
CENTER
 62
     1
 10
86.99999999999996
 20
-394.8979563742186
 30
0.0
 11
86.99999999999996
 21
-348.3979563742185
 31
0.0
  0
LINE
  5
319
  8
1
  6
CONTINUOUS
 62
     7
 10
136.0000000000007
 20
-214.0
 30
0.0
 11
136.0
 21
-151.0
 31
0.0
  0
LINE
  5
31A
  8
1
  6
CENTER
 62
     1
 10
109.75
 20
-371.6479563742184
 30
0.0
 11
156.2500000000001
 21
-371.6479563742184
 31
0.0
  0
LINE
  5
31B
  8
1
  6
CONTINUOUS
 62
     7
 10
183.35
 20
-230.8500000000001
 30
0.0
 11
183.35
 21
-134.15
 31
0.0
  0
LINE
  5
31C
  8
1
  6
CONTINUOUS
 62
     7
 10
183.35
 20
-230.8500000000001
 30
0.0
 11
161.5261806033722
 21
-230.8500000000001
 31
0.0
  0
LINE
  5
31D
  8
1
  6
CENTER
 62
     1
 10
49.00000000000004
 20
-386.2979563742186
 30
0.0
 11
49.00000000000004
 21
-356.9979563742184
 31
0.0
  0
ARC
  5
31E
  8
1
  6
CONTINUOUS
 62
     7
 10
156.0
 20
-182.5
 30
0.0
 40
8.299999999999974
 50
180.0
 51
0.0
  0
LINE
  5
31F
  8
1
  6
CENTER
 62
     1
 10
23.49999999999996
 20
-182.5
 30
0.0
 11
261.5
 21
-182.5
 31
0.0
  0
LINE
  5
320
  8
1
  6
CONTINUOUS
 62
     7
 10
46.49999999999999
 20
-148.5
 30
0.0
 11
81.49999999999996
 21
-148.5
 31
0.0
  0
ARC
  5
321
  8
1
  6
CONTINUOUS
 62
     7
 10
110.0
 20
-182.5
 30
0.0
 40
8.199999999999985
 50
90.0
 51
270.0
  0
LINE
  5
322
  8
1
  6
CENTER
 62
     1
 10
155.7500000000001
 20
-371.6479563742184
 30
0.0
 11
202.25
 21
-371.6479563742184
 31
0.0
  0
ARC
  5
323
  8
1
  6
CONTINUOUS
 62
     7
 10
81.50000000000001
 20
-214.0
 30
0.0
 40
2.499999999999947
 50
270.0
 51
0.0
  0
ARC
  5
324
  8
1
  6
CONTINUOUS
 62
     7
 10
110.0
 20
-182.5
 30
0.0
 40
8.199999999999985
 50
270.0
 51
90.0
  0
LINE
  5
325
  8
1
  6
CENTER
 62
     1
 10
179.0000000000001
 20
-394.8979563742186
 30
0.0
 11
179.0000000000001
 21
-348.3979563742185
 31
0.0
  0
LINE
  5
326
  8
1
  6
CENTER
 62
     1
 10
34.34999999999999
 20
-371.6479563742184
 30
0.0
 11
63.64999999999993
 21
-371.6479563742184
 31
0.0
  0
LINE
  5
327
  8
1
  6
CENTER
 62
     1
 10
64.00000000000006
 20
-233.5
 30
0.0
 11
64.00000000000006
 21
-131.5
 31
0.0
  0
LINE
  5
328
  8
1
  6
CONTINUOUS
 62
     7
 10
81.50000000000001
 20
-216.5
 30
0.0
 11
46.50000000000004
 21
-216.5
 31
0.0
  0
ARC
  5
329
  8
1
  6
CONTINUOUS
 62
     7
 10
138.4999999999999
 20
-151.0
 30
0.0
 40
2.500000000000058
 50
90.0
 51
180.0
  0
LINE
  5
32A
  8
1
  6
CONTINUOUS
 62
     7
 10
161.5261806033722
 20
-134.15
 30
0.0
 11
183.35
 21
-134.15
 31
0.0
  0
ARC
  5
32B
  8
1
  6
CONTINUOUS
 62
     7
 10
64.00000000000006
 20
-182.5
 30
0.0
 40
8.299999999999974
 50
180.0
 51
0.0
  0
LINE
  5
32C
  8
1
  6
CENTER
 62
     1
 10
58.13041714906142
 20
-140.75
 30
0.0
 11
161.8695828509387
 21
-140.75
 31
0.0
  0
LINE
  5
32D
  8
1
  6
CONTINUOUS
 62
     7
 10
84.00000000000041
 20
-151.0
 30
0.0
 11
84.00000000000001
 21
-214.0
 31
0.0
  0
ARC
  5
32E
  8
1
  6
CONTINUOUS
 62
     7
 10
64.00000000000006
 20
-182.5
 30
0.0
 40
8.299999999999974
 50
359.9999999999998
 51
180.0
  0
ARC
  5
32F
  8
1
  6
CONTINUOUS
 62
     7
 10
46.49999999999999
 20
-214.0
 30
0.0
 40
2.500000000000058
 50
180.0
 51
270.0
  0
LINE
  5
330
  8
1
  6
CONTINUOUS
 62
     7
 10
152.5
 20
-181.4
 30
0.0
 11
159.5
 21
-181.4
 31
0.0
  0
ARC
  5
331
  8
1
  6
CONTINUOUS
 62
     7
 10
60.5
 20
-183.1
 30
0.0
 40
0.500000000000056
 50
180.0
 51
270.0
  0
LINE
  5
332
  8
1
  6
CONTINUOUS
 62
     7
 10
137.0043253562345
 20
-134.15
 30
0.0
 11
136.5043443947026
 21
-134.15
 31
0.0
  0
LINE
  5
333
  8
1
  6
CONTINUOUS
 62
     7
 10
60.5
 20
-181.4
 30
0.0
 11
67.49999999999994
 21
-181.4
 31
0.0
  0
LINE
  5
334
  8
1
  6
CONTINUOUS
 62
     7
 10
159.5
 20
-183.6000000000001
 30
0.0
 11
152.5
 21
-183.6000000000001
 31
0.0
  0
LINE
  5
335
  8
1
  6
CONTINUOUS
 62
     7
 10
67.5
 20
-183.6000000000001
 30
0.0
 11
60.50000000000005
 21
-183.6000000000001
 31
0.0
  0
ARC
  5
336
  8
1
  6
CONTINUOUS
 62
     7
 10
127.5000000000001
 20
-214.0
 30
0.0
 40
2.499999999999947
 50
270.0
 51
0.0
  0
LINE
  5
337
  8
1
  6
CONTINUOUS
 62
     7
 10
244.0000000000002
 20
-184.0
 30
0.0
 11
244.0000000000002
 21
-181.0
 31
0.0
  0
LINE
  5
338
  8
1
  6
CONTINUOUS
 62
     7
 10
29.00000000000002
 20
-182.5
 30
0.0
 11
29.00000000000002
 21
-136.5
 31
0.0
  0
ARC
  5
339
  8
1
  6
CONTINUOUS
 62
     7
 10
159.5
 20
-181.9
 30
0.0
 40
0.500000000000056
 50
359.9999999999998
 51
89.9999999999992
  0
ARC
  5
33A
  8
1
  6
CONTINUOUS
 62
     7
 10
156.0
 20
-182.5
 30
0.0
 40
8.299999999999974
 50
77.52998173307293
 51
135.9762938510306
  0
LINE
  5
33B
  8
1
  6
CONTINUOUS
 62
     7
 10
67.99999999999994
 20
-181.9
 30
0.0
 11
67.99999999999994
 21
-183.1
 31
0.0
  0
ARC
  5
33C
  8
1
  6
CONTINUOUS
 62
     7
 10
67.5
 20
-183.1
 30
0.0
 40
0.4999999999999449
 50
270.0000000000007
 51
0.0000000000000568
  0
ARC
  5
33D
  8
1
  6
CONTINUOUS
 62
     7
 10
67.5
 20
-181.9
 30
0.0
 40
0.4999999999999449
 50
359.9999999999998
 51
89.9999999999992
  0
LINE
  5
33E
  8
1
  6
CONTINUOUS
 62
     7
 10
176.0
 20
-186.0
 30
0.0
 11
176.0
 21
-214.0
 31
0.0
  0
LINE
  5
33F
  8
1
  6
CONTINUOUS
 62
     7
 10
160.0
 20
-181.9
 30
0.0
 11
160.0
 21
-183.1
 31
0.0
  0
LINE
  5
340
  8
1
  6
CONTINUOUS
 62
     7
 10
157.5
 20
-266.5
 30
0.0
 11
154.5
 21
-266.5
 31
0.0
  0
ARC
  5
341
  8
1
  6
CONTINUOUS
 62
     7
 10
159.5
 20
-183.1
 30
0.0
 40
0.500000000000056
 50
270.0000000000007
 51
0.0000000000000568
  0
ARC
  5
342
  8
1
  6
CONTINUOUS
 62
     7
 10
152.5
 20
-183.1
 30
0.0
 40
0.500000000000056
 50
180.0
 51
270.0
  0
LINE
  5
343
  8
1
  6
CONTINUOUS
 62
     7
 10
60.00000000000005
 20
-183.1
 30
0.0
 11
60.00000000000005
 21
-181.9
 31
0.0
  0
LINE
  5
344
  8
1
  6
CONTINUOUS
 62
     7
 10
152.0
 20
-183.1
 30
0.0
 11
152.0
 21
-181.9
 31
0.0
  0
LINE
  5
345
  8
1
  6
CONTINUOUS
 62
     7
 10
44.00000000000004
 20
-179.0
 30
0.0
 11
44.00000000000004
 21
-159.3815773292214
 31
0.0
  0
LINE
  5
346
  8
1
  6
CONTINUOUS
 62
     7
 10
173.5
 20
-216.5
 30
0.0
 11
159.5
 21
-216.5
 31
0.0
  0
ARC
  5
347
  8
1
  6
CONTINUOUS
 62
     7
 10
173.5
 20
-214.0
 30
0.0
 40
2.500000000000058
 50
270.0
 51
0.0
  0
ARC
  5
348
  8
1
  6
CONTINUOUS
 62
     7
 10
46.49999999999999
 20
-151.0
 30
0.0
 40
2.500000000000058
 50
90.0
 51
180.0
  0
ARC
  5
349
  8
1
  6
CONTINUOUS
 62
     7
 10
64.00000000000006
 20
-182.5
 30
0.0
 40
8.299999999999974
 50
7.267735092953728
 51
42.47001826692701
  0
ARC
  5
34A
  8
1
  6
CONTINUOUS
 62
     7
 10
152.5
 20
-181.9
 30
0.0
 40
0.500000000000056
 50
90.0
 51
180.0
  0
LINE
  5
34B
  8
1
  6
CONTINUOUS
 62
     7
 10
106.5
 20
-216.5
 30
0.0
 11
92.50000000000003
 21
-216.5
 31
0.0
  0
ARC
  5
34C
  8
1
  6
CONTINUOUS
 62
     7
 10
92.50000000000003
 20
-214.0
 30
0.0
 40
2.499999999999947
 50
180.0
 51
270.0
  0
LINE
  5
34D
  8
1
  6
CONTINUOUS
 62
     7
 10
148.5
 20
-148.5
 30
0.0
 11
152.5
 21
-148.5
 31
0.0
  0
LINE
  5
34E
  8
1
  6
CONTINUOUS
 62
     7
 10
89.99999999999997
 20
-203.0
 30
0.0
 11
89.99999999999997
 21
-186.0
 31
0.0
  0
ARC
  5
34F
  8
1
  6
CONTINUOUS
 62
     7
 10
138.4999999999999
 20
-214.0
 30
0.0
 40
2.500000000000058
 50
180.0
 51
270.0
  0
ARC
  5
350
  8
1
  6
CONTINUOUS
 62
     7
 10
173.5
 20
-151.0
 30
0.0
 40
2.500000000000058
 50
0.0
 51
90.0
  0
LINE
  5
351
  8
1
  6
CONTINUOUS
 62
     7
 10
91.00432535623459
 20
-134.15
 30
0.0
 11
90.50434439470244
 21
-134.15
 31
0.0
  0
LINE
  5
352
  8
1
  6
CONTINUOUS
 62
     7
 10
34.00000000000003
 20
-131.5
 30
0.0
 11
44.50434439470263
 21
-131.5
 31
0.0
  0
ARC
  5
353
  8
1
  6
CONTINUOUS
 62
     7
 10
81.50000000000001
 20
-151.0
 30
0.0
 40
2.499999999999947
 50
0.0
 51
90.0
  0
LINE
  5
354
  8
1
  6
CONTINUOUS
 62
     7
 10
90.50434439470267
 20
-230.8500000000001
 30
0.0
 11
91.00432535623459
 21
-230.8500000000001
 31
0.0
  0
LINE
  5
355
  8
1
  6
CONTINUOUS
 62
     7
 10
37.15001903919279
 20
-134.15
 30
0.0
 11
44.50434439470263
 21
-134.15
 31
0.0
  0
ARC
  5
356
  8
1
  6
CONTINUOUS
 62
     7
 10
34.00000000000003
 20
-136.5
 30
0.0
 40
5.000000000000004
 50
90.0
 51
180.0
  0
ARC
  5
357
  8
1
  6
CONTINUOUS
 62
     7
 10
127.5000000000001
 20
-151.0
 30
0.0
 40
2.499999999999947
 50
0.0
 51
90.0
  0
LINE
  5
358
  8
1
  6
CONTINUOUS
 62
     7
 10
159.0000951923396
 20
-227.75
 30
0.0
 11
152.9999048076604
 21
-227.75
 31
0.0
  0
LINE
  5
359
  8
1
  6
CONTINUOUS
 62
     7
 10
137.0043253562345
 20
-233.5
 30
0.0
 11
136.5043443947026
 21
-233.5
 31
0.0
  0
ARC
  5
35A
  8
1
  6
CONTINUOUS
 62
     7
 10
60.5
 20
-181.9
 30
0.0
 40
0.500000000000056
 50
90.0
 51
180.0
  0
LINE
  5
35B
  8
1
  6
CONTINUOUS
 62
     7
 10
115.5
 20
-139.7499048076604
 30
0.0
 11
115.5
 21
-140.75
 31
0.0
  0
LINE
  5
35C
  8
1
  6
CONTINUOUS
 62
     7
 10
45.00432535623455
 20
-233.5
 30
0.0
 11
44.50434439470258
 21
-233.5
 31
0.0
  0
LINE
  5
35D
  8
1
  6
CONTINUOUS
 62
     7
 10
44.50434439470263
 20
-230.8500000000001
 30
0.0
 11
45.00432535623461
 21
-230.8500000000001
 31
0.0
  0
LINE
  5
35E
  8
1
  6
CONTINUOUS
 62
     7
 10
152.9737242042882
 20
-227.7761806033722
 30
0.0
 11
159.0262757957118
 21
-227.7761806033722
 31
0.0
  0
ARC
  5
35F
  8
1
  6
CONTINUOUS
 62
     7
 10
156.0
 20
-182.5
 30
0.0
 40
8.299999999999974
 50
7.267735092953728
 51
42.47001826692701
  0
LINE
  5
360
  8
1
  6
CONTINUOUS
 62
     7
 10
111.5
 20
-266.5
 30
0.0
 11
108.5
 21
-266.5
 31
0.0
  0
LINE
  5
361
  8
1
  6
CONTINUOUS
 62
     7
 10
44.00000000000004
 20
-206.3
 30
0.0
 11
44.00000000000004
 21
-186.0
 31
0.0
  0
LINE
  5
362
  8
1
  6
CONTINUOUS
 62
     7
 10
130.0
 20
-151.0
 30
0.0
 11
130.0
 21
-153.0
 31
0.0
  0
LINE
  5
363
  8
1
  6
CONTINUOUS
 62
     7
 10
91.00432535623459
 20
-233.5
 30
0.0
 11
90.50434439470244
 21
-233.5
 31
0.0
  0
LINE
  5
364
  8
1
  6
CONTINUOUS
 62
     7
 10
83.99999999999996
 20
-151.0
 30
0.0
 11
83.99999999999996
 21
-153.0
 31
0.0
  0
ARC
  5
365
  8
1
  6
CONTINUOUS
 62
     7
 10
110.0
 20
-224.25
 30
0.0
 40
5.50000000000006
 50
0.0
 51
65.38002267134323
  0
ARC
  5
366
  8
1
  6
CONTINUOUS
 62
     7
 10
64.00000000000006
 20
-140.75
 30
0.0
 40
5.499999999999949
 50
294.6199773286566
 51
0.0
  0
ENDSEC
  0
EOF
