  0
SECTION
  2
HEADER
  9
$ACADVER
  1
AC1006
  9
$DWGCODEPAGE
  3
ansi_932
  9
$INSBASE
 10
0.0
 20
0.0
 30
0.0
  9
$EXTMIN
 10
-263.3333333333334
 20
61.03608807453532
  9
$EXTMAX
 10
-93.53608807453531
 20
257.5
  9
$LIMMIN
 10
0.0
 20
0.0
  9
$LIMMAX
 10
12.0
 20
9.0
  9
$ORTHOMODE
 70
     0
  9
$REGENMODE
 70
     1
  9
$FILLMODE
 70
     1
  9
$QTEXTMODE
 70
     0
  9
$MIRRTEXT
 70
     1
  9
$DRAGMODE
 70
     2
  9
$LTSCALE
 40
1.0
  9
$OSMODE
 70
    37
  9
$ATTMODE
 70
     1
  9
$TEXTSIZE
 40
0.2
  9
$TRACEWID
 40
0.05
  9
$TEXTSTYLE
  7
STANDARD
  9
$CLAYER
  8
0
  9
$CELTYPE
  6
BYLAYER
  9
$CECOLOR
 62
   256
  9
$DIMSCALE
 40
1.0
  9
$DIMASZ
 40
3.0
  9
$DIMEXO
 40
0.0625
  9
$DIMDLI
 40
0.38
  9
$DIMRND
 40
0.0
  9
$DIMDLE
 40
0.0
  9
$DIMEXE
 40
1.5
  9
$DIMTP
 40
0.0
  9
$DIMTM
 40
0.0
  9
$DIMTXT
 40
3.0
  9
$DIMCEN
 40
0.09
  9
$DIMTSZ
 40
0.0
  9
$DIMTOL
 70
     0
  9
$DIMLIM
 70
     0
  9
$DIMTIH
 70
     1
  9
$DIMTOH
 70
     1
  9
$DIMSE1
 70
     0
  9
$DIMSE2
 70
     0
  9
$DIMTAD
 70
     1
  9
$DIMZIN
 70
     0
  9
$DIMBLK
  1

  9
$DIMASO
 70
     1
  9
$DIMSHO
 70
     1
  9
$DIMPOST
  1

  9
$DIMAPOST
  1

  9
$DIMALT
 70
     0
  9
$DIMALTD
 70
     2
  9
$DIMALTF
 40
25.4
  9
$DIMLFAC
 40
1.0
  9
$DIMTOFL
 70
     0
  9
$DIMTVP
 40
0.0
  9
$DIMTIX
 70
     0
  9
$DIMSOXD
 70
     0
  9
$DIMSAH
 70
     0
  9
$DIMBLK1
  1

  9
$DIMBLK2
  1

  9
$LUNITS
 70
     2
  9
$LUPREC
 70
     4
  9
$SKETCHINC
 40
0.1
  9
$FILLETRAD
 40
0.5
  9
$AUNITS
 70
     0
  9
$AUPREC
 70
     0
  9
$MENU
  1
.
  9
$ELEVATION
 40
0.0
  9
$THICKNESS
 40
0.0
  9
$LIMCHECK
 70
     0
  9
$CHAMFERA
 40
0.0
  9
$CHAMFERB
 40
0.0
  9
$SKPOLY
 70
     0
  9
$TDCREATE
 40
2460710.549690822
  9
$TDUPDATE
 40
2460710.549691192
  9
$TDINDWG
 40
0.0000000116
  9
$TDUSRTIMER
 40
0.0000000116
  9
$USRTIMER
 70
     1
  9
$ANGBASE
 50
0.0
  9
$ANGDIR
 70
     0
  9
$PDMODE
 70
     0
  9
$PDSIZE
 40
0.0
  9
$PLINEWID
 40
0.0
  9
$COORDS
 70
     1
  9
$SPLFRAME
 70
     0
  9
$SPLINETYPE
 70
     6
  9
$SPLINESEGS
 70
     8
  9
$ATTDIA
 70
     0
  9
$ATTREQ
 70
     1
  9
$HANDLING
 70
     1
  9
$HANDSEED
  5
A44
  9
$SURFTAB1
 70
     6
  9
$SURFTAB2
 70
     6
  9
$SURFTYPE
 70
     6
  9
$SURFU
 70
     6
  9
$SURFV
 70
     6
  9
$UCSNAME
  2

  9
$UCSORG
 10
0.0
 20
0.0
 30
0.0
  9
$UCSXDIR
 10
1.0
 20
0.0
 30
0.0
  9
$UCSYDIR
 10
0.0
 20
1.0
 30
0.0
  9
$USERI1
 70
     0
  9
$USERI2
 70
     0
  9
$USERI3
 70
     0
  9
$USERI4
 70
     0
  9
$USERI5
 70
     0
  9
$USERR1
 40
0.0
  9
$USERR2
 40
0.0
  9
$USERR3
 40
0.0
  9
$USERR4
 40
0.0
  9
$USERR5
 40
0.0
  9
$WORLDVIEW
 70
     1
  0
ENDSEC
  0
SECTION
  2
TABLES
  0
TABLE
  2
VPORT
 70
     1
  0
VPORT
  2
*ACTIVE
 70
     0
 10
0.0
 20
0.0
 11
1.0
 21
1.0
 12
-178.4347107039343
 22
159.2680440372677
 13
0.0
 23
0.0
 14
0.5
 24
0.5
 15
0.5
 25
0.5
 16
0.0
 26
0.0
 36
1.0
 17
0.0
 27
0.0
 37
0.0
 40
196.4639119254647
 41
1.6
 42
50.0
 43
0.0
 44
0.0
 50
0.0
 51
0.0
 71
     0
 72
   100
 73
     1
 74
     3
 75
     0
 76
     0
 77
     0
 78
     0
  0
ENDTAB
  0
TABLE
  2
LTYPE
 70
     2
  0
LTYPE
  2
CONTINUOUS
 70
     0
  3
Solid line
 72
    65
 73
     0
 40
0.0
  0
LTYPE
  2
CENTER
 70
     0
  3

 72
    65
 73
     0
 40
0.0
  0
ENDTAB
  0
TABLE
  2
LAYER
 70
     2
  0
LAYER
  2
0
 70
     0
 62
     7
  6
CONTINUOUS
  0
LAYER
  2
1
 70
     0
 62
     7
  6
CONTINUOUS
  0
ENDTAB
  0
TABLE
  2
STYLE
 70
     2
  0
STYLE
  2
STANDARD
 70
     0
 40
0.0
 41
1.0
 50
0.0
 71
     0
 42
0.2
  3
txt
  4

  0
STYLE
  2
ＭＳ_ゴシック
 70
     0
 40
0.0
 41
1.0
 50
0.0
 71
     0
 42
0.2
  3
ＭＳ ゴシック.shx
  4

  0
ENDTAB
  0
TABLE
  2
VIEW
 70
     0
  0
ENDTAB
  0
TABLE
  2
UCS
 70
     0
  0
ENDTAB
  0
ENDSEC
  0
SECTION
  2
BLOCKS
  0
BLOCK
  8
0
  2
D_FRAME_VIEW_2464
 70
     0
 10
0.0
 20
0.0
 30
0.0
  0
LINE
  5
77
  8
1
  6
CONTINUOUS
 62
     7
 10
-102.538011863182
 20
191.75
 30
0.0
 11
-105.5639119254647
 21
191.75
 31
0.0
  0
ARC
  5
78
  8
1
  6
CONTINUOUS
 62
     7
 10
-109.0631483176124
 20
189.4234982528261
 30
0.0
 40
6.927482668945509
 50
0.63274302426277
 51
19.62341497615295
  0
ARC
  5
79
  8
1
  6
CONTINUOUS
 62
     7
 10
-109.1869254575191
 20
189.5986124036268
 30
0.0
 40
7.051526941551731
 50
340.5451235887143
 51
359.19871841087
  0
LINE
  5
7A
  8
1
  6
CONTINUOUS
 62
     7
 10
-102.538011863182
 20
187.25
 30
0.0
 11
-105.5639119254647
 21
187.25
 31
0.0
  0
ARC
  5
7B
  8
1
  6
CONTINUOUS
 62
     7
 10
-109.0631483176124
 20
184.9234982528261
 30
0.0
 40
6.927482668945509
 50
0.63274302426277
 51
19.62341497615295
  0
LINE
  5
7C
  8
1
  6
CONTINUOUS
 62
     7
 10
-102.1360880745353
 20
185.0
 30
0.0
 11
-102.1360880745353
 21
189.5
 31
0.0
  0
ARC
  5
7D
  8
1
  6
CONTINUOUS
 62
     7
 10
-109.1869254575194
 20
185.0986124036269
 30
0.0
 40
7.0515269415521
 50
340.5451235887147
 51
359.1987184108694
  0
LINE
  5
7E
  8
1
  6
CONTINUOUS
 62
     7
 10
-102.538011863182
 20
182.75
 30
0.0
 11
-105.5639119254647
 21
182.75
 31
0.0
  0
LINE
  5
7F
  8
1
  6
CONTINUOUS
 62
     7
 10
-102.1360880745353
 20
182.75
 30
0.0
 11
-102.538011863182
 21
182.75
 31
0.0
  0
LINE
  5
80
  8
1
  6
CONTINUOUS
 62
     7
 10
-102.1360880745353
 20
182.75
 30
0.0
 11
-102.1360880745353
 21
185.0
 31
0.0
  0
LINE
  5
81
  8
1
  6
CONTINUOUS
 62
     7
 10
-102.538011863182
 20
191.75
 30
0.0
 11
-102.1360880745353
 21
191.75
 31
0.0
  0
LINE
  5
82
  8
1
  6
CONTINUOUS
 62
     7
 10
-102.1360880745353
 20
189.5
 30
0.0
 11
-102.1360880745353
 21
191.75
 31
0.0
  0
LINE
  5
83
  8
1
  6
CONTINUOUS
 62
     7
 10
-120.9360880745353
 20
182.5
 30
0.0
 11
-120.9360880745353
 21
192.0
 31
0.0
  0
LINE
  5
84
  8
1
  6
CONTINUOUS
 62
     9
 10
-122.5473754755786
 20
191.6090306187266
 30
0.0
 11
-122.5473754755786
 21
187.85
 31
0.0
  0
LINE
  5
85
  8
1
  6
CONTINUOUS
 62
     9
 10
-122.5473754755786
 20
186.6500000000001
 30
0.0
 11
-122.5473754755786
 21
182.8909693812734
 31
0.0
  0
LINE
  5
86
  8
1
  6
CONTINUOUS
 62
     7
 10
-122.4360880745353
 20
186.65
 30
0.0
 11
-122.5473754755786
 21
186.65
 31
0.0
  0
LINE
  5
87
  8
1
  6
CONTINUOUS
 62
     7
 10
-122.4360880745353
 20
187.85
 30
0.0
 11
-122.4360880745353
 21
186.65
 31
0.0
  0
LINE
  5
88
  8
1
  6
CONTINUOUS
 62
     7
 10
-122.5473754755786
 20
187.85
 30
0.0
 11
-122.4360880745353
 21
187.85
 31
0.0
  0
LINE
  5
89
  8
1
  6
CONTINUOUS
 62
     9
 10
-123.8508858403441
 20
187.85
 30
0.0
 11
-123.8508858403441
 21
190.7063988772247
 31
0.0
  0
LINE
  5
8A
  8
1
  6
CONTINUOUS
 62
     7
 10
-123.8508858403441
 20
187.85
 30
0.0
 11
-122.5473754755786
 21
187.85
 31
0.0
  0
LINE
  5
8B
  8
1
  6
CONTINUOUS
 62
     9
 10
-123.8508858403441
 20
183.7936011227753
 30
0.0
 11
-123.8508858403441
 21
186.65
 31
0.0
  0
LINE
  5
8C
  8
1
  6
CONTINUOUS
 62
     7
 10
-122.5473754755786
 20
186.65
 30
0.0
 11
-123.8508858403441
 21
186.65
 31
0.0
  0
LINE
  5
8D
  8
1
  6
CONTINUOUS
 62
     7
 10
-124.2516970455894
 20
184.8746052959561
 30
0.0
 11
-124.2516970455894
 21
184.8
 31
0.0
  0
ARC
  5
8E
  8
1
  6
CONTINUOUS
 62
     7
 10
-116.6360880745353
 20
187.25
 30
0.0
 40
7.97746827007164
 50
187.9256729887716
 51
197.3232917916808
  0
LINE
  5
8F
  8
1
  6
CONTINUOUS
 62
     7
 10
-124.5373537959245
 20
186.65
 30
0.0
 11
-124.5373537959245
 21
186.15
 31
0.0
  0
LINE
  5
90
  8
1
  6
CONTINUOUS
 62
     7
 10
-123.8508858403441
 20
186.65
 30
0.0
 11
-124.5373537959245
 21
186.65
 31
0.0
  0
LINE
  5
91
  8
1
  6
CONTINUOUS
 62
     7
 10
-124.2516970455894
 20
189.7
 30
0.0
 11
-124.2516970455894
 21
189.6253947040439
 31
0.0
  0
LINE
  5
92
  8
1
  6
CONTINUOUS
 62
     7
 10
-124.5373537959245
 20
188.35
 30
0.0
 11
-124.5373537959245
 21
187.85
 31
0.0
  0
ARC
  5
93
  8
1
  6
CONTINUOUS
 62
     7
 10
-116.6360880745353
 20
187.25
 30
0.0
 40
7.977468270071652
 50
162.6767082083192
 51
172.0743270112283
  0
LINE
  5
94
  8
1
  6
CONTINUOUS
 62
     7
 10
-124.5373537959245
 20
187.85
 30
0.0
 11
-123.8508858403441
 21
187.85
 31
0.0
  0
LINE
  5
95
  8
1
  6
CONTINUOUS
 62
     7
 10
-100.9360880745353
 20
189.35
 30
0.0
 11
-100.9360880745353
 21
185.15
 31
0.0
  0
LINE
  5
96
  8
1
  6
CONTINUOUS
 62
     7
 10
-101.3360880745353
 20
184.75
 30
0.0
 11
-101.3360880745353
 21
189.75
 31
0.0
  0
LINE
  5
97
  8
1
  6
CONTINUOUS
 62
     7
 10
-106.3639119254647
 20
233.75
 30
0.0
 11
-108.6639119254647
 21
233.75
 31
0.0
  0
LINE
  5
98
  8
1
  6
CONTINUOUS
 62
     9
 10
-106.3639119254647
 20
231.25
 30
0.0
 11
-108.6639119254647
 21
231.25
 31
0.0
  0
LINE
  5
99
  8
1
  6
CONTINUOUS
 62
     7
 10
-108.6639119254647
 20
231.25
 30
0.0
 11
-108.6639119254647
 21
233.75
 31
0.0
  0
LINE
  5
9A
  8
1
  6
CONTINUOUS
 62
     7
 10
-106.3639119254647
 20
231.25
 30
0.0
 11
-106.3639119254647
 21
233.75
 31
0.0
  0
LINE
  5
9B
  8
1
  6
CONTINUOUS
 62
     9
 10
-106.3639119254647
 20
187.25
 30
0.0
 11
-108.6639119254647
 21
187.25
 31
0.0
  0
LINE
  5
9C
  8
1
  6
CONTINUOUS
 62
     7
 10
-108.6639119254647
 20
187.25
 30
0.0
 11
-108.6639119254647
 21
231.25
 31
0.0
  0
LINE
  5
9D
  8
1
  6
CONTINUOUS
 62
     7
 10
-106.3639119254647
 20
187.25
 30
0.0
 11
-106.3639119254647
 21
231.25
 31
0.0
  0
LINE
  5
9E
  8
1
  6
CONTINUOUS
 62
     7
 10
-106.3639119254647
 20
178.75
 30
0.0
 11
-108.6639119254647
 21
178.75
 31
0.0
  0
LINE
  5
9F
  8
1
  6
CONTINUOUS
 62
     7
 10
-108.6639119254647
 20
179.4382975193949
 30
0.0
 11
-108.6639119254647
 21
187.25
 31
0.0
  0
LINE
  5
A0
  8
1
  6
CONTINUOUS
 62
     7
 10
-106.3639119254647
 20
178.75
 30
0.0
 11
-106.3639119254647
 21
187.25
 31
0.0
  0
LINE
  5
A1
  8
1
  6
CONTINUOUS
 62
     9
 10
-106.0639119254647
 20
229.75
 30
0.0
 11
-106.0639119254647
 21
187.25
 31
0.0
  0
LINE
  5
A2
  8
1
  6
CONTINUOUS
 62
     9
 10
-106.0639119254647
 20
229.75
 30
0.0
 11
-105.5639119254647
 21
229.75
 31
0.0
  0
LINE
  5
A3
  8
1
  6
CONTINUOUS
 62
     7
 10
-105.5639119254647
 20
187.25
 30
0.0
 11
-105.5639119254647
 21
229.75
 31
0.0
  0
LINE
  5
A4
  8
1
  6
CONTINUOUS
 62
     9
 10
-105.5639119254647
 20
187.25
 30
0.0
 11
-106.0639119254647
 21
187.25
 31
0.0
  0
LINE
  5
A5
  8
1
  6
CONTINUOUS
 62
     9
 10
-106.0639119254647
 20
231.75
 30
0.0
 11
-106.0639119254647
 21
229.75
 31
0.0
  0
LINE
  5
A6
  8
1
  6
CONTINUOUS
 62
     9
 10
-106.3639119254647
 20
229.75
 30
0.0
 11
-106.0639119254647
 21
229.75
 31
0.0
  0
LINE
  5
A7
  8
1
  6
CONTINUOUS
 62
     7
 10
-106.3639119254647
 20
231.75
 30
0.0
 11
-106.0639119254647
 21
231.75
 31
0.0
  0
LINE
  5
A8
  8
1
  6
CONTINUOUS
 62
     7
 10
-105.5639119254647
 20
229.75
 30
0.0
 11
-105.5639119254647
 21
231.25
 31
0.0
  0
ARC
  5
A9
  8
1
  6
CONTINUOUS
 62
     7
 10
-106.0639119254647
 20
231.25
 30
0.0
 40
0.5000000000000004
 50
0.0000000000007958
 51
90.0000000000008
  0
LINE
  5
AA
  8
1
  6
CONTINUOUS
 62
     9
 10
-106.3639119254647
 20
187.25
 30
0.0
 11
-106.0639119254647
 21
187.25
 31
0.0
  0
LINE
  5
AB
  8
1
  6
CONTINUOUS
 62
     9
 10
-106.0639119254647
 20
187.25
 30
0.0
 11
-106.0639119254647
 21
180.75
 31
0.0
  0
LINE
  5
AC
  8
1
  6
CONTINUOUS
 62
     7
 10
-105.5639119254647
 20
181.25
 30
0.0
 11
-105.5639119254647
 21
187.25
 31
0.0
  0
ARC
  5
AD
  8
1
  6
CONTINUOUS
 62
     7
 10
-106.0639119254647
 20
181.25
 30
0.0
 40
0.5000000000000004
 50
269.9999999999992
 51
0.0
  0
LINE
  5
AE
  8
1
  6
CONTINUOUS
 62
     7
 10
-106.3639119254647
 20
180.75
 30
0.0
 11
-106.0639119254647
 21
180.75
 31
0.0
  0
LINE
  5
AF
  8
1
  6
CONTINUOUS
 62
     7
 10
-104.3639119254647
 20
194.25
 30
0.0
 11
-104.3639119254647
 21
191.75
 31
0.0
  0
LINE
  5
B0
  8
1
  6
CONTINUOUS
 62
     7
 10
-105.5639119254647
 20
194.25
 30
0.0
 11
-104.3639119254647
 21
194.25
 31
0.0
  0
ARC
  5
B1
  8
1
  6
CONTINUOUS
 62
     7
 10
-106.3639119254647
 20
224.5830302779823
 30
0.0
 40
1.999999999999986
 50
293.5781784782018
 51
0.0
  0
LINE
  5
B2
  8
1
  6
CONTINUOUS
 62
     7
 10
-104.3639119254647
 20
224.5830302779823
 30
0.0
 11
-104.3639119254647
 21
225.9169697220177
 31
0.0
  0
ARC
  5
B3
  8
1
  6
CONTINUOUS
 62
     7
 10
-106.3639119254647
 20
225.9169697220177
 30
0.0
 40
2.000000000000002
 50
0.0
 51
66.42182152179838
  0
LINE
  5
B4
  8
1
  6
CONTINUOUS
 62
     9
 10
-99.86391192546468
 20
194.75
 30
0.0
 11
-99.86391192546468
 21
192.45
 31
0.0
  0
LINE
  5
B5
  8
1
  6
CONTINUOUS
 62
     7
 10
-104.3639119254647
 20
192.45
 30
0.0
 11
-99.86391192546468
 21
192.45
 31
0.0
  0
LINE
  5
B6
  8
1
  6
CONTINUOUS
 62
     7
 10
-99.86391192546468
 20
194.75
 30
0.0
 11
-105.5639119254647
 21
194.75
 31
0.0
  0
LINE
  5
B7
  8
1
  6
CONTINUOUS
 62
     7
 10
-98.86391192546468
 20
192.45
 30
0.0
 11
-98.86391192546468
 21
194.75
 31
0.0
  0
LINE
  5
B8
  8
1
  6
CONTINUOUS
 62
     7
 10
-99.86391192546468
 20
192.45
 30
0.0
 11
-98.86391192546468
 21
192.45
 31
0.0
  0
LINE
  5
B9
  8
1
  6
CONTINUOUS
 62
     7
 10
-98.86391192546468
 20
194.75
 30
0.0
 11
-99.86391192546468
 21
194.75
 31
0.0
  0
LINE
  5
BA
  8
1
  6
CONTINUOUS
 62
     7
 10
-108.6639119254647
 20
224.4552381154238
 30
0.0
 11
-109.6360880745353
 21
224.4552381154238
 31
0.0
  0
LINE
  5
BB
  8
1
  6
CONTINUOUS
 62
     7
 10
-109.6360880745353
 20
224.4929258076101
 30
0.0
 11
-108.6639119254647
 21
224.5774608086449
 31
0.0
  0
LINE
  5
BC
  8
1
  6
CONTINUOUS
 62
     7
 10
-109.6360880745353
 20
233.75
 30
0.0
 11
-108.6639119254647
 21
233.75
 31
0.0
  0
LINE
  5
BD
  8
1
  6
CONTINUOUS
 62
     7
 10
-109.6360880745353
 20
219.2876876921864
 30
0.0
 11
-108.6639119254647
 21
219.3722226932211
 31
0.0
  0
LINE
  5
BE
  8
1
  6
CONTINUOUS
 62
     7
 10
-109.6360880745353
 20
215.25
 30
0.0
 11
-108.6639119254647
 21
215.25
 31
0.0
  0
LINE
  5
BF
  8
1
  6
CONTINUOUS
 62
     7
 10
-109.6360880745353
 20
224.45
 30
0.0
 11
-108.6639119254647
 21
224.45
 31
0.0
  0
LINE
  5
C0
  8
1
  6
CONTINUOUS
 62
     9
 10
-114.0360880745353
 20
244.7422186012894
 30
0.0
 11
-111.2360880745353
 21
244.7422186012894
 31
0.0
  0
LINE
  5
C1
  8
1
  6
CONTINUOUS
 62
     7
 10
-114.0360880745353
 20
246.1101032649314
 30
0.0
 11
-114.0360880745353
 21
244.7422186012894
 31
0.0
  0
LINE
  5
C2
  8
1
  6
CONTINUOUS
 62
     9
 10
-114.0360880745353
 20
246.1101032649314
 30
0.0
 11
-111.2360880745353
 21
246.1101032649314
 31
0.0
  0
LINE
  5
C3
  8
1
  6
CONTINUOUS
 62
     7
 10
-111.2360880745353
 20
246.1101032649314
 30
0.0
 11
-111.2360880745353
 21
244.7422186012894
 31
0.0
  0
POLYLINE
  5
C4
  8
1
  6
CONTINUOUS
 62
     7
 66
     1
 10
0.0
 20
0.0
 30
0.0
  0
VERTEX
  5
4FF
  8
1
  6
CONTINUOUS
 62
     7
 10
-114.4180540857854
 20
240.25
 30
0.0
  0
VERTEX
  5
500
  8
1
  6
CONTINUOUS
 62
     7
 10
-114.337682382936
 20
240.3478741576934
 30
0.0
  0
VERTEX
  5
501
  8
1
  6
CONTINUOUS
 62
     7
 10
-114.2642492176628
 20
240.45474788768
 30
0.0
  0
VERTEX
  5
502
  8
1
  6
CONTINUOUS
 62
     7
 10
-114.2191630140943
 20
240.5318673682398
 30
0.0
  0
VERTEX
  5
503
  8
1
  6
CONTINUOUS
 62
     7
 10
-114.177983977864
 20
240.6131638155597
 30
0.0
  0
VERTEX
  5
504
  8
1
  6
CONTINUOUS
 62
     7
 10
-114.1411170399101
 20
240.6985874388776
 30
0.0
  0
VERTEX
  5
505
  8
1
  6
CONTINUOUS
 62
     7
 10
-114.1112495714702
 20
240.7811294379655
 30
0.0
  0
VERTEX
  5
506
  8
1
  6
CONTINUOUS
 62
     7
 10
-114.0857523517618
 20
240.8672054736571
 30
0.0
  0
VERTEX
  5
507
  8
1
  6
CONTINUOUS
 62
     7
 10
-114.0650438360499
 20
240.9566932520058
 30
0.0
  0
VERTEX
  5
508
  8
1
  6
CONTINUOUS
 62
     7
 10
-114.049324613564
 20
241.0511637525952
 30
0.0
  0
VERTEX
  5
509
  8
1
  6
CONTINUOUS
 62
     7
 10
-114.0394890372147
 20
241.1490328001363
 30
0.0
  0
VERTEX
  5
50A
  8
1
  6
CONTINUOUS
 62
     7
 10
-114.0360880745353
 20
241.25
 30
0.0
  0
SEQEND
  5
A10
  8
1
  6
CONTINUOUS
 62
     7
  0
ARC
  5
C5
  8
1
  6
CONTINUOUS
 62
     7
 10
-109.7360880745089
 20
241.2500000000248
 30
0.0
 40
1.500000000035955
 50
201.5681949292875
 51
229.8808331014346
  0
POLYLINE
  5
C6
  8
1
  6
CONTINUOUS
 62
     7
 66
     1
 10
0.0
 20
0.0
 30
0.0
  0
VERTEX
  5
50B
  8
1
  6
CONTINUOUS
 62
     7
 10
-111.1310591091606
 20
240.6985874388778
 30
0.0
  0
VERTEX
  5
50C
  8
1
  6
CONTINUOUS
 62
     7
 10
-111.1864237973089
 20
240.8672054736573
 30
0.0
  0
VERTEX
  5
50D
  8
1
  6
CONTINUOUS
 62
     7
 10
-111.2228515355066
 20
241.0511637525953
 30
0.0
  0
VERTEX
  5
50E
  8
1
  6
CONTINUOUS
 62
     7
 10
-111.2360880745353
 20
241.25
 30
0.0
  0
SEQEND
  5
A11
  8
1
  6
CONTINUOUS
 62
     7
  0
LINE
  5
C7
  8
1
  6
CONTINUOUS
 62
     7
 10
-110.6369314873814
 20
239.9038461538461
 30
0.0
 11
-110.702657293662
 21
240.1029411764706
 31
0.0
  0
LINE
  5
C8
  8
1
  6
CONTINUOUS
 62
     9
 10
-114.4564378475112
 20
239.9038461538461
 30
0.0
 11
-110.6369314873814
 21
239.9038461538461
 31
0.0
  0
POLYLINE
  5
C9
  8
1
  6
CONTINUOUS
 62
     7
 66
     1
 10
0.0
 20
0.0
 30
0.0
  0
VERTEX
  5
50F
  8
1
  6
CONTINUOUS
 62
     7
 10
-114.4180540857854
 20
240.25
 30
0.0
  0
VERTEX
  5
510
  8
1
  6
CONTINUOUS
 62
     7
 10
-114.4781445763609
 20
240.1475894481523
 30
0.0
  0
VERTEX
  5
511
  8
1
  6
CONTINUOUS
 62
     7
 10
-114.4935205398006
 20
240.0261209491726
 30
0.0
  0
VERTEX
  5
512
  8
1
  6
CONTINUOUS
 62
     7
 10
-114.4564378475112
 20
239.9038461538461
 30
0.0
  0
SEQEND
  5
A12
  8
1
  6
CONTINUOUS
 62
     7
  0
LINE
  5
CA
  8
1
  6
CONTINUOUS
 62
     7
 10
-111.2360880745353
 20
244.7422186012894
 30
0.0
 11
-111.2360880745353
 21
241.25
 31
0.0
  0
LINE
  5
CB
  8
1
  6
CONTINUOUS
 62
     7
 10
-114.0360880745353
 20
244.7422186012894
 30
0.0
 11
-114.0360880745353
 21
241.25
 31
0.0
  0
LINE
  5
CC
  8
1
  6
CONTINUOUS
 62
     7
 10
-114.0360880745353
 20
250.75
 30
0.0
 11
-111.2360880745353
 21
250.75
 31
0.0
  0
LINE
  5
CD
  8
1
  6
CONTINUOUS
 62
     7
 10
-111.2360880745353
 20
250.75
 30
0.0
 11
-111.2360880745353
 21
246.1101032649314
 31
0.0
  0
LINE
  5
CE
  8
1
  6
CONTINUOUS
 62
     7
 10
-114.0360880745353
 20
250.75
 30
0.0
 11
-114.0360880745353
 21
246.1101032649314
 31
0.0
  0
LINE
  5
CF
  8
1
  6
CONTINUOUS
 62
     7
 10
-114.0104566164079
 20
239.75
 30
0.0
 11
-114.1944472880354
 21
239.75
 31
0.0
  0
LINE
  5
D0
  8
1
  6
CONTINUOUS
 62
     7
 10
-110.8315331895456
 20
239.75
 30
0.0
 11
-111.2617195326628
 21
239.75
 31
0.0
  0
LINE
  5
D1
  8
1
  6
CONTINUOUS
 62
     7
 10
-111.2617195326628
 20
239.75
 30
0.0
 11
-114.0104566164079
 21
239.75
 31
0.0
  0
LINE
  5
D2
  8
1
  6
CONTINUOUS
 62
     7
 10
-110.6369314873814
 20
239.9038461538461
 30
0.0
 11
-110.8315331895456
 21
239.75
 31
0.0
  0
LINE
  5
D3
  8
1
  6
CONTINUOUS
 62
     7
 10
-114.1944472880354
 20
239.75
 30
0.0
 11
-114.4564378475112
 21
239.9038461538461
 31
0.0
  0
LINE
  5
D4
  8
1
  6
CONTINUOUS
 62
     7
 10
-109.6360880745353
 20
202.25
 30
0.0
 11
-115.6360880745353
 21
202.25
 31
0.0
  0
LINE
  5
D5
  8
1
  6
CONTINUOUS
 62
     7
 10
-109.6360880745353
 20
239.75
 30
0.0
 11
-109.7360880745353
 21
239.75
 31
0.0
  0
LINE
  5
D6
  8
1
  6
CONTINUOUS
 62
     7
 10
-115.5360880745353
 20
239.75
 30
0.0
 11
-115.6360880745353
 21
239.75
 31
0.0
  0
ARC
  5
D7
  8
1
  6
CONTINUOUS
 62
     7
 10
-115.5360887732339
 20
241.2500015623375
 30
0.0
 40
1.500001562337646
 50
270.0000266882906
 51
318.1896584159298
  0
ARC
  5
D8
  8
1
  6
CONTINUOUS
 62
     7
 10
-109.7360880745352
 20
241.2500000000001
 30
0.0
 40
1.50000000000017
 50
229.8808331015957
 51
269.9999999999947
  0
LINE
  5
D9
  8
1
  6
CONTINUOUS
 62
     7
 10
-110.3860880745353
 20
199.75
 30
0.0
 11
-114.8860880745353
 21
199.75
 31
0.0
  0
LINE
  5
DA
  8
1
  6
CONTINUOUS
 62
     9
 10
-118.9639119254647
 20
231.25
 30
0.0
 11
-116.6639119254647
 21
231.25
 31
0.0
  0
LINE
  5
DB
  8
1
  6
CONTINUOUS
 62
     7
 10
-118.9639119254647
 20
231.25
 30
0.0
 11
-118.9639119254647
 21
233.75
 31
0.0
  0
LINE
  5
DC
  8
1
  6
CONTINUOUS
 62
     7
 10
-118.9639119254647
 20
233.75
 30
0.0
 11
-116.6639119254647
 21
233.75
 31
0.0
  0
LINE
  5
DD
  8
1
  6
CONTINUOUS
 62
     7
 10
-116.6639119254647
 20
231.25
 30
0.0
 11
-116.6639119254647
 21
233.75
 31
0.0
  0
LINE
  5
DE
  8
1
  6
CONTINUOUS
 62
     9
 10
-118.9639119254647
 20
187.25
 30
0.0
 11
-116.6639119254647
 21
187.25
 31
0.0
  0
LINE
  5
DF
  8
1
  6
CONTINUOUS
 62
     7
 10
-116.6639119254647
 20
187.25
 30
0.0
 11
-116.6639119254647
 21
231.25
 31
0.0
  0
LINE
  5
E0
  8
1
  6
CONTINUOUS
 62
     7
 10
-118.9639119254647
 20
187.25
 30
0.0
 11
-118.9639119254647
 21
231.25
 31
0.0
  0
LINE
  5
E1
  8
1
  6
CONTINUOUS
 62
     7
 10
-118.9639119254647
 20
178.75
 30
0.0
 11
-116.6639119254647
 21
178.75
 31
0.0
  0
LINE
  5
E2
  8
1
  6
CONTINUOUS
 62
     7
 10
-116.6639119254647
 20
178.75
 30
0.0
 11
-116.6639119254647
 21
187.25
 31
0.0
  0
LINE
  5
E3
  8
1
  6
CONTINUOUS
 62
     7
 10
-118.9639119254647
 20
178.75
 30
0.0
 11
-118.9639119254647
 21
187.25
 31
0.0
  0
LINE
  5
E4
  8
1
  6
CONTINUOUS
 62
     7
 10
-119.7639119254647
 20
187.25
 30
0.0
 11
-119.7639119254647
 21
229.75
 31
0.0
  0
LINE
  5
E5
  8
1
  6
CONTINUOUS
 62
     9
 10
-119.2639119254647
 20
229.75
 30
0.0
 11
-119.7639119254647
 21
229.75
 31
0.0
  0
LINE
  5
E6
  8
1
  6
CONTINUOUS
 62
     9
 10
-119.2639119254647
 20
229.75
 30
0.0
 11
-119.2639119254647
 21
187.25
 31
0.0
  0
LINE
  5
E7
  8
1
  6
CONTINUOUS
 62
     9
 10
-119.7639119254647
 20
187.25
 30
0.0
 11
-119.2639119254647
 21
187.25
 31
0.0
  0
LINE
  5
E8
  8
1
  6
CONTINUOUS
 62
     9
 10
-119.2639119254647
 20
231.75
 30
0.0
 11
-119.2639119254647
 21
229.75
 31
0.0
  0
LINE
  5
E9
  8
1
  6
CONTINUOUS
 62
     7
 10
-119.7639119254647
 20
229.75
 30
0.0
 11
-119.7639119254647
 21
231.25
 31
0.0
  0
ARC
  5
EA
  8
1
  6
CONTINUOUS
 62
     7
 10
-119.2639119254647
 20
231.25
 30
0.0
 40
0.5000000000000004
 50
89.9999999999992
 51
179.9999999999992
  0
LINE
  5
EB
  8
1
  6
CONTINUOUS
 62
     9
 10
-118.9639119254647
 20
187.25
 30
0.0
 11
-119.2639119254647
 21
187.25
 31
0.0
  0
LINE
  5
EC
  8
1
  6
CONTINUOUS
 62
     9
 10
-118.9639119254647
 20
229.75
 30
0.0
 11
-119.2639119254647
 21
229.75
 31
0.0
  0
LINE
  5
ED
  8
1
  6
CONTINUOUS
 62
     7
 10
-118.9639119254647
 20
231.75
 30
0.0
 11
-119.2639119254647
 21
231.75
 31
0.0
  0
LINE
  5
EE
  8
1
  6
CONTINUOUS
 62
     7
 10
-118.9639119254647
 20
180.75
 30
0.0
 11
-119.2639119254647
 21
180.75
 31
0.0
  0
LINE
  5
EF
  8
1
  6
CONTINUOUS
 62
     9
 10
-119.2639119254647
 20
187.25
 30
0.0
 11
-119.2639119254647
 21
180.75
 31
0.0
  0
LINE
  5
F0
  8
1
  6
CONTINUOUS
 62
     7
 10
-119.7639119254647
 20
181.25
 30
0.0
 11
-119.7639119254647
 21
187.25
 31
0.0
  0
ARC
  5
F1
  8
1
  6
CONTINUOUS
 62
     7
 10
-119.2639119254647
 20
181.25
 30
0.0
 40
0.5000000000000004
 50
180.0
 51
270.0000000000007
  0
LINE
  5
F2
  8
1
  6
CONTINUOUS
 62
     7
 10
-119.7639119254647
 20
192.45
 30
0.0
 11
-125.4639119254647
 21
192.45
 31
0.0
  0
LINE
  5
F3
  8
1
  6
CONTINUOUS
 62
     9
 10
-125.4639119254647
 20
194.75
 30
0.0
 11
-125.4639119254647
 21
192.45
 31
0.0
  0
LINE
  5
F4
  8
1
  6
CONTINUOUS
 62
     7
 10
-125.4639119254647
 20
194.75
 30
0.0
 11
-119.7639119254647
 21
194.75
 31
0.0
  0
LINE
  5
F5
  8
1
  6
CONTINUOUS
 62
     7
 10
-126.4639119254647
 20
192.45
 30
0.0
 11
-126.4639119254647
 21
194.75
 31
0.0
  0
LINE
  5
F6
  8
1
  6
CONTINUOUS
 62
     7
 10
-126.4639119254647
 20
194.75
 30
0.0
 11
-125.4639119254647
 21
194.75
 31
0.0
  0
LINE
  5
F7
  8
1
  6
CONTINUOUS
 62
     7
 10
-125.4639119254647
 20
192.45
 30
0.0
 11
-126.4639119254647
 21
192.45
 31
0.0
  0
LINE
  5
F8
  8
1
  6
CONTINUOUS
 62
     7
 10
-116.6639119254647
 20
224.5774608086449
 30
0.0
 11
-115.6360880745353
 21
224.4909422142736
 31
0.0
  0
LINE
  5
F9
  8
1
  6
CONTINUOUS
 62
     7
 10
-115.6360880745353
 20
224.4552381154238
 30
0.0
 11
-116.6639119254647
 21
224.4552381154238
 31
0.0
  0
LINE
  5
FA
  8
1
  6
CONTINUOUS
 62
     7
 10
-116.6639119254647
 20
219.3722226932211
 30
0.0
 11
-115.6360880745353
 21
219.2857040988499
 31
0.0
  0
LINE
  5
FB
  8
1
  6
CONTINUOUS
 62
     7
 10
-116.6639119254647
 20
215.25
 30
0.0
 11
-115.6360880745353
 21
215.25
 31
0.0
  0
LINE
  5
FC
  8
1
  6
CONTINUOUS
 62
     7
 10
-116.6639119254647
 20
233.75
 30
0.0
 11
-115.6360880745353
 21
233.75
 31
0.0
  0
LINE
  5
FD
  8
1
  6
CONTINUOUS
 62
     7
 10
-116.6639119254647
 20
224.45
 30
0.0
 11
-115.6360880745353
 21
224.45
 31
0.0
  0
LINE
  5
FE
  8
1
  6
CONTINUOUS
 62
     7
 10
-112.6360880745353
 20
224.25
 30
0.0
 11
-112.6360880745353
 21
219.75
 31
0.0
  0
LINE
  5
FF
  8
1
  6
CONTINUOUS
 62
     7
 10
-108.6639119254647
 20
224.25
 30
0.0
 11
-112.6360880745353
 21
224.25
 31
0.0
  0
LINE
  5
100
  8
1
  6
CONTINUOUS
 62
     7
 10
-104.8579134814833
 20
223.2669874645733
 30
0.0
 11
-104.8579134814833
 21
219.75
 31
0.0
  0
LINE
  5
101
  8
1
  6
CONTINUOUS
 62
     7
 10
-104.8579134814833
 20
219.75
 30
0.0
 11
-105.5639119254647
 21
219.75
 31
0.0
  0
LINE
  5
102
  8
1
  6
CONTINUOUS
 62
     7
 10
-108.6639119254647
 20
219.75
 30
0.0
 11
-112.6360880745353
 21
219.75
 31
0.0
  0
LINE
  5
103
  8
1
  6
CONTINUOUS
 62
     7
 10
-120.4142626675873
 20
224.25
 30
0.0
 11
-120.4142626675873
 21
219.75
 31
0.0
  0
LINE
  5
104
  8
1
  6
CONTINUOUS
 62
     7
 10
-112.6360880745353
 20
219.75
 30
0.0
 11
-116.6639119254647
 21
219.75
 31
0.0
  0
LINE
  5
105
  8
1
  6
CONTINUOUS
 62
     7
 10
-119.7639119254647
 20
219.75
 30
0.0
 11
-120.4142626675873
 21
219.75
 31
0.0
  0
LINE
  5
106
  8
1
  6
CONTINUOUS
 62
     7
 10
-112.6360880745353
 20
224.25
 30
0.0
 11
-116.6639119254647
 21
224.25
 31
0.0
  0
LINE
  5
107
  8
1
  6
CONTINUOUS
 62
     7
 10
-119.7639119254647
 20
224.25
 30
0.0
 11
-120.4142626675873
 21
224.25
 31
0.0
  0
LINE
  5
108
  8
1
  6
CONTINUOUS
 62
     7
 10
-115.479335223205
 20
194.2251873580371
 30
0.0
 11
-115.5315434314436
 21
186.2250363593928
 31
0.0
  0
LINE
  5
109
  8
1
  6
CONTINUOUS
 62
     7
 10
-115.5315434314436
 20
186.2250363593928
 30
0.0
 11
-116.5489584255046
 21
186.2340688686747
 31
0.0
  0
LINE
  5
10A
  8
1
  6
CONTINUOUS
 62
     7
 10
-116.5489584255046
 20
186.2340688686747
 30
0.0
 11
-116.4967502172659
 21
192.2165369764104
 31
0.0
  0
LINE
  5
10B
  8
1
  6
CONTINUOUS
 62
     7
 10
-112.6360880745353
 20
194.25
 30
0.0
 11
-112.6360880745353
 21
186.2503046154866
 31
0.0
  0
LINE
  5
10C
  8
1
  6
CONTINUOUS
 62
     7
 10
-112.6360880745353
 20
194.25
 30
0.0
 11
-109.7928409258656
 21
194.2251873580371
 31
0.0
  0
LINE
  5
10D
  8
1
  6
CONTINUOUS
 62
     7
 10
-109.740632717627
 20
186.2250363593928
 30
0.0
 11
-109.7928409258656
 21
194.2251873580371
 31
0.0
  0
LINE
  5
10E
  8
1
  6
CONTINUOUS
 62
     9
 10
-109.740632717627
 20
186.2250363593928
 30
0.0
 11
-112.6360880745353
 21
186.2503046154866
 31
0.0
  0
LINE
  5
10F
  8
1
  6
CONTINUOUS
 62
     7
 10
-108.7754259318047
 20
192.2165369764104
 30
0.0
 11
-108.7232177235661
 21
186.2340688686747
 31
0.0
  0
LINE
  5
110
  8
1
  6
CONTINUOUS
 62
     7
 10
-108.7232177235661
 20
186.2340688686747
 30
0.0
 11
-109.740632717627
 21
186.2250363593928
 31
0.0
  0
LINE
  5
111
  8
1
  6
CONTINUOUS
 62
     9
 10
-112.6360880745353
 20
186.2503046154866
 30
0.0
 11
-115.5315434314436
 21
186.2250363593928
 31
0.0
  0
LINE
  5
112
  8
1
  6
CONTINUOUS
 62
     7
 10
-115.479335223205
 20
194.2251873580371
 30
0.0
 11
-112.6360880745353
 21
194.25
 31
0.0
  0
LINE
  5
113
  8
1
  6
CONTINUOUS
 62
     7
 10
-115.5315434314436
 20
186.2250363593928
 30
0.0
 11
-115.6185167585385
 21
176.2588802103424
 31
0.0
  0
LINE
  5
114
  8
1
  6
CONTINUOUS
 62
     7
 10
-116.6360880745353
 20
176.25
 30
0.0
 11
-116.5489584255046
 21
186.2340688686747
 31
0.0
  0
LINE
  5
115
  8
1
  6
CONTINUOUS
 62
     7
 10
-108.7232177235661
 20
186.2340688686747
 30
0.0
 11
-108.6360880745353
 21
176.25
 31
0.0
  0
LINE
  5
116
  8
1
  6
CONTINUOUS
 62
     7
 10
-109.6536593905322
 20
176.2588802103424
 30
0.0
 11
-109.740632717627
 21
186.2250363593928
 31
0.0
  0
LINE
  5
117
  8
1
  6
CONTINUOUS
 62
     7
 10
-112.6360880745354
 20
174.25
 30
0.0
 11
-112.6360880745353
 21
186.2503046154866
 31
0.0
  0
LINE
  5
118
  8
1
  6
CONTINUOUS
 62
     7
 10
-117.6622676810304
 20
174.2938628049185
 30
0.0
 11
-112.6360880745354
 21
174.25
 31
0.0
  0
LINE
  5
119
  8
1
  6
CONTINUOUS
 62
     9
 10
-117.6622676810304
 20
176.2410446662445
 30
0.0
 11
-117.6622676810304
 21
174.2938628049185
 31
0.0
  0
LINE
  5
11A
  8
1
  6
CONTINUOUS
 62
     7
 10
-117.6622676810304
 20
176.2410446662445
 30
0.0
 11
-115.6185167585385
 21
176.2588802103424
 31
0.0
  0
LINE
  5
11B
  8
1
  6
CONTINUOUS
 62
     9
 10
-107.6099084680402
 20
174.2938628049185
 30
0.0
 11
-107.6099084680402
 21
176.2410446662445
 31
0.0
  0
LINE
  5
11C
  8
1
  6
CONTINUOUS
 62
     7
 10
-112.6360880745354
 20
174.25
 30
0.0
 11
-107.6099084680402
 21
174.2938628049185
 31
0.0
  0
LINE
  5
11D
  8
1
  6
CONTINUOUS
 62
     7
 10
-109.6536593905322
 20
176.2588802103424
 30
0.0
 11
-107.6099084680402
 21
176.2410446662445
 31
0.0
  0
LINE
  5
11E
  8
1
  6
CONTINUOUS
 62
     7
 10
-120.6360880745353
 20
174.3198149423261
 30
0.0
 11
-120.6360880745353
 21
176.2150925288369
 31
0.0
  0
LINE
  5
11F
  8
1
  6
CONTINUOUS
 62
     7
 10
-120.6360880745353
 20
176.2150925288369
 30
0.0
 11
-117.6622676810304
 21
176.2410446662445
 31
0.0
  0
LINE
  5
120
  8
1
  6
CONTINUOUS
 62
     7
 10
-117.6622676810304
 20
174.2938628049185
 30
0.0
 11
-120.6360880745353
 21
174.3198149423261
 31
0.0
  0
LINE
  5
121
  8
1
  6
CONTINUOUS
 62
     7
 10
-104.6360880745353
 20
176.2150925288369
 30
0.0
 11
-104.6360880745353
 21
174.3198149423261
 31
0.0
  0
LINE
  5
122
  8
1
  6
CONTINUOUS
 62
     7
 10
-107.6099084680402
 20
176.2410446662445
 30
0.0
 11
-104.6360880745353
 21
176.2150925288369
 31
0.0
  0
LINE
  5
123
  8
1
  6
CONTINUOUS
 62
     7
 10
-104.6360880745353
 20
174.3198149423261
 30
0.0
 11
-107.6099084680402
 21
174.2938628049185
 31
0.0
  0
LINE
  5
124
  8
1
  6
CONTINUOUS
 62
     9
 10
-115.3860880745353
 20
167.3816524975874
 30
0.0
 11
-109.8860880745353
 21
167.3816524975874
 31
0.0
  0
LINE
  5
125
  8
1
  6
CONTINUOUS
 62
     7
 10
-109.8860880745353
 20
167.95
 30
0.0
 11
-115.3860880745353
 21
167.95
 31
0.0
  0
LINE
  5
126
  8
1
  6
CONTINUOUS
 62
     9
 10
-109.9201622482462
 20
167.1228334524849
 30
0.0
 11
-115.3520139008244
 21
167.1228334524849
 31
0.0
  0
LINE
  5
127
  8
1
  6
CONTINUOUS
 62
     7
 10
-110.215371022308
 20
166.021099310253
 30
0.0
 11
-111.4160819866316
 21
161.6205904774487
 31
0.0
  0
LINE
  5
128
  8
1
  6
CONTINUOUS
 62
     9
 10
-113.856094162439
 20
161.6205904774489
 30
0.0
 11
-111.4160819866316
 21
161.6205904774486
 31
0.0
  0
LINE
  5
129
  8
1
  6
CONTINUOUS
 62
     7
 10
-113.856094162439
 20
161.6205904774489
 30
0.0
 11
-115.0568204614269
 21
166.0211565402035
 31
0.0
  0
POLYLINE
  5
12A
  8
1
  6
CONTINUOUS
 62
     7
 66
     1
 10
0.0
 20
0.0
 30
0.0
  0
VERTEX
  5
513
  8
1
  6
CONTINUOUS
 62
     7
 10
-109.3917745629676
 20
174.2783126950872
 30
0.0
  0
VERTEX
  5
514
  8
1
  6
CONTINUOUS
 62
     7
 10
-109.3949821638078
 20
174.2782749930813
 30
0.0
  0
VERTEX
  5
515
  8
1
  6
CONTINUOUS
 62
     7
 10
-109.4256697381111
 20
174.2769412187096
 30
0.0
  0
VERTEX
  5
516
  8
1
  6
CONTINUOUS
 62
     7
 10
-109.4564821224289
 20
174.2738521532353
 30
0.0
  0
VERTEX
  5
517
  8
1
  6
CONTINUOUS
 62
     7
 10
-109.4873649903496
 20
174.2690151533261
 30
0.0
  0
VERTEX
  5
518
  8
1
  6
CONTINUOUS
 62
     7
 10
-109.5182697266034
 20
174.2624301353822
 30
0.0
  0
VERTEX
  5
519
  8
1
  6
CONTINUOUS
 62
     7
 10
-109.545882434133
 20
174.2550549220032
 30
0.0
  0
VERTEX
  5
51A
  8
1
  6
CONTINUOUS
 62
     7
 10
-109.573475049679
 20
174.2462498672286
 30
0.0
  0
VERTEX
  5
51B
  8
1
  6
CONTINUOUS
 62
     7
 10
-109.6009499800226
 20
174.2360131777599
 30
0.0
  0
VERTEX
  5
51C
  8
1
  6
CONTINUOUS
 62
     7
 10
-109.6283874854773
 20
174.2242655946997
 30
0.0
  0
VERTEX
  5
51D
  8
1
  6
CONTINUOUS
 62
     7
 10
-109.6556041540909
 20
174.2110241746168
 30
0.0
  0
VERTEX
  5
51E
  8
1
  6
CONTINUOUS
 62
     7
 10
-109.6826659220828
 20
174.1961803512869
 30
0.0
  0
VERTEX
  5
51F
  8
1
  6
CONTINUOUS
 62
     7
 10
-109.709373565303
 20
174.1797492032971
 30
0.0
  0
VERTEX
  5
520
  8
1
  6
CONTINUOUS
 62
     7
 10
-109.7356966656688
 20
174.1616407593778
 30
0.0
  0
VERTEX
  5
521
  8
1
  6
CONTINUOUS
 62
     7
 10
-109.7587926965978
 20
174.1439970641437
 30
0.0
  0
VERTEX
  5
522
  8
1
  6
CONTINUOUS
 62
     7
 10
-109.7813757767424
 20
174.1249379146674
 30
0.0
  0
VERTEX
  5
523
  8
1
  6
CONTINUOUS
 62
     7
 10
-109.8033804229683
 20
174.1043758771096
 30
0.0
  0
VERTEX
  5
524
  8
1
  6
CONTINUOUS
 62
     7
 10
-109.8141266478463
 20
174.0935131081378
 30
0.0
  0
VERTEX
  5
525
  8
1
  6
CONTINUOUS
 62
     7
 10
-109.8246603884569
 20
174.0822724757309
 30
0.0
  0
VERTEX
  5
526
  8
1
  6
CONTINUOUS
 62
     7
 10
-109.8350401142791
 20
174.0705595122851
 30
0.0
  0
VERTEX
  5
527
  8
1
  6
CONTINUOUS
 62
     7
 10
-109.8451658650852
 20
174.0584514618606
 30
0.0
  0
VERTEX
  5
528
  8
1
  6
CONTINUOUS
 62
     7
 10
-109.8550521443883
 20
174.0458956237951
 30
0.0
  0
VERTEX
  5
529
  8
1
  6
CONTINUOUS
 62
     7
 10
-109.8646367708134
 20
174.0329317407068
 30
0.0
  0
VERTEX
  5
52A
  8
1
  6
CONTINUOUS
 62
     7
 10
-109.8718414359331
 20
174.0226009588299
 30
0.0
  0
VERTEX
  5
52B
  8
1
  6
CONTINUOUS
 62
     7
 10
-109.8788415025311
 20
174.0120136871633
 30
0.0
  0
VERTEX
  5
52C
  8
1
  6
CONTINUOUS
 62
     7
 10
-109.8853215451427
 20
174.0016638423036
 30
0.0
  0
VERTEX
  5
52D
  8
1
  6
CONTINUOUS
 62
     7
 10
-109.8915848562427
 20
173.9910857977036
 30
0.0
  0
VERTEX
  5
52E
  8
1
  6
CONTINUOUS
 62
     7
 10
-109.8976371573012
 20
173.9802449826349
 30
0.0
  0
VERTEX
  5
52F
  8
1
  6
CONTINUOUS
 62
     7
 10
-109.903443984337
 20
173.9691764947532
 30
0.0
  0
VERTEX
  5
530
  8
1
  6
CONTINUOUS
 62
     7
 10
-109.9085741259015
 20
173.9587581314544
 30
0.0
  0
VERTEX
  5
531
  8
1
  6
CONTINUOUS
 62
     7
 10
-109.9134707382079
 20
173.9481503276183
 30
0.0
  0
VERTEX
  5
532
  8
1
  6
CONTINUOUS
 62
     7
 10
-109.9181376818254
 20
173.9373175947564
 30
0.0
  0
VERTEX
  5
533
  8
1
  6
CONTINUOUS
 62
     7
 10
-109.9225445029238
 20
173.9263021427527
 30
0.0
  0
VERTEX
  5
534
  8
1
  6
CONTINUOUS
 62
     7
 10
-109.9261871837903
 20
173.9164894076962
 30
0.0
  0
VERTEX
  5
535
  8
1
  6
CONTINUOUS
 62
     7
 10
-109.9296110133653
 20
173.9065448040588
 30
0.0
  0
VERTEX
  5
536
  8
1
  6
CONTINUOUS
 62
     7
 10
-109.932817850583
 20
173.896438582574
 30
0.0
  0
VERTEX
  5
537
  8
1
  6
CONTINUOUS
 62
     7
 10
-109.93578698309
 20
173.8862110477168
 30
0.0
  0
VERTEX
  5
538
  8
1
  6
CONTINUOUS
 62
     7
 10
-109.9385274977985
 20
173.8757983077075
 30
0.0
  0
VERTEX
  5
539
  8
1
  6
CONTINUOUS
 62
     7
 10
-109.9410102199229
 20
173.8652776080679
 30
0.0
  0
VERTEX
  5
53A
  8
1
  6
CONTINUOUS
 62
     7
 10
-109.9432357732814
 20
173.8546130233733
 30
0.0
  0
VERTEX
  5
53B
  8
1
  6
CONTINUOUS
 62
     7
 10
-109.9451859600088
 20
173.8438582501689
 30
0.0
  0
VERTEX
  5
53C
  8
1
  6
CONTINUOUS
 62
     7
 10
-109.9468697058181
 20
173.8329096984696
 30
0.0
  0
VERTEX
  5
53D
  8
1
  6
CONTINUOUS
 62
     7
 10
-109.9482590708291
 20
173.8218916335192
 30
0.0
  0
VERTEX
  5
53E
  8
1
  6
CONTINUOUS
 62
     7
 10
-109.9493529732783
 20
173.8107624107569
 30
0.0
  0
VERTEX
  5
53F
  8
1
  6
CONTINUOUS
 62
     7
 10
-109.9501398123939
 20
173.7995888543051
 30
0.0
  0
SEQEND
  5
A13
  8
1
  6
CONTINUOUS
 62
     7
  0
LINE
  5
12B
  8
1
  6
CONTINUOUS
 62
     7
 10
-109.9501398123939
 20
173.7995888543051
 30
0.0
 11
-109.9508852368293
 21
173.7776749909915
 31
0.0
  0
LINE
  5
12C
  8
1
  6
CONTINUOUS
 62
     9
 10
-109.9508852368293
 20
173.7776749909915
 30
0.0
 11
-112.6360880745353
 21
173.7499809608071
 31
0.0
  0
LINE
  5
12D
  8
1
  6
CONTINUOUS
 62
     7
 10
-112.6360880745353
 20
174.25
 30
0.0
 11
-112.6360880745353
 21
173.7499809608071
 31
0.0
  0
POLYLINE
  5
12E
  8
1
  6
CONTINUOUS
 62
     7
 66
     1
 10
0.0
 20
0.0
 30
0.0
  0
VERTEX
  5
540
  8
1
  6
CONTINUOUS
 62
     7
 10
-115.3220363366767
 20
173.7995888543051
 30
0.0
  0
VERTEX
  5
541
  8
1
  6
CONTINUOUS
 62
     7
 10
-115.3230183686648
 20
173.8130025600202
 30
0.0
  0
VERTEX
  5
542
  8
1
  6
CONTINUOUS
 62
     7
 10
-115.3244452302225
 20
173.8263723872371
 30
0.0
  0
VERTEX
  5
543
  8
1
  6
CONTINUOUS
 62
     7
 10
-115.3262772800506
 20
173.8394588107885
 30
0.0
  0
VERTEX
  5
544
  8
1
  6
CONTINUOUS
 62
     7
 10
-115.3285218853901
 20
173.8524365705618
 30
0.0
  0
VERTEX
  5
545
  8
1
  6
CONTINUOUS
 62
     7
 10
-115.3311865111941
 20
173.8653695704566
 30
0.0
  0
VERTEX
  5
546
  8
1
  6
CONTINUOUS
 62
     7
 10
-115.3342442859403
 20
173.8781557818945
 30
0.0
  0
VERTEX
  5
547
  8
1
  6
CONTINUOUS
 62
     7
 10
-115.3375783590128
 20
173.890422356742
 30
0.0
  0
VERTEX
  5
548
  8
1
  6
CONTINUOUS
 62
     7
 10
-115.3412561815408
 20
173.9025228497098
 30
0.0
  0
VERTEX
  5
549
  8
1
  6
CONTINUOUS
 62
     7
 10
-115.3452849914412
 20
173.9145067412688
 30
0.0
  0
VERTEX
  5
54A
  8
1
  6
CONTINUOUS
 62
     7
 10
-115.3496316461468
 20
173.9263021427527
 30
0.0
  0
VERTEX
  5
54B
  8
1
  6
CONTINUOUS
 62
     7
 10
-115.35544485214
 20
173.9406646750948
 30
0.0
  0
VERTEX
  5
54C
  8
1
  6
CONTINUOUS
 62
     7
 10
-115.361706466072
 20
173.9547350073619
 30
0.0
  0
VERTEX
  5
54D
  8
1
  6
CONTINUOUS
 62
     7
 10
-115.3684165262565
 20
173.9685537713233
 30
0.0
  0
VERTEX
  5
54E
  8
1
  6
CONTINUOUS
 62
     7
 10
-115.3755146758306
 20
173.9820377574346
 30
0.0
  0
VERTEX
  5
54F
  8
1
  6
CONTINUOUS
 62
     7
 10
-115.3830147842991
 20
173.995250908685
 30
0.0
  0
VERTEX
  5
550
  8
1
  6
CONTINUOUS
 62
     7
 10
-115.3908549097528
 20
174.0081193794035
 30
0.0
  0
VERTEX
  5
551
  8
1
  6
CONTINUOUS
 62
     7
 10
-115.3990448869521
 20
174.0206929465912
 30
0.0
  0
VERTEX
  5
552
  8
1
  6
CONTINUOUS
 62
     7
 10
-115.4075393782572
 20
174.0329317407068
 30
0.0
  0
VERTEX
  5
553
  8
1
  6
CONTINUOUS
 62
     7
 10
-115.4217041339469
 20
174.0518087970315
 30
0.0
  0
VERTEX
  5
554
  8
1
  6
CONTINUOUS
 62
     7
 10
-115.4365264013394
 20
174.0698503623511
 30
0.0
  0
VERTEX
  5
555
  8
1
  6
CONTINUOUS
 62
     7
 10
-115.4519816439329
 20
174.0871135514612
 30
0.0
  0
VERTEX
  5
556
  8
1
  6
CONTINUOUS
 62
     7
 10
-115.467961979373
 20
174.1035536021323
 30
0.0
  0
VERTEX
  5
557
  8
1
  6
CONTINUOUS
 62
     7
 10
-115.4844801649426
 20
174.1192473084796
 30
0.0
  0
VERTEX
  5
558
  8
1
  6
CONTINUOUS
 62
     7
 10
-115.5014181442318
 20
174.1341375538368
 30
0.0
  0
VERTEX
  5
559
  8
1
  6
CONTINUOUS
 62
     7
 10
-115.5187815941984
 20
174.1482791215844
 30
0.0
  0
VERTEX
  5
55A
  8
1
  6
CONTINUOUS
 62
     7
 10
-115.5364794834018
 20
174.1616407593778
 30
0.0
  0
VERTEX
  5
55B
  8
1
  6
CONTINUOUS
 62
     7
 10
-115.5621647948829
 20
174.1793337535484
 30
0.0
  0
VERTEX
  5
55C
  8
1
  6
CONTINUOUS
 62
     7
 10
-115.5883751374333
 20
174.1955191760836
 30
0.0
  0
VERTEX
  5
55D
  8
1
  6
CONTINUOUS
 62
     7
 10
-115.6151116542765
 20
174.210266983139
 30
0.0
  0
VERTEX
  5
55E
  8
1
  6
CONTINUOUS
 62
     7
 10
-115.6422228821032
 20
174.2235476164407
 30
0.0
  0
VERTEX
  5
55F
  8
1
  6
CONTINUOUS
 62
     7
 10
-115.6697651986824
 20
174.2354267002679
 30
0.0
  0
VERTEX
  5
560
  8
1
  6
CONTINUOUS
 62
     7
 10
-115.6975648165083
 20
174.2458559299875
 30
0.0
  0
VERTEX
  5
561
  8
1
  6
CONTINUOUS
 62
     7
 10
-115.7256559481866
 20
174.2548677398437
 30
0.0
  0
VERTEX
  5
562
  8
1
  6
CONTINUOUS
 62
     7
 10
-115.7539064224673
 20
174.2624301353822
 30
0.0
  0
VERTEX
  5
563
  8
1
  6
CONTINUOUS
 62
     7
 10
-115.7846504278994
 20
174.2689854284558
 30
0.0
  0
VERTEX
  5
564
  8
1
  6
CONTINUOUS
 62
     7
 10
-115.8154807551935
 20
174.2738247153106
 30
0.0
  0
VERTEX
  5
565
  8
1
  6
CONTINUOUS
 62
     7
 10
-115.846345165016
 20
174.2769295930971
 30
0.0
  0
VERTEX
  5
566
  8
1
  6
CONTINUOUS
 62
     7
 10
-115.8771939852629
 20
174.2782749930813
 30
0.0
  0
VERTEX
  5
567
  8
1
  6
CONTINUOUS
 62
     7
 10
-115.880401586103
 20
174.2783126950872
 30
0.0
  0
SEQEND
  5
A14
  8
1
  6
CONTINUOUS
 62
     7
  0
LINE
  5
12F
  8
1
  6
CONTINUOUS
 62
     9
 10
-112.6360880745353
 20
173.7499809608071
 30
0.0
 11
-115.3212909122414
 21
173.7776749909915
 31
0.0
  0
LINE
  5
130
  8
1
  6
CONTINUOUS
 62
     7
 10
-115.3212909122414
 20
173.7776749909915
 30
0.0
 11
-115.3220363366767
 21
173.7995888543051
 31
0.0
  0
LINE
  5
131
  8
1
  6
CONTINUOUS
 62
     7
 10
-115.3212909122414
 20
173.7776749909915
 30
0.0
 11
-115.2350371960948
 21
167.95
 31
0.0
  0
LINE
  5
132
  8
1
  6
CONTINUOUS
 62
     7
 10
-110.0371389529758
 20
167.95
 30
0.0
 11
-109.9508852368293
 21
173.7776749909915
 31
0.0
  0
LINE
  5
133
  8
1
  6
CONTINUOUS
 62
     7
 10
-111.9198222718544
 20
161.25
 30
0.0
 11
-113.3523538772162
 21
161.25
 31
0.0
  0
POLYLINE
  5
134
  8
1
  6
CONTINUOUS
 62
     7
 66
     1
 10
0.0
 20
0.0
 30
0.0
  0
VERTEX
  5
568
  8
1
  6
CONTINUOUS
 62
     7
 10
-113.3523538772162
 20
161.25
 30
0.0
  0
VERTEX
  5
569
  8
1
  6
CONTINUOUS
 62
     7
 10
-113.376162659839
 20
161.2505069477216
 30
0.0
  0
VERTEX
  5
56A
  8
1
  6
CONTINUOUS
 62
     7
 10
-113.4000380189308
 20
161.2520418766377
 30
0.0
  0
VERTEX
  5
56B
  8
1
  6
CONTINUOUS
 62
     7
 10
-113.4238689255966
 20
161.2546158878489
 30
0.0
  0
VERTEX
  5
56C
  8
1
  6
CONTINUOUS
 62
     7
 10
-113.4477703610906
 20
161.2582661134448
 30
0.0
  0
VERTEX
  5
56D
  8
1
  6
CONTINUOUS
 62
     7
 10
-113.4715322713291
 20
161.2629854401332
 30
0.0
  0
VERTEX
  5
56E
  8
1
  6
CONTINUOUS
 62
     7
 10
-113.4952648022405
 20
161.2688212575264
 30
0.0
  0
VERTEX
  5
56F
  8
1
  6
CONTINUOUS
 62
     7
 10
-113.51875472134
 20
161.275747030128
 30
0.0
  0
VERTEX
  5
570
  8
1
  6
CONTINUOUS
 62
     7
 10
-113.5420142150722
 20
161.2837858589929
 30
0.0
  0
VERTEX
  5
571
  8
1
  6
CONTINUOUS
 62
     7
 10
-113.5561169152225
 20
161.2892594569115
 30
0.0
  0
VERTEX
  5
572
  8
1
  6
CONTINUOUS
 62
     7
 10
-113.5700567158971
 20
161.2951344419124
 30
0.0
  0
VERTEX
  5
573
  8
1
  6
CONTINUOUS
 62
     7
 10
-113.5838669506361
 20
161.301428981289
 30
0.0
  0
VERTEX
  5
574
  8
1
  6
CONTINUOUS
 62
     7
 10
-113.5974889474036
 20
161.3081200547983
 30
0.0
  0
VERTEX
  5
575
  8
1
  6
CONTINUOUS
 62
     7
 10
-113.6109451053598
 20
161.3152223073121
 30
0.0
  0
VERTEX
  5
576
  8
1
  6
CONTINUOUS
 62
     7
 10
-113.6241878705604
 20
161.3227138595774
 30
0.0
  0
VERTEX
  5
577
  8
1
  6
CONTINUOUS
 62
     7
 10
-113.6372496737251
 20
161.3306174130542
 30
0.0
  0
VERTEX
  5
578
  8
1
  6
CONTINUOUS
 62
     7
 10
-113.6500726038067
 20
161.3389018573347
 30
0.0
  0
VERTEX
  5
579
  8
1
  6
CONTINUOUS
 62
     7
 10
-113.6628261674735
 20
161.3476902033332
 30
0.0
  0
VERTEX
  5
57A
  8
1
  6
CONTINUOUS
 62
     7
 10
-113.6753094752749
 20
161.3568573393163
 30
0.0
  0
VERTEX
  5
57B
  8
1
  6
CONTINUOUS
 62
     7
 10
-113.6875544299258
 20
161.3664316134465
 30
0.0
  0
VERTEX
  5
57C
  8
1
  6
CONTINUOUS
 62
     7
 10
-113.6995031068112
 20
161.376372175258
 30
0.0
  0
VERTEX
  5
57D
  8
1
  6
CONTINUOUS
 62
     7
 10
-113.7103425354967
 20
161.3859416455194
 30
0.0
  0
VERTEX
  5
57E
  8
1
  6
CONTINUOUS
 62
     7
 10
-113.7209061265257
 20
161.3958139358055
 30
0.0
  0
VERTEX
  5
57F
  8
1
  6
CONTINUOUS
 62
     7
 10
-113.731217532942
 20
161.4060152724077
 30
0.0
  0
VERTEX
  5
580
  8
1
  6
CONTINUOUS
 62
     7
 10
-113.7412332148486
 20
161.4165063066144
 30
0.0
  0
VERTEX
  5
581
  8
1
  6
CONTINUOUS
 62
     7
 10
-113.7509664905969
 20
161.4273044867688
 30
0.0
  0
VERTEX
  5
582
  8
1
  6
CONTINUOUS
 62
     7
 10
-113.7603852891243
 20
161.4383772857589
 30
0.0
  0
VERTEX
  5
583
  8
1
  6
CONTINUOUS
 62
     7
 10
-113.7695108505406
 20
161.4497543271787
 30
0.0
  0
VERTEX
  5
584
  8
1
  6
CONTINUOUS
 62
     7
 10
-113.7783032487886
 20
161.4613900533664
 30
0.0
  0
VERTEX
  5
585
  8
1
  6
CONTINUOUS
 62
     7
 10
-113.7868725228411
 20
161.4734466370527
 30
0.0
  0
VERTEX
  5
586
  8
1
  6
CONTINUOUS
 62
     7
 10
-113.7950829264766
 20
161.4857497360773
 30
0.0
  0
VERTEX
  5
587
  8
1
  6
CONTINUOUS
 62
     7
 10
-113.8029533667015
 20
161.4983333778006
 30
0.0
  0
VERTEX
  5
588
  8
1
  6
CONTINUOUS
 62
     7
 10
-113.8104472348804
 20
161.5111442236382
 30
0.0
  0
VERTEX
  5
589
  8
1
  6
CONTINUOUS
 62
     7
 10
-113.8175228152103
 20
161.5241059986357
 30
0.0
  0
VERTEX
  5
58A
  8
1
  6
CONTINUOUS
 62
     7
 10
-113.8242174036665
 20
161.537282526735
 30
0.0
  0
VERTEX
  5
58B
  8
1
  6
CONTINUOUS
 62
     7
 10
-113.830539801507
 20
161.5506989191692
 30
0.0
  0
VERTEX
  5
58C
  8
1
  6
CONTINUOUS
 62
     7
 10
-113.8364596704264
 20
161.5642972203129
 30
0.0
  0
VERTEX
  5
58D
  8
1
  6
CONTINUOUS
 62
     7
 10
-113.8419900383293
 20
161.5781151440306
 30
0.0
  0
VERTEX
  5
58E
  8
1
  6
CONTINUOUS
 62
     7
 10
-113.8471037873706
 20
161.5920921701693
 30
0.0
  0
VERTEX
  5
58F
  8
1
  6
CONTINUOUS
 62
     7
 10
-113.8518118953525
 20
161.6062672286179
 30
0.0
  0
VERTEX
  5
590
  8
1
  6
CONTINUOUS
 62
     7
 10
-113.856094162439
 20
161.6205904774489
 30
0.0
  0
SEQEND
  5
A15
  8
1
  6
CONTINUOUS
 62
     7
  0
POLYLINE
  5
135
  8
1
  6
CONTINUOUS
 62
     7
 66
     1
 10
0.0
 20
0.0
 30
0.0
  0
VERTEX
  5
591
  8
1
  6
CONTINUOUS
 62
     7
 10
-111.4160819866316
 20
161.6205904774487
 30
0.0
  0
VERTEX
  5
592
  8
1
  6
CONTINUOUS
 62
     7
 10
-111.4198643951964
 20
161.6078610778154
 30
0.0
  0
VERTEX
  5
593
  8
1
  6
CONTINUOUS
 62
     7
 10
-111.4239866706977
 20
161.5952373497901
 30
0.0
  0
VERTEX
  5
594
  8
1
  6
CONTINUOUS
 62
     7
 10
-111.4284589863055
 20
161.5826924455089
 30
0.0
  0
VERTEX
  5
595
  8
1
  6
CONTINUOUS
 62
     7
 10
-111.433266299947
 20
161.5702717142418
 30
0.0
  0
VERTEX
  5
596
  8
1
  6
CONTINUOUS
 62
     7
 10
-111.4429835201771
 20
161.5477516242104
 30
0.0
  0
VERTEX
  5
597
  8
1
  6
CONTINUOUS
 62
     7
 10
-111.4538259646111
 20
161.5256832389485
 30
0.0
  0
VERTEX
  5
598
  8
1
  6
CONTINUOUS
 62
     7
 10
-111.4646735252439
 20
161.5060057895415
 30
0.0
  0
VERTEX
  5
599
  8
1
  6
CONTINUOUS
 62
     7
 10
-111.4764189241159
 20
161.4867959920092
 30
0.0
  0
VERTEX
  5
59A
  8
1
  6
CONTINUOUS
 62
     7
 10
-111.4885949002336
 20
161.4687266429785
 30
0.0
  0
VERTEX
  5
59B
  8
1
  6
CONTINUOUS
 62
     7
 10
-111.4967908087776
 20
161.4574504158026
 30
0.0
  0
VERTEX
  5
59C
  8
1
  6
CONTINUOUS
 62
     7
 10
-111.5052959589393
 20
161.4464049217126
 30
0.0
  0
VERTEX
  5
59D
  8
1
  6
CONTINUOUS
 62
     7
 10
-111.5141309878351
 20
161.4355655031856
 30
0.0
  0
VERTEX
  5
59E
  8
1
  6
CONTINUOUS
 62
     7
 10
-111.5232628509182
 20
161.424974252842
 30
0.0
  0
VERTEX
  5
59F
  8
1
  6
CONTINUOUS
 62
     7
 10
-111.5327006903979
 20
161.4146213062885
 30
0.0
  0
VERTEX
  5
5A0
  8
1
  6
CONTINUOUS
 62
     7
 10
-111.5424211559923
 20
161.4045325066333
 30
0.0
  0
VERTEX
  5
5A1
  8
1
  6
CONTINUOUS
 62
     7
 10
-111.5524474147409
 20
161.3946855440109
 30
0.0
  0
VERTEX
  5
5A2
  8
1
  6
CONTINUOUS
 62
     7
 10
-111.5627418901322
 20
161.3851185465827
 30
0.0
  0
VERTEX
  5
5A3
  8
1
  6
CONTINUOUS
 62
     7
 10
-111.5734412026099
 20
161.3757144872663
 30
0.0
  0
VERTEX
  5
5A4
  8
1
  6
CONTINUOUS
 62
     7
 10
-111.5843986062421
 20
161.3666116053816
 30
0.0
  0
VERTEX
  5
5A5
  8
1
  6
CONTINUOUS
 62
     7
 10
-111.5956403944086
 20
161.3577895447285
 30
0.0
  0
VERTEX
  5
5A6
  8
1
  6
CONTINUOUS
 62
     7
 10
-111.6071235194115
 20
161.3492830966332
 30
0.0
  0
VERTEX
  5
5A7
  8
1
  6
CONTINUOUS
 62
     7
 10
-111.6294002614635
 20
161.3341220212078
 30
0.0
  0
VERTEX
  5
5A8
  8
1
  6
CONTINUOUS
 62
     7
 10
-111.6525011749874
 20
161.3201033002753
 30
0.0
  0
VERTEX
  5
5A9
  8
1
  6
CONTINUOUS
 62
     7
 10
-111.6743818746077
 20
161.3082756910367
 30
0.0
  0
VERTEX
  5
5AA
  8
1
  6
CONTINUOUS
 62
     7
 10
-111.6968531072296
 20
161.297478020014
 30
0.0
  0
VERTEX
  5
5AB
  8
1
  6
CONTINUOUS
 62
     7
 10
-111.7178026673938
 20
161.2885574923079
 30
0.0
  0
VERTEX
  5
5AC
  8
1
  6
CONTINUOUS
 62
     7
 10
-111.7391581510205
 20
161.2805333716325
 30
0.0
  0
VERTEX
  5
5AD
  8
1
  6
CONTINUOUS
 62
     7
 10
-111.7601258571596
 20
161.2736506582427
 30
0.0
  0
VERTEX
  5
5AE
  8
1
  6
CONTINUOUS
 62
     7
 10
-111.779412080176
 20
161.2681521727426
 30
0.0
  0
VERTEX
  5
5AF
  8
1
  6
CONTINUOUS
 62
     7
 10
-111.798918173081
 20
161.2633714765149
 30
0.0
  0
VERTEX
  5
5B0
  8
1
  6
CONTINUOUS
 62
     7
 10
-111.8186998997714
 20
161.2592990329703
 30
0.0
  0
VERTEX
  5
5B1
  8
1
  6
CONTINUOUS
 62
     7
 10
-111.8386197882337
 20
161.2559648554546
 30
0.0
  0
VERTEX
  5
5B2
  8
1
  6
CONTINUOUS
 62
     7
 10
-111.8587611545581
 20
161.2533573981607
 30
0.0
  0
VERTEX
  5
5B3
  8
1
  6
CONTINUOUS
 62
     7
 10
-111.8789853715321
 20
161.2514956628869
 30
0.0
  0
VERTEX
  5
5B4
  8
1
  6
CONTINUOUS
 62
     7
 10
-111.8993762372531
 20
161.2503736671957
 30
0.0
  0
VERTEX
  5
5B5
  8
1
  6
CONTINUOUS
 62
     7
 10
-111.9198222718544
 20
161.25
 30
0.0
  0
SEQEND
  5
A16
  8
1
  6
CONTINUOUS
 62
     7
  0
ARC
  5
136
  8
1
  6
CONTINUOUS
 62
     7
 10
-119.6360880745353
 20
177.723781318242
 30
0.0
 40
1.0
 50
90.5000000000005
 51
180.0
  0
LINE
  5
137
  8
1
  6
CONTINUOUS
 62
     7
 10
-116.614269243375
 20
178.7501904100549
 30
0.0
 11
-119.6448146100337
 21
178.7237432413062
 31
0.0
  0
LINE
  5
138
  8
1
  6
CONTINUOUS
 62
     7
 10
-120.6360880745353
 20
177.723781318242
 30
0.0
 11
-120.6360880745353
 21
176.2150925288369
 31
0.0
  0
ARC
  5
139
  8
1
  6
CONTINUOUS
 62
     7
 10
-105.6360880745353
 20
177.723781318242
 30
0.0
 40
1.0
 50
0.0
 51
89.50000000000033
  0
LINE
  5
13A
  8
1
  6
CONTINUOUS
 62
     7
 10
-105.6273615390369
 20
178.7237432413062
 30
0.0
 11
-108.6360880745345
 21
178.75
 31
0.0
  0
LINE
  5
13B
  8
1
  6
CONTINUOUS
 62
     7
 10
-104.6360880745353
 20
177.723781318242
 30
0.0
 11
-104.6360880745353
 21
176.2150925288369
 31
0.0
  0
LINE
  5
13C
  8
1
  6
CONTINUOUS
 62
     7
 10
-105.4002798423148
 20
178.6955809259889
 30
0.0
 11
-104.6360880745353
 21
178.6889119254647
 31
0.0
  0
LINE
  5
13D
  8
1
  6
CONTINUOUS
 62
     7
 10
-104.6360880745353
 20
178.6889119254647
 30
0.0
 11
-104.6360880745353
 21
177.723781318242
 31
0.0
  0
LINE
  5
13E
  8
1
  6
CONTINUOUS
 62
     7
 10
-120.6360880745353
 20
178.6889119254647
 30
0.0
 11
-119.8718963067558
 21
178.6955809259889
 31
0.0
  0
LINE
  5
13F
  8
1
  6
CONTINUOUS
 62
     7
 10
-120.6360880745353
 20
178.6889119254647
 30
0.0
 11
-120.6360880745353
 21
177.723781318242
 31
0.0
  0
LINE
  5
140
  8
1
  6
CONTINUOUS
 62
     9
 10
-104.6360880745353
 20
171.3199291731335
 30
0.0
 11
-109.9832960297245
 21
171.2732647962589
 31
0.0
  0
LINE
  5
141
  8
1
  6
CONTINUOUS
 62
     7
 10
-104.6360880745353
 20
171.3199291731335
 30
0.0
 11
-104.6360880745353
 21
174.3198149423261
 31
0.0
  0
LINE
  5
142
  8
1
  6
CONTINUOUS
 62
     9
 10
-115.2888801193461
 20
171.2732647962589
 30
0.0
 11
-120.6360880745353
 21
171.3199291731335
 31
0.0
  0
LINE
  5
143
  8
1
  6
CONTINUOUS
 62
     7
 10
-120.6360880745353
 20
174.3198149423261
 30
0.0
 11
-120.6360880745353
 21
171.3199291731335
 31
0.0
  0
LINE
  5
144
  8
1
  6
CONTINUOUS
 62
     9
 10
-115.9880814654444
 20
193.2207856737779
 30
0.0
 11
-116.6639119254647
 21
193.2148877907043
 31
0.0
  0
LINE
  5
145
  8
1
  6
CONTINUOUS
 62
     7
 10
-116.6639119254647
 20
194.2148497137685
 30
0.0
 11
-115.479335223205
 21
194.2251873580371
 31
0.0
  0
LINE
  5
146
  8
1
  6
CONTINUOUS
 62
     9
 10
-108.6639119254647
 20
193.2153734208413
 30
0.0
 11
-109.2840946836262
 21
193.2207856737779
 31
0.0
  0
LINE
  5
147
  8
1
  6
CONTINUOUS
 62
     7
 10
-109.7928409258656
 20
194.2251873580371
 30
0.0
 11
-108.6639119254647
 21
194.2153353439055
 31
0.0
  0
LINE
  5
148
  8
1
  6
CONTINUOUS
 62
     7
 10
-120.6360880745353
 20
192.45
 30
0.0
 11
-120.6360880745353
 21
192.0
 31
0.0
  0
LINE
  5
149
  8
1
  6
CONTINUOUS
 62
     7
 10
-120.6360880745353
 20
182.5
 30
0.0
 11
-120.6360880745353
 21
178.6889119254647
 31
0.0
  0
LINE
  5
14A
  8
1
  6
CONTINUOUS
 62
     7
 10
-98.63608807453532
 20
189.35
 30
0.0
 11
-100.9360880745353
 21
189.35
 31
0.0
  0
ARC
  5
14B
  8
1
  6
CONTINUOUS
 62
     7
 10
-98.63608807453532
 20
184.25
 30
0.0
 40
5.1
 50
42.36979856937594
 51
90.0
  0
POLYLINE
  5
14C
  8
1
  6
CONTINUOUS
 62
     7
 66
     1
 10
0.0
 20
0.0
 30
0.0
  0
VERTEX
  5
5B6
  8
1
  6
CONTINUOUS
 62
     7
 10
-95.23755898094205
 20
186.85
 30
0.0
  0
VERTEX
  5
5B7
  8
1
  6
CONTINUOUS
 62
     7
 10
-95.21350276304574
 20
186.8505790369032
 30
0.0
  0
VERTEX
  5
5B8
  8
1
  6
CONTINUOUS
 62
     7
 10
-95.18950226290112
 20
186.8523148064779
 30
0.0
  0
VERTEX
  5
5B9
  8
1
  6
CONTINUOUS
 62
     7
 10
-95.16561306920924
 20
186.8552032884255
 30
0.0
  0
VERTEX
  5
5BA
  8
1
  6
CONTINUOUS
 62
     7
 10
-95.14189051286908
 20
186.8592377925955
 30
0.0
  0
VERTEX
  5
5BB
  8
1
  6
CONTINUOUS
 62
     7
 10
-95.11838953882288
 20
186.8644089744806
 30
0.0
  0
VERTEX
  5
5BC
  8
1
  6
CONTINUOUS
 62
     7
 10
-95.09516457879558
 20
186.8707048568602
 30
0.0
  0
VERTEX
  5
5BD
  8
1
  6
CONTINUOUS
 62
     7
 10
-95.07226942522287
 20
186.8781108575416
 30
0.0
  0
VERTEX
  5
5BE
  8
1
  6
CONTINUOUS
 62
     7
 10
-95.04975710666008
 20
186.8866098231337
 30
0.0
  0
VERTEX
  5
5BF
  8
1
  6
CONTINUOUS
 62
     7
 10
-95.02767976496008
 20
186.8961820687778
 30
0.0
  0
VERTEX
  5
5C0
  8
1
  6
CONTINUOUS
 62
     7
 10
-95.00608853450518
 20
186.90680542374
 30
0.0
  0
VERTEX
  5
5C1
  8
1
  6
CONTINUOUS
 62
     7
 10
-94.98503342377222
 20
186.918455282762
 30
0.0
  0
VERTEX
  5
5C2
  8
1
  6
CONTINUOUS
 62
     7
 10
-94.96456319950569
 20
186.9311046630506
 30
0.0
  0
VERTEX
  5
5C3
  8
1
  6
CONTINUOUS
 62
     7
 10
-94.94472527376664
 20
186.944724266774
 30
0.0
  0
VERTEX
  5
5C4
  8
1
  6
CONTINUOUS
 62
     7
 10
-94.92556559411942
 20
186.9592825489194
 30
0.0
  0
VERTEX
  5
5C5
  8
1
  6
CONTINUOUS
 62
     7
 10
-94.90712853721033
 20
186.9747457903564
 30
0.0
  0
VERTEX
  5
5C6
  8
1
  6
CONTINUOUS
 62
     7
 10
-94.88945680598468
 20
186.9910781759353
 30
0.0
  0
VERTEX
  5
5C7
  8
1
  6
CONTINUOUS
 62
     7
 10
-94.87259133078058
 20
187.0082418774402
 30
0.0
  0
VERTEX
  5
5C8
  8
1
  6
CONTINUOUS
 62
     7
 10
-94.85657117452817
 20
187.0261971412048
 30
0.0
  0
VERTEX
  5
5C9
  8
1
  6
CONTINUOUS
 62
     7
 10
-94.84143344227411
 20
187.0449023801879
 30
0.0
  0
VERTEX
  5
5CA
  8
1
  6
CONTINUOUS
 62
     7
 10
-94.8272131952408
 20
187.0643142702947
 30
0.0
  0
VERTEX
  5
5CB
  8
1
  6
CONTINUOUS
 62
     7
 10
-94.8139433696195
 20
187.0843878507225
 30
0.0
  0
VERTEX
  5
5CC
  8
1
  6
CONTINUOUS
 62
     7
 10
-94.8016547002851
 20
187.1050766280957
 30
0.0
  0
VERTEX
  5
5CD
  8
1
  6
CONTINUOUS
 62
     7
 10
-94.79037564960979
 20
187.1263326841521
 30
0.0
  0
VERTEX
  5
5CE
  8
1
  6
CONTINUOUS
 62
     7
 10
-94.78013234153985
 20
187.1481067867282
 30
0.0
  0
VERTEX
  5
5CF
  8
1
  6
CONTINUOUS
 62
     7
 10
-94.7709485010888
 20
187.1703485037882
 30
0.0
  0
VERTEX
  5
5D0
  8
1
  6
CONTINUOUS
 62
     7
 10
-94.76284539938679
 20
187.1930063202324
 30
0.0
  0
VERTEX
  5
5D1
  8
1
  6
CONTINUOUS
 62
     7
 10
-94.75584180441348
 20
187.2160277572131
 30
0.0
  0
VERTEX
  5
5D2
  8
1
  6
CONTINUOUS
 62
     7
 10
-94.74995393752863
 20
187.2393594936842
 30
0.0
  0
VERTEX
  5
5D3
  8
1
  6
CONTINUOUS
 62
     7
 10
-94.74519543590112
 20
187.2629474898999
 30
0.0
  0
VERTEX
  5
5D4
  8
1
  6
CONTINUOUS
 62
     7
 10
-94.74157732092308
 20
187.286737112579
 30
0.0
  0
VERTEX
  5
5D5
  8
1
  6
CONTINUOUS
 62
     7
 10
-94.73910797268292
 20
187.3106732614438
 30
0.0
  0
VERTEX
  5
5D6
  8
1
  6
CONTINUOUS
 62
     7
 10
-94.73779311055566
 20
187.3347004968402
 30
0.0
  0
VERTEX
  5
5D7
  8
1
  6
CONTINUOUS
 62
     7
 10
-94.73763577995605
 20
187.3587631681444
 30
0.0
  0
VERTEX
  5
5D8
  8
1
  6
CONTINUOUS
 62
     7
 10
-94.73863634528502
 20
187.3828055426575
 30
0.0
  0
VERTEX
  5
5D9
  8
1
  6
CONTINUOUS
 62
     7
 10
-94.74079248908556
 20
187.4067719346914
 30
0.0
  0
VERTEX
  5
5DA
  8
1
  6
CONTINUOUS
 62
     7
 10
-94.74409921741034
 20
187.4306068345442
 30
0.0
  0
VERTEX
  5
5DB
  8
1
  6
CONTINUOUS
 62
     7
 10
-94.74854887138846
 20
187.4542550370697
 30
0.0
  0
VERTEX
  5
5DC
  8
1
  6
CONTINUOUS
 62
     7
 10
-94.75413114496448
 20
187.4776617695398
 30
0.0
  0
VERTEX
  5
5DD
  8
1
  6
CONTINUOUS
 62
     7
 10
-94.76083310876878
 20
187.5007728185073
 30
0.0
  0
VERTEX
  5
5DE
  8
1
  6
CONTINUOUS
 62
     7
 10
-94.76863924006388
 20
187.5235346553711
 30
0.0
  0
VERTEX
  5
5DF
  8
1
  6
CONTINUOUS
 62
     7
 10
-94.77753145869744
 20
187.5458945603571
 30
0.0
  0
VERTEX
  5
5E0
  8
1
  6
CONTINUOUS
 62
     7
 10
-94.78748916897847
 20
187.5678007446247
 30
0.0
  0
VERTEX
  5
5E1
  8
1
  6
CONTINUOUS
 62
     7
 10
-94.79848930738011
 20
187.5892024702176
 30
0.0
  0
VERTEX
  5
5E2
  8
1
  6
CONTINUOUS
 62
     7
 10
-94.81050639595801
 20
187.6100501675801
 30
0.0
  0
VERTEX
  5
5E3
  8
1
  6
CONTINUOUS
 62
     7
 10
-94.82351260136119
 20
187.6302955503678
 30
0.0
  0
VERTEX
  5
5E4
  8
1
  6
CONTINUOUS
 62
     7
 10
-94.83747779929804
 20
187.6498917272856
 30
0.0
  0
VERTEX
  5
5E5
  8
1
  6
CONTINUOUS
 62
     7
 10
-94.85236964430871
 20
187.6687933106952
 30
0.0
  0
VERTEX
  5
5E6
  8
1
  6
CONTINUOUS
 62
     7
 10
-94.8681536446819
 20
187.6869565217391
 30
0.0
  0
SEQEND
  5
A17
  8
1
  6
CONTINUOUS
 62
     7
  0
LINE
  5
14D
  8
1
  6
CONTINUOUS
 62
     7
 10
-95.23755898094205
 20
186.85
 30
0.0
 11
-98.2360880745353
 21
186.85
 31
0.0
  0
ARC
  5
14E
  8
1
  6
CONTINUOUS
 62
     7
 10
-98.2360880745353
 20
184.25
 30
0.0
 40
2.6
 50
90.0
 51
270.0
  0
LINE
  5
14F
  8
1
  6
CONTINUOUS
 62
     7
 10
-98.2360880745353
 20
181.65
 30
0.0
 11
-95.23755898094203
 21
181.65
 31
0.0
  0
POLYLINE
  5
150
  8
1
  6
CONTINUOUS
 62
     7
 66
     1
 10
0.0
 20
0.0
 30
0.0
  0
VERTEX
  5
5E7
  8
1
  6
CONTINUOUS
 62
     7
 10
-94.86815364468188
 20
180.8130434782609
 30
0.0
  0
VERTEX
  5
5E8
  8
1
  6
CONTINUOUS
 62
     7
 10
-94.8523696443087
 20
180.8312066893048
 30
0.0
  0
VERTEX
  5
5E9
  8
1
  6
CONTINUOUS
 62
     7
 10
-94.83747779929803
 20
180.8501082727144
 30
0.0
  0
VERTEX
  5
5EA
  8
1
  6
CONTINUOUS
 62
     7
 10
-94.82351260136117
 20
180.8697044496322
 30
0.0
  0
VERTEX
  5
5EB
  8
1
  6
CONTINUOUS
 62
     7
 10
-94.810506395958
 20
180.8899498324199
 30
0.0
  0
VERTEX
  5
5EC
  8
1
  6
CONTINUOUS
 62
     7
 10
-94.79848930738008
 20
180.9107975297824
 30
0.0
  0
VERTEX
  5
5ED
  8
1
  6
CONTINUOUS
 62
     7
 10
-94.78748916897845
 20
180.9321992553753
 30
0.0
  0
VERTEX
  5
5EE
  8
1
  6
CONTINUOUS
 62
     7
 10
-94.77753145869741
 20
180.9541054396429
 30
0.0
  0
VERTEX
  5
5EF
  8
1
  6
CONTINUOUS
 62
     7
 10
-94.76863924006386
 20
180.9764653446289
 30
0.0
  0
VERTEX
  5
5F0
  8
1
  6
CONTINUOUS
 62
     7
 10
-94.76083310876876
 20
180.9992271814927
 30
0.0
  0
VERTEX
  5
5F1
  8
1
  6
CONTINUOUS
 62
     7
 10
-94.75413114496446
 20
181.0223382304601
 30
0.0
  0
VERTEX
  5
5F2
  8
1
  6
CONTINUOUS
 62
     7
 10
-94.74854887138845
 20
181.0457449629303
 30
0.0
  0
VERTEX
  5
5F3
  8
1
  6
CONTINUOUS
 62
     7
 10
-94.74409921741034
 20
181.0693931654558
 30
0.0
  0
VERTEX
  5
5F4
  8
1
  6
CONTINUOUS
 62
     7
 10
-94.74079248908554
 20
181.0932280653086
 30
0.0
  0
VERTEX
  5
5F5
  8
1
  6
CONTINUOUS
 62
     7
 10
-94.738636345285
 20
181.1171944573425
 30
0.0
  0
VERTEX
  5
5F6
  8
1
  6
CONTINUOUS
 62
     7
 10
-94.73763577995604
 20
181.1412368318557
 30
0.0
  0
VERTEX
  5
5F7
  8
1
  6
CONTINUOUS
 62
     7
 10
-94.73779311055563
 20
181.1652995031598
 30
0.0
  0
VERTEX
  5
5F8
  8
1
  6
CONTINUOUS
 62
     7
 10
-94.7391079726829
 20
181.1893267385562
 30
0.0
  0
VERTEX
  5
5F9
  8
1
  6
CONTINUOUS
 62
     7
 10
-94.74157732092308
 20
181.213262887421
 30
0.0
  0
VERTEX
  5
5FA
  8
1
  6
CONTINUOUS
 62
     7
 10
-94.74519543590111
 20
181.2370525101002
 30
0.0
  0
VERTEX
  5
5FB
  8
1
  6
CONTINUOUS
 62
     7
 10
-94.74995393752863
 20
181.2606405063158
 30
0.0
  0
VERTEX
  5
5FC
  8
1
  6
CONTINUOUS
 62
     7
 10
-94.75584180441346
 20
181.2839722427869
 30
0.0
  0
VERTEX
  5
5FD
  8
1
  6
CONTINUOUS
 62
     7
 10
-94.76284539938679
 20
181.3069936797677
 30
0.0
  0
VERTEX
  5
5FE
  8
1
  6
CONTINUOUS
 62
     7
 10
-94.77094850108878
 20
181.3296514962118
 30
0.0
  0
VERTEX
  5
5FF
  8
1
  6
CONTINUOUS
 62
     7
 10
-94.78013234153984
 20
181.3518932132718
 30
0.0
  0
VERTEX
  5
600
  8
1
  6
CONTINUOUS
 62
     7
 10
-94.79037564960979
 20
181.3736673158479
 30
0.0
  0
VERTEX
  5
601
  8
1
  6
CONTINUOUS
 62
     7
 10
-94.8016547002851
 20
181.3949233719043
 30
0.0
  0
VERTEX
  5
602
  8
1
  6
CONTINUOUS
 62
     7
 10
-94.81394336961948
 20
181.4156121492775
 30
0.0
  0
VERTEX
  5
603
  8
1
  6
CONTINUOUS
 62
     7
 10
-94.82721319524079
 20
181.4356857297053
 30
0.0
  0
VERTEX
  5
604
  8
1
  6
CONTINUOUS
 62
     7
 10
-94.84143344227408
 20
181.4550976198122
 30
0.0
  0
VERTEX
  5
605
  8
1
  6
CONTINUOUS
 62
     7
 10
-94.85657117452816
 20
181.4738028587952
 30
0.0
  0
VERTEX
  5
606
  8
1
  6
CONTINUOUS
 62
     7
 10
-94.87259133078057
 20
181.4917581225598
 30
0.0
  0
VERTEX
  5
607
  8
1
  6
CONTINUOUS
 62
     7
 10
-94.88945680598466
 20
181.5089218240647
 30
0.0
  0
VERTEX
  5
608
  8
1
  6
CONTINUOUS
 62
     7
 10
-94.90712853721031
 20
181.5252542096436
 30
0.0
  0
VERTEX
  5
609
  8
1
  6
CONTINUOUS
 62
     7
 10
-94.9255655941194
 20
181.5407174510806
 30
0.0
  0
VERTEX
  5
60A
  8
1
  6
CONTINUOUS
 62
     7
 10
-94.94472527376662
 20
181.555275733226
 30
0.0
  0
VERTEX
  5
60B
  8
1
  6
CONTINUOUS
 62
     7
 10
-94.96456319950568
 20
181.5688953369494
 30
0.0
  0
VERTEX
  5
60C
  8
1
  6
CONTINUOUS
 62
     7
 10
-94.98503342377221
 20
181.581544717238
 30
0.0
  0
VERTEX
  5
60D
  8
1
  6
CONTINUOUS
 62
     7
 10
-95.00608853450517
 20
181.5931945762601
 30
0.0
  0
VERTEX
  5
60E
  8
1
  6
CONTINUOUS
 62
     7
 10
-95.02767976496007
 20
181.6038179312222
 30
0.0
  0
VERTEX
  5
60F
  8
1
  6
CONTINUOUS
 62
     7
 10
-95.04975710666007
 20
181.6133901768663
 30
0.0
  0
VERTEX
  5
610
  8
1
  6
CONTINUOUS
 62
     7
 10
-95.07226942522287
 20
181.6218891424584
 30
0.0
  0
VERTEX
  5
611
  8
1
  6
CONTINUOUS
 62
     7
 10
-95.09516457879556
 20
181.6292951431397
 30
0.0
  0
VERTEX
  5
612
  8
1
  6
CONTINUOUS
 62
     7
 10
-95.11838953882288
 20
181.6355910255194
 30
0.0
  0
VERTEX
  5
613
  8
1
  6
CONTINUOUS
 62
     7
 10
-95.14189051286908
 20
181.6407622074045
 30
0.0
  0
VERTEX
  5
614
  8
1
  6
CONTINUOUS
 62
     7
 10
-95.16561306920923
 20
181.6447967115745
 30
0.0
  0
VERTEX
  5
615
  8
1
  6
CONTINUOUS
 62
     7
 10
-95.1895022629011
 20
181.6476851935221
 30
0.0
  0
VERTEX
  5
616
  8
1
  6
CONTINUOUS
 62
     7
 10
-95.21350276304574
 20
181.6494209630968
 30
0.0
  0
VERTEX
  5
617
  8
1
  6
CONTINUOUS
 62
     7
 10
-95.23755898094204
 20
181.65
 30
0.0
  0
SEQEND
  5
A18
  8
1
  6
CONTINUOUS
 62
     7
  0
ARC
  5
151
  8
1
  6
CONTINUOUS
 62
     7
 10
-98.63608807453532
 20
184.25
 30
0.0
 40
5.1
 50
270.0
 51
317.6302014306244
  0
LINE
  5
152
  8
1
  6
CONTINUOUS
 62
     7
 10
-104.6360880745353
 20
179.15
 30
0.0
 11
-98.63608807453532
 21
179.15
 31
0.0
  0
LINE
  5
153
  8
1
  6
CONTINUOUS
 62
     7
 10
-104.6360880745353
 20
179.15
 30
0.0
 11
-104.6360880745353
 21
178.6889119254647
 31
0.0
  0
LINE
  5
154
  8
1
  6
CONTINUOUS
 62
     7
 10
-112.6360880745353
 20
143.9805440372677
 30
0.0
 11
-119.6448146100337
 21
144.0417082671245
 31
0.0
  0
ARC
  5
155
  8
1
  6
CONTINUOUS
 62
     7
 10
-119.6360880745353
 20
145.0416701901887
 30
0.0
 40
1.0
 50
180.0
 51
269.4999999999995
  0
LINE
  5
156
  8
1
  6
CONTINUOUS
 62
     7
 10
-112.6360880745353
 20
143.9805440372677
 30
0.0
 11
-112.6360880745353
 21
161.25
 31
0.0
  0
LINE
  5
157
  8
1
  6
CONTINUOUS
 62
     7
 10
-120.6360880745353
 20
171.3199291731335
 30
0.0
 11
-120.6360880745353
 21
145.0416701901887
 31
0.0
  0
ARC
  5
158
  8
1
  6
CONTINUOUS
 62
     7
 10
-105.6360880745353
 20
135.311126152921
 30
0.0
 40
1.0
 50
270.5000000000005
 51
0.0
  0
LINE
  5
159
  8
1
  6
CONTINUOUS
 62
     7
 10
-112.6360880745353
 20
134.25
 30
0.0
 11
-105.6273615390369
 21
134.3111642298569
 31
0.0
  0
LINE
  5
15A
  8
1
  6
CONTINUOUS
 62
     7
 10
-112.6360880745353
 20
134.25
 30
0.0
 11
-112.6360880745353
 21
136.9194559627323
 31
0.0
  0
ARC
  5
15B
  8
1
  6
CONTINUOUS
 62
     7
 10
-110.1360880745353
 20
137.941311210595
 30
0.0
 40
1.0
 50
270.4999999999997
 51
0.0
  0
LINE
  5
15C
  8
1
  6
CONTINUOUS
 62
     7
 10
-109.1360880745353
 20
137.941311210595
 30
0.0
 11
-109.1360880745353
 21
142.958688789405
 31
0.0
  0
ARC
  5
15D
  8
1
  6
CONTINUOUS
 62
     7
 10
-110.1360880745353
 20
142.958688789405
 30
0.0
 40
1.0
 50
0.0
 51
89.50000000000036
  0
LINE
  5
15E
  8
1
  6
CONTINUOUS
 62
     7
 10
-110.1273615390369
 20
143.9586507124692
 30
0.0
 11
-112.6360880745353
 21
143.9805440372677
 31
0.0
  0
LINE
  5
15F
  8
1
  6
CONTINUOUS
 62
     7
 10
-112.6360880745353
 20
136.9194559627323
 30
0.0
 11
-110.1273615390369
 21
136.9413492875308
 31
0.0
  0
LINE
  5
160
  8
1
  6
CONTINUOUS
 62
     7
 10
-104.6360880745353
 20
171.3199291731335
 30
0.0
 11
-104.6360880745353
 21
135.3111261529211
 31
0.0
  0
LINE
  5
161
  8
1
  6
CONTINUOUS
 62
     7
 10
-119.6448146100337
 20
134.3111642298569
 30
0.0
 11
-112.6360880745353
 21
134.25
 31
0.0
  0
ARC
  5
162
  8
1
  6
CONTINUOUS
 62
     7
 10
-119.6360880745353
 20
135.3111261529211
 30
0.0
 40
1.0
 50
180.0
 51
269.4999999999995
  0
ARC
  5
163
  8
1
  6
CONTINUOUS
 62
     7
 10
-119.6360880745353
 20
135.8583298098113
 30
0.0
 40
1.0
 50
90.5000000000005
 51
180.0
  0
LINE
  5
164
  8
1
  6
CONTINUOUS
 62
     7
 10
-119.6448146100337
 20
136.8582917328755
 30
0.0
 11
-112.6360880745353
 21
136.9194559627323
 31
0.0
  0
LINE
  5
165
  8
1
  6
CONTINUOUS
 62
     7
 10
-120.6360880745353
 20
135.8583298098113
 30
0.0
 11
-120.6360880745353
 21
135.3111261529211
 31
0.0
  0
LINE
  5
166
  8
1
  6
CONTINUOUS
 62
     7
 10
-112.6360880745353
 20
142.65
 30
0.0
 11
-109.1360880745354
 21
142.6805440372677
 31
0.0
  0
ARC
  5
167
  8
1
  6
CONTINUOUS
 62
     7
 10
-112.6360880745353
 20
140.45
 30
0.0
 40
2.200000000000001
 50
90.0
 51
270.0
  0
LINE
  5
168
  8
1
  6
CONTINUOUS
 62
     7
 10
-112.6360880745353
 20
138.25
 30
0.0
 11
-109.1360880745354
 21
138.2194559627324
 31
0.0
  0
LINE
  5
169
  8
1
  6
CONTINUOUS
 62
     7
 10
-120.6360880745353
 20
135.8583298098113
 30
0.0
 11
-120.6360880745353
 21
145.0416701901887
 31
0.0
  0
ARC
  5
16A
  8
1
  6
CONTINUOUS
 62
     7
 10
-98.63608807453532
 20
184.25
 30
0.0
 40
2.200000000000007
 50
270.0000000000001
 51
90.00000000000006
  0
LINE
  5
16B
  8
1
  6
CONTINUOUS
 62
     7
 10
-99.60816748829342
 20
186.458483208526
 30
0.0
 11
-98.63608807453532
 21
186.45
 31
0.0
  0
LINE
  5
16C
  8
1
  6
CONTINUOUS
 62
     7
 10
-98.63608807453532
 20
182.05
 30
0.0
 11
-99.6081674882934
 21
182.041516791474
 31
0.0
  0
ARC
  5
16D
  8
1
  6
CONTINUOUS
 62
     7
 10
-98.63608807453532
 20
184.25
 30
0.0
 40
5.100000000000002
 50
317.6302014306243
 51
42.36979856937592
  0
LINE
  5
16E
  8
1
  6
CONTINUOUS
 62
     7
 10
-119.7639119254647
 20
192.0
 30
0.0
 11
-120.9360880745353
 21
192.0
 31
0.0
  0
LINE
  5
16F
  8
1
  6
CONTINUOUS
 62
     7
 10
-120.9360880745353
 20
182.5
 30
0.0
 11
-119.7639119254647
 21
182.5
 31
0.0
  0
LINE
  5
170
  8
1
  6
CONTINUOUS
 62
     7
 10
-120.9360880745353
 20
191.75
 30
0.0
 11
-122.5473754755786
 21
191.6090306187266
 31
0.0
  0
LINE
  5
171
  8
1
  6
CONTINUOUS
 62
     7
 10
-122.5473754755786
 20
182.8909693812734
 30
0.0
 11
-120.9360880745353
 21
182.75
 31
0.0
  0
ARC
  5
172
  8
1
  6
CONTINUOUS
 62
     7
 10
-122.4079262871824
 20
190.0151191017798
 30
0.0
 40
1.600000000000002
 50
95.00000000000006
 51
154.4022801097753
  0
ARC
  5
173
  8
1
  6
CONTINUOUS
 62
     7
 10
-122.4079262871824
 20
184.4848808982202
 30
0.0
 40
1.600000000000001
 50
205.5977198902246
 51
264.9999999999999
  0
ARC
  5
174
  8
1
  6
CONTINUOUS
 62
     7
 10
-116.6360880745353
 20
187.25
 30
0.0
 40
7.999999999999995
 50
197.833382709813
 51
205.5977198902246
  0
ARC
  5
175
  8
1
  6
CONTINUOUS
 62
     7
 10
-116.6360880745353
 20
187.25
 30
0.0
 40
7.999999999999991
 50
154.4022801097754
 51
162.1666172901869
  0
LINE
  5
176
  8
1
  6
CONTINUOUS
 62
     7
 10
-101.3360880745353
 20
184.75
 30
0.0
 11
-100.9360880745353
 21
185.15
 31
0.0
  0
LINE
  5
177
  8
1
  6
CONTINUOUS
 62
     7
 10
-100.9360880745353
 20
189.35
 30
0.0
 11
-101.3360880745353
 21
189.75
 31
0.0
  0
LINE
  5
178
  8
1
  6
CONTINUOUS
 62
     7
 10
-101.3360880745353
 20
189.75
 30
0.0
 11
-102.1360880745353
 21
189.75
 31
0.0
  0
LINE
  5
179
  8
1
  6
CONTINUOUS
 62
     7
 10
-108.6639119254647
 20
189.75
 30
0.0
 11
-108.7539007897106
 21
189.75
 31
0.0
  0
LINE
  5
17A
  8
1
  6
CONTINUOUS
 62
     7
 10
-116.5182753593601
 20
189.75
 30
0.0
 11
-116.6639119254647
 21
189.75
 31
0.0
  0
LINE
  5
17B
  8
1
  6
CONTINUOUS
 62
     7
 10
-116.6639119254647
 20
184.75
 30
0.0
 11
-116.5619096983139
 21
184.75
 31
0.0
  0
LINE
  5
17C
  8
1
  6
CONTINUOUS
 62
     7
 10
-108.7102664507568
 20
184.75
 30
0.0
 11
-108.6639119254647
 21
184.75
 31
0.0
  0
LINE
  5
17D
  8
1
  6
CONTINUOUS
 62
     7
 10
-102.1360880745353
 20
184.75
 30
0.0
 11
-101.3360880745353
 21
184.75
 31
0.0
  0
LINE
  5
17E
  8
1
  6
CONTINUOUS
 62
     7
 10
-109.6360880745353
 20
202.25
 30
0.0
 11
-109.6360880745353
 21
219.75
 31
0.0
  0
LINE
  5
17F
  8
1
  6
CONTINUOUS
 62
     7
 10
-109.6360880745353
 20
224.25
 30
0.0
 11
-109.6360880745353
 21
239.75
 31
0.0
  0
LINE
  5
180
  8
1
  6
CONTINUOUS
 62
     7
 10
-115.6360880745353
 20
239.75
 30
0.0
 11
-115.6360880745353
 21
224.25
 31
0.0
  0
LINE
  5
181
  8
1
  6
CONTINUOUS
 62
     7
 10
-115.6360880745353
 20
219.75
 30
0.0
 11
-115.6360880745353
 21
202.25
 31
0.0
  0
LINE
  5
182
  8
1
  6
CONTINUOUS
 62
     7
 10
-115.6360880745353
 20
202.25
 30
0.0
 11
-114.8860880745353
 21
199.75
 31
0.0
  0
LINE
  5
183
  8
1
  6
CONTINUOUS
 62
     7
 10
-110.3860880745353
 20
199.75
 30
0.0
 11
-109.6360880745353
 21
202.25
 31
0.0
  0
LINE
  5
184
  8
1
  6
CONTINUOUS
 62
     7
 10
-115.4794747604933
 20
194.2251761487269
 30
0.0
 11
-116.4967498141436
 21
192.2165831696497
 31
0.0
  0
LINE
  5
185
  8
1
  6
CONTINUOUS
 62
     7
 10
-108.775426334927
 20
192.2165831696497
 30
0.0
 11
-109.7927013885774
 21
194.2251761487269
 31
0.0
  0
ARC
  5
186
  8
1
  6
CONTINUOUS
 62
     7
 10
-110.8860880745353
 20
167.3816524975874
 30
0.0
 40
1.000000000000004
 50
344.9999999999998
 51
0.0
  0
ARC
  5
187
  8
1
  6
CONTINUOUS
 62
     7
 10
-114.3860880745353
 20
167.3816524975874
 30
0.0
 40
1.000000000000001
 50
180.0
 51
195.0000000000001
  0
LINE
  5
188
  8
1
  6
CONTINUOUS
 62
     7
 10
-115.3860880745353
 20
167.95
 30
0.0
 11
-115.3860880745353
 21
167.3816524975874
 31
0.0
  0
LINE
  5
189
  8
1
  6
CONTINUOUS
 62
     7
 10
-109.8860880745353
 20
167.3816524975874
 30
0.0
 11
-109.8860880745353
 21
167.95
 31
0.0
  0
LINE
  5
18A
  8
1
  6
CONTINUOUS
 62
     7
 10
-115.3520139008244
 20
167.1228334524849
 30
0.0
 11
-115.0568200267966
 21
166.0211549165301
 31
0.0
  0
LINE
  5
18B
  8
1
  6
CONTINUOUS
 62
     7
 10
-110.2153714481323
 20
166.0210977196483
 30
0.0
 11
-109.9201622482462
 21
167.1228334524849
 31
0.0
  0
ENDBLK
  8
0
  0
BLOCK
  8
0
  2
D_FRAME_VIEW_2688
 70
     0
 10
0.0
 20
0.0
 30
0.0
  0
LINE
  5
190
  8
1
  6
CONTINUOUS
 62
     7
 10
-178.6748564554569
 20
70.03801186318199
 30
0.0
 11
-178.6748564554569
 21
72.13608807453532
 31
0.0
  0
ARC
  5
191
  8
1
  6
CONTINUOUS
 62
     7
 10
-180.0452178543235
 20
72.16684905546903
 30
0.0
 40
2.53176581752105
 50
271.6143137623373
 51
302.7699337057036
  0
ARC
  5
192
  8
1
  6
CONTINUOUS
 62
     7
 10
-179.8819244185669
 20
72.2335807216713
 30
0.0
 40
2.599120343317944
 50
237.6435929533617
 51
267.9721595785977
  0
LINE
  5
193
  8
1
  6
CONTINUOUS
 62
     7
 10
-181.2729326668102
 20
70.03801186318199
 30
0.0
 11
-181.2729326668102
 21
72.13608807453532
 31
0.0
  0
ARC
  5
194
  8
1
  6
CONTINUOUS
 62
     7
 10
-183.9433333345912
 20
78.70167692149673
 30
0.0
 40
9.065877341391099
 50
270.4570909035043
 51
287.1308628704892
  0
ARC
  5
195
  8
1
  6
CONTINUOUS
 62
     7
 10
-183.7830315428617
 20
78.80285872110892
 30
0.0
 40
9.16719281451036
 50
252.961920924582
 51
269.4501253014246
  0
LINE
  5
196
  8
1
  6
CONTINUOUS
 62
     7
 10
-186.4690850895169
 20
70.03801186318199
 30
0.0
 11
-186.4690850895169
 21
72.13608807453532
 31
0.0
  0
ARC
  5
197
  8
1
  6
CONTINUOUS
 62
     7
 10
-187.8394464883834
 20
72.16684905546903
 30
0.0
 40
2.53176581752105
 50
271.6143137623373
 51
302.7699337057036
  0
ARC
  5
198
  8
1
  6
CONTINUOUS
 62
     7
 10
-187.6761530526268
 20
72.23358072167109
 30
0.0
 40
2.599120343317737
 50
237.6435929533602
 51
267.9721595785982
  0
LINE
  5
199
  8
1
  6
CONTINUOUS
 62
     7
 10
-189.0671613008702
 20
70.03801186318199
 30
0.0
 11
-189.0671613008702
 21
72.13608807453532
 31
0.0
  0
LINE
  5
19A
  8
1
  6
CONTINUOUS
 62
     7
 10
-183.8710088781635
 20
69.63608807453532
 30
0.0
 11
-179.9738945611336
 21
69.63608807453532
 31
0.0
  0
LINE
  5
19B
  8
1
  6
CONTINUOUS
 62
     7
 10
-187.7681231951935
 20
69.63608807453532
 30
0.0
 11
-183.8710088781635
 21
69.63608807453532
 31
0.0
  0
LINE
  5
19C
  8
1
  6
CONTINUOUS
 62
     7
 10
-179.9738945611336
 20
69.63608807453532
 30
0.0
 11
-179.3710088781635
 21
69.63608807453532
 31
0.0
  0
LINE
  5
19D
  8
1
  6
CONTINUOUS
 62
     7
 10
-188.3710088781635
 20
69.63608807453532
 30
0.0
 11
-187.7681231951935
 21
69.63608807453532
 31
0.0
  0
LINE
  5
19E
  8
1
  6
CONTINUOUS
 62
     7
 10
-188.6144253684161
 20
88.13608807453531
 30
0.0
 11
-188.6144253684161
 21
88.43608807453532
 31
0.0
  0
LINE
  5
19F
  8
1
  6
CONTINUOUS
 62
     7
 10
-188.6144253684161
 20
88.43608807453532
 30
0.0
 11
-179.1210088781636
 21
88.43608807453532
 31
0.0
  0
LINE
  5
1A0
  8
1
  6
CONTINUOUS
 62
     7
 10
-179.5022418734524
 20
89.93608807453532
 30
0.0
 11
-179.5436395685884
 21
89.93608807453532
 31
0.0
  0
LINE
  5
1A1
  8
1
  6
CONTINUOUS
 62
     7
 10
-188.1885484477559
 20
90.04737547557862
 30
0.0
 11
-188.1983781877387
 21
89.93608807453532
 31
0.0
  0
LINE
  5
1A2
  8
1
  6
CONTINUOUS
 62
     9
 10
-179.5534693085712
 20
90.04737547557856
 30
0.0
 11
-188.1885484477559
 21
90.04737547557869
 31
0.0
  0
LINE
  5
1A3
  8
1
  6
CONTINUOUS
 62
     7
 10
-179.5436395685884
 20
89.93608807453532
 30
0.0
 11
-179.5534693085703
 21
90.04737547557855
 31
0.0
  0
LINE
  5
1A4
  8
1
  6
CONTINUOUS
 62
     7
 10
-188.1983781877387
 20
89.93608807453532
 30
0.0
 11
-188.2397758828747
 21
89.93608807453532
 31
0.0
  0
ARC
  5
1A5
  8
1
  6
CONTINUOUS
 62
     7
 10
-181.1449933387572
 20
89.9038205518591
 30
0.0
 40
1.59798521732415
 50
5.15411201806931
 51
64.89828712562532
  0
ARC
  5
1A6
  8
1
  6
CONTINUOUS
 62
     7
 10
-186.5970827855679
 20
89.90386146136082
 30
0.0
 40
1.597923410617746
 50
115.1004399505805
 51
174.8471609057761
  0
LINE
  5
1A7
  8
1
  6
CONTINUOUS
 62
     9
 10
-187.2749320850647
 20
91.35088584034412
 30
0.0
 11
-180.4670856712624
 21
91.35088584034412
 31
0.0
  0
LINE
  5
1A8
  8
1
  6
CONTINUOUS
 62
     7
 10
-183.2710088781635
 20
91.75169704558944
 30
0.0
 11
-184.4710088781636
 21
91.75169704558944
 31
0.0
  0
LINE
  5
1A9
  8
1
  6
CONTINUOUS
 62
     7
 10
-183.2710088781635
 20
92.03735379592452
 30
0.0
 11
-183.2710088781635
 21
91.75169704558944
 31
0.0
  0
LINE
  5
1AA
  8
1
  6
CONTINUOUS
 62
     7
 10
-182.7710088781635
 20
92.03735379592452
 30
0.0
 11
-183.2710088781635
 21
92.03735379592452
 31
0.0
  0
ARC
  5
1AB
  8
1
  6
CONTINUOUS
 62
     7
 10
-183.8710088781635
 20
84.13608807453532
 30
0.0
 40
7.977468270071638
 50
64.74218097053684
 51
82.07432701122828
  0
ARC
  5
1AC
  8
1
  6
CONTINUOUS
 62
     7
 10
-183.8710088781635
 20
84.13608807453532
 30
0.0
 40
7.977468270071657
 50
97.92567298877171
 51
115.2578190294632
  0
LINE
  5
1AD
  8
1
  6
CONTINUOUS
 62
     7
 10
-184.4710088781636
 20
92.03735379592452
 30
0.0
 11
-184.9710088781636
 21
92.03735379592452
 31
0.0
  0
LINE
  5
1AE
  8
1
  6
CONTINUOUS
 62
     7
 10
-184.4710088781636
 20
91.75169704558942
 30
0.0
 11
-184.4710088781636
 21
92.0373537959245
 31
0.0
  0
LINE
  5
1AF
  8
1
  6
CONTINUOUS
 62
     7
 10
-186.3710088781635
 20
68.83608807453533
 30
0.0
 11
-181.3710088781635
 21
68.83608807453533
 31
0.0
  0
LINE
  5
1B0
  8
1
  6
CONTINUOUS
 62
     7
 10
-181.7710088781635
 20
68.43608807453532
 30
0.0
 11
-185.9710088781635
 21
68.43608807453532
 31
0.0
  0
ARC
  5
1B1
  8
1
  6
CONTINUOUS
 62
     7
 10
-196.3710088781636
 20
67.36391192546469
 30
0.0
 40
1.000000000000001
 50
270.0
 51
0.0
  0
LINE
  5
1B2
  8
1
  6
CONTINUOUS
 62
     7
 10
-219.3710088781635
 20
66.36391192546469
 30
0.0
 11
-196.3710088781636
 21
66.36391192546469
 31
0.0
  0
ARC
  5
1B3
  8
1
  6
CONTINUOUS
 62
     7
 10
-219.3710088781635
 20
67.36391192546469
 30
0.0
 40
1.000000000000001
 50
180.0
 51
270.0
  0
LINE
  5
1B4
  8
1
  6
CONTINUOUS
 62
     7
 10
-195.3710088781635
 20
72.13608807453531
 30
0.0
 11
-195.3710088781635
 21
67.36391192546469
 31
0.0
  0
LINE
  5
1B5
  8
1
  6
CONTINUOUS
 62
     7
 10
-220.3710088781635
 20
72.13608807453531
 30
0.0
 11
-220.3710088781635
 21
67.36391192546469
 31
0.0
  0
LINE
  5
1B6
  8
1
  6
CONTINUOUS
 62
     7
 10
-189.0671613008702
 20
71.86391192546468
 30
0.0
 11
-190.8710088781635
 21
71.86391192546468
 31
0.0
  0
LINE
  5
1B7
  8
1
  6
CONTINUOUS
 62
     7
 10
-190.8710088781635
 20
71.86391192546468
 30
0.0
 11
-190.8710088781635
 21
72.13608807453531
 31
0.0
  0
ARC
  5
1B8
  8
1
  6
CONTINUOUS
 62
     7
 10
-219.3710088781635
 20
92.96391192546467
 30
0.0
 40
1.000000000000001
 50
90.0
 51
180.0
  0
LINE
  5
1B9
  8
1
  6
CONTINUOUS
 62
     7
 10
-219.3710088781635
 20
93.96391192546467
 30
0.0
 11
-196.3710088781636
 21
93.96391192546467
 31
0.0
  0
ARC
  5
1BA
  8
1
  6
CONTINUOUS
 62
     7
 10
-196.3710088781636
 20
92.96391192546467
 30
0.0
 40
1.000000000000001
 50
0.0
 51
90.0
  0
LINE
  5
1BB
  8
1
  6
CONTINUOUS
 62
     7
 10
-195.3710088781635
 20
88.13608807453531
 30
0.0
 11
-195.3710088781635
 21
92.96391192546467
 31
0.0
  0
LINE
  5
1BC
  8
1
  6
CONTINUOUS
 62
     7
 10
-220.3710088781635
 20
88.13608807453531
 30
0.0
 11
-220.3710088781635
 21
92.96391192546467
 31
0.0
  0
LINE
  5
1BD
  8
1
  6
CONTINUOUS
 62
     7
 10
-254.3710088781635
 20
80.13608807453554
 30
0.0
 11
-248.3710088781635
 21
80.13608807453525
 31
0.0
  0
LINE
  5
1BE
  8
1
  6
CONTINUOUS
 62
     7
 10
-254.3098446483067
 20
87.14481461003369
 30
0.0
 11
-254.3710088781635
 21
80.13608807453554
 31
0.0
  0
LINE
  5
1BF
  8
1
  6
CONTINUOUS
 62
     9
 10
-248.4321731080204
 20
87.14481461003369
 30
0.0
 11
-254.3098446483067
 21
87.14481461003369
 31
0.0
  0
LINE
  5
1C0
  8
1
  6
CONTINUOUS
 62
     7
 10
-248.4321731080204
 20
87.14481461003369
 30
0.0
 11
-248.3710088781635
 21
80.13608807453525
 31
0.0
  0
LINE
  5
1C1
  8
1
  6
CONTINUOUS
 62
     7
 10
-248.3710088781635
 20
80.13608807453525
 30
0.0
 11
-248.4321731080204
 21
73.12736153903694
 31
0.0
  0
LINE
  5
1C2
  8
1
  6
CONTINUOUS
 62
     9
 10
-254.3098446483067
 20
73.12736153903694
 30
0.0
 11
-248.4321731080204
 21
73.12736153903694
 31
0.0
  0
LINE
  5
1C3
  8
1
  6
CONTINUOUS
 62
     7
 10
-254.3710088781635
 20
80.13608807453554
 30
0.0
 11
-254.3098446483067
 21
73.12736153903694
 31
0.0
  0
LINE
  5
1C4
  8
1
  6
CONTINUOUS
 62
     7
 10
-248.4408238204896
 20
72.13608807453531
 30
0.0
 11
-254.3011939358375
 21
72.13608807453531
 31
0.0
  0
LINE
  5
1C5
  8
1
  6
CONTINUOUS
 62
     7
 10
-248.4321731080204
 20
73.12736153903694
 30
0.0
 11
-248.4408238204896
 21
72.13608807453531
 31
0.0
  0
LINE
  5
1C6
  8
1
  6
CONTINUOUS
 62
     7
 10
-254.3011939358375
 20
72.13608807453531
 30
0.0
 11
-254.3098446483067
 21
73.12736153903694
 31
0.0
  0
LINE
  5
1C7
  8
1
  6
CONTINUOUS
 62
     7
 10
-254.3011939358375
 20
88.13608807453531
 30
0.0
 11
-248.4408238204896
 21
88.13608807453531
 31
0.0
  0
LINE
  5
1C8
  8
1
  6
CONTINUOUS
 62
     7
 10
-248.4408238204896
 20
88.13608807453531
 30
0.0
 11
-248.4321731080204
 21
87.14481461003369
 31
0.0
  0
LINE
  5
1C9
  8
1
  6
CONTINUOUS
 62
     7
 10
-254.3098446483067
 20
87.14481461003369
 30
0.0
 11
-254.3011939358375
 21
88.13608807453531
 31
0.0
  0
LINE
  5
1CA
  8
1
  6
CONTINUOUS
 62
     7
 10
-257.8710088781635
 20
80.1360880745357
 30
0.0
 11
-255.8710088781635
 21
80.13608807453518
 31
0.0
  0
LINE
  5
1CB
  8
1
  6
CONTINUOUS
 62
     7
 10
-255.8710088781635
 20
80.13608807453518
 30
0.0
 11
-255.9321731080204
 21
73.12736153903694
 31
0.0
  0
LINE
  5
1CC
  8
1
  6
CONTINUOUS
 62
     9
 10
-257.8098446483067
 20
73.12736153903694
 30
0.0
 11
-255.9321731080204
 21
73.12736153903694
 31
0.0
  0
LINE
  5
1CD
  8
1
  6
CONTINUOUS
 62
     7
 10
-257.8710088781635
 20
80.1360880745357
 30
0.0
 11
-257.8098446483067
 21
73.12736153903694
 31
0.0
  0
LINE
  5
1CE
  8
1
  6
CONTINUOUS
 62
     9
 10
-255.9321731080204
 20
87.14481461003369
 30
0.0
 11
-257.8098446483067
 21
87.14481461003369
 31
0.0
  0
LINE
  5
1CF
  8
1
  6
CONTINUOUS
 62
     7
 10
-255.9321731080204
 20
87.14481461003369
 30
0.0
 11
-255.8710088781635
 21
80.13608807453518
 31
0.0
  0
LINE
  5
1D0
  8
1
  6
CONTINUOUS
 62
     7
 10
-257.8098446483067
 20
87.14481461003369
 30
0.0
 11
-257.8710088781635
 21
80.1360880745357
 31
0.0
  0
LINE
  5
1D1
  8
1
  6
CONTINUOUS
 62
     7
 10
-255.9321731080204
 20
73.12736153903694
 30
0.0
 11
-255.9408238204896
 21
72.13608807453531
 31
0.0
  0
LINE
  5
1D2
  8
1
  6
CONTINUOUS
 62
     7
 10
-257.8011939358375
 20
72.13608807453531
 30
0.0
 11
-257.8098446483067
 21
73.12736153903694
 31
0.0
  0
LINE
  5
1D3
  8
1
  6
CONTINUOUS
 62
     7
 10
-255.9408238204896
 20
72.13608807453531
 30
0.0
 11
-257.8011939358375
 21
72.13608807453531
 31
0.0
  0
LINE
  5
1D4
  8
1
  6
CONTINUOUS
 62
     7
 10
-255.9408238204896
 20
88.13608807453531
 30
0.0
 11
-255.9321731080204
 21
87.14481461003369
 31
0.0
  0
LINE
  5
1D5
  8
1
  6
CONTINUOUS
 62
     7
 10
-257.8098446483067
 20
87.14481461003369
 30
0.0
 11
-257.8011939358374
 21
88.13608807453531
 31
0.0
  0
LINE
  5
1D6
  8
1
  6
CONTINUOUS
 62
     7
 10
-257.8011939358375
 20
88.13608807453531
 30
0.0
 11
-255.9408238204896
 21
88.13608807453531
 31
0.0
  0
LINE
  5
1D7
  8
1
  6
CONTINUOUS
 62
     7
 10
-203.7698767569672
 20
82.73503719609485
 30
0.0
 11
-203.7698767569672
 21
82.88422786247592
 31
0.0
  0
ARC
  5
1D8
  8
1
  6
CONTINUOUS
 62
     7
 10
-202.8710088781636
 20
80.13608807453531
 30
0.0
 40
2.750000000000001
 50
102.4625164264977
 51
109.0783641367908
  0
LINE
  5
1D9
  8
1
  6
CONTINUOUS
 62
     7
 10
-203.4633127953942
 20
82.82203633667673
 30
0.0
 11
-203.464461252306
 21
82.82129091224138
 31
0.0
  0
LINE
  5
1DA
  8
1
  6
CONTINUOUS
 62
     9
 10
-203.4645412293057
 20
80.13608807453528
 30
0.0
 11
-203.4633127953942
 21
82.82203633667673
 31
0.0
  0
LINE
  5
1DB
  8
1
  6
CONTINUOUS
 62
     9
 10
-203.4633127953942
 20
77.4501398123939
 30
0.0
 11
-203.4645412293057
 21
80.13608807453528
 31
0.0
  0
LINE
  5
1DC
  8
1
  6
CONTINUOUS
 62
     7
 10
-203.464461252306
 20
77.45088523682925
 30
0.0
 11
-203.4633127953942
 21
77.4501398123939
 31
0.0
  0
ARC
  5
1DD
  8
1
  6
CONTINUOUS
 62
     7
 10
-202.8710088781636
 20
80.13608807453531
 30
0.0
 40
2.750000000000001
 50
250.9216358632092
 51
257.5374835735023
  0
LINE
  5
1DE
  8
1
  6
CONTINUOUS
 62
     7
 10
-203.7698767569672
 20
77.38794828659469
 30
0.0
 11
-203.7698767569672
 21
77.53713895297577
 31
0.0
  0
ARC
  5
1DF
  8
1
  6
CONTINUOUS
 62
     7
 10
-203.8710088781636
 20
80.13608807453531
 30
0.0
 40
2.75
 50
271.4866545699234
 51
272.1075456741796
  0
LINE
  5
1E0
  8
1
  6
CONTINUOUS
 62
     7
 10
-203.8132267188197
 20
77.42077698444534
 30
0.0
 11
-203.7996625874297
 21
77.38701373818162
 31
0.0
  0
LINE
  5
1E1
  8
1
  6
CONTINUOUS
 62
     7
 10
-204.101587054217
 20
78.91608198663158
 30
0.0
 11
-203.8132267188197
 21
77.42077698444534
 31
0.0
  0
LINE
  5
1E2
  8
1
  6
CONTINUOUS
 62
     7
 10
-204.1210088781636
 20
79.41982227185441
 30
0.0
 11
-204.101587054217
 21
78.91608198663158
 31
0.0
  0
LINE
  5
1E3
  8
1
  6
CONTINUOUS
 62
     7
 10
-204.1210088781636
 20
79.41982227185441
 30
0.0
 11
-204.1210088781636
 21
80.8523538772162
 31
0.0
  0
LINE
  5
1E4
  8
1
  6
CONTINUOUS
 62
     7
 10
-204.101587054217
 20
81.356094162439
 30
0.0
 11
-204.1210088781636
 21
80.8523538772162
 31
0.0
  0
LINE
  5
1E5
  8
1
  6
CONTINUOUS
 62
     7
 10
-203.8132267188197
 20
82.85139916462526
 30
0.0
 11
-204.101587054217
 21
81.356094162439
 31
0.0
  0
LINE
  5
1E6
  8
1
  6
CONTINUOUS
 62
     7
 10
-203.7996625874297
 20
82.88516241088901
 30
0.0
 11
-203.8132267188197
 21
82.85139916462526
 31
0.0
  0
ARC
  5
1E7
  8
1
  6
CONTINUOUS
 62
     7
 10
-203.8710088781636
 20
80.13608807453531
 30
0.0
 40
2.75
 50
87.89245432582041
 51
88.51334543007664
  0
ARC
  5
1E8
  8
1
  6
CONTINUOUS
 62
     9
 10
-203.8710088781636
 20
80.13608807453531
 30
0.0
 40
0.7586413514237781
 50
109.2406440950062
 51
250.7593559049938
  0
ARC
  5
1E9
  8
1
  6
CONTINUOUS
 62
     9
 10
-203.8710088781636
 20
80.13608807453531
 30
0.0
 40
1.241604264568324
 50
100.7025226162913
 51
259.2974773837093
  0
LINE
  5
1EA
  8
1
  6
CONTINUOUS
 62
     7
 10
-163.9721409993599
 20
77.53713895297578
 30
0.0
 11
-163.9721409993599
 21
77.38794828659469
 31
0.0
  0
ARC
  5
1EB
  8
1
  6
CONTINUOUS
 62
     7
 10
-164.8710088781636
 20
80.13608807453531
 30
0.0
 40
2.749999999999998
 50
282.4625164264978
 51
289.0783641367914
  0
LINE
  5
1EC
  8
1
  6
CONTINUOUS
 62
     7
 10
-164.2787049609329
 20
77.45013981239391
 30
0.0
 11
-164.2775565040211
 21
77.45088523682927
 31
0.0
  0
LINE
  5
1ED
  8
1
  6
CONTINUOUS
 62
     9
 10
-164.2774765270214
 20
80.13608807453532
 30
0.0
 11
-164.2787049609329
 21
77.45013981239391
 31
0.0
  0
LINE
  5
1EE
  8
1
  6
CONTINUOUS
 62
     9
 10
-164.2787049609329
 20
82.82203633667672
 30
0.0
 11
-164.2774765270214
 21
80.13608807453531
 31
0.0
  0
LINE
  5
1EF
  8
1
  6
CONTINUOUS
 62
     7
 10
-164.2775565040211
 20
82.82129091224137
 30
0.0
 11
-164.2787049609329
 21
82.82203633667672
 31
0.0
  0
ARC
  5
1F0
  8
1
  6
CONTINUOUS
 62
     7
 10
-164.8710088781636
 20
80.13608807453531
 30
0.0
 40
2.749999999999998
 50
70.92163586320875
 51
77.5374835735023
  0
LINE
  5
1F1
  8
1
  6
CONTINUOUS
 62
     7
 10
-163.9721409993599
 20
82.88422786247594
 30
0.0
 11
-163.9721409993599
 21
82.73503719609485
 31
0.0
  0
ARC
  5
1F2
  8
1
  6
CONTINUOUS
 62
     7
 10
-163.8710088781636
 20
80.13608807453531
 30
0.0
 40
2.750000000000004
 50
91.48665456992336
 51
92.10754567417902
  0
LINE
  5
1F3
  8
1
  6
CONTINUOUS
 62
     7
 10
-163.9287910375074
 20
82.85139916462528
 30
0.0
 11
-163.9423551688974
 21
82.88516241088901
 31
0.0
  0
LINE
  5
1F4
  8
1
  6
CONTINUOUS
 62
     7
 10
-163.6404307021101
 20
81.35609416243905
 30
0.0
 11
-163.9287910375074
 21
82.85139916462528
 31
0.0
  0
LINE
  5
1F5
  8
1
  6
CONTINUOUS
 62
     7
 10
-163.6210088781636
 20
80.85235387721622
 30
0.0
 11
-163.6404307021101
 21
81.35609416243905
 31
0.0
  0
LINE
  5
1F6
  8
1
  6
CONTINUOUS
 62
     7
 10
-163.6210088781636
 20
79.41982227185441
 30
0.0
 11
-163.6210088781636
 21
80.85235387721622
 31
0.0
  0
LINE
  5
1F7
  8
1
  6
CONTINUOUS
 62
     7
 10
-163.6404307021101
 20
78.91608198663161
 30
0.0
 11
-163.6210088781636
 21
79.41982227185441
 31
0.0
  0
LINE
  5
1F8
  8
1
  6
CONTINUOUS
 62
     7
 10
-163.9287910375074
 20
77.42077698444535
 30
0.0
 11
-163.6404307021101
 21
78.91608198663161
 31
0.0
  0
LINE
  5
1F9
  8
1
  6
CONTINUOUS
 62
     7
 10
-163.9423551688974
 20
77.38701373818162
 30
0.0
 11
-163.9287910375074
 21
77.42077698444535
 31
0.0
  0
ARC
  5
1FA
  8
1
  6
CONTINUOUS
 62
     7
 10
-163.8710088781636
 20
80.13608807453531
 30
0.0
 40
2.750000000000004
 50
267.892454325821
 51
268.5133454300766
  0
LINE
  5
1FB
  8
1
  6
CONTINUOUS
 62
     7
 10
-165.7698767569672
 20
82.73503719609485
 30
0.0
 11
-165.7698767569672
 21
82.88422786247594
 31
0.0
  0
ARC
  5
1FC
  8
1
  6
CONTINUOUS
 62
     7
 10
-164.8710088781636
 20
80.13608807453531
 30
0.0
 40
2.749999999999998
 50
102.4625164264978
 51
109.0783641367914
  0
LINE
  5
1FD
  8
1
  6
CONTINUOUS
 62
     7
 10
-165.4633127953942
 20
82.82203633667672
 30
0.0
 11
-165.464461252306
 21
82.82129091224137
 31
0.0
  0
LINE
  5
1FE
  8
1
  6
CONTINUOUS
 62
     9
 10
-165.4645412293057
 20
80.13608807453528
 30
0.0
 11
-165.4633127953942
 21
82.82203633667672
 31
0.0
  0
LINE
  5
1FF
  8
1
  6
CONTINUOUS
 62
     9
 10
-165.4633127953942
 20
77.45013981239391
 30
0.0
 11
-165.4645412293057
 21
80.13608807453528
 31
0.0
  0
LINE
  5
200
  8
1
  6
CONTINUOUS
 62
     7
 10
-165.464461252306
 20
77.45088523682927
 30
0.0
 11
-165.4633127953942
 21
77.45013981239391
 31
0.0
  0
ARC
  5
201
  8
1
  6
CONTINUOUS
 62
     7
 10
-164.8710088781636
 20
80.13608807453531
 30
0.0
 40
2.749999999999998
 50
250.9216358632088
 51
257.5374835735022
  0
LINE
  5
202
  8
1
  6
CONTINUOUS
 62
     7
 10
-165.7698767569672
 20
77.38794828659469
 30
0.0
 11
-165.7698767569672
 21
77.53713895297578
 31
0.0
  0
ARC
  5
203
  8
1
  6
CONTINUOUS
 62
     7
 10
-165.8710088781636
 20
80.13608807453531
 30
0.0
 40
2.750000000000004
 50
271.4866545699234
 51
272.107545674179
  0
LINE
  5
204
  8
1
  6
CONTINUOUS
 62
     7
 10
-165.8132267188197
 20
77.42077698444535
 30
0.0
 11
-165.7996625874297
 21
77.38701373818162
 31
0.0
  0
LINE
  5
205
  8
1
  6
CONTINUOUS
 62
     7
 10
-166.101587054217
 20
78.91608198663158
 30
0.0
 11
-165.8132267188197
 21
77.42077698444535
 31
0.0
  0
LINE
  5
206
  8
1
  6
CONTINUOUS
 62
     7
 10
-166.1210088781636
 20
79.41982227185441
 30
0.0
 11
-166.101587054217
 21
78.91608198663158
 31
0.0
  0
LINE
  5
207
  8
1
  6
CONTINUOUS
 62
     7
 10
-166.1210088781636
 20
79.41982227185441
 30
0.0
 11
-166.1210088781636
 21
80.85235387721622
 31
0.0
  0
LINE
  5
208
  8
1
  6
CONTINUOUS
 62
     7
 10
-166.101587054217
 20
81.35609416243902
 30
0.0
 11
-166.1210088781636
 21
80.85235387721622
 31
0.0
  0
LINE
  5
209
  8
1
  6
CONTINUOUS
 62
     7
 10
-165.8132267188197
 20
82.85139916462528
 30
0.0
 11
-166.101587054217
 21
81.35609416243902
 31
0.0
  0
LINE
  5
20A
  8
1
  6
CONTINUOUS
 62
     7
 10
-165.7996625874297
 20
82.88516241088901
 30
0.0
 11
-165.8132267188197
 21
82.85139916462528
 31
0.0
  0
ARC
  5
20B
  8
1
  6
CONTINUOUS
 62
     7
 10
-165.8710088781636
 20
80.13608807453531
 30
0.0
 40
2.750000000000004
 50
87.89245432582098
 51
88.51334543007664
  0
ARC
  5
20C
  8
1
  6
CONTINUOUS
 62
     9
 10
-201.8710088781636
 20
80.13608807453531
 30
0.0
 40
0.7586413514237781
 50
289.2406440950074
 51
70.7593559049926
  0
LINE
  5
20D
  8
1
  6
CONTINUOUS
 62
     7
 10
-201.6210088781636
 20
80.8523538772162
 30
0.0
 11
-201.6404307021101
 21
81.35609416243905
 31
0.0
  0
ARC
  5
20E
  8
1
  6
CONTINUOUS
 62
     9
 10
-201.8710088781636
 20
80.13608807453531
 30
0.0
 40
1.241604264568311
 50
280.702522616292
 51
79.2974773837085
  0
LINE
  5
20F
  8
1
  6
CONTINUOUS
 62
     7
 10
-201.6404307021101
 20
78.91608198663162
 30
0.0
 11
-201.6210088781636
 21
79.41982227185443
 31
0.0
  0
LINE
  5
210
  8
1
  6
CONTINUOUS
 62
     7
 10
-201.9721409993599
 20
77.53713895297578
 30
0.0
 11
-201.9721409993599
 21
77.38794828659469
 31
0.0
  0
ARC
  5
211
  8
1
  6
CONTINUOUS
 62
     7
 10
-202.8710088781636
 20
80.13608807453531
 30
0.0
 40
2.750000000000001
 50
282.4625164264978
 51
289.0783641367914
  0
LINE
  5
212
  8
1
  6
CONTINUOUS
 62
     7
 10
-202.2787049609329
 20
77.45013981239391
 30
0.0
 11
-202.2775565040211
 21
77.45088523682925
 31
0.0
  0
LINE
  5
213
  8
1
  6
CONTINUOUS
 62
     9
 10
-202.2774765270214
 20
80.13608807453534
 30
0.0
 11
-202.2787049609329
 21
77.45013981239391
 31
0.0
  0
LINE
  5
214
  8
1
  6
CONTINUOUS
 62
     9
 10
-202.2787049609329
 20
82.82203633667672
 30
0.0
 11
-202.2774765270214
 21
80.13608807453534
 31
0.0
  0
LINE
  5
215
  8
1
  6
CONTINUOUS
 62
     7
 10
-202.2775565040211
 20
82.82129091224137
 30
0.0
 11
-202.2787049609329
 21
82.82203633667672
 31
0.0
  0
ARC
  5
216
  8
1
  6
CONTINUOUS
 62
     7
 10
-202.8710088781636
 20
80.13608807453531
 30
0.0
 40
2.750000000000001
 50
70.92163586320875
 51
77.5374835735023
  0
LINE
  5
217
  8
1
  6
CONTINUOUS
 62
     7
 10
-201.9721409993599
 20
82.88422786247594
 30
0.0
 11
-201.9721409993599
 21
82.73503719609485
 31
0.0
  0
ARC
  5
218
  8
1
  6
CONTINUOUS
 62
     7
 10
-201.8710088781636
 20
80.13608807453531
 30
0.0
 40
2.750000000000001
 50
91.48665456992279
 51
92.10754567417902
  0
LINE
  5
219
  8
1
  6
CONTINUOUS
 62
     7
 10
-201.9287910375074
 20
82.85139916462528
 30
0.0
 11
-201.9423551688974
 21
82.88516241088901
 31
0.0
  0
LINE
  5
21A
  8
1
  6
CONTINUOUS
 62
     7
 10
-201.6404307021101
 20
81.35609416243905
 30
0.0
 11
-201.9287910375074
 21
82.85139916462528
 31
0.0
  0
LINE
  5
21B
  8
1
  6
CONTINUOUS
 62
     7
 10
-201.6210088781636
 20
79.41982227185443
 30
0.0
 11
-201.6210088781636
 21
80.8523538772162
 31
0.0
  0
LINE
  5
21C
  8
1
  6
CONTINUOUS
 62
     7
 10
-201.9287910375074
 20
77.42077698444535
 30
0.0
 11
-201.6404307021101
 21
78.91608198663162
 31
0.0
  0
LINE
  5
21D
  8
1
  6
CONTINUOUS
 62
     7
 10
-201.9423551688974
 20
77.38701373818162
 30
0.0
 11
-201.9287910375074
 21
77.42077698444535
 31
0.0
  0
ARC
  5
21E
  8
1
  6
CONTINUOUS
 62
     7
 10
-201.8710088781636
 20
80.13608807453531
 30
0.0
 40
2.750000000000001
 50
267.892454325821
 51
268.5133454300772
  0
ARC
  5
21F
  8
1
  6
CONTINUOUS
 62
     9
 10
-163.8710088781636
 20
80.13608807453531
 30
0.0
 40
0.7586413514237912
 50
289.2406440950068
 51
70.75935590499319
  0
ARC
  5
220
  8
1
  6
CONTINUOUS
 62
     9
 10
-163.8710088781636
 20
80.13608807453531
 30
0.0
 40
1.241604264568324
 50
280.7025226162917
 51
79.29747738370895
  0
ARC
  5
221
  8
1
  6
CONTINUOUS
 62
     9
 10
-165.8710088781636
 20
80.13608807453531
 30
0.0
 40
0.7586413514237912
 50
109.2406440950068
 51
250.7593559049932
  0
ARC
  5
222
  8
1
  6
CONTINUOUS
 62
     9
 10
-165.8710088781636
 20
80.13608807453531
 30
0.0
 40
1.241604264568324
 50
100.7025226162917
 51
259.297477383709
  0
ARC
  5
223
  8
1
  6
CONTINUOUS
 62
     9
 10
-203.8710088781636
 20
80.13608807453531
 30
0.0
 40
2.715925826289058
 50
88.78092264636297
 51
271.2190773536371
  0
ARC
  5
224
  8
1
  6
CONTINUOUS
 62
     9
 10
-163.8710088781636
 20
80.13608807453531
 30
0.0
 40
2.715925826289071
 50
268.7809226463631
 51
91.21907735363685
  0
ARC
  5
225
  8
1
  6
CONTINUOUS
 62
     9
 10
-165.8710088781636
 20
80.13608807453531
 30
0.0
 40
2.715925826289071
 50
88.78092264636315
 51
271.2190773536369
  0
ARC
  5
226
  8
1
  6
CONTINUOUS
 62
     9
 10
-201.8710088781636
 20
80.13608807453531
 30
0.0
 40
2.715925826289071
 50
268.7809226463633
 51
91.21907735363675
  0
LINE
  5
227
  8
1
  6
CONTINUOUS
 62
     7
 10
-255.8710088781635
 20
80.13608807453518
 30
0.0
 11
-254.3710088781635
 21
80.13608807453518
 31
0.0
  0
LINE
  5
228
  8
1
  6
CONTINUOUS
 62
     7
 10
-254.3011939358375
 20
88.13608807453531
 30
0.0
 11
-255.9408238204896
 21
88.13608807453531
 31
0.0
  0
LINE
  5
229
  8
1
  6
CONTINUOUS
 62
     7
 10
-254.3011939358375
 20
72.13608807453531
 30
0.0
 11
-255.9408238204896
 21
72.13608807453531
 31
0.0
  0
ARC
  5
22A
  8
1
  6
CONTINUOUS
 62
     7
 10
-203.8710088781636
 20
80.13608807453531
 30
0.0
 40
2.750000000000002
 50
88.51334543007694
 51
271.4866545699232
  0
ARC
  5
22B
  8
1
  6
CONTINUOUS
 62
     7
 10
-163.8710088781636
 20
80.13608807453531
 30
0.0
 40
2.750000000000002
 50
268.5133454300773
 51
91.48665456992309
  0
ARC
  5
22C
  8
1
  6
CONTINUOUS
 62
     7
 10
-201.8710088781636
 20
80.13608807453531
 30
0.0
 40
2.750000000000002
 50
268.5133454300773
 51
91.48665456992296
  0
ARC
  5
22D
  8
1
  6
CONTINUOUS
 62
     7
 10
-165.8710088781636
 20
80.13608807453531
 30
0.0
 40
2.750000000000002
 50
88.51334543007727
 51
271.4866545699231
  0
LINE
  5
22E
  8
1
  6
CONTINUOUS
 62
     9
 10
-245.4409380512971
 20
88.13608807453531
 30
0.0
 11
-245.371123108971
 21
80.13608807453531
 31
0.0
  0
LINE
  5
22F
  8
1
  6
CONTINUOUS
 62
     7
 10
-245.371123108971
 20
80.13608807453534
 30
0.0
 11
-248.3710088781635
 21
80.13608807453534
 31
0.0
  0
LINE
  5
230
  8
1
  6
CONTINUOUS
 62
     7
 10
-245.4409380512971
 20
88.13608807453531
 30
0.0
 11
-248.4408238204896
 21
88.13608807453531
 31
0.0
  0
LINE
  5
231
  8
1
  6
CONTINUOUS
 62
     9
 10
-245.371123108971
 20
80.13608807453531
 30
0.0
 11
-245.4409380512971
 21
72.13608807453531
 31
0.0
  0
LINE
  5
232
  8
1
  6
CONTINUOUS
 62
     7
 10
-248.4408238204896
 20
72.13608807453531
 30
0.0
 11
-245.4409380512971
 21
72.13608807453531
 31
0.0
  0
ARC
  5
233
  8
1
  6
CONTINUOUS
 62
     9
 10
-164.8710088781636
 20
80.1404513422845
 30
0.0
 40
3.249999999999996
 50
271.6350341436082
 51
307.729664305805
  0
LINE
  5
234
  8
1
  6
CONTINUOUS
 62
     7
 10
-164.7782770954394
 20
76.89177456296761
 30
0.0
 11
-164.2787049609329
 21
77.45013981239391
 31
0.0
  0
LINE
  5
235
  8
1
  6
CONTINUOUS
 62
     7
 10
-164.2787049609329
 20
82.82203633667672
 30
0.0
 11
-164.7782770954394
 21
83.38040158610302
 31
0.0
  0
ARC
  5
236
  8
1
  6
CONTINUOUS
 62
     9
 10
-164.8710088781636
 20
80.13172480678612
 30
0.0
 40
3.249999999999996
 50
52.27033569419483
 51
88.36496585639179
  0
LINE
  5
237
  8
1
  6
CONTINUOUS
 62
     7
 10
-202.2787049609329
 20
82.82203633667672
 30
0.0
 11
-202.7782770954394
 21
83.38040158610302
 31
0.0
  0
ARC
  5
238
  8
1
  6
CONTINUOUS
 62
     9
 10
-202.8710088781636
 20
80.13172480678612
 30
0.0
 40
3.25
 50
52.27033569419325
 51
88.36496585639134
  0
ARC
  5
239
  8
1
  6
CONTINUOUS
 62
     9
 10
-202.8710088781636
 20
80.1404513422845
 30
0.0
 40
3.25
 50
271.6350341436087
 51
307.7296643058068
  0
LINE
  5
23A
  8
1
  6
CONTINUOUS
 62
     7
 10
-202.7782770954394
 20
76.89177456296761
 30
0.0
 11
-202.2787049609329
 21
77.45013981239391
 31
0.0
  0
ARC
  5
23B
  8
1
  6
CONTINUOUS
 62
     9
 10
-202.8710088781636
 20
80.13172480678612
 30
0.0
 40
3.25
 50
91.6350341436082
 51
127.7296643058073
  0
LINE
  5
23C
  8
1
  6
CONTINUOUS
 62
     7
 10
-202.9637406608877
 20
83.38040158610302
 30
0.0
 11
-203.4633127953942
 21
82.82203633667673
 31
0.0
  0
LINE
  5
23D
  8
1
  6
CONTINUOUS
 62
     7
 10
-203.4633127953942
 20
77.4501398123939
 30
0.0
 11
-202.9637406608877
 21
76.89177456296761
 31
0.0
  0
ARC
  5
23E
  8
1
  6
CONTINUOUS
 62
     9
 10
-202.8710088781636
 20
80.1404513422845
 30
0.0
 40
3.25
 50
232.2703356941927
 51
268.3649658563918
  0
ARC
  5
23F
  8
1
  6
CONTINUOUS
 62
     9
 10
-164.8710088781636
 20
80.13172480678612
 30
0.0
 40
3.249999999999996
 50
91.6350341436082
 51
127.7296643058063
  0
LINE
  5
240
  8
1
  6
CONTINUOUS
 62
     7
 10
-164.9637406608877
 20
83.38040158610302
 30
0.0
 11
-165.4633127953942
 21
82.82203633667672
 31
0.0
  0
LINE
  5
241
  8
1
  6
CONTINUOUS
 62
     7
 10
-165.4633127953942
 20
77.45013981239391
 30
0.0
 11
-164.9637406608877
 21
76.89177456296761
 31
0.0
  0
ARC
  5
242
  8
1
  6
CONTINUOUS
 62
     9
 10
-164.8710088781636
 20
80.1404513422845
 30
0.0
 40
3.249999999999996
 50
232.2703356941938
 51
268.3649658563918
  0
LINE
  5
243
  8
1
  6
CONTINUOUS
 62
     7
 10
-164.2774765270214
 20
80.1360880745353
 30
0.0
 11
-164.7767932899644
 21
80.1360880745353
 31
0.0
  0
LINE
  5
244
  8
1
  6
CONTINUOUS
 62
     9
 10
-164.7782770954394
 20
76.89177456296761
 30
0.0
 11
-164.7767932899644
 21
80.13608807453531
 31
0.0
  0
LINE
  5
245
  8
1
  6
CONTINUOUS
 62
     9
 10
-202.9637406608877
 20
83.38040158610302
 30
0.0
 11
-202.9652244663627
 21
80.13608807453531
 31
0.0
  0
LINE
  5
246
  8
1
  6
CONTINUOUS
 62
     7
 10
-202.9652244663627
 20
80.13608807453544
 30
0.0
 11
-203.4645412293057
 21
80.13608807453544
 31
0.0
  0
LINE
  5
247
  8
1
  6
CONTINUOUS
 62
     7
 10
-164.9652244663627
 20
80.13608807453544
 30
0.0
 11
-165.4645412293057
 21
80.13608807453544
 31
0.0
  0
LINE
  5
248
  8
1
  6
CONTINUOUS
 62
     9
 10
-164.9652244663627
 20
80.13608807453531
 30
0.0
 11
-164.9637406608877
 21
76.89177456296761
 31
0.0
  0
LINE
  5
249
  8
1
  6
CONTINUOUS
 62
     9
 10
-164.9637406608877
 20
83.38040158610302
 30
0.0
 11
-164.9652244663627
 21
80.13608807453531
 31
0.0
  0
LINE
  5
24A
  8
1
  6
CONTINUOUS
 62
     9
 10
-202.9652244663627
 20
80.13608807453531
 30
0.0
 11
-202.9637406608877
 21
76.89177456296761
 31
0.0
  0
LINE
  5
24B
  8
1
  6
CONTINUOUS
 62
     9
 10
-164.7767932899644
 20
80.13608807453531
 30
0.0
 11
-164.7782770954394
 21
83.38040158610302
 31
0.0
  0
LINE
  5
24C
  8
1
  6
CONTINUOUS
 62
     7
 10
-202.2774765270214
 20
80.13608807453531
 30
0.0
 11
-202.7767932899643
 21
80.13608807453531
 31
0.0
  0
LINE
  5
24D
  8
1
  6
CONTINUOUS
 62
     9
 10
-202.7782770954394
 20
76.89177456296761
 30
0.0
 11
-202.7767932899643
 21
80.13608807453531
 31
0.0
  0
LINE
  5
24E
  8
1
  6
CONTINUOUS
 62
     9
 10
-202.7767932899643
 20
80.13608807453531
 30
0.0
 11
-202.7782770954394
 21
83.38040158610302
 31
0.0
  0
LINE
  5
24F
  8
1
  6
CONTINUOUS
 62
     7
 10
-158.8710088781636
 20
80.13608807453544
 30
0.0
 11
-161.1210088781635
 21
80.13608807453531
 31
0.0
  0
LINE
  5
250
  8
1
  6
CONTINUOUS
 62
     7
 10
-164.7767932899644
 20
80.13608807453531
 30
0.0
 11
-164.9652244663627
 21
80.13608807453531
 31
0.0
  0
LINE
  5
251
  8
1
  6
CONTINUOUS
 62
     7
 10
-168.6210088781636
 20
80.13608807453531
 30
0.0
 11
-199.1210088781636
 21
80.13608807453531
 31
0.0
  0
LINE
  5
252
  8
1
  6
CONTINUOUS
 62
     7
 10
-202.7767932899643
 20
80.13608807453531
 30
0.0
 11
-202.9652244663627
 21
80.13608807453531
 31
0.0
  0
LINE
  5
253
  8
1
  6
CONTINUOUS
 62
     7
 10
-206.6210088781636
 20
80.13608807453531
 30
0.0
 11
-245.371123108971
 21
80.13608807453531
 31
0.0
  0
ARC
  5
254
  8
1
  6
CONTINUOUS
 62
     7
 10
-161.9147574522746
 20
85.13608807453532
 30
0.0
 40
3.0
 50
0.4999999999999485
 51
90.0
  0
LINE
  5
255
  8
1
  6
CONTINUOUS
 62
     7
 10
-158.9148716830821
 20
85.16226768103044
 30
0.0
 11
-158.8710088781636
 21
80.13608807453544
 31
0.0
  0
LINE
  5
256
  8
1
  6
CONTINUOUS
 62
     7
 10
-245.4409380512971
 20
88.13608807453531
 30
0.0
 11
-161.9147574522746
 21
88.13608807453531
 31
0.0
  0
LINE
  5
257
  8
1
  6
CONTINUOUS
 62
     7
 10
-158.8710088781636
 20
80.13608807453544
 30
0.0
 11
-158.9148716830821
 21
75.10990846804019
 31
0.0
  0
ARC
  5
258
  8
1
  6
CONTINUOUS
 62
     7
 10
-161.9147574522746
 20
75.13608807453531
 30
0.0
 40
3.0
 50
270.0
 51
359.5000000000001
  0
LINE
  5
259
  8
1
  6
CONTINUOUS
 62
     7
 10
-245.4409380512971
 20
72.13608807453531
 30
0.0
 11
-161.9147574522746
 21
72.13608807453531
 31
0.0
  0
LINE
  5
25A
  8
1
  6
CONTINUOUS
 62
     7
 10
-252.3710088781635
 20
61.03608807453532
 30
0.0
 11
-252.3710088781635
 21
62.36815364468188
 31
0.0
  0
LINE
  5
25B
  8
1
  6
CONTINUOUS
 62
     9
 10
-257.748832729093
 20
66.13608807453532
 30
0.0
 11
-248.4582775560711
 21
66.13608807453532
 31
0.0
  0
LINE
  5
25C
  8
1
  6
CONTINUOUS
 62
     9
 10
-252.3710088781635
 20
62.36815364468188
 30
0.0
 11
-248.4911598216847
 21
62.36815364468188
 31
0.0
  0
LINE
  5
25D
  8
1
  6
CONTINUOUS
 62
     7
 10
-248.4582775560711
 20
66.13608807453532
 30
0.0
 11
-248.4911598216847
 21
62.36815364468188
 31
0.0
  0
LINE
  5
25E
  8
1
  6
CONTINUOUS
 62
     7
 10
-257.748832729093
 20
66.13608807453532
 30
0.0
 11
-257.70432570336
 21
61.03608807453532
 31
0.0
  0
LINE
  5
25F
  8
1
  6
CONTINUOUS
 62
     7
 10
-248.4059163493266
 20
72.13608807453532
 30
0.0
 11
-248.4582775560711
 21
66.13608807453532
 31
0.0
  0
LINE
  5
260
  8
1
  6
CONTINUOUS
 62
     7
 10
-257.8011939358375
 20
72.13608807453532
 30
0.0
 11
-257.748832729093
 21
66.13608807453532
 31
0.0
  0
LINE
  5
261
  8
1
  6
CONTINUOUS
 62
     7
 10
-248.4911598216847
 20
62.36815364468188
 30
0.0
 11
-248.4922995040494
 21
62.23755898094202
 31
0.0
  0
LINE
  5
262
  8
1
  6
CONTINUOUS
 62
     7
 10
-179.3710088781635
 20
69.63608807453532
 30
0.0
 11
-178.6748564554569
 21
70.03801186318199
 31
0.0
  0
LINE
  5
263
  8
1
  6
CONTINUOUS
 62
     7
 10
-189.0671613008702
 20
70.03801186318199
 30
0.0
 11
-188.3710088781635
 21
69.63608807453532
 31
0.0
  0
LINE
  5
264
  8
1
  6
CONTINUOUS
 62
     7
 10
-179.1210088781636
 20
88.13608807453531
 30
0.0
 11
-179.1210088781636
 21
88.43608807453532
 31
0.0
  0
LINE
  5
265
  8
1
  6
CONTINUOUS
 62
     7
 10
-179.3710088781635
 20
88.43608807453532
 30
0.0
 11
-179.5022418734524
 21
89.93608807453532
 31
0.0
  0
LINE
  5
266
  8
1
  6
CONTINUOUS
 62
     7
 10
-188.2397758828747
 20
89.93608807453532
 30
0.0
 11
-188.3710088781635
 21
88.43608807453532
 31
0.0
  0
LINE
  5
267
  8
1
  6
CONTINUOUS
 62
     7
 10
-181.3710088781635
 20
68.83608807453533
 30
0.0
 11
-181.3710088781635
 21
69.63608807453532
 31
0.0
  0
LINE
  5
268
  8
1
  6
CONTINUOUS
 62
     7
 10
-186.3710088781635
 20
69.63608807453532
 30
0.0
 11
-186.3710088781635
 21
68.83608807453533
 31
0.0
  0
LINE
  5
269
  8
1
  6
CONTINUOUS
 62
     7
 10
-186.3710088781635
 20
68.83608807453533
 30
0.0
 11
-185.9710088781635
 21
68.43608807453532
 31
0.0
  0
LINE
  5
26A
  8
1
  6
CONTINUOUS
 62
     7
 10
-181.7710088781635
 20
68.43608807453532
 30
0.0
 11
-181.3710088781635
 21
68.83608807453533
 31
0.0
  0
LINE
  5
26B
  8
1
  6
CONTINUOUS
 62
     7
 10
-257.70432570336
 20
61.03608807453532
 30
0.0
 11
-252.3710088781635
 21
61.03608807453532
 31
0.0
  0
LINE
  5
26C
  8
1
  6
CONTINUOUS
 62
     7
 10
-252.3710088781635
 20
62.23755898094202
 30
0.0
 11
-248.4922995040494
 21
62.23755898094202
 31
0.0
  0
ENDBLK
  8
0
  0
BLOCK
  8
0
  2
D_FRAME_VIEW_1492
 70
     0
 10
0.0
 20
0.0
 30
0.0
  0
ARC
  5
283
  8
1
  6
CONTINUOUS
 62
     7
 10
-183.8710088781635
 20
187.25
 30
0.0
 40
2.449999999999999
 50
75.82419648413298
 51
104.175803515867
  0
LINE
  5
284
  8
1
  6
CONTINUOUS
 62
     7
 10
-184.4710088781635
 20
188.35
 30
0.0
 11
-184.4710088781635
 21
189.6253947040439
 31
0.0
  0
POLYLINE
  5
285
  8
1
  6
CONTINUOUS
 62
     7
 66
     1
 10
0.0
 20
0.0
 30
0.0
  0
VERTEX
  5
61A
  8
1
  6
CONTINUOUS
 62
     7
 10
-184.9710088781635
 20
187.85
 30
0.0
  0
VERTEX
  5
61B
  8
1
  6
CONTINUOUS
 62
     7
 10
-184.9473012840202
 20
187.8505742239695
 30
0.0
  0
VERTEX
  5
61C
  8
1
  6
CONTINUOUS
 62
     7
 10
-184.923558562648
 20
187.8522897234601
 30
0.0
  0
VERTEX
  5
61D
  8
1
  6
CONTINUOUS
 62
     7
 10
-184.8998618215176
 20
187.8551357398446
 30
0.0
  0
VERTEX
  5
61E
  8
1
  6
CONTINUOUS
 62
     7
 10
-184.8762921680992
 20
187.8591015144962
 30
0.0
  0
VERTEX
  5
61F
  8
1
  6
CONTINUOUS
 62
     7
 10
-184.8529307098633
 20
187.8641762887877
 30
0.0
  0
VERTEX
  5
620
  8
1
  6
CONTINUOUS
 62
     7
 10
-184.8298585542803
 20
187.8703493040921
 30
0.0
  0
VERTEX
  5
621
  8
1
  6
CONTINUOUS
 62
     7
 10
-184.8071568088207
 20
187.8776098017824
 30
0.0
  0
VERTEX
  5
622
  8
1
  6
CONTINUOUS
 62
     7
 10
-184.7848066738839
 20
187.8859782618131
 30
0.0
  0
VERTEX
  5
623
  8
1
  6
CONTINUOUS
 62
     7
 10
-184.7628064372655
 20
187.8954488206078
 30
0.0
  0
VERTEX
  5
624
  8
1
  6
CONTINUOUS
 62
     7
 10
-184.7412311884455
 20
187.905982181965
 30
0.0
  0
VERTEX
  5
625
  8
1
  6
CONTINUOUS
 62
     7
 10
-184.720156016904
 20
187.9175390496829
 30
0.0
  0
VERTEX
  5
626
  8
1
  6
CONTINUOUS
 62
     7
 10
-184.6996560121209
 20
187.9300801275597
 30
0.0
  0
VERTEX
  5
627
  8
1
  6
CONTINUOUS
 62
     7
 10
-184.6798062635764
 20
187.9435661193939
 30
0.0
  0
VERTEX
  5
628
  8
1
  6
CONTINUOUS
 62
     7
 10
-184.6606818607505
 20
187.9579577289838
 30
0.0
  0
VERTEX
  5
629
  8
1
  6
CONTINUOUS
 62
     7
 10
-184.642466659643
 20
187.9731077518248
 30
0.0
  0
VERTEX
  5
62A
  8
1
  6
CONTINUOUS
 62
     7
 10
-184.6249441827092
 20
187.9891605114861
 30
0.0
  0
VERTEX
  5
62B
  8
1
  6
CONTINUOUS
 62
     7
 10
-184.608169828177
 20
188.0060542556346
 30
0.0
  0
VERTEX
  5
62C
  8
1
  6
CONTINUOUS
 62
     7
 10
-184.5921989942746
 20
188.0237272319375
 30
0.0
  0
VERTEX
  5
62D
  8
1
  6
CONTINUOUS
 62
     7
 10
-184.5770870792299
 20
188.0421176880618
 30
0.0
  0
VERTEX
  5
62E
  8
1
  6
CONTINUOUS
 62
     7
 10
-184.5628894812709
 20
188.0611638716744
 30
0.0
  0
VERTEX
  5
62F
  8
1
  6
CONTINUOUS
 62
     7
 10
-184.5496615986256
 20
188.0808040304425
 30
0.0
  0
VERTEX
  5
630
  8
1
  6
CONTINUOUS
 62
     7
 10
-184.5374584180477
 20
188.1009571160494
 30
0.0
  0
VERTEX
  5
631
  8
1
  6
CONTINUOUS
 62
     7
 10
-184.5262007465436
 20
188.1217166206961
 30
0.0
  0
VERTEX
  5
632
  8
1
  6
CONTINUOUS
 62
     7
 10
-184.5159182478817
 20
188.143007854051
 30
0.0
  0
VERTEX
  5
633
  8
1
  6
CONTINUOUS
 62
     7
 10
-184.5066405858304
 20
188.164756125783
 30
0.0
  0
VERTEX
  5
634
  8
1
  6
CONTINUOUS
 62
     7
 10
-184.4983974241582
 20
188.1868867455605
 30
0.0
  0
VERTEX
  5
635
  8
1
  6
CONTINUOUS
 62
     7
 10
-184.4912184266335
 20
188.2093250230524
 30
0.0
  0
VERTEX
  5
636
  8
1
  6
CONTINUOUS
 62
     7
 10
-184.4851332570249
 20
188.2319962679272
 30
0.0
  0
VERTEX
  5
637
  8
1
  6
CONTINUOUS
 62
     7
 10
-184.4800664283027
 20
188.2552883569859
 30
0.0
  0
VERTEX
  5
638
  8
1
  6
CONTINUOUS
 62
     7
 10
-184.4761138456801
 20
188.2788160949106
 30
0.0
  0
VERTEX
  5
639
  8
1
  6
CONTINUOUS
 62
     7
 10
-184.4732822395323
 20
188.3024981615133
 30
0.0
  0
VERTEX
  5
63A
  8
1
  6
CONTINUOUS
 62
     7
 10
-184.471578340235
 20
188.3262532366059
 30
0.0
  0
VERTEX
  5
63B
  8
1
  6
CONTINUOUS
 62
     7
 10
-184.4710088781635
 20
188.35
 30
0.0
  0
SEQEND
  5
A19
  8
1
  6
CONTINUOUS
 62
     7
  0
LINE
  5
286
  8
1
  6
CONTINUOUS
 62
     7
 10
-187.2749320850647
 20
187.85
 30
0.0
 11
-184.9710088781635
 21
187.85
 31
0.0
  0
ARC
  5
287
  8
1
  6
CONTINUOUS
 62
     9
 10
-183.8710088781635
 20
187.25
 30
0.0
 40
3.456398877224708
 50
9.996677858381043
 51
170.003322141619
  0
LINE
  5
288
  8
1
  6
CONTINUOUS
 62
     7
 10
-182.7710088781635
 20
187.85
 30
0.0
 11
-180.4670856712624
 21
187.85
 31
0.0
  0
POLYLINE
  5
289
  8
1
  6
CONTINUOUS
 62
     7
 66
     1
 10
0.0
 20
0.0
 30
0.0
  0
VERTEX
  5
63C
  8
1
  6
CONTINUOUS
 62
     7
 10
-183.2710088781635
 20
188.35
 30
0.0
  0
VERTEX
  5
63D
  8
1
  6
CONTINUOUS
 62
     7
 10
-183.270434654194
 20
188.3262924058566
 30
0.0
  0
VERTEX
  5
63E
  8
1
  6
CONTINUOUS
 62
     7
 10
-183.2687191547035
 20
188.3025496844845
 30
0.0
  0
VERTEX
  5
63F
  8
1
  6
CONTINUOUS
 62
     7
 10
-183.2658731383189
 20
188.278852943354
 30
0.0
  0
VERTEX
  5
640
  8
1
  6
CONTINUOUS
 62
     7
 10
-183.2619073636674
 20
188.2552832899356
 30
0.0
  0
VERTEX
  5
641
  8
1
  6
CONTINUOUS
 62
     7
 10
-183.2568325893759
 20
188.2319218316998
 30
0.0
  0
VERTEX
  5
642
  8
1
  6
CONTINUOUS
 62
     7
 10
-183.2506595740715
 20
188.2088496761168
 30
0.0
  0
VERTEX
  5
643
  8
1
  6
CONTINUOUS
 62
     7
 10
-183.2433990763811
 20
188.1861479306572
 30
0.0
  0
VERTEX
  5
644
  8
1
  6
CONTINUOUS
 62
     7
 10
-183.2350306163505
 20
188.1637977957203
 30
0.0
  0
VERTEX
  5
645
  8
1
  6
CONTINUOUS
 62
     7
 10
-183.2255600575557
 20
188.1417975591019
 30
0.0
  0
VERTEX
  5
646
  8
1
  6
CONTINUOUS
 62
     7
 10
-183.2150266961985
 20
188.1202223102819
 30
0.0
  0
VERTEX
  5
647
  8
1
  6
CONTINUOUS
 62
     7
 10
-183.2034698284807
 20
188.0991471387404
 30
0.0
  0
VERTEX
  5
648
  8
1
  6
CONTINUOUS
 62
     7
 10
-183.1909287506038
 20
188.0786471339574
 30
0.0
  0
VERTEX
  5
649
  8
1
  6
CONTINUOUS
 62
     7
 10
-183.1774427587696
 20
188.0587973854129
 30
0.0
  0
VERTEX
  5
64A
  8
1
  6
CONTINUOUS
 62
     7
 10
-183.1630511491798
 20
188.039672982587
 30
0.0
  0
VERTEX
  5
64B
  8
1
  6
CONTINUOUS
 62
     7
 10
-183.1479011263388
 20
188.0214577814795
 30
0.0
  0
VERTEX
  5
64C
  8
1
  6
CONTINUOUS
 62
     7
 10
-183.1318483666775
 20
188.0039353045456
 30
0.0
  0
VERTEX
  5
64D
  8
1
  6
CONTINUOUS
 62
     7
 10
-183.1149546225289
 20
187.9871609500135
 30
0.0
  0
VERTEX
  5
64E
  8
1
  6
CONTINUOUS
 62
     7
 10
-183.097281646226
 20
187.971190116111
 30
0.0
  0
VERTEX
  5
64F
  8
1
  6
CONTINUOUS
 62
     7
 10
-183.0788911901018
 20
187.9560782010663
 30
0.0
  0
VERTEX
  5
650
  8
1
  6
CONTINUOUS
 62
     7
 10
-183.0598450064891
 20
187.9418806031073
 30
0.0
  0
VERTEX
  5
651
  8
1
  6
CONTINUOUS
 62
     7
 10
-183.040204847721
 20
187.9286527204621
 30
0.0
  0
VERTEX
  5
652
  8
1
  6
CONTINUOUS
 62
     7
 10
-183.0200517621141
 20
187.9164495398842
 30
0.0
  0
VERTEX
  5
653
  8
1
  6
CONTINUOUS
 62
     7
 10
-182.9992922574674
 20
187.9051918683801
 30
0.0
  0
VERTEX
  5
654
  8
1
  6
CONTINUOUS
 62
     7
 10
-182.9780010241125
 20
187.8949093697182
 30
0.0
  0
VERTEX
  5
655
  8
1
  6
CONTINUOUS
 62
     7
 10
-182.9562527523805
 20
187.8856317076669
 30
0.0
  0
VERTEX
  5
656
  8
1
  6
CONTINUOUS
 62
     7
 10
-182.934122132603
 20
187.8773885459947
 30
0.0
  0
VERTEX
  5
657
  8
1
  6
CONTINUOUS
 62
     7
 10
-182.9116838551111
 20
187.87020954847
 30
0.0
  0
VERTEX
  5
658
  8
1
  6
CONTINUOUS
 62
     7
 10
-182.8890126102363
 20
187.8641243788613
 30
0.0
  0
VERTEX
  5
659
  8
1
  6
CONTINUOUS
 62
     7
 10
-182.8657205211777
 20
187.8590575501392
 30
0.0
  0
VERTEX
  5
65A
  8
1
  6
CONTINUOUS
 62
     7
 10
-182.8421927832529
 20
187.8551049675165
 30
0.0
  0
VERTEX
  5
65B
  8
1
  6
CONTINUOUS
 62
     7
 10
-182.8185107166502
 20
187.8522733613688
 30
0.0
  0
VERTEX
  5
65C
  8
1
  6
CONTINUOUS
 62
     7
 10
-182.7947556415577
 20
187.8505694620714
 30
0.0
  0
VERTEX
  5
65D
  8
1
  6
CONTINUOUS
 62
     7
 10
-182.7710088781635
 20
187.85
 30
0.0
  0
SEQEND
  5
A1A
  8
1
  6
CONTINUOUS
 62
     7
  0
LINE
  5
28A
  8
1
  6
CONTINUOUS
 62
     7
 10
-183.2710088781635
 20
189.6253947040439
 30
0.0
 11
-183.2710088781635
 21
188.35
 31
0.0
  0
ARC
  5
28B
  8
1
  6
CONTINUOUS
 62
     7
 10
-183.8710088781635
 20
187.25
 30
0.0
 40
2.449999999999999
 50
255.824196484133
 51
284.1758035158671
  0
LINE
  5
28C
  8
1
  6
CONTINUOUS
 62
     7
 10
-183.2710088781635
 20
186.15
 30
0.0
 11
-183.2710088781635
 21
184.8746052959561
 31
0.0
  0
LINE
  5
28D
  8
1
  6
CONTINUOUS
 62
     7
 10
-180.4670856712624
 20
186.65
 30
0.0
 11
-182.7710088781635
 21
186.65
 31
0.0
  0
ARC
  5
28E
  8
1
  6
CONTINUOUS
 62
     9
 10
-183.8710088781635
 20
187.25
 30
0.0
 40
3.456398877224712
 50
189.996677858381
 51
350.0033221416189
  0
LINE
  5
28F
  8
1
  6
CONTINUOUS
 62
     7
 10
-184.9710088781635
 20
186.65
 30
0.0
 11
-187.2749320850647
 21
186.65
 31
0.0
  0
LINE
  5
290
  8
1
  6
CONTINUOUS
 62
     7
 10
-184.4710088781635
 20
184.8746052959561
 30
0.0
 11
-184.4710088781635
 21
186.15
 31
0.0
  0
POLYLINE
  5
291
  8
1
  6
CONTINUOUS
 62
     7
 66
     1
 10
0.0
 20
0.0
 30
0.0
  0
VERTEX
  5
65E
  8
1
  6
CONTINUOUS
 62
     7
 10
-184.4710088781635
 20
186.15
 30
0.0
  0
VERTEX
  5
65F
  8
1
  6
CONTINUOUS
 62
     7
 10
-184.4715831021331
 20
186.1737075941434
 30
0.0
  0
VERTEX
  5
660
  8
1
  6
CONTINUOUS
 62
     7
 10
-184.4732986016236
 20
186.1974503155155
 30
0.0
  0
VERTEX
  5
661
  8
1
  6
CONTINUOUS
 62
     7
 10
-184.4761446180082
 20
186.221147056646
 30
0.0
  0
VERTEX
  5
662
  8
1
  6
CONTINUOUS
 62
     7
 10
-184.4801103926597
 20
186.2447167100644
 30
0.0
  0
VERTEX
  5
663
  8
1
  6
CONTINUOUS
 62
     7
 10
-184.4851851669512
 20
186.2680781683002
 30
0.0
  0
VERTEX
  5
664
  8
1
  6
CONTINUOUS
 62
     7
 10
-184.4913581822556
 20
186.2911503238832
 30
0.0
  0
VERTEX
  5
665
  8
1
  6
CONTINUOUS
 62
     7
 10
-184.4986186799459
 20
186.3138520693428
 30
0.0
  0
VERTEX
  5
666
  8
1
  6
CONTINUOUS
 62
     7
 10
-184.5069871399766
 20
186.3362022042797
 30
0.0
  0
VERTEX
  5
667
  8
1
  6
CONTINUOUS
 62
     7
 10
-184.5164576987714
 20
186.3582024408981
 30
0.0
  0
VERTEX
  5
668
  8
1
  6
CONTINUOUS
 62
     7
 10
-184.5269910601286
 20
186.3797776897181
 30
0.0
  0
VERTEX
  5
669
  8
1
  6
CONTINUOUS
 62
     7
 10
-184.5385479278464
 20
186.4008528612596
 30
0.0
  0
VERTEX
  5
66A
  8
1
  6
CONTINUOUS
 62
     7
 10
-184.5510890057233
 20
186.4213528660426
 30
0.0
  0
VERTEX
  5
66B
  8
1
  6
CONTINUOUS
 62
     7
 10
-184.5645749975575
 20
186.4412026145871
 30
0.0
  0
VERTEX
  5
66C
  8
1
  6
CONTINUOUS
 62
     7
 10
-184.5789666071474
 20
186.460327017413
 30
0.0
  0
VERTEX
  5
66D
  8
1
  6
CONTINUOUS
 62
     7
 10
-184.5941166299883
 20
186.4785422185205
 30
0.0
  0
VERTEX
  5
66E
  8
1
  6
CONTINUOUS
 62
     7
 10
-184.6101693896496
 20
186.4960646954544
 30
0.0
  0
VERTEX
  5
66F
  8
1
  6
CONTINUOUS
 62
     7
 10
-184.6270631337982
 20
186.5128390499865
 30
0.0
  0
VERTEX
  5
670
  8
1
  6
CONTINUOUS
 62
     7
 10
-184.6447361101011
 20
186.528809883889
 30
0.0
  0
VERTEX
  5
671
  8
1
  6
CONTINUOUS
 62
     7
 10
-184.6631265662253
 20
186.5439217989337
 30
0.0
  0
VERTEX
  5
672
  8
1
  6
CONTINUOUS
 62
     7
 10
-184.682172749838
 20
186.5581193968926
 30
0.0
  0
VERTEX
  5
673
  8
1
  6
CONTINUOUS
 62
     7
 10
-184.701812908606
 20
186.5713472795379
 30
0.0
  0
VERTEX
  5
674
  8
1
  6
CONTINUOUS
 62
     7
 10
-184.721965994213
 20
186.5835504601158
 30
0.0
  0
VERTEX
  5
675
  8
1
  6
CONTINUOUS
 62
     7
 10
-184.7427254988596
 20
186.5948081316199
 30
0.0
  0
VERTEX
  5
676
  8
1
  6
CONTINUOUS
 62
     7
 10
-184.7640167322146
 20
186.6050906302818
 30
0.0
  0
VERTEX
  5
677
  8
1
  6
CONTINUOUS
 62
     7
 10
-184.7857650039465
 20
186.6143682923331
 30
0.0
  0
VERTEX
  5
678
  8
1
  6
CONTINUOUS
 62
     7
 10
-184.8078956237241
 20
186.6226114540053
 30
0.0
  0
VERTEX
  5
679
  8
1
  6
CONTINUOUS
 62
     7
 10
-184.8303339012159
 20
186.62979045153
 30
0.0
  0
VERTEX
  5
67A
  8
1
  6
CONTINUOUS
 62
     7
 10
-184.8530051460908
 20
186.6358756211387
 30
0.0
  0
VERTEX
  5
67B
  8
1
  6
CONTINUOUS
 62
     7
 10
-184.8762972351494
 20
186.6409424498608
 30
0.0
  0
VERTEX
  5
67C
  8
1
  6
CONTINUOUS
 62
     7
 10
-184.8998249730742
 20
186.6448950324835
 30
0.0
  0
VERTEX
  5
67D
  8
1
  6
CONTINUOUS
 62
     7
 10
-184.9235070396769
 20
186.6477266386312
 30
0.0
  0
VERTEX
  5
67E
  8
1
  6
CONTINUOUS
 62
     7
 10
-184.9472621147694
 20
186.6494305379286
 30
0.0
  0
VERTEX
  5
67F
  8
1
  6
CONTINUOUS
 62
     7
 10
-184.9710088781635
 20
186.65
 30
0.0
  0
SEQEND
  5
A1B
  8
1
  6
CONTINUOUS
 62
     7
  0
POLYLINE
  5
292
  8
1
  6
CONTINUOUS
 62
     7
 66
     1
 10
0.0
 20
0.0
 30
0.0
  0
VERTEX
  5
680
  8
1
  6
CONTINUOUS
 62
     7
 10
-182.7710088781635
 20
186.65
 30
0.0
  0
VERTEX
  5
681
  8
1
  6
CONTINUOUS
 62
     7
 10
-182.7947164723069
 20
186.6494257760305
 30
0.0
  0
VERTEX
  5
682
  8
1
  6
CONTINUOUS
 62
     7
 10
-182.818459193679
 20
186.6477102765399
 30
0.0
  0
VERTEX
  5
683
  8
1
  6
CONTINUOUS
 62
     7
 10
-182.8421559348095
 20
186.6448642601554
 30
0.0
  0
VERTEX
  5
684
  8
1
  6
CONTINUOUS
 62
     7
 10
-182.8657255882279
 20
186.6408984855038
 30
0.0
  0
VERTEX
  5
685
  8
1
  6
CONTINUOUS
 62
     7
 10
-182.8890870464638
 20
186.6358237112123
 30
0.0
  0
VERTEX
  5
686
  8
1
  6
CONTINUOUS
 62
     7
 10
-182.9121592020467
 20
186.6296506959079
 30
0.0
  0
VERTEX
  5
687
  8
1
  6
CONTINUOUS
 62
     7
 10
-182.9348609475064
 20
186.6223901982176
 30
0.0
  0
VERTEX
  5
688
  8
1
  6
CONTINUOUS
 62
     7
 10
-182.9572110824432
 20
186.6140217381869
 30
0.0
  0
VERTEX
  5
689
  8
1
  6
CONTINUOUS
 62
     7
 10
-182.9792113190616
 20
186.6045511793922
 30
0.0
  0
VERTEX
  5
68A
  8
1
  6
CONTINUOUS
 62
     7
 10
-183.0007865678816
 20
186.594017818035
 30
0.0
  0
VERTEX
  5
68B
  8
1
  6
CONTINUOUS
 62
     7
 10
-183.0218617394231
 20
186.5824609503171
 30
0.0
  0
VERTEX
  5
68C
  8
1
  6
CONTINUOUS
 62
     7
 10
-183.0423617442061
 20
186.5699198724403
 30
0.0
  0
VERTEX
  5
68D
  8
1
  6
CONTINUOUS
 62
     7
 10
-183.0622114927506
 20
186.5564338806061
 30
0.0
  0
VERTEX
  5
68E
  8
1
  6
CONTINUOUS
 62
     7
 10
-183.0813358955766
 20
186.5420422710162
 30
0.0
  0
VERTEX
  5
68F
  8
1
  6
CONTINUOUS
 62
     7
 10
-183.0995510966841
 20
186.5268922481752
 30
0.0
  0
VERTEX
  5
690
  8
1
  6
CONTINUOUS
 62
     7
 10
-183.1170735736179
 20
186.5108394885139
 30
0.0
  0
VERTEX
  5
691
  8
1
  6
CONTINUOUS
 62
     7
 10
-183.1338479281501
 20
186.4939457443654
 30
0.0
  0
VERTEX
  5
692
  8
1
  6
CONTINUOUS
 62
     7
 10
-183.1498187620525
 20
186.4762727680625
 30
0.0
  0
VERTEX
  5
693
  8
1
  6
CONTINUOUS
 62
     7
 10
-183.1649306770972
 20
186.4578823119382
 30
0.0
  0
VERTEX
  5
694
  8
1
  6
CONTINUOUS
 62
     7
 10
-183.1791282750562
 20
186.4388361283256
 30
0.0
  0
VERTEX
  5
695
  8
1
  6
CONTINUOUS
 62
     7
 10
-183.1923561577014
 20
186.4191959695575
 30
0.0
  0
VERTEX
  5
696
  8
1
  6
CONTINUOUS
 62
     7
 10
-183.2045593382793
 20
186.3990428839505
 30
0.0
  0
VERTEX
  5
697
  8
1
  6
CONTINUOUS
 62
     7
 10
-183.2158170097834
 20
186.3782833793039
 30
0.0
  0
VERTEX
  5
698
  8
1
  6
CONTINUOUS
 62
     7
 10
-183.2260995084454
 20
186.3569921459489
 30
0.0
  0
VERTEX
  5
699
  8
1
  6
CONTINUOUS
 62
     7
 10
-183.2353771704966
 20
186.335243874217
 30
0.0
  0
VERTEX
  5
69A
  8
1
  6
CONTINUOUS
 62
     7
 10
-183.2436203321689
 20
186.3131132544394
 30
0.0
  0
VERTEX
  5
69B
  8
1
  6
CONTINUOUS
 62
     7
 10
-183.2507993296935
 20
186.2906749769476
 30
0.0
  0
VERTEX
  5
69C
  8
1
  6
CONTINUOUS
 62
     7
 10
-183.2568844993022
 20
186.2680037320728
 30
0.0
  0
VERTEX
  5
69D
  8
1
  6
CONTINUOUS
 62
     7
 10
-183.2619513280244
 20
186.2447116430141
 30
0.0
  0
VERTEX
  5
69E
  8
1
  6
CONTINUOUS
 62
     7
 10
-183.265903910647
 20
186.2211839050894
 30
0.0
  0
VERTEX
  5
69F
  8
1
  6
CONTINUOUS
 62
     7
 10
-183.2687355167948
 20
186.1975018384867
 30
0.0
  0
VERTEX
  5
6A0
  8
1
  6
CONTINUOUS
 62
     7
 10
-183.2704394160921
 20
186.1737467633941
 30
0.0
  0
VERTEX
  5
6A1
  8
1
  6
CONTINUOUS
 62
     7
 10
-183.2710088781635
 20
186.15
 30
0.0
  0
SEQEND
  5
A1C
  8
1
  6
CONTINUOUS
 62
     7
  0
ARC
  5
293
  8
1
  6
CONTINUOUS
 62
     7
 10
-183.8710088781635
 20
187.25
 30
0.0
 40
1.22305552472827
 50
240.5559918944744
 51
299.4440081055255
  0
ARC
  5
294
  8
1
  6
CONTINUOUS
 62
     7
 10
-183.8710088781635
 20
187.25
 30
0.0
 40
1.22305552472827
 50
60.55599189447439
 51
119.4440081055256
  0
ARC
  5
295
  8
1
  6
CONTINUOUS
 62
     9
 10
-183.8710088781635
 20
187.25
 30
0.0
 40
4.359030618726566
 50
7.911611702842833
 51
172.0883882971572
  0
LINE
  5
296
  8
1
  6
CONTINUOUS
 62
     7
 10
-180.4670856712624
 20
187.85
 30
0.0
 11
-179.5534693085712
 21
187.85
 31
0.0
  0
LINE
  5
297
  8
1
  6
CONTINUOUS
 62
     7
 10
-188.1885484477559
 20
187.85
 30
0.0
 11
-187.2749320850647
 21
187.85
 31
0.0
  0
ARC
  5
298
  8
1
  6
CONTINUOUS
 62
     9
 10
-183.8710088781635
 20
187.25
 30
0.0
 40
4.359030618726562
 50
187.9116117028428
 51
352.0883882971589
  0
LINE
  5
299
  8
1
  6
CONTINUOUS
 62
     7
 10
-179.5534693085703
 20
186.65
 30
0.0
 11
-180.4670856712624
 21
186.65
 31
0.0
  0
LINE
  5
29A
  8
1
  6
CONTINUOUS
 62
     7
 10
-187.2749320850647
 20
186.65
 30
0.0
 11
-188.1885484477559
 21
186.65
 31
0.0
  0
ARC
  5
29B
  8
1
  6
CONTINUOUS
 62
     7
 10
-183.8710088781635
 20
187.25
 30
0.0
 40
4.368767004711112
 50
352.1061329340404
 51
7.89386706595957
  0
ARC
  5
29C
  8
1
  6
CONTINUOUS
 62
     7
 10
-183.8710088781635
 20
187.25
 30
0.0
 40
4.368767004711115
 50
172.1061329340405
 51
187.8938670659595
  0
ARC
  5
29D
  8
1
  6
CONTINUOUS
 62
     7
 10
-183.8710088781635
 20
187.25
 30
0.0
 40
4.5
 50
176.8152614632796
 51
183.1847385367205
  0
ARC
  5
29E
  8
1
  6
CONTINUOUS
 62
     7
 10
-183.8710088781635
 20
187.25
 30
0.0
 40
4.5
 50
8.882495646278471
 51
176.8152614632795
  0
ARC
  5
29F
  8
1
  6
CONTINUOUS
 62
     7
 10
-183.8710088781635
 20
187.25
 30
0.0
 40
4.499999999999999
 50
8.181359927669746
 51
8.882495646278471
  0
ARC
  5
2A0
  8
1
  6
CONTINUOUS
 62
     7
 10
-183.8710088781635
 20
187.25
 30
0.0
 40
4.499999999999999
 50
351.4333392836916
 51
8.181359927669746
  0
ARC
  5
2A1
  8
1
  6
CONTINUOUS
 62
     7
 10
-183.8710088781635
 20
187.25
 30
0.0
 40
4.5
 50
183.1847385367204
 51
351.4333392836916
  0
ARC
  5
2A2
  8
1
  6
CONTINUOUS
 62
     7
 10
-183.8710088781635
 20
187.25
 30
0.0
 40
1.564468336724376
 50
157.4483034321429
 51
202.5516965678571
  0
ARC
  5
2A3
  8
1
  6
CONTINUOUS
 62
     7
 10
-183.8710088781635
 20
187.25
 30
0.0
 40
1.22305552472827
 50
150.5559918944743
 51
209.4440081055256
  0
ARC
  5
2A4
  8
1
  6
CONTINUOUS
 62
     7
 10
-183.8710088781635
 20
187.25
 30
0.0
 40
1.564468336724369
 50
337.4483034321429
 51
22.55169656785711
  0
ARC
  5
2A5
  8
1
  6
CONTINUOUS
 62
     7
 10
-183.8710088781635
 20
187.25
 30
0.0
 40
1.22305552472827
 50
330.5559918944744
 51
29.44400810552565
  0
LINE
  5
2A6
  8
1
  6
CONTINUOUS
 62
     7
 10
-188.3640590670664
 20
187.5
 30
0.0
 11
-188.6144253684161
 21
187.5
 31
0.0
  0
LINE
  5
2A7
  8
1
  6
CONTINUOUS
 62
     7
 10
-188.6144253684161
 20
187.0
 30
0.0
 11
-188.3640590670664
 21
187.0
 31
0.0
  0
ARC
  5
2A8
  8
1
  6
CONTINUOUS
 62
     7
 10
-183.8710088781635
 20
187.25
 30
0.0
 40
4.750000000000003
 50
183.016961309816
 51
176.983038690184
  0
CIRCLE
  5
2A9
  8
1
  6
CONTINUOUS
 62
     7
 10
-183.8710088781635
 20
187.25
 30
0.0
 40
4.999999999999997
  0
ARC
  5
2AA
  8
1
  6
CONTINUOUS
 62
     7
 10
-210.3710088781635
 20
187.25
 30
0.0
 40
2.649999999999999
 50
0.0
 51
214.4743846098382
  0
ARC
  5
2AB
  8
1
  6
CONTINUOUS
 62
     7
 10
-210.3710088781635
 20
187.25
 30
0.0
 40
2.65
 50
325.5256153901618
 51
0.0
  0
CIRCLE
  5
2AC
  8
1
  6
CONTINUOUS
 62
     7
 10
-183.8710088781635
 20
225.25
 30
0.0
 40
2.649999999999999
  0
LINE
  5
2AD
  8
1
  6
CONTINUOUS
 62
     9
 10
-219.2554440264841
 20
241.25
 30
0.0
 11
-206.4865737298429
 21
241.25
 31
0.0
  0
ARC
  5
2AE
  8
1
  6
CONTINUOUS
 62
     7
 10
-210.3948184019726
 20
245.4999999999993
 30
0.0
 40
5.773809523808686
 50
294.5941853523429
 51
312.6012369286275
  0
LINE
  5
2AF
  8
1
  6
CONTINUOUS
 62
     9
 10
-210.4575886630436
 20
240.25
 30
0.0
 11
-207.9918251815844
 21
240.25
 31
0.0
  0
ARC
  5
2B0
  8
1
  6
CONTINUOUS
 62
     7
 10
-211.8680784552266
 20
242.4541747025486
 30
0.0
 40
2.71435062297529
 50
265.0371942134732
 51
295.8680834582919
  0
POLYLINE
  5
2B1
  8
1
  6
CONTINUOUS
 62
     7
 66
     1
 10
0.0
 20
0.0
 30
0.0
  0
VERTEX
  5
6A2
  8
1
  6
CONTINUOUS
 62
     7
 10
-210.6838055871188
 20
240.0117994082275
 30
0.0
  0
VERTEX
  5
6A3
  8
1
  6
CONTINUOUS
 62
     7
 10
-210.6019074482939
 20
240.0791092949108
 30
0.0
  0
VERTEX
  5
6A4
  8
1
  6
CONTINUOUS
 62
     7
 10
-210.5258494274944
 20
240.1587019769455
 30
0.0
  0
VERTEX
  5
6A5
  8
1
  6
CONTINUOUS
 62
     7
 10
-210.4575886630436
 20
240.25
 30
0.0
  0
SEQEND
  5
A1D
  8
1
  6
CONTINUOUS
 62
     7
  0
POLYLINE
  5
2B2
  8
1
  6
CONTINUOUS
 62
     7
 66
     1
 10
0.0
 20
0.0
 30
0.0
  0
VERTEX
  5
6A6
  8
1
  6
CONTINUOUS
 62
     7
 10
-215.2844290932834
 20
240.25
 30
0.0
  0
VERTEX
  5
6A7
  8
1
  6
CONTINUOUS
 62
     7
 10
-215.2220954389834
 20
240.1658092564127
 30
0.0
  0
VERTEX
  5
6A8
  8
1
  6
CONTINUOUS
 62
     7
 10
-215.1525304897114
 20
240.0908304375547
 30
0.0
  0
VERTEX
  5
6A9
  8
1
  6
CONTINUOUS
 62
     7
 10
-215.0733480371774
 20
240.0230848295042
 30
0.0
  0
VERTEX
  5
6AA
  8
1
  6
CONTINUOUS
 62
     7
 10
-214.9872000056347
 20
239.9648538701835
 30
0.0
  0
VERTEX
  5
6AB
  8
1
  6
CONTINUOUS
 62
     7
 10
-214.8667565145149
 20
239.9030764945681
 30
0.0
  0
SEQEND
  5
A1E
  8
1
  6
CONTINUOUS
 62
     7
  0
ARC
  5
2B3
  8
1
  6
CONTINUOUS
 62
     7
 10
-213.8386205714766
 20
243.1492705189399
 30
0.0
 40
3.405119551680169
 50
252.4259419859387
 51
273.3587343828371
  0
LINE
  5
2B4
  8
1
  6
CONTINUOUS
 62
     9
 10
-217.7501925747426
 20
240.25
 30
0.0
 11
-215.2844290932834
 21
240.25
 31
0.0
  0
ARC
  5
2B5
  8
1
  6
CONTINUOUS
 62
     7
 10
-215.3468453304075
 20
245.5005328950594
 30
0.0
 40
5.77444141531924
 50
227.3997565076758
 51
245.404821211354
  0
LINE
  5
2B6
  8
1
  6
CONTINUOUS
 62
     7
 10
-209.8710088781635
 20
202.25
 30
0.0
 11
-215.8710088781635
 21
202.25
 31
0.0
  0
POLYLINE
  5
2B7
  8
1
  6
CONTINUOUS
 62
     7
 66
     1
 10
0.0
 20
0.0
 30
0.0
  0
VERTEX
  5
6AC
  8
1
  6
CONTINUOUS
 62
     7
 10
-215.2844290932834
 20
240.25
 30
0.0
  0
VERTEX
  5
6AD
  8
1
  6
CONTINUOUS
 62
     7
 10
-215.2783566378213
 20
240.2404355809271
 30
0.0
  0
VERTEX
  5
6AE
  8
1
  6
CONTINUOUS
 62
     7
 10
-215.2724862778869
 20
240.230423543822
 30
0.0
  0
VERTEX
  5
6AF
  8
1
  6
CONTINUOUS
 62
     7
 10
-215.2668466316289
 20
240.2199849553375
 30
0.0
  0
VERTEX
  5
6B0
  8
1
  6
CONTINUOUS
 62
     7
 10
-215.2614663171954
 20
240.2091408821262
 30
0.0
  0
VERTEX
  5
6B1
  8
1
  6
CONTINUOUS
 62
     7
 10
-215.2563739527349
 20
240.1979123908409
 30
0.0
  0
VERTEX
  5
6B2
  8
1
  6
CONTINUOUS
 62
     7
 10
-215.2515981563959
 20
240.1863205481342
 30
0.0
  0
VERTEX
  5
6B3
  8
1
  6
CONTINUOUS
 62
     7
 10
-215.2471675463267
 20
240.1743864206588
 30
0.0
  0
VERTEX
  5
6B4
  8
1
  6
CONTINUOUS
 62
     7
 10
-215.2435654624493
 20
240.1635702214053
 30
0.0
  0
VERTEX
  5
6B5
  8
1
  6
CONTINUOUS
 62
     7
 10
-215.240252426721
 20
240.1524516537561
 30
0.0
  0
VERTEX
  5
6B6
  8
1
  6
CONTINUOUS
 62
     7
 10
-215.2372457764035
 20
240.1410678625874
 30
0.0
  0
VERTEX
  5
6B7
  8
1
  6
CONTINUOUS
 62
     7
 10
-215.2345628487587
 20
240.129455992775
 30
0.0
  0
VERTEX
  5
6B8
  8
1
  6
CONTINUOUS
 62
     7
 10
-215.2322209810482
 20
240.1176531891951
 30
0.0
  0
VERTEX
  5
6B9
  8
1
  6
CONTINUOUS
 62
     7
 10
-215.2302375105338
 20
240.1056965967236
 30
0.0
  0
VERTEX
  5
6BA
  8
1
  6
CONTINUOUS
 62
     7
 10
-215.2286297744773
 20
240.0936233602366
 30
0.0
  0
VERTEX
  5
6BB
  8
1
  6
CONTINUOUS
 62
     7
 10
-215.2274151101404
 20
240.08147062461
 30
0.0
  0
VERTEX
  5
6BC
  8
1
  6
CONTINUOUS
 62
     7
 10
-215.2266055647082
 20
240.0692611373367
 30
0.0
  0
VERTEX
  5
6BD
  8
1
  6
CONTINUOUS
 62
     7
 10
-215.2261940521659
 20
240.0569591070948
 30
0.0
  0
VERTEX
  5
6BE
  8
1
  6
CONTINUOUS
 62
     7
 10
-215.2261775067359
 20
240.0446136931895
 30
0.0
  0
VERTEX
  5
6BF
  8
1
  6
CONTINUOUS
 62
     7
 10
-215.2265528626405
 20
240.0322740549259
 30
0.0
  0
VERTEX
  5
6C0
  8
1
  6
CONTINUOUS
 62
     7
 10
-215.2273170541023
 20
240.0199893516092
 30
0.0
  0
VERTEX
  5
6C1
  8
1
  6
CONTINUOUS
 62
     7
 10
-215.2284670153435
 20
240.0078087425445
 30
0.0
  0
VERTEX
  5
6C2
  8
1
  6
CONTINUOUS
 62
     7
 10
-215.2299996805865
 20
239.9957813870369
 30
0.0
  0
VERTEX
  5
6C3
  8
1
  6
CONTINUOUS
 62
     7
 10
-215.2320864564397
 20
239.9829297836255
 30
0.0
  0
VERTEX
  5
6C4
  8
1
  6
CONTINUOUS
 62
     7
 10
-215.2345997350903
 20
239.9702469795141
 30
0.0
  0
VERTEX
  5
6C5
  8
1
  6
CONTINUOUS
 62
     7
 10
-215.2375156880873
 20
239.957775080799
 30
0.0
  0
VERTEX
  5
6C6
  8
1
  6
CONTINUOUS
 62
     7
 10
-215.2408104869802
 20
239.9455561935759
 30
0.0
  0
VERTEX
  5
6C7
  8
1
  6
CONTINUOUS
 62
     7
 10
-215.2444603033181
 20
239.933632423941
 30
0.0
  0
VERTEX
  5
6C8
  8
1
  6
CONTINUOUS
 62
     7
 10
-215.2484413086503
 20
239.9220458779903
 30
0.0
  0
VERTEX
  5
6C9
  8
1
  6
CONTINUOUS
 62
     7
 10
-215.2531544978404
 20
239.9097673265531
 30
0.0
  0
VERTEX
  5
6CA
  8
1
  6
CONTINUOUS
 62
     7
 10
-215.2582289328172
 20
239.8978670458287
 30
0.0
  0
VERTEX
  5
6CB
  8
1
  6
CONTINUOUS
 62
     7
 10
-215.2636324480674
 20
239.8863688283421
 30
0.0
  0
VERTEX
  5
6CC
  8
1
  6
CONTINUOUS
 62
     7
 10
-215.2693328780775
 20
239.8752964666184
 30
0.0
  0
VERTEX
  5
6CD
  8
1
  6
CONTINUOUS
 62
     7
 10
-215.2752980573341
 20
239.8646737531827
 30
0.0
  0
VERTEX
  5
6CE
  8
1
  6
CONTINUOUS
 62
     7
 10
-215.281495820324
 20
239.8545244805599
 30
0.0
  0
VERTEX
  5
6CF
  8
1
  6
CONTINUOUS
 62
     7
 10
-215.2891462079718
 20
239.8430626194609
 30
0.0
  0
VERTEX
  5
6D0
  8
1
  6
CONTINUOUS
 62
     7
 10
-215.2970905360137
 20
239.8322261048492
 30
0.0
  0
VERTEX
  5
6D1
  8
1
  6
CONTINUOUS
 62
     7
 10
-215.3052893298865
 20
239.822029514299
 30
0.0
  0
VERTEX
  5
6D2
  8
1
  6
CONTINUOUS
 62
     7
 10
-215.3137031150272
 20
239.8124874253847
 30
0.0
  0
VERTEX
  5
6D3
  8
1
  6
CONTINUOUS
 62
     7
 10
-215.3222924168726
 20
239.8036144156802
 30
0.0
  0
VERTEX
  5
6D4
  8
1
  6
CONTINUOUS
 62
     7
 10
-215.3310177608597
 20
239.7954250627598
 30
0.0
  0
VERTEX
  5
6D5
  8
1
  6
CONTINUOUS
 62
     7
 10
-215.3416345679578
 20
239.786498547328
 30
0.0
  0
VERTEX
  5
6D6
  8
1
  6
CONTINUOUS
 62
     7
 10
-215.3524236903853
 20
239.7785130572227
 30
0.0
  0
VERTEX
  5
6D7
  8
1
  6
CONTINUOUS
 62
     7
 10
-215.3633369826183
 20
239.7714840890369
 30
0.0
  0
VERTEX
  5
6D8
  8
1
  6
CONTINUOUS
 62
     7
 10
-215.3743262991325
 20
239.7654271393637
 30
0.0
  0
VERTEX
  5
6D9
  8
1
  6
CONTINUOUS
 62
     7
 10
-215.3853434944041
 20
239.7603577047962
 30
0.0
  0
VERTEX
  5
6DA
  8
1
  6
CONTINUOUS
 62
     7
 10
-215.3963404229089
 20
239.7562912819274
 30
0.0
  0
VERTEX
  5
6DB
  8
1
  6
CONTINUOUS
 62
     7
 10
-215.4059509237873
 20
239.7535534008649
 30
0.0
  0
VERTEX
  5
6DC
  8
1
  6
CONTINUOUS
 62
     7
 10
-215.4155341137824
 20
239.7515857580646
 30
0.0
  0
VERTEX
  5
6DD
  8
1
  6
CONTINUOUS
 62
     7
 10
-215.4250618071695
 20
239.7503980567136
 30
0.0
  0
VERTEX
  5
6DE
  8
1
  6
CONTINUOUS
 62
     7
 10
-215.434505818224
 20
239.75
 30
0.0
  0
SEQEND
  5
A1F
  8
1
  6
CONTINUOUS
 62
     7
  0
LINE
  5
2B8
  8
1
  6
CONTINUOUS
 62
     7
 10
-212.1028943033767
 20
239.75
 30
0.0
 11
-213.6391234529503
 21
239.75
 31
0.0
  0
POLYLINE
  5
2B9
  8
1
  6
CONTINUOUS
 62
     7
 66
     1
 10
0.0
 20
0.0
 30
0.0
  0
VERTEX
  5
6DF
  8
1
  6
CONTINUOUS
 62
     7
 10
-210.3075119381031
 20
239.75
 30
0.0
  0
VERTEX
  5
6E0
  8
1
  6
CONTINUOUS
 62
     7
 10
-210.317490634918
 20
239.7504489917547
 30
0.0
  0
VERTEX
  5
6E1
  8
1
  6
CONTINUOUS
 62
     7
 10
-210.3275851948285
 20
239.7517880371412
 30
0.0
  0
VERTEX
  5
6E2
  8
1
  6
CONTINUOUS
 62
     7
 10
-210.3377608070469
 20
239.7540052413431
 30
0.0
  0
VERTEX
  5
6E3
  8
1
  6
CONTINUOUS
 62
     7
 10
-210.3479826607857
 20
239.7570887095438
 30
0.0
  0
VERTEX
  5
6E4
  8
1
  6
CONTINUOUS
 62
     7
 10
-210.3582159452572
 20
239.7610265469268
 30
0.0
  0
VERTEX
  5
6E5
  8
1
  6
CONTINUOUS
 62
     7
 10
-210.3684258496739
 20
239.7658068586757
 30
0.0
  0
VERTEX
  5
6E6
  8
1
  6
CONTINUOUS
 62
     7
 10
-210.3785775632482
 20
239.7714177499739
 30
0.0
  0
VERTEX
  5
6E7
  8
1
  6
CONTINUOUS
 62
     7
 10
-210.3886362751925
 20
239.7778473260051
 30
0.0
  0
VERTEX
  5
6E8
  8
1
  6
CONTINUOUS
 62
     7
 10
-210.3977656809196
 20
239.7844638383235
 30
0.0
  0
VERTEX
  5
6E9
  8
1
  6
CONTINUOUS
 62
     7
 10
-210.4068282172834
 20
239.7917972934938
 30
0.0
  0
VERTEX
  5
6EA
  8
1
  6
CONTINUOUS
 62
     7
 10
-210.4157859510121
 20
239.7998347781413
 30
0.0
  0
VERTEX
  5
6EB
  8
1
  6
CONTINUOUS
 62
     7
 10
-210.4246009488336
 20
239.8085633788912
 30
0.0
  0
VERTEX
  5
6EC
  8
1
  6
CONTINUOUS
 62
     7
 10
-210.4332352774763
 20
239.8179701823687
 30
0.0
  0
VERTEX
  5
6ED
  8
1
  6
CONTINUOUS
 62
     7
 10
-210.4416510036682
 20
239.8280422751991
 30
0.0
  0
VERTEX
  5
6EE
  8
1
  6
CONTINUOUS
 62
     7
 10
-210.4498101941375
 20
239.8387667440077
 30
0.0
  0
VERTEX
  5
6EF
  8
1
  6
CONTINUOUS
 62
     7
 10
-210.4576749156124
 20
239.8501306754197
 30
0.0
  0
VERTEX
  5
6F0
  8
1
  6
CONTINUOUS
 62
     7
 10
-210.4639098748196
 20
239.8599730853114
 30
0.0
  0
VERTEX
  5
6F1
  8
1
  6
CONTINUOUS
 62
     7
 10
-210.4699308771551
 20
239.870289464924
 30
0.0
  0
VERTEX
  5
6F2
  8
1
  6
CONTINUOUS
 62
     7
 10
-210.4757067508255
 20
239.8810564985557
 30
0.0
  0
VERTEX
  5
6F3
  8
1
  6
CONTINUOUS
 62
     7
 10
-210.4812063240379
 20
239.8922508705042
 30
0.0
  0
VERTEX
  5
6F4
  8
1
  6
CONTINUOUS
 62
     7
 10
-210.4863984249989
 20
239.9038492650675
 30
0.0
  0
VERTEX
  5
6F5
  8
1
  6
CONTINUOUS
 62
     7
 10
-210.4912518819155
 20
239.9158283665436
 30
0.0
  0
VERTEX
  5
6F6
  8
1
  6
CONTINUOUS
 62
     7
 10
-210.4957355229945
 20
239.9281648592303
 30
0.0
  0
VERTEX
  5
6F7
  8
1
  6
CONTINUOUS
 62
     7
 10
-210.4992272274002
 20
239.93890052526
 30
0.0
  0
VERTEX
  5
6F8
  8
1
  6
CONTINUOUS
 62
     7
 10
-210.5024335089994
 20
239.9499175446352
 30
0.0
  0
VERTEX
  5
6F9
  8
1
  6
CONTINUOUS
 62
     7
 10
-210.5053371290515
 20
239.9611811748074
 30
0.0
  0
VERTEX
  5
6FA
  8
1
  6
CONTINUOUS
 62
     7
 10
-210.5079208488158
 20
239.9726566732276
 30
0.0
  0
VERTEX
  5
6FB
  8
1
  6
CONTINUOUS
 62
     7
 10
-210.5101674295513
 20
239.984309297347
 30
0.0
  0
VERTEX
  5
6FC
  8
1
  6
CONTINUOUS
 62
     7
 10
-210.5120596325174
 20
239.9961043046168
 30
0.0
  0
VERTEX
  5
6FD
  8
1
  6
CONTINUOUS
 62
     7
 10
-210.5135802189733
 20
240.0080069524881
 30
0.0
  0
VERTEX
  5
6FE
  8
1
  6
CONTINUOUS
 62
     7
 10
-210.5147199229844
 20
240.0200649454938
 30
0.0
  0
VERTEX
  5
6FF
  8
1
  6
CONTINUOUS
 62
     7
 10
-210.5154728155961
 20
240.032242541145
 30
0.0
  0
VERTEX
  5
700
  8
1
  6
CONTINUOUS
 62
     7
 10
-210.5158390605962
 20
240.04449124691
 30
0.0
  0
VERTEX
  5
701
  8
1
  6
CONTINUOUS
 62
     7
 10
-210.5158188217727
 20
240.0567625702567
 30
0.0
  0
VERTEX
  5
702
  8
1
  6
CONTINUOUS
 62
     7
 10
-210.5154122629134
 20
240.0690080186535
 30
0.0
  0
VERTEX
  5
703
  8
1
  6
CONTINUOUS
 62
     7
 10
-210.5146195478063
 20
240.0811790995683
 30
0.0
  0
VERTEX
  5
704
  8
1
  6
CONTINUOUS
 62
     7
 10
-210.5134408402392
 20
240.0932273204693
 30
0.0
  0
VERTEX
  5
705
  8
1
  6
CONTINUOUS
 62
     7
 10
-210.5117205782662
 20
240.1062076760502
 30
0.0
  0
VERTEX
  5
706
  8
1
  6
CONTINUOUS
 62
     7
 10
-210.509561662873
 20
240.119050075934
 30
0.0
  0
VERTEX
  5
707
  8
1
  6
CONTINUOUS
 62
     7
 10
-210.5069863825233
 20
240.1317087920182
 30
0.0
  0
VERTEX
  5
708
  8
1
  6
CONTINUOUS
 62
     7
 10
-210.5040170256803
 20
240.1441380962001
 30
0.0
  0
VERTEX
  5
709
  8
1
  6
CONTINUOUS
 62
     7
 10
-210.5006758808076
 20
240.1562922603771
 30
0.0
  0
VERTEX
  5
70A
  8
1
  6
CONTINUOUS
 62
     7
 10
-210.4969852363686
 20
240.1681255564466
 30
0.0
  0
VERTEX
  5
70B
  8
1
  6
CONTINUOUS
 62
     7
 10
-210.4926509171754
 20
240.1804680087394
 30
0.0
  0
VERTEX
  5
70C
  8
1
  6
CONTINUOUS
 62
     7
 10
-210.4879474915369
 20
240.1924622182576
 30
0.0
  0
VERTEX
  5
70D
  8
1
  6
CONTINUOUS
 62
     7
 10
-210.482906091688
 20
240.2040824586121
 30
0.0
  0
VERTEX
  5
70E
  8
1
  6
CONTINUOUS
 62
     7
 10
-210.4775578498632
 20
240.2153030034133
 30
0.0
  0
VERTEX
  5
70F
  8
1
  6
CONTINUOUS
 62
     7
 10
-210.4719338982972
 20
240.226098126272
 30
0.0
  0
VERTEX
  5
710
  8
1
  6
CONTINUOUS
 62
     7
 10
-210.4660653692246
 20
240.2364421007989
 30
0.0
  0
VERTEX
  5
711
  8
1
  6
CONTINUOUS
 62
     7
 10
-210.4618789804369
 20
240.2433244218692
 30
0.0
  0
VERTEX
  5
712
  8
1
  6
CONTINUOUS
 62
     7
 10
-210.4575886630436
 20
240.25
 30
0.0
  0
SEQEND
  5
A20
  8
1
  6
CONTINUOUS
 62
     7
  0
LINE
  5
2BA
  8
1
  6
CONTINUOUS
 62
     7
 10
-210.6210088781635
 20
199.75
 30
0.0
 11
-212.8710088781635
 21
199.75
 31
0.0
  0
LINE
  5
2BB
  8
1
  6
CONTINUOUS
 62
     7
 10
-212.8710088781635
 20
199.75
 30
0.0
 11
-215.1210088781635
 21
199.75
 31
0.0
  0
LINE
  5
2BC
  8
1
  6
CONTINUOUS
 62
     7
 10
-215.434505818224
 20
239.75
 30
0.0
 11
-215.5376755448302
 21
239.75
 31
0.0
  0
LINE
  5
2BD
  8
1
  6
CONTINUOUS
 62
     7
 10
-216.7684447755992
 20
239.9038461538461
 30
0.0
 11
-215.5376755448302
 21
239.75
 31
0.0
  0
LINE
  5
2BE
  8
1
  6
CONTINUOUS
 62
     7
 10
-216.7684447755992
 20
239.9038461538461
 30
0.0
 11
-217.7501925747426
 21
240.25
 31
0.0
  0
LINE
  5
2BF
  8
1
  6
CONTINUOUS
 62
     7
 10
-210.2043422114969
 20
239.75
 30
0.0
 11
-210.3075119381031
 21
239.75
 31
0.0
  0
LINE
  5
2C0
  8
1
  6
CONTINUOUS
 62
     7
 10
-210.2043422114969
 20
239.75
 30
0.0
 11
-208.9735729807277
 21
239.9038461538461
 31
0.0
  0
LINE
  5
2C1
  8
1
  6
CONTINUOUS
 62
     7
 10
-207.9918251815844
 20
240.25
 30
0.0
 11
-208.9735729807276
 21
239.9038461538461
 31
0.0
  0
ARC
  5
2C2
  8
1
  6
CONTINUOUS
 62
     7
 10
-218.8900954779782
 20
245.0309567507362
 30
0.0
 40
2.199999999999999
 50
150.6251594645095
 51
187.5415196744335
  0
ARC
  5
2C3
  8
1
  6
CONTINUOUS
 62
     7
 10
-212.8710088781635
 20
241.6428571428571
 30
0.0
 40
9.107142857142883
 50
90.00000000000021
 51
150.6251594645095
  0
ARC
  5
2C4
  8
1
  6
CONTINUOUS
 62
     7
 10
-212.8710088781635
 20
241.6428571428571
 30
0.0
 40
9.107142857142897
 50
29.37484053549059
 51
89.99999999999994
  0
ARC
  5
2C5
  8
1
  6
CONTINUOUS
 62
     7
 10
-206.8519222783488
 20
245.0309567507362
 30
0.0
 40
2.200000000000002
 50
352.4584803255667
 51
29.37484053549053
  0
ARC
  5
2C6
  8
1
  6
CONTINUOUS
 62
     7
 10
-210.3948184019731
 20
245.5
 30
0.0
 40
5.773809523809532
 50
312.6012369286263
 51
352.4584803255668
  0
ARC
  5
2C7
  8
1
  6
CONTINUOUS
 62
     7
 10
-215.347199354354
 20
245.5
 30
0.0
 40
5.773809523809528
 50
187.5415196744334
 51
227.3987630713738
  0
LINE
  5
2C8
  8
1
  6
CONTINUOUS
 62
     9
 10
-219.3710088781635
 20
194.75
 30
0.0
 11
-219.3710088781635
 21
192.45
 31
0.0
  0
LINE
  5
2C9
  8
1
  6
CONTINUOUS
 62
     7
 10
-219.3710088781635
 20
192.45
 30
0.0
 11
-220.3710088781635
 21
192.45
 31
0.0
  0
LINE
  5
2CA
  8
1
  6
CONTINUOUS
 62
     7
 10
-220.3710088781635
 20
192.45
 30
0.0
 11
-220.3710088781635
 21
194.75
 31
0.0
  0
LINE
  5
2CB
  8
1
  6
CONTINUOUS
 62
     7
 10
-220.3710088781635
 20
194.75
 30
0.0
 11
-219.3710088781635
 21
194.75
 31
0.0
  0
LINE
  5
2CC
  8
1
  6
CONTINUOUS
 62
     9
 10
-196.3710088781635
 20
192.45
 30
0.0
 11
-196.3710088781635
 21
194.75
 31
0.0
  0
LINE
  5
2CD
  8
1
  6
CONTINUOUS
 62
     7
 10
-196.3710088781635
 20
194.75
 30
0.0
 11
-195.3710088781635
 21
194.75
 31
0.0
  0
LINE
  5
2CE
  8
1
  6
CONTINUOUS
 62
     7
 10
-195.3710088781635
 20
194.75
 30
0.0
 11
-195.3710088781635
 21
192.45
 31
0.0
  0
LINE
  5
2CF
  8
1
  6
CONTINUOUS
 62
     7
 10
-195.3710088781635
 20
192.45
 30
0.0
 11
-196.3710088781635
 21
192.45
 31
0.0
  0
LINE
  5
2D0
  8
1
  6
CONTINUOUS
 62
     7
 10
-196.3710088781635
 20
194.75
 30
0.0
 11
-219.3710088781635
 21
194.75
 31
0.0
  0
LINE
  5
2D1
  8
1
  6
CONTINUOUS
 62
     7
 10
-219.3710088781635
 20
192.45
 30
0.0
 11
-196.3710088781635
 21
192.45
 31
0.0
  0
LINE
  5
2D2
  8
1
  6
CONTINUOUS
 62
     9
 10
-200.3710088781636
 20
188.45
 30
0.0
 11
-200.3710088781636
 21
182.75
 31
0.0
  0
LINE
  5
2D3
  8
1
  6
CONTINUOUS
 62
     9
 10
-200.3710088781635
 20
182.75
 30
0.0
 11
-200.8710088781635
 21
182.75
 31
0.0
  0
LINE
  5
2D4
  8
1
  6
CONTINUOUS
 62
     7
 10
-200.8710088781635
 20
182.75
 30
0.0
 11
-200.8710088781636
 21
188.45
 31
0.0
  0
LINE
  5
2D5
  8
1
  6
CONTINUOUS
 62
     9
 10
-200.3710088781636
 20
188.45
 30
0.0
 11
-200.8710088781636
 21
188.45
 31
0.0
  0
LINE
  5
2D6
  8
1
  6
CONTINUOUS
 62
     9
 10
-198.8710088781635
 20
181.25
 30
0.0
 11
-183.8710088781635
 21
181.25
 31
0.0
  0
ARC
  5
2D7
  8
1
  6
CONTINUOUS
 62
     9
 10
-198.8710088781635
 20
182.75
 30
0.0
 40
1.500000000000001
 50
180.0
 51
269.9999999999999
  0
ARC
  5
2D8
  8
1
  6
CONTINUOUS
 62
     9
 10
-198.8710088781636
 20
188.45
 30
0.0
 40
1.500000000000002
 50
89.99999999999982
 51
180.0
  0
LINE
  5
2D9
  8
1
  6
CONTINUOUS
 62
     9
 10
-192.3710088781635
 20
189.95
 30
0.0
 11
-198.8710088781635
 21
189.95
 31
0.0
  0
ARC
  5
2DA
  8
1
  6
CONTINUOUS
 62
     9
 10
-192.3710088781635
 20
194.45
 30
0.0
 40
4.5
 50
270.0
 51
359.9999999999998
  0
LINE
  5
2DB
  8
1
  6
CONTINUOUS
 62
     9
 10
-187.8710088781635
 20
215.25
 30
0.0
 11
-187.8710088781635
 21
194.45
 31
0.0
  0
ARC
  5
2DC
  8
1
  6
CONTINUOUS
 62
     9
 10
-192.3710088781635
 20
215.25
 30
0.0
 40
4.5
 50
0.0
 51
90.0
  0
LINE
  5
2DD
  8
1
  6
CONTINUOUS
 62
     9
 10
-196.8710088781635
 20
219.75
 30
0.0
 11
-192.3710088781635
 21
219.75
 31
0.0
  0
ARC
  5
2DE
  8
1
  6
CONTINUOUS
 62
     9
 10
-196.8710088781635
 20
223.25
 30
0.0
 40
3.5
 50
179.9999999999999
 51
269.9999999999998
  0
LINE
  5
2DF
  8
1
  6
CONTINUOUS
 62
     9
 10
-200.3710088781635
 20
227.75
 30
0.0
 11
-200.3710088781635
 21
223.25
 31
0.0
  0
ARC
  5
2E0
  8
1
  6
CONTINUOUS
 62
     9
 10
-196.8710088781635
 20
227.75
 30
0.0
 40
3.500000000000003
 50
90.0
 51
180.0
  0
LINE
  5
2E1
  8
1
  6
CONTINUOUS
 62
     9
 10
-179.3710088781635
 20
231.25
 30
0.0
 11
-196.8710088781635
 21
231.25
 31
0.0
  0
ARC
  5
2E2
  8
1
  6
CONTINUOUS
 62
     9
 10
-179.3710088781635
 20
229.75
 30
0.0
 40
1.499999999999998
 50
359.9999999999997
 51
89.9999999999999
  0
LINE
  5
2E3
  8
1
  6
CONTINUOUS
 62
     9
 10
-177.8710088781635
 20
187.25
 30
0.0
 11
-177.8710088781635
 21
229.75
 31
0.0
  0
ARC
  5
2E4
  8
1
  6
CONTINUOUS
 62
     9
 10
-183.8710088781635
 20
187.25
 30
0.0
 40
5.999999999999998
 50
269.9999999999999
 51
0.0
  0
CIRCLE
  5
2E5
  8
1
  6
CONTINUOUS
 62
     7
 10
-183.8710088781635
 20
225.25
 30
0.0
 40
2.8
  0
LINE
  5
2E6
  8
1
  6
CONTINUOUS
 62
     9
 10
-177.8710088781635
 20
187.25
 30
0.0
 11
-177.3710088781635
 21
187.25
 31
0.0
  0
ARC
  5
2E7
  8
1
  6
CONTINUOUS
 62
     7
 10
-183.8710088781635
 20
187.25
 30
0.0
 40
6.499999999999999
 50
270.0
 51
0.0
  0
LINE
  5
2E8
  8
1
  6
CONTINUOUS
 62
     9
 10
-183.8710088781635
 20
181.25
 30
0.0
 11
-183.8710088781635
 21
180.75
 31
0.0
  0
LINE
  5
2E9
  8
1
  6
CONTINUOUS
 62
     7
 10
-183.8710088781635
 20
180.75
 30
0.0
 11
-198.8710088781635
 21
180.75
 31
0.0
  0
LINE
  5
2EA
  8
1
  6
CONTINUOUS
 62
     9
 10
-198.8710088781635
 20
181.25
 30
0.0
 11
-198.8710088781635
 21
180.75
 31
0.0
  0
ARC
  5
2EB
  8
1
  6
CONTINUOUS
 62
     7
 10
-198.8710088781635
 20
182.75
 30
0.0
 40
2.000000000000002
 50
180.0
 51
270.0
  0
LINE
  5
2EC
  8
1
  6
CONTINUOUS
 62
     9
 10
-198.8710088781636
 20
189.95
 30
0.0
 11
-198.8710088781636
 21
190.45
 31
0.0
  0
LINE
  5
2ED
  8
1
  6
CONTINUOUS
 62
     7
 10
-198.8710088781635
 20
190.45
 30
0.0
 11
-192.3710088781635
 21
190.45
 31
0.0
  0
LINE
  5
2EE
  8
1
  6
CONTINUOUS
 62
     9
 10
-192.3710088781635
 20
189.95
 30
0.0
 11
-192.3710088781635
 21
190.45
 31
0.0
  0
ARC
  5
2EF
  8
1
  6
CONTINUOUS
 62
     7
 10
-198.8710088781636
 20
188.45
 30
0.0
 40
2.000000000000002
 50
89.99999999999977
 51
180.0
  0
ARC
  5
2F0
  8
1
  6
CONTINUOUS
 62
     7
 10
-192.3710088781635
 20
194.45
 30
0.0
 40
4.0
 50
269.9999999999999
 51
359.9999999999998
  0
LINE
  5
2F1
  8
1
  6
CONTINUOUS
 62
     9
 10
-187.8710088781635
 20
194.45
 30
0.0
 11
-188.3710088781635
 21
194.45
 31
0.0
  0
LINE
  5
2F2
  8
1
  6
CONTINUOUS
 62
     9
 10
-177.3710088781635
 20
229.75
 30
0.0
 11
-177.8710088781635
 21
229.75
 31
0.0
  0
LINE
  5
2F3
  8
1
  6
CONTINUOUS
 62
     7
 10
-177.3710088781635
 20
229.75
 30
0.0
 11
-177.3710088781635
 21
187.25
 31
0.0
  0
LINE
  5
2F4
  8
1
  6
CONTINUOUS
 62
     7
 10
-188.3710088781635
 20
194.45
 30
0.0
 11
-188.3710088781635
 21
215.25
 31
0.0
  0
LINE
  5
2F5
  8
1
  6
CONTINUOUS
 62
     9
 10
-188.3710088781635
 20
215.25
 30
0.0
 11
-187.8710088781635
 21
215.25
 31
0.0
  0
ARC
  5
2F6
  8
1
  6
CONTINUOUS
 62
     7
 10
-192.3710088781635
 20
215.25
 30
0.0
 40
3.999999999999996
 50
0.0
 51
90.0
  0
LINE
  5
2F7
  8
1
  6
CONTINUOUS
 62
     9
 10
-192.3710088781635
 20
219.25
 30
0.0
 11
-192.3710088781635
 21
219.75
 31
0.0
  0
ARC
  5
2F8
  8
1
  6
CONTINUOUS
 62
     7
 10
-196.8710088781635
 20
223.25
 30
0.0
 40
4.0
 50
180.0
 51
269.9999999999998
  0
LINE
  5
2F9
  8
1
  6
CONTINUOUS
 62
     9
 10
-200.8710088781635
 20
223.25
 30
0.0
 11
-200.3710088781635
 21
223.25
 31
0.0
  0
LINE
  5
2FA
  8
1
  6
CONTINUOUS
 62
     9
 10
-196.8710088781635
 20
219.25
 30
0.0
 11
-196.8710088781635
 21
219.75
 31
0.0
  0
LINE
  5
2FB
  8
1
  6
CONTINUOUS
 62
     7
 10
-192.3710088781635
 20
219.25
 30
0.0
 11
-196.8710088781635
 21
219.25
 31
0.0
  0
LINE
  5
2FC
  8
1
  6
CONTINUOUS
 62
     7
 10
-200.8710088781635
 20
223.25
 30
0.0
 11
-200.8710088781636
 21
227.75
 31
0.0
  0
LINE
  5
2FD
  8
1
  6
CONTINUOUS
 62
     9
 10
-200.8710088781635
 20
227.75
 30
0.0
 11
-200.3710088781636
 21
227.75
 31
0.0
  0
ARC
  5
2FE
  8
1
  6
CONTINUOUS
 62
     7
 10
-179.3710088781635
 20
229.75
 30
0.0
 40
2.000000000000002
 50
359.9999999999998
 51
89.9999999999999
  0
LINE
  5
2FF
  8
1
  6
CONTINUOUS
 62
     9
 10
-179.3710088781635
 20
231.75
 30
0.0
 11
-179.3710088781635
 21
231.25
 31
0.0
  0
ARC
  5
300
  8
1
  6
CONTINUOUS
 62
     7
 10
-196.8710088781635
 20
227.75
 30
0.0
 40
4.000000000000004
 50
90.0
 51
180.0
  0
LINE
  5
301
  8
1
  6
CONTINUOUS
 62
     9
 10
-196.8710088781635
 20
231.75
 30
0.0
 11
-196.8710088781635
 21
231.25
 31
0.0
  0
LINE
  5
302
  8
1
  6
CONTINUOUS
 62
     7
 10
-196.8710088781635
 20
231.75
 30
0.0
 11
-179.3710088781635
 21
231.75
 31
0.0
  0
CIRCLE
  5
303
  8
1
  6
CONTINUOUS
 62
     7
 10
-210.3710088781635
 20
187.25
 30
0.0
 40
2.8
  0
LINE
  5
304
  8
1
  6
CONTINUOUS
 62
     9
 10
-212.8710088781635
 20
219.3617464623736
 30
0.0
 11
-212.8710088781635
 21
215.25
 31
0.0
  0
LINE
  5
305
  8
1
  6
CONTINUOUS
 62
     7
 10
-210.1888501772174
 20
219.4554095081096
 30
0.0
 11
-212.8710088781635
 21
219.3617464623736
 31
0.0
  0
ARC
  5
306
  8
1
  6
CONTINUOUS
 62
     7
 10
-210.2237496739199
 20
220.4548003351287
 30
0.0
 40
0.9999999999999991
 50
271.9999999999998
 51
2.000000000000171
  0
LINE
  5
307
  8
1
  6
CONTINUOUS
 62
     7
 10
-209.3535591298123
 20
224.189511857509
 30
0.0
 11
-209.2243588469008
 21
220.4896998318312
 31
0.0
  0
ARC
  5
308
  8
1
  6
CONTINUOUS
 62
     7
 10
-209.8532545433218
 20
224.1720621091577
 30
0.0
 40
0.5000000000000066
 50
2.000000000002501
 51
92.00000000000011
  0
LINE
  5
309
  8
1
  6
CONTINUOUS
 62
     7
 10
-212.8710088781635
 20
224.5669845777974
 30
0.0
 11
-209.8707042916731
 21
224.6717575226673
 31
0.0
  0
LINE
  5
30A
  8
1
  6
CONTINUOUS
 62
     9
 10
-212.8710088781635
 20
233.75
 30
0.0
 11
-212.8710088781635
 21
224.5669845777974
 31
0.0
  0
LINE
  5
30B
  8
1
  6
CONTINUOUS
 62
     7
 10
-177.8710088781635
 20
233.75
 30
0.0
 11
-212.8710088781635
 21
233.75
 31
0.0
  0
ARC
  5
30C
  8
1
  6
CONTINUOUS
 62
     7
 10
-177.8710088781635
 20
231.25
 30
0.0
 40
2.500000000000002
 50
0.000000000000159
 51
90.0
  0
LINE
  5
30D
  8
1
  6
CONTINUOUS
 62
     7
 10
-175.3710088781635
 20
187.25
 30
0.0
 11
-175.3710088781635
 21
231.25
 31
0.0
  0
LINE
  5
30E
  8
1
  6
CONTINUOUS
 62
     7
 10
-192.3710088781635
 20
192.45
 30
0.0
 11
-195.3710088781635
 21
192.45
 31
0.0
  0
ARC
  5
30F
  8
1
  6
CONTINUOUS
 62
     7
 10
-192.3710088781635
 20
194.45
 30
0.0
 40
2.000000000000002
 50
269.9999999999999
 51
359.9999999999993
  0
LINE
  5
310
  8
1
  6
CONTINUOUS
 62
     7
 10
-190.3710088781635
 20
215.25
 30
0.0
 11
-190.3710088781635
 21
194.45
 31
0.0
  0
ARC
  5
311
  8
1
  6
CONTINUOUS
 62
     7
 10
-192.3710088781635
 20
215.25
 30
0.0
 40
2.000000000000004
 50
359.9999999999998
 51
110.0000000000015
  0
LINE
  5
312
  8
1
  6
CONTINUOUS
 62
     7
 10
-197.8872313532553
 20
215.3706147584282
 30
0.0
 11
-193.0550491648149
 21
217.1293852415718
 31
0.0
  0
ARC
  5
313
  8
1
  6
CONTINUOUS
 62
     7
 10
-198.5712716399066
 20
217.25
 30
0.0
 40
2.000000000000002
 50
270.0
 51
289.9999999999999
  0
LINE
  5
314
  8
1
  6
CONTINUOUS
 62
     7
 10
-212.8710088781635
 20
215.25
 30
0.0
 11
-198.5712716399067
 21
215.25
 31
0.0
  0
ARC
  5
315
  8
1
  6
CONTINUOUS
 62
     7
 10
-214.9567953157905
 20
179.75
 30
0.0
 40
0.9999999999999989
 50
224.9999999999998
 51
270.0
  0
LINE
  5
316
  8
1
  6
CONTINUOUS
 62
     7
 10
-220.3710088781635
 20
183.75
 30
0.0
 11
-215.663902096977
 21
179.0428932188134
 31
0.0
  0
ARC
  5
317
  8
1
  6
CONTINUOUS
 62
     7
 10
-183.8710088781635
 20
187.25
 30
0.0
 40
8.5
 50
269.9999999999999
 51
0.0
  0
LINE
  5
318
  8
1
  6
CONTINUOUS
 62
     7
 10
-214.9567953157905
 20
178.75
 30
0.0
 11
-183.8710088781635
 21
178.75
 31
0.0
  0
LINE
  5
319
  8
1
  6
CONTINUOUS
 62
     7
 10
-220.3710088781635
 20
192.45
 30
0.0
 11
-220.3710088781635
 21
183.75
 31
0.0
  0
LINE
  5
31A
  8
1
  6
CONTINUOUS
 62
     7
 10
-216.0710088781635
 20
219.25
 30
0.0
 11
-212.8710088781635
 21
219.3617464623736
 31
0.0
  0
LINE
  5
31B
  8
1
  6
CONTINUOUS
 62
     7
 10
-212.8710088781635
 20
215.25
 30
0.0
 11
-218.3710088781635
 21
215.25
 31
0.0
  0
LINE
  5
31C
  8
1
  6
CONTINUOUS
 62
     7
 10
-218.3710088781635
 20
215.25
 30
0.0
 11
-218.3710088781635
 21
219.25
 31
0.0
  0
LINE
  5
31D
  8
1
  6
CONTINUOUS
 62
     7
 10
-218.3710088781635
 20
219.25
 30
0.0
 11
-216.0710088781635
 21
219.25
 31
0.0
  0
LINE
  5
31E
  8
1
  6
CONTINUOUS
 62
     7
 10
-212.8710088781635
 20
224.5669845777974
 30
0.0
 11
-216.2210088781636
 21
224.45
 31
0.0
  0
LINE
  5
31F
  8
1
  6
CONTINUOUS
 62
     7
 10
-216.2210088781636
 20
224.45
 30
0.0
 11
-218.3710088781635
 21
224.45
 31
0.0
  0
LINE
  5
320
  8
1
  6
CONTINUOUS
 62
     7
 10
-218.3710088781635
 20
224.45
 30
0.0
 11
-218.3710088781635
 21
233.75
 31
0.0
  0
LINE
  5
321
  8
1
  6
CONTINUOUS
 62
     7
 10
-218.3710088781635
 20
233.75
 30
0.0
 11
-212.8710088781635
 21
233.75
 31
0.0
  0
LINE
  5
322
  8
1
  6
CONTINUOUS
 62
     7
 10
-216.0710088781635
 20
224.45
 30
0.0
 11
-216.0710088781635
 21
224.4552381154238
 31
0.0
  0
LINE
  5
323
  8
1
  6
CONTINUOUS
 62
     7
 10
-216.2210088781641
 20
224.45
 30
0.0
 11
-216.0710088781635
 21
224.45
 31
0.0
  0
LINE
  5
324
  8
1
  6
CONTINUOUS
 62
     7
 10
-212.8710088781635
 20
224.25
 30
0.0
 11
-212.8710088781635
 21
219.75
 31
0.0
  0
LINE
  5
325
  8
1
  6
CONTINUOUS
 62
     7
 10
-209.359366210628
 20
224.25
 30
0.0
 11
-212.8710088781635
 21
224.25
 31
0.0
  0
LINE
  5
326
  8
1
  6
CONTINUOUS
 62
     7
 10
-209.5143439454383
 20
219.75
 30
0.0
 11
-212.8710088781635
 21
219.75
 31
0.0
  0
LINE
  5
327
  8
1
  6
CONTINUOUS
 62
     7
 10
-220.6491834712155
 20
224.25
 30
0.0
 11
-220.6491834712155
 21
219.75
 31
0.0
  0
LINE
  5
328
  8
1
  6
CONTINUOUS
 62
     7
 10
-212.8710088781635
 20
224.25
 30
0.0
 11
-220.6491834712155
 21
224.25
 31
0.0
  0
LINE
  5
329
  8
1
  6
CONTINUOUS
 62
     7
 10
-212.8710088781635
 20
219.75
 30
0.0
 11
-220.6491834712155
 21
219.75
 31
0.0
  0
LINE
  5
32A
  8
1
  6
CONTINUOUS
 62
     7
 10
-251.8099208036282
 20
166.1889119254647
 30
0.0
 11
-251.8710088781635
 21
166.25
 31
0.0
  0
LINE
  5
32B
  8
1
  6
CONTINUOUS
 62
     7
 10
-256.8012320127733
 20
166.1889119254647
 30
0.0
 11
-251.8099208036282
 21
166.1889119254647
 31
0.0
  0
LINE
  5
32C
  8
1
  6
CONTINUOUS
 62
     9
 10
-256.8623200873086
 20
166.25
 30
0.0
 11
-256.8012320127733
 21
166.1889119254647
 31
0.0
  0
LINE
  5
32D
  8
1
  6
CONTINUOUS
 62
     7
 10
-256.8623200873086
 20
166.25
 30
0.0
 11
-251.8710088781635
 21
166.25
 31
0.0
  0
LINE
  5
32E
  8
1
  6
CONTINUOUS
 62
     7
 10
-200.5710088781635
 20
176.25
 30
0.0
 11
-200.5708184826099
 21
178.75
 31
0.0
  0
LINE
  5
32F
  8
1
  6
CONTINUOUS
 62
     7
 10
-200.5710088781635
 20
176.25
 30
0.0
 11
-200.6059163493265
 21
176.2150925288369
 31
0.0
  0
LINE
  5
330
  8
1
  6
CONTINUOUS
 62
     7
 10
-200.6059163493265
 20
177.723781318242
 30
0.0
 11
-200.6059163493265
 21
176.2150925288369
 31
0.0
  0
LINE
  5
331
  8
1
  6
CONTINUOUS
 62
     7
 10
-200.5972656368574
 20
178.7237432413062
 30
0.0
 11
-200.6059163493265
 21
177.723781318242
 31
0.0
  0
LINE
  5
332
  8
1
  6
CONTINUOUS
 62
     7
 10
-200.5710088781635
 20
178.75
 30
0.0
 11
-200.5972656368574
 21
178.7237432413062
 31
0.0
  0
LINE
  5
333
  8
1
  6
CONTINUOUS
 62
     7
 10
-202.1710088781635
 20
176.25
 30
0.0
 11
-202.1361014070005
 21
176.2150925288369
 31
0.0
  0
LINE
  5
334
  8
1
  6
CONTINUOUS
 62
     7
 10
-202.1711992737171
 20
178.75
 30
0.0
 11
-202.1710088781635
 21
176.25
 31
0.0
  0
LINE
  5
335
  8
1
  6
CONTINUOUS
 62
     7
 10
-202.1710088781635
 20
178.75
 30
0.0
 11
-202.1447521194697
 21
178.7237432413062
 31
0.0
  0
LINE
  5
336
  8
1
  6
CONTINUOUS
 62
     7
 10
-202.1361014070005
 20
177.723781318242
 30
0.0
 11
-202.1447521194697
 21
178.7237432413062
 31
0.0
  0
LINE
  5
337
  8
1
  6
CONTINUOUS
 62
     7
 10
-202.1361014070005
 20
176.2150925288369
 30
0.0
 11
-202.1361014070005
 21
177.723781318242
 31
0.0
  0
LINE
  5
338
  8
1
  6
CONTINUOUS
 62
     7
 10
-251.8710088781635
 20
174.25
 30
0.0
 11
-251.8099208036282
 21
174.3110880745353
 31
0.0
  0
LINE
  5
339
  8
1
  6
CONTINUOUS
 62
     7
 10
-257.8622820103727
 20
174.25
 30
0.0
 11
-251.8710088781635
 21
174.25
 31
0.0
  0
LINE
  5
33A
  8
1
  6
CONTINUOUS
 62
     7
 10
-257.8622820103727
 20
174.25
 30
0.0
 11
-257.8098446483066
 21
174.3024373620661
 31
0.0
  0
LINE
  5
33B
  8
1
  6
CONTINUOUS
 62
     7
 10
-256.8098827252425
 20
174.3110880745353
 30
0.0
 11
-257.8098446483067
 21
174.3024373620661
 31
0.0
  0
LINE
  5
33C
  8
1
  6
CONTINUOUS
 62
     7
 10
-251.8099208036282
 20
174.3110880745353
 30
0.0
 11
-256.8098827252425
 21
174.3110880745353
 31
0.0
  0
LINE
  5
33D
  8
1
  6
CONTINUOUS
 62
     9
 10
-257.8098446483066
 20
174.3024373620661
 30
0.0
 11
-257.8098446483066
 21
176.1975626379339
 31
0.0
  0
LINE
  5
33E
  8
1
  6
CONTINUOUS
 62
     7
 10
-257.8098446483067
 20
176.1975626379339
 30
0.0
 11
-256.8098827252425
 21
176.1889119254647
 31
0.0
  0
LINE
  5
33F
  8
1
  6
CONTINUOUS
 62
     9
 10
-256.8098827252425
 20
176.1889119254647
 30
0.0
 11
-256.8098827252425
 21
174.3110880745353
 31
0.0
  0
LINE
  5
340
  8
1
  6
CONTINUOUS
 62
     7
 10
-256.8098827252425
 20
194.1801850576739
 30
0.0
 11
-249.4058782723908
 21
194.1801850576739
 31
0.0
  0
LINE
  5
341
  8
1
  6
CONTINUOUS
 62
     7
 10
-257.8098446483067
 20
194.1888357701431
 30
0.0
 11
-256.8098827252425
 21
194.1801850576739
 31
0.0
  0
LINE
  5
342
  8
1
  6
CONTINUOUS
 62
     7
 10
-257.8098446483067
 20
194.1888357701431
 30
0.0
 11
-257.8710088781635
 21
194.25
 31
0.0
  0
LINE
  5
343
  8
1
  6
CONTINUOUS
 62
     7
 10
-225.8710088781635
 20
194.25
 30
0.0
 11
-257.8710088781635
 21
194.25
 31
0.0
  0
LINE
  5
344
  8
1
  6
CONTINUOUS
 62
     7
 10
-225.883415199145
 20
194.2251873580371
 30
0.0
 11
-225.8710088781635
 21
194.25
 31
0.0
  0
LINE
  5
345
  8
1
  6
CONTINUOUS
 62
     7
 10
-249.3608759720275
 20
194.2251873580371
 30
0.0
 11
-225.883415199145
 21
194.2251873580371
 31
0.0
  0
LINE
  5
346
  8
1
  6
CONTINUOUS
 62
     9
 10
-249.4058782723907
 20
194.1801850576739
 30
0.0
 11
-249.3608759720275
 21
194.2251873580371
 31
0.0
  0
LINE
  5
347
  8
1
  6
CONTINUOUS
 62
     7
 10
-257.8622820103727
 20
176.25
 30
0.0
 11
-251.8710088781635
 21
176.25
 31
0.0
  0
LINE
  5
348
  8
1
  6
CONTINUOUS
 62
     7
 10
-251.8099208036282
 20
176.1889119254647
 30
0.0
 11
-251.8710088781635
 21
176.25
 31
0.0
  0
LINE
  5
349
  8
1
  6
CONTINUOUS
 62
     7
 10
-256.8098827252425
 20
176.1889119254647
 30
0.0
 11
-251.8099208036282
 21
176.1889119254647
 31
0.0
  0
LINE
  5
34A
  8
1
  6
CONTINUOUS
 62
     7
 10
-257.8098446483066
 20
176.1975626379339
 30
0.0
 11
-257.8622820103727
 21
176.25
 31
0.0
  0
LINE
  5
34B
  8
1
  6
CONTINUOUS
 62
     7
 10
-251.8099208036282
 20
189.2889119254647
 30
0.0
 11
-251.8710088781635
 21
189.35
 31
0.0
  0
LINE
  5
34C
  8
1
  6
CONTINUOUS
 62
     7
 10
-251.8710088781635
 20
189.35
 30
0.0
 11
-251.8710088781635
 21
192.25
 31
0.0
  0
LINE
  5
34D
  8
1
  6
CONTINUOUS
 62
     7
 10
-251.8710088781635
 20
192.25
 30
0.0
 11
-251.8099208036282
 21
192.3110880745353
 31
0.0
  0
LINE
  5
34E
  8
1
  6
CONTINUOUS
 62
     7
 10
-251.8099208036282
 20
189.2889119254647
 30
0.0
 11
-251.8099208036282
 21
192.3110880745353
 31
0.0
  0
LINE
  5
34F
  8
1
  6
CONTINUOUS
 62
     7
 10
-251.8710088781635
 20
179.15
 30
0.0
 11
-251.8099208036282
 21
179.2110880745353
 31
0.0
  0
LINE
  5
350
  8
1
  6
CONTINUOUS
 62
     7
 10
-257.8622820103727
 20
179.15
 30
0.0
 11
-251.8710088781635
 21
179.15
 31
0.0
  0
LINE
  5
351
  8
1
  6
CONTINUOUS
 62
     7
 10
-257.8622820103727
 20
179.15
 30
0.0
 11
-257.8098446483066
 21
179.2024373620661
 31
0.0
  0
LINE
  5
352
  8
1
  6
CONTINUOUS
 62
     7
 10
-256.8098827252425
 20
179.2110880745353
 30
0.0
 11
-257.8098446483067
 21
179.2024373620661
 31
0.0
  0
LINE
  5
353
  8
1
  6
CONTINUOUS
 62
     7
 10
-251.8099208036282
 20
179.2110880745353
 30
0.0
 11
-256.8098827252425
 21
179.2110880745353
 31
0.0
  0
LINE
  5
354
  8
1
  6
CONTINUOUS
 62
     7
 10
-251.8710088781635
 20
176.25
 30
0.0
 11
-251.8710088781635
 21
179.15
 31
0.0
  0
LINE
  5
355
  8
1
  6
CONTINUOUS
 62
     7
 10
-251.8099208036282
 20
176.1889119254647
 30
0.0
 11
-251.8099208036282
 21
179.2110880745353
 31
0.0
  0
LINE
  5
356
  8
1
  6
CONTINUOUS
 62
     9
 10
-255.9321731080204
 20
154.3111642298568
 30
0.0
 11
-257.8098446483066
 21
154.3111642298568
 31
0.0
  0
LINE
  5
357
  8
1
  6
CONTINUOUS
 62
     7
 10
-257.8098446483066
 20
154.3111642298568
 30
0.0
 11
-257.8011939358374
 21
155.311126152921
 31
0.0
  0
LINE
  5
358
  8
1
  6
CONTINUOUS
 62
     9
 10
-257.8011939358374
 20
155.311126152921
 30
0.0
 11
-255.9408238204896
 21
155.311126152921
 31
0.0
  0
LINE
  5
359
  8
1
  6
CONTINUOUS
 62
     7
 10
-255.9408238204896
 20
155.311126152921
 30
0.0
 11
-255.9321731080204
 21
154.3111642298568
 31
0.0
  0
LINE
  5
35A
  8
1
  6
CONTINUOUS
 62
     7
 10
-255.9408238204896
 20
164.319814942326
 30
0.0
 11
-255.8710088781635
 21
164.25
 31
0.0
  0
LINE
  5
35B
  8
1
  6
CONTINUOUS
 62
     7
 10
-255.8710088781635
 20
154.25
 30
0.0
 11
-255.8710088781635
 21
164.25
 31
0.0
  0
LINE
  5
35C
  8
1
  6
CONTINUOUS
 62
     7
 10
-255.9321731080204
 20
154.3111642298568
 30
0.0
 11
-255.8710088781635
 21
154.25
 31
0.0
  0
LINE
  5
35D
  8
1
  6
CONTINUOUS
 62
     7
 10
-255.9408238204896
 20
164.319814942326
 30
0.0
 11
-255.9408238204896
 21
155.311126152921
 31
0.0
  0
LINE
  5
35E
  8
1
  6
CONTINUOUS
 62
     7
 10
-254.3011939358375
 20
164.319814942326
 30
0.0
 11
-255.9408238204896
 21
164.319814942326
 31
0.0
  0
LINE
  5
35F
  8
1
  6
CONTINUOUS
 62
     7
 10
-254.3011939358375
 20
164.319814942326
 30
0.0
 11
-254.3710088781635
 21
164.25
 31
0.0
  0
LINE
  5
360
  8
1
  6
CONTINUOUS
 62
     7
 10
-255.8710088781635
 20
164.25
 30
0.0
 11
-254.3710088781635
 21
164.25
 31
0.0
  0
LINE
  5
361
  8
1
  6
CONTINUOUS
 62
     7
 10
-251.8710088781635
 20
166.25
 30
0.0
 11
-251.8710088781635
 21
174.25
 31
0.0
  0
LINE
  5
362
  8
1
  6
CONTINUOUS
 62
     7
 10
-251.8099208036282
 20
166.1889119254647
 30
0.0
 11
-251.8099208036282
 21
174.3110880745353
 31
0.0
  0
LINE
  5
363
  8
1
  6
CONTINUOUS
 62
     7
 10
-211.6361014070005
 20
176.2150925288369
 30
0.0
 11
-211.6710088781635
 21
176.25
 31
0.0
  0
LINE
  5
364
  8
1
  6
CONTINUOUS
 62
     7
 10
-211.6361014070005
 20
176.2150925288369
 30
0.0
 11
-247.4059544262624
 21
176.2150925288369
 31
0.0
  0
LINE
  5
365
  8
1
  6
CONTINUOUS
 62
     9
 10
-247.3710469550994
 20
176.25
 30
0.0
 11
-247.4059544262624
 21
176.2150925288369
 31
0.0
  0
LINE
  5
366
  8
1
  6
CONTINUOUS
 62
     7
 10
-211.6710088781635
 20
176.25
 30
0.0
 11
-247.3710469550994
 21
176.25
 31
0.0
  0
LINE
  5
367
  8
1
  6
CONTINUOUS
 62
     7
 10
-250.5544361056542
 20
142.65
 30
0.0
 11
-250.3710088781635
 21
142.6805440372677
 31
0.0
  0
LINE
  5
368
  8
1
  6
CONTINUOUS
 62
     7
 10
-250.5544361056542
 20
138.25
 30
0.0
 11
-250.5932785336286
 21
138.3786030565973
 31
0.0
  0
ARC
  5
369
  8
1
  6
CONTINUOUS
 62
     7
 10
-224.7624576737343
 20
140.3691209198134
 30
0.0
 40
25.90740179291879
 50
175.0020234094644
 51
184.4064927909574
  0
LINE
  5
36A
  8
1
  6
CONTINUOUS
 62
     7
 10
-250.5713537059567
 20
142.6261883219225
 30
0.0
 11
-250.5544361056541
 21
142.65
 31
0.0
  0
LINE
  5
36B
  8
1
  6
CONTINUOUS
 62
     7
 10
-250.5544361056542
 20
138.25
 30
0.0
 11
-250.3710088781635
 21
138.2194559627324
 31
0.0
  0
LINE
  5
36C
  8
1
  6
CONTINUOUS
 62
     7
 10
-250.3710088781635
 20
137.941311210595
 30
0.0
 11
-250.3710088781635
 21
138.2194559627324
 31
0.0
  0
LINE
  5
36D
  8
1
  6
CONTINUOUS
 62
     7
 10
-250.4229593191003
 20
136.9413492875308
 30
0.0
 11
-250.3710088781635
 21
137.941311210595
 31
0.0
  0
LINE
  5
36E
  8
1
  6
CONTINUOUS
 62
     7
 10
-250.9217478989818
 20
136.8582917328754
 30
0.0
 11
-250.4229593191003
 21
136.9413492875308
 31
0.0
  0
LINE
  5
36F
  8
1
  6
CONTINUOUS
 62
     7
 10
-250.9736983399185
 20
135.8583298098113
 30
0.0
 11
-250.9217478989817
 21
136.8582917328754
 31
0.0
  0
LINE
  5
370
  8
1
  6
CONTINUOUS
 62
     7
 10
-250.9736983399185
 20
135.8583298098113
 30
0.0
 11
-250.9736983399185
 21
145.0416701901887
 31
0.0
  0
LINE
  5
371
  8
1
  6
CONTINUOUS
 62
     7
 10
-250.9217478989818
 20
144.0417082671245
 30
0.0
 11
-250.9736983399185
 21
145.0416701901887
 31
0.0
  0
LINE
  5
372
  8
1
  6
CONTINUOUS
 62
     7
 10
-250.4229593191003
 20
143.9586507124692
 30
0.0
 11
-250.9217478989818
 21
144.0417082671245
 31
0.0
  0
LINE
  5
373
  8
1
  6
CONTINUOUS
 62
     7
 10
-250.3710088781635
 20
142.958688789405
 30
0.0
 11
-250.4229593191003
 21
143.9586507124692
 31
0.0
  0
LINE
  5
374
  8
1
  6
CONTINUOUS
 62
     7
 10
-250.3710088781635
 20
142.6805440372677
 30
0.0
 11
-250.3710088781635
 21
142.958688789405
 31
0.0
  0
LINE
  5
375
  8
1
  6
CONTINUOUS
 62
     7
 10
-248.3710088781635
 20
143.9805440372677
 30
0.0
 11
-248.4321731080204
 21
144.0417082671245
 31
0.0
  0
LINE
  5
376
  8
1
  6
CONTINUOUS
 62
     7
 10
-248.4408238204896
 20
145.0416701901887
 30
0.0
 11
-248.4321731080204
 21
144.0417082671245
 31
0.0
  0
LINE
  5
377
  8
1
  6
CONTINUOUS
 62
     7
 10
-248.4408238204896
 20
171.3199291731335
 30
0.0
 11
-248.4408238204896
 21
145.0416701901887
 31
0.0
  0
LINE
  5
378
  8
1
  6
CONTINUOUS
 62
     9
 10
-248.3710088781635
 20
171.2501142308075
 30
0.0
 11
-248.4408238204896
 21
171.3199291731336
 31
0.0
  0
LINE
  5
379
  8
1
  6
CONTINUOUS
 62
     7
 10
-248.3710088781635
 20
143.9805440372677
 30
0.0
 11
-248.3710088781635
 21
171.2501142308075
 31
0.0
  0
LINE
  5
37A
  8
1
  6
CONTINUOUS
 62
     7
 10
-210.0708204621287
 20
178.7240078126626
 30
0.0
 11
-206.3450166908261
 21
178.7240078126626
 31
0.0
  0
LINE
  5
37B
  8
1
  6
CONTINUOUS
 62
     7
 10
-210.1059163493266
 20
178.6889119254647
 30
0.0
 11
-210.0708204621287
 21
178.7240078126626
 31
0.0
  0
LINE
  5
37C
  8
1
  6
CONTINUOUS
 62
     7
 10
-211.6361014070005
 20
178.6889119254647
 30
0.0
 11
-210.1059163493266
 21
178.6889119254647
 31
0.0
  0
LINE
  5
37D
  8
1
  6
CONTINUOUS
 62
     7
 10
-211.6361014070005
 20
178.6889119254647
 30
0.0
 11
-211.6711972941984
 21
178.7240078126626
 31
0.0
  0
LINE
  5
37E
  8
1
  6
CONTINUOUS
 62
     7
 10
-215.397001065501
 20
178.7240078126626
 30
0.0
 11
-211.6711972941984
 21
178.7240078126626
 31
0.0
  0
LINE
  5
37F
  8
1
  6
CONTINUOUS
 62
     7
 10
-215.3710088781635
 20
178.75
 30
0.0
 11
-215.397001065501
 21
178.7240078126625
 31
0.0
  0
LINE
  5
380
  8
1
  6
CONTINUOUS
 62
     7
 10
-215.3710088781635
 20
178.75
 30
0.0
 11
-214.9567953157905
 21
178.75
 31
0.0
  0
LINE
  5
381
  8
1
  6
CONTINUOUS
 62
     7
 10
-206.3710088781635
 20
178.75
 30
0.0
 11
-206.3450166908261
 21
178.7240078126625
 31
0.0
  0
LINE
  5
382
  8
1
  6
CONTINUOUS
 62
     9
 10
-257.8098446483066
 20
192.3024373620661
 30
0.0
 11
-257.8098446483066
 21
194.1888357701431
 31
0.0
  0
LINE
  5
383
  8
1
  6
CONTINUOUS
 62
     9
 10
-256.8098827252425
 20
194.1801850576739
 30
0.0
 11
-256.8098827252425
 21
192.3110880745353
 31
0.0
  0
LINE
  5
384
  8
1
  6
CONTINUOUS
 62
     7
 10
-256.8098827252425
 20
192.3110880745353
 30
0.0
 11
-257.8098446483067
 21
192.3024373620661
 31
0.0
  0
LINE
  5
385
  8
1
  6
CONTINUOUS
 62
     9
 10
-248.3653538101584
 20
193.2207856737779
 30
0.0
 11
-248.4059163493266
 21
193.1802231346097
 31
0.0
  0
LINE
  5
386
  8
1
  6
CONTINUOUS
 62
     7
 10
-248.3697928951049
 20
192.2165369764104
 30
0.0
 11
-248.3653538101585
 21
193.2207856737779
 31
0.0
  0
LINE
  5
387
  8
1
  6
CONTINUOUS
 62
     7
 10
-248.3709327170417
 20
177.250038084186
 30
0.0
 11
-248.3697928951049
 21
192.2165369764104
 31
0.0
  0
LINE
  5
388
  8
1
  6
CONTINUOUS
 62
     9
 10
-248.4059163493266
 20
177.2150544519011
 30
0.0
 11
-248.3709327170417
 21
177.250038084186
 31
0.0
  0
LINE
  5
389
  8
1
  6
CONTINUOUS
 62
     7
 10
-248.4059163493266
 20
193.1802231346097
 30
0.0
 11
-248.4059163493266
 21
177.2150544519011
 31
0.0
  0
LINE
  5
38A
  8
1
  6
CONTINUOUS
 62
     9
 10
-254.3011939358375
 20
163.7023992851303
 30
0.0
 11
-250.3099208036282
 21
163.7023992851303
 31
0.0
  0
LINE
  5
38B
  8
1
  6
CONTINUOUS
 62
     7
 10
-250.3099208036282
 20
163.7023992851303
 30
0.0
 11
-250.3185715160974
 21
162.7024373620661
 31
0.0
  0
LINE
  5
38C
  8
1
  6
CONTINUOUS
 62
     9
 10
-250.3185715160974
 20
162.7024373620661
 30
0.0
 11
-254.3098446483067
 21
162.7024373620661
 31
0.0
  0
LINE
  5
38D
  8
1
  6
CONTINUOUS
 62
     7
 10
-254.3098446483067
 20
162.7024373620661
 30
0.0
 11
-254.3011939358375
 21
163.7023992851303
 31
0.0
  0
LINE
  5
38E
  8
1
  6
CONTINUOUS
 62
     9
 10
-250.3099208036282
 20
145.5976007148697
 30
0.0
 11
-254.3011939358375
 21
145.5976007148697
 31
0.0
  0
LINE
  5
38F
  8
1
  6
CONTINUOUS
 62
     7
 10
-254.3011939358375
 20
145.5976007148697
 30
0.0
 11
-254.3098446483067
 21
146.5975626379339
 31
0.0
  0
LINE
  5
390
  8
1
  6
CONTINUOUS
 62
     9
 10
-254.3098446483067
 20
146.5975626379339
 30
0.0
 11
-250.3185715160974
 21
146.5975626379339
 31
0.0
  0
LINE
  5
391
  8
1
  6
CONTINUOUS
 62
     7
 10
-250.3185715160974
 20
146.5975626379339
 30
0.0
 11
-250.3099208036282
 21
145.5976007148697
 31
0.0
  0
LINE
  5
392
  8
1
  6
CONTINUOUS
 62
     7
 10
-251.8710088781635
 20
186.458483208526
 30
0.0
 11
-252.3710088781635
 21
186.458483208526
 31
0.0
  0
LINE
  5
393
  8
1
  6
CONTINUOUS
 62
     7
 10
-252.3710088781635
 20
186.458483208526
 30
0.0
 11
-252.3710088781635
 21
186.45
 31
0.0
  0
LINE
  5
394
  8
1
  6
CONTINUOUS
 62
     7
 10
-257.748832729093
 20
186.45
 30
0.0
 11
-252.3710088781635
 21
186.45
 31
0.0
  0
LINE
  5
395
  8
1
  6
CONTINUOUS
 62
     7
 10
-257.8710088781635
 20
186.5721761490706
 30
0.0
 11
-257.748832729093
 21
186.45
 31
0.0
  0
LINE
  5
396
  8
1
  6
CONTINUOUS
 62
     7
 10
-257.8098446483067
 20
186.6333403789275
 30
0.0
 11
-257.8710088781635
 21
186.5721761490706
 31
0.0
  0
LINE
  5
397
  8
1
  6
CONTINUOUS
 62
     7
 10
-256.8098827252425
 20
186.6419910913967
 30
0.0
 11
-257.8098446483067
 21
186.6333403789275
 31
0.0
  0
LINE
  5
398
  8
1
  6
CONTINUOUS
 62
     7
 10
-256.8098827252425
 20
186.6419910913967
 30
0.0
 11
-251.8710088781635
 21
186.6419910913967
 31
0.0
  0
LINE
  5
399
  8
1
  6
CONTINUOUS
 62
     7
 10
-257.8622820103727
 20
189.35
 30
0.0
 11
-251.8710088781635
 21
189.35
 31
0.0
  0
LINE
  5
39A
  8
1
  6
CONTINUOUS
 62
     7
 10
-256.8098827252425
 20
189.2889119254647
 30
0.0
 11
-251.8099208036282
 21
189.2889119254647
 31
0.0
  0
LINE
  5
39B
  8
1
  6
CONTINUOUS
 62
     7
 10
-257.8098446483067
 20
189.2975626379339
 30
0.0
 11
-256.8098827252425
 21
189.2889119254647
 31
0.0
  0
LINE
  5
39C
  8
1
  6
CONTINUOUS
 62
     7
 10
-257.8098446483066
 20
189.2975626379339
 30
0.0
 11
-257.8622820103727
 21
189.35
 31
0.0
  0
LINE
  5
39D
  8
1
  6
CONTINUOUS
 62
     9
 10
-250.9736983399185
 20
145.0416701901887
 30
0.0
 11
-248.4408238204896
 21
145.0416701901887
 31
0.0
  0
LINE
  5
39E
  8
1
  6
CONTINUOUS
 62
     9
 10
-248.4321731080204
 20
144.0417082671245
 30
0.0
 11
-250.9217478989817
 21
144.0417082671245
 31
0.0
  0
LINE
  5
39F
  8
1
  6
CONTINUOUS
 62
     7
 10
-160.9147203940937
 20
176.25
 30
0.0
 11
-200.5710088781635
 21
176.25
 31
0.0
  0
LINE
  5
3A0
  8
1
  6
CONTINUOUS
 62
     7
 10
-158.8970361389842
 20
176.2588802103424
 30
0.0
 11
-160.9147203940937
 21
176.25
 31
0.0
  0
LINE
  5
3A1
  8
1
  6
CONTINUOUS
 62
     7
 10
-158.9148716830821
 20
176.2410446662445
 30
0.0
 11
-158.8970361389842
 21
176.2588802103424
 31
0.0
  0
LINE
  5
3A2
  8
1
  6
CONTINUOUS
 62
     7
 10
-161.9147574522745
 20
176.2150925288369
 30
0.0
 11
-158.9148716830821
 21
176.2410446662445
 31
0.0
  0
LINE
  5
3A3
  8
1
  6
CONTINUOUS
 62
     7
 10
-161.9147574522745
 20
176.2150925288369
 30
0.0
 11
-200.6059163493265
 21
176.2150925288369
 31
0.0
  0
POLYLINE
  5
3A4
  8
1
  6
CONTINUOUS
 62
     7
 66
     1
 10
0.0
 20
0.0
 30
0.0
  0
VERTEX
  5
713
  8
1
  6
CONTINUOUS
 62
     7
 10
-245.4409380512971
 20
174.319814942326
 30
0.0
  0
VERTEX
  5
714
  8
1
  6
CONTINUOUS
 62
     7
 10
-246.0261989028034
 20
174.2621741598433
 30
0.0
  0
VERTEX
  5
715
  8
1
  6
CONTINUOUS
 62
     7
 10
-246.5889619027287
 20
174.091466701259
 30
0.0
  0
VERTEX
  5
716
  8
1
  6
CONTINUOUS
 62
     7
 10
-247.1076024747232
 20
173.8142521244547
 30
0.0
  0
VERTEX
  5
717
  8
1
  6
CONTINUOUS
 62
     7
 10
-247.5621914787251
 20
173.4411826005615
 30
0.0
  0
VERTEX
  5
718
  8
1
  6
CONTINUOUS
 62
     7
 10
-247.9352610026183
 20
172.9865935965597
 30
0.0
  0
VERTEX
  5
719
  8
1
  6
CONTINUOUS
 62
     7
 10
-248.2124755794225
 20
172.4679530245652
 30
0.0
  0
VERTEX
  5
71A
  8
1
  6
CONTINUOUS
 62
     7
 10
-248.3831830380068
 20
171.9051900246399
 30
0.0
  0
VERTEX
  5
71B
  8
1
  6
CONTINUOUS
 62
     7
 10
-248.4408238204896
 20
171.3199291731335
 30
0.0
  0
SEQEND
  5
A21
  8
1
  6
CONTINUOUS
 62
     7
  0
LINE
  5
3A5
  8
1
  6
CONTINUOUS
 62
     9
 10
-248.4408238204896
 20
135.8583298098113
 30
0.0
 11
-250.9736983399185
 21
135.8583298098113
 31
0.0
  0
LINE
  5
3A6
  8
1
  6
CONTINUOUS
 62
     7
 10
-248.4408238204896
 20
135.8583298098113
 30
0.0
 11
-248.4408238204896
 21
135.311126152921
 31
0.0
  0
LINE
  5
3A7
  8
1
  6
CONTINUOUS
 62
     9
 10
-254.3011939358375
 20
135.3111261529211
 30
0.0
 11
-248.4408238204896
 21
135.3111261529211
 31
0.0
  0
LINE
  5
3A8
  8
1
  6
CONTINUOUS
 62
     7
 10
-254.3011939358375
 20
135.3111261529211
 30
0.0
 11
-254.3011939358375
 21
145.5976007148697
 31
0.0
  0
LINE
  5
3A9
  8
1
  6
CONTINUOUS
 62
     7
 10
-250.3099208036282
 20
163.7023992851303
 30
0.0
 11
-250.3099208036282
 21
145.5976007148697
 31
0.0
  0
LINE
  5
3AA
  8
1
  6
CONTINUOUS
 62
     7
 10
-254.3011939358375
 20
163.7023992851303
 30
0.0
 11
-254.3011939358375
 21
164.319814942326
 31
0.0
  0
LINE
  5
3AB
  8
1
  6
CONTINUOUS
 62
     7
 10
-257.8011939358374
 20
155.311126152921
 30
0.0
 11
-257.8011939358374
 21
165.1889500024005
 31
0.0
  0
POLYLINE
  5
3AC
  8
1
  6
CONTINUOUS
 62
     7
 66
     1
 10
0.0
 20
0.0
 30
0.0
  0
VERTEX
  5
71C
  8
1
  6
CONTINUOUS
 62
     7
 10
-256.8012320127733
 20
166.1889119254647
 30
0.0
  0
VERTEX
  5
71D
  8
1
  6
CONTINUOUS
 62
     7
 10
-256.9963189632754
 20
166.1696983313037
 30
0.0
  0
VERTEX
  5
71E
  8
1
  6
CONTINUOUS
 62
     7
 10
-257.1839066299172
 20
166.112795845109
 30
0.0
  0
VERTEX
  5
71F
  8
1
  6
CONTINUOUS
 62
     7
 10
-257.356786820582
 20
166.0203909861742
 30
0.0
  0
VERTEX
  5
720
  8
1
  6
CONTINUOUS
 62
     7
 10
-257.5083164885826
 20
165.8960344782099
 30
0.0
  0
VERTEX
  5
721
  8
1
  6
CONTINUOUS
 62
     7
 10
-257.632672996547
 20
165.7445048102092
 30
0.0
  0
VERTEX
  5
722
  8
1
  6
CONTINUOUS
 62
     7
 10
-257.7250778554817
 20
165.5716246195444
 30
0.0
  0
VERTEX
  5
723
  8
1
  6
CONTINUOUS
 62
     7
 10
-257.7819803416765
 20
165.3840369529026
 30
0.0
  0
VERTEX
  5
724
  8
1
  6
CONTINUOUS
 62
     7
 10
-257.8011939358374
 20
165.1889500024005
 30
0.0
  0
SEQEND
  5
A22
  8
1
  6
CONTINUOUS
 62
     7
  0
LINE
  5
3AD
  8
1
  6
CONTINUOUS
 62
     9
 10
-256.8098827252425
 20
181.8580089086033
 30
0.0
 11
-256.8098827252425
 21
179.2110880745353
 31
0.0
  0
LINE
  5
3AE
  8
1
  6
CONTINUOUS
 62
     7
 10
-251.8710088781635
 20
181.8580089086033
 30
0.0
 11
-256.8098827252425
 21
181.8580089086033
 31
0.0
  0
LINE
  5
3AF
  8
1
  6
CONTINUOUS
 62
     7
 10
-251.8710088781635
 20
186.6419910913967
 30
0.0
 11
-251.8710088781635
 21
181.8580089086033
 31
0.0
  0
LINE
  5
3B0
  8
1
  6
CONTINUOUS
 62
     9
 10
-256.8098827252425
 20
189.2889119254647
 30
0.0
 11
-256.8098827252425
 21
186.6419910913967
 31
0.0
  0
LINE
  5
3B1
  8
1
  6
CONTINUOUS
 62
     7
 10
-251.8099208036282
 20
192.3110880745353
 30
0.0
 11
-256.8098827252425
 21
192.3110880745353
 31
0.0
  0
POLYLINE
  5
3B2
  8
1
  6
CONTINUOUS
 62
     7
 66
     1
 10
0.0
 20
0.0
 30
0.0
  0
VERTEX
  5
725
  8
1
  6
CONTINUOUS
 62
     7
 10
-248.4059163493266
 20
193.1802231346097
 30
0.0
  0
VERTEX
  5
726
  8
1
  6
CONTINUOUS
 62
     7
 10
-248.4251299434875
 20
193.3753100851119
 30
0.0
  0
VERTEX
  5
727
  8
1
  6
CONTINUOUS
 62
     7
 10
-248.4820324296822
 20
193.5628977517536
 30
0.0
  0
VERTEX
  5
728
  8
1
  6
CONTINUOUS
 62
     7
 10
-248.574437288617
 20
193.7357779424185
 30
0.0
  0
VERTEX
  5
729
  8
1
  6
CONTINUOUS
 62
     7
 10
-248.6987937965814
 20
193.8873076104191
 30
0.0
  0
VERTEX
  5
72A
  8
1
  6
CONTINUOUS
 62
     7
 10
-248.850323464582
 20
194.0116641183835
 30
0.0
  0
VERTEX
  5
72B
  8
1
  6
CONTINUOUS
 62
     7
 10
-249.0232036552468
 20
194.1040689773182
 30
0.0
  0
VERTEX
  5
72C
  8
1
  6
CONTINUOUS
 62
     7
 10
-249.2107913218886
 20
194.160971463513
 30
0.0
  0
VERTEX
  5
72D
  8
1
  6
CONTINUOUS
 62
     7
 10
-249.4058782723907
 20
194.1801850576739
 30
0.0
  0
SEQEND
  5
A23
  8
1
  6
CONTINUOUS
 62
     7
  0
POLYLINE
  5
3B3
  8
1
  6
CONTINUOUS
 62
     7
 66
     1
 10
0.0
 20
0.0
 30
0.0
  0
VERTEX
  5
72E
  8
1
  6
CONTINUOUS
 62
     7
 10
-248.4059163493266
 20
177.2150544519011
 30
0.0
  0
VERTEX
  5
72F
  8
1
  6
CONTINUOUS
 62
     7
 10
-248.3867027551656
 20
177.019967501399
 30
0.0
  0
VERTEX
  5
730
  8
1
  6
CONTINUOUS
 62
     7
 10
-248.3298002689709
 20
176.8323798347572
 30
0.0
  0
VERTEX
  5
731
  8
1
  6
CONTINUOUS
 62
     7
 10
-248.2373954100361
 20
176.6594996440924
 30
0.0
  0
VERTEX
  5
732
  8
1
  6
CONTINUOUS
 62
     7
 10
-248.1130389020717
 20
176.5079699760918
 30
0.0
  0
VERTEX
  5
733
  8
1
  6
CONTINUOUS
 62
     7
 10
-247.9615092340711
 20
176.3836134681274
 30
0.0
  0
VERTEX
  5
734
  8
1
  6
CONTINUOUS
 62
     7
 10
-247.7886290434063
 20
176.2912086091926
 30
0.0
  0
VERTEX
  5
735
  8
1
  6
CONTINUOUS
 62
     7
 10
-247.6010413767645
 20
176.2343061229979
 30
0.0
  0
VERTEX
  5
736
  8
1
  6
CONTINUOUS
 62
     7
 10
-247.4059544262624
 20
176.2150925288369
 30
0.0
  0
SEQEND
  5
A24
  8
1
  6
CONTINUOUS
 62
     7
  0
LINE
  5
3B4
  8
1
  6
CONTINUOUS
 62
     7
 10
-211.6361014070005
 20
176.2150925288369
 30
0.0
 11
-211.6361014070005
 21
178.6889119254647
 31
0.0
  0
LINE
  5
3B5
  8
1
  6
CONTINUOUS
 62
     7
 10
-210.1059163493266
 20
178.6889119254647
 30
0.0
 11
-210.1059163493266
 21
176.2150925288369
 31
0.0
  0
LINE
  5
3B6
  8
1
  6
CONTINUOUS
 62
     7
 10
-202.1361014070005
 20
176.2150925288369
 30
0.0
 11
-210.1059163493266
 21
176.2150925288369
 31
0.0
  0
LINE
  5
3B7
  8
1
  6
CONTINUOUS
 62
     9
 10
-200.6059163493265
 20
177.723781318242
 30
0.0
 11
-202.1361014070005
 21
177.723781318242
 31
0.0
  0
LINE
  5
3B8
  8
1
  6
CONTINUOUS
 62
     9
 10
-161.9147574522745
 20
174.3198149423261
 30
0.0
 11
-161.9147574522745
 21
176.2150925288369
 31
0.0
  0
LINE
  5
3B9
  8
1
  6
CONTINUOUS
 62
     7
 10
-245.4409380512971
 20
174.3198149423261
 30
0.0
 11
-161.9147574522746
 21
174.3198149423261
 31
0.0
  0
LINE
  5
3BA
  8
1
  6
CONTINUOUS
 62
     9
 10
-158.9148716830821
 20
176.2410446662445
 30
0.0
 11
-158.9148716830821
 21
174.2938628049185
 31
0.0
  0
LINE
  5
3BB
  8
1
  6
CONTINUOUS
 62
     7
 10
-158.9148716830821
 20
174.2938628049185
 30
0.0
 11
-161.9147574522746
 21
174.3198149423261
 31
0.0
  0
LINE
  5
3BC
  8
1
  6
CONTINUOUS
 62
     7
 10
-250.3710088781635
 20
146.65
 30
0.0
 11
-250.3185715160974
 21
146.5975626379339
 31
0.0
  0
LINE
  5
3BD
  8
1
  6
CONTINUOUS
 62
     7
 10
-250.3710088781635
 20
162.65
 30
0.0
 11
-250.3710088781635
 21
146.65
 31
0.0
  0
LINE
  5
3BE
  8
1
  6
CONTINUOUS
 62
     7
 10
-250.3185715160974
 20
162.7024373620661
 30
0.0
 11
-250.3710088781635
 21
162.65
 31
0.0
  0
LINE
  5
3BF
  8
1
  6
CONTINUOUS
 62
     7
 10
-257.748832729093
 20
182.05
 30
0.0
 11
-257.8710088781635
 21
181.9278238509294
 31
0.0
  0
LINE
  5
3C0
  8
1
  6
CONTINUOUS
 62
     7
 10
-257.748832729093
 20
182.05
 30
0.0
 11
-252.3710088781635
 21
182.05
 31
0.0
  0
LINE
  5
3C1
  8
1
  6
CONTINUOUS
 62
     7
 10
-252.3710088781635
 20
182.05
 30
0.0
 11
-252.3710088781635
 21
182.041516791474
 31
0.0
  0
LINE
  5
3C2
  8
1
  6
CONTINUOUS
 62
     7
 10
-252.3710088781635
 20
182.041516791474
 30
0.0
 11
-251.8710088781635
 21
182.041516791474
 31
0.0
  0
LINE
  5
3C3
  8
1
  6
CONTINUOUS
 62
     7
 10
-257.8098446483067
 20
181.8666596210725
 30
0.0
 11
-256.8098827252425
 21
181.8580089086033
 31
0.0
  0
LINE
  5
3C4
  8
1
  6
CONTINUOUS
 62
     7
 10
-257.8710088781635
 20
181.9278238509294
 30
0.0
 11
-257.8098446483067
 21
181.8666596210725
 31
0.0
  0
LINE
  5
3C5
  8
1
  6
CONTINUOUS
 62
     9
 10
-257.8098446483066
 20
179.2024373620661
 30
0.0
 11
-257.8098446483066
 21
181.8666596210725
 31
0.0
  0
LINE
  5
3C6
  8
1
  6
CONTINUOUS
 62
     7
 10
-257.8622820103727
 20
192.25
 30
0.0
 11
-251.8710088781635
 21
192.25
 31
0.0
  0
LINE
  5
3C7
  8
1
  6
CONTINUOUS
 62
     7
 10
-257.8622820103727
 20
192.25
 30
0.0
 11
-257.8098446483066
 21
192.3024373620661
 31
0.0
  0
LINE
  5
3C8
  8
1
  6
CONTINUOUS
 62
     7
 10
-210.1059163493266
 20
176.2150925288369
 30
0.0
 11
-210.0710088781636
 21
176.25
 31
0.0
  0
LINE
  5
3C9
  8
1
  6
CONTINUOUS
 62
     7
 10
-210.0708204621287
 20
178.7240078126626
 30
0.0
 11
-210.0710088781636
 21
176.25
 31
0.0
  0
LINE
  5
3CA
  8
1
  6
CONTINUOUS
 62
     7
 10
-211.6710088781635
 20
176.25
 30
0.0
 11
-211.6711972941984
 21
178.7240078126625
 31
0.0
  0
LINE
  5
3CB
  8
1
  6
CONTINUOUS
 62
     7
 10
-254.3622820103728
 20
162.65
 30
0.0
 11
-254.3622820103728
 21
146.65
 31
0.0
  0
LINE
  5
3CC
  8
1
  6
CONTINUOUS
 62
     7
 10
-254.3622820103728
 20
146.65
 30
0.0
 11
-254.3098446483067
 21
146.5975626379339
 31
0.0
  0
LINE
  5
3CD
  8
1
  6
CONTINUOUS
 62
     7
 10
-254.3098446483066
 20
134.3111642298569
 30
0.0
 11
-254.3011939358374
 21
135.3111261529211
 31
0.0
  0
LINE
  5
3CE
  8
1
  6
CONTINUOUS
 62
     7
 10
-254.3098446483066
 20
134.3111642298569
 30
0.0
 11
-254.3710088781635
 21
134.25
 31
0.0
  0
LINE
  5
3CF
  8
1
  6
CONTINUOUS
 62
     7
 10
-254.3710088781635
 20
138.25
 30
0.0
 11
-254.3710088781635
 21
134.25
 31
0.0
  0
LINE
  5
3D0
  8
1
  6
CONTINUOUS
 62
     7
 10
-254.3710088781635
 20
138.25
 30
0.0
 11
-254.3710088781635
 21
142.65
 31
0.0
  0
LINE
  5
3D1
  8
1
  6
CONTINUOUS
 62
     7
 10
-254.3710088781635
 20
164.25
 30
0.0
 11
-254.3710088781635
 21
142.65
 31
0.0
  0
LINE
  5
3D2
  8
1
  6
CONTINUOUS
 62
     7
 10
-254.3098446483067
 20
162.7024373620661
 30
0.0
 11
-254.3622820103728
 21
162.65
 31
0.0
  0
POLYLINE
  5
3D3
  8
1
  6
CONTINUOUS
 62
     7
 66
     1
 10
0.0
 20
0.0
 30
0.0
  0
VERTEX
  5
737
  8
1
  6
CONTINUOUS
 62
     7
 10
-248.3709327170417
 20
177.250038084186
 30
0.0
  0
VERTEX
  5
738
  8
1
  6
CONTINUOUS
 62
     7
 10
-248.3517339814875
 20
177.0549362750771
 30
0.0
  0
VERTEX
  5
739
  8
1
  6
CONTINUOUS
 62
     7
 10
-248.2948457827239
 20
176.8673343210042
 30
0.0
  0
VERTEX
  5
73A
  8
1
  6
CONTINUOUS
 62
     7
 10
-248.2024540910398
 20
176.6944409630887
 30
0.0
  0
VERTEX
  5
73B
  8
1
  6
CONTINUOUS
 62
     7
 10
-248.0781091241844
 20
176.5428997539792
 30
0.0
  0
VERTEX
  5
73C
  8
1
  6
CONTINUOUS
 62
     7
 10
-247.9265889276755
 20
176.418533774523
 30
0.0
  0
VERTEX
  5
73D
  8
1
  6
CONTINUOUS
 62
     7
 10
-247.7537157749364
 20
176.3261218776625
 30
0.0
  0
VERTEX
  5
73E
  8
1
  6
CONTINUOUS
 62
     7
 10
-247.5661324422168
 20
176.2692150575456
 30
0.0
  0
VERTEX
  5
73F
  8
1
  6
CONTINUOUS
 62
     7
 10
-247.3710469550993
 20
176.25
 30
0.0
  0
SEQEND
  5
A25
  8
1
  6
CONTINUOUS
 62
     7
  0
LINE
  5
3D4
  8
1
  6
CONTINUOUS
 62
     9
 10
-257.8011939358374
 20
165.1889500024005
 30
0.0
 11
-257.8622820103727
 21
165.2500380769358
 31
0.0
  0
POLYLINE
  5
3D5
  8
1
  6
CONTINUOUS
 62
     7
 66
     1
 10
0.0
 20
0.0
 30
0.0
  0
VERTEX
  5
740
  8
1
  6
CONTINUOUS
 62
     7
 10
-256.8623200873087
 20
166.25
 30
0.0
  0
VERTEX
  5
741
  8
1
  6
CONTINUOUS
 62
     7
 10
-257.0574070378107
 20
166.230786405839
 30
0.0
  0
VERTEX
  5
742
  8
1
  6
CONTINUOUS
 62
     7
 10
-257.2449947044525
 20
166.1738839196443
 30
0.0
  0
VERTEX
  5
743
  8
1
  6
CONTINUOUS
 62
     7
 10
-257.4178748951173
 20
166.0814790607095
 30
0.0
  0
VERTEX
  5
744
  8
1
  6
CONTINUOUS
 62
     7
 10
-257.5694045631179
 20
165.9571225527451
 30
0.0
  0
VERTEX
  5
745
  8
1
  6
CONTINUOUS
 62
     7
 10
-257.6937610710823
 20
165.8055928847445
 30
0.0
  0
VERTEX
  5
746
  8
1
  6
CONTINUOUS
 62
     7
 10
-257.786165930017
 20
165.6327126940797
 30
0.0
  0
VERTEX
  5
747
  8
1
  6
CONTINUOUS
 62
     7
 10
-257.8430684162118
 20
165.4451250274379
 30
0.0
  0
VERTEX
  5
748
  8
1
  6
CONTINUOUS
 62
     7
 10
-257.8622820103728
 20
165.2500380769358
 30
0.0
  0
SEQEND
  5
A26
  8
1
  6
CONTINUOUS
 62
     7
  0
LINE
  5
3D6
  8
1
  6
CONTINUOUS
 62
     7
 10
-202.1710088781635
 20
176.25
 30
0.0
 11
-210.0710088781636
 21
176.25
 31
0.0
  0
LINE
  5
3D7
  8
1
  6
CONTINUOUS
 62
     9
 10
-257.8098446483067
 20
186.6333403789275
 30
0.0
 11
-257.8098446483067
 21
189.2975626379339
 31
0.0
  0
LINE
  5
3D8
  8
1
  6
CONTINUOUS
 62
     7
 10
-257.8710088781635
 20
181.9278238509294
 30
0.0
 11
-257.8710088781635
 21
154.25
 31
0.0
  0
LINE
  5
3D9
  8
1
  6
CONTINUOUS
 62
     7
 10
-257.8622820103727
 20
176.25
 30
0.0
 11
-257.8622820103727
 21
179.15
 31
0.0
  0
LINE
  5
3DA
  8
1
  6
CONTINUOUS
 62
     7
 10
-257.8622820103727
 20
165.2500380769358
 30
0.0
 11
-257.8622820103727
 21
174.25
 31
0.0
  0
LINE
  5
3DB
  8
1
  6
CONTINUOUS
 62
     7
 10
-257.8098446483066
 20
154.3111642298568
 30
0.0
 11
-257.8710088781635
 21
154.25
 31
0.0
  0
LINE
  5
3DC
  8
1
  6
CONTINUOUS
 62
     7
 10
-158.8710088781635
 20
174.25
 30
0.0
 11
-161.6210118071042
 21
174.25
 31
0.0
  0
LINE
  5
3DD
  8
1
  6
CONTINUOUS
 62
     9
 10
-164.7782770954394
 20
174.2783126950872
 30
0.0
 11
-161.6210118071042
 21
174.25
 31
0.0
  0
LINE
  5
3DE
  8
1
  6
CONTINUOUS
 62
     9
 10
-164.7767932899644
 20
174.25
 30
0.0
 11
-164.7782770954394
 21
174.2783126950872
 31
0.0
  0
LINE
  5
3DF
  8
1
  6
CONTINUOUS
 62
     7
 10
-164.7767932899644
 20
174.25
 30
0.0
 11
-164.9652244663627
 21
174.25
 31
0.0
  0
LINE
  5
3E0
  8
1
  6
CONTINUOUS
 62
     9
 10
-164.9637406608877
 20
174.2783126950872
 30
0.0
 11
-164.9652244663627
 21
174.25
 31
0.0
  0
LINE
  5
3E1
  8
1
  6
CONTINUOUS
 62
     9
 10
-168.1210059492229
 20
174.25
 30
0.0
 11
-164.9637406608877
 21
174.2783126950872
 31
0.0
  0
LINE
  5
3E2
  8
1
  6
CONTINUOUS
 62
     7
 10
-168.1210059492229
 20
174.25
 30
0.0
 11
-199.6210118071042
 21
174.25
 31
0.0
  0
LINE
  5
3E3
  8
1
  6
CONTINUOUS
 62
     9
 10
-202.7782770954394
 20
174.2783126950872
 30
0.0
 11
-199.6210118071042
 21
174.25
 31
0.0
  0
LINE
  5
3E4
  8
1
  6
CONTINUOUS
 62
     9
 10
-202.7767932899643
 20
174.25
 30
0.0
 11
-202.7782770954394
 21
174.2783126950872
 31
0.0
  0
LINE
  5
3E5
  8
1
  6
CONTINUOUS
 62
     7
 10
-202.7767932899643
 20
174.25
 30
0.0
 11
-202.9652244663627
 21
174.25
 31
0.0
  0
LINE
  5
3E6
  8
1
  6
CONTINUOUS
 62
     9
 10
-202.9637406608877
 20
174.2783126950872
 30
0.0
 11
-202.9652244663627
 21
174.25
 31
0.0
  0
LINE
  5
3E7
  8
1
  6
CONTINUOUS
 62
     9
 10
-206.1210059492229
 20
174.25
 30
0.0
 11
-202.9637406608877
 21
174.2783126950872
 31
0.0
  0
LINE
  5
3E8
  8
1
  6
CONTINUOUS
 62
     7
 10
-206.1210059492229
 20
174.25
 30
0.0
 11
-245.371123108971
 21
174.25
 31
0.0
  0
LINE
  5
3E9
  8
1
  6
CONTINUOUS
 62
     9
 10
-245.4409380512971
 20
174.3198149423261
 30
0.0
 11
-245.371123108971
 21
174.25
 31
0.0
  0
LINE
  5
3EA
  8
1
  6
CONTINUOUS
 62
     7
 10
-158.9148716830821
 20
174.2938628049185
 30
0.0
 11
-158.8710088781636
 21
174.25
 31
0.0
  0
LINE
  5
3EB
  8
1
  6
CONTINUOUS
 62
     9
 10
-250.9217478989818
 20
136.8582917328754
 30
0.0
 11
-248.4321731080205
 21
136.8582917328754
 31
0.0
  0
LINE
  5
3EC
  8
1
  6
CONTINUOUS
 62
     7
 10
-248.4321731080204
 20
136.8582917328754
 30
0.0
 11
-248.4408238204896
 21
135.8583298098113
 31
0.0
  0
POLYLINE
  5
3ED
  8
1
  6
CONTINUOUS
 62
     7
 66
     1
 10
0.0
 20
0.0
 30
0.0
  0
VERTEX
  5
749
  8
1
  6
CONTINUOUS
 62
     7
 10
-245.371123108971
 20
174.25
 30
0.0
  0
VERTEX
  5
74A
  8
1
  6
CONTINUOUS
 62
     7
 10
-245.9563839604774
 20
174.1923592175172
 30
0.0
  0
VERTEX
  5
74B
  8
1
  6
CONTINUOUS
 62
     7
 10
-246.5191469604027
 20
174.0216517589329
 30
0.0
  0
VERTEX
  5
74C
  8
1
  6
CONTINUOUS
 62
     7
 10
-247.0377875323971
 20
173.7444371821286
 30
0.0
  0
VERTEX
  5
74D
  8
1
  6
CONTINUOUS
 62
     7
 10
-247.492376536399
 20
173.3713676582354
 30
0.0
  0
VERTEX
  5
74E
  8
1
  6
CONTINUOUS
 62
     7
 10
-247.8654460602922
 20
172.9167786542336
 30
0.0
  0
VERTEX
  5
74F
  8
1
  6
CONTINUOUS
 62
     7
 10
-248.1426606370964
 20
172.3981380822391
 30
0.0
  0
VERTEX
  5
750
  8
1
  6
CONTINUOUS
 62
     7
 10
-248.3133680956807
 20
171.8353750823138
 30
0.0
  0
VERTEX
  5
751
  8
1
  6
CONTINUOUS
 62
     7
 10
-248.3710088781635
 20
171.2501142308075
 30
0.0
  0
SEQEND
  5
A27
  8
1
  6
CONTINUOUS
 62
     7
  0
LINE
  5
3EE
  8
1
  6
CONTINUOUS
 62
     9
 10
-248.4321731080204
 20
134.3111642298569
 30
0.0
 11
-254.3098446483067
 21
134.3111642298569
 31
0.0
  0
LINE
  5
3EF
  8
1
  6
CONTINUOUS
 62
     7
 10
-248.4408238204896
 20
135.3111261529211
 30
0.0
 11
-248.4321731080204
 21
134.3111642298569
 31
0.0
  0
LINE
  5
3F0
  8
1
  6
CONTINUOUS
 62
     7
 10
-248.3710088781635
 20
134.25
 30
0.0
 11
-248.3710088781635
 21
136.9194559627323
 31
0.0
  0
LINE
  5
3F1
  8
1
  6
CONTINUOUS
 62
     7
 10
-248.4321731080204
 20
134.3111642298569
 30
0.0
 11
-248.3710088781635
 21
134.25
 31
0.0
  0
LINE
  5
3F2
  8
1
  6
CONTINUOUS
 62
     7
 10
-248.4321731080204
 20
136.8582917328755
 30
0.0
 11
-248.3710088781635
 21
136.9194559627323
 31
0.0
  0
POLYLINE
  5
3F3
  8
1
  6
CONTINUOUS
 62
     7
 66
     1
 10
0.0
 20
0.0
 30
0.0
  0
VERTEX
  5
752
  8
1
  6
CONTINUOUS
 62
     7
 10
-248.3653538101585
 20
193.2207856737779
 30
0.0
  0
VERTEX
  5
753
  8
1
  6
CONTINUOUS
 62
     7
 10
-248.3837012318657
 20
193.4167387967337
 30
0.0
  0
VERTEX
  5
754
  8
1
  6
CONTINUOUS
 62
     7
 10
-248.4397708419041
 20
193.6051593395319
 30
0.0
  0
VERTEX
  5
755
  8
1
  6
CONTINUOUS
 62
     7
 10
-248.53140812485
 20
193.7788071061855
 30
0.0
  0
VERTEX
  5
756
  8
1
  6
CONTINUOUS
 62
     7
 10
-248.655091851657
 20
193.9310095553435
 30
0.0
  0
VERTEX
  5
757
  8
1
  6
CONTINUOUS
 62
     7
 10
-248.8060693854356
 20
194.0559181975299
 30
0.0
  0
VERTEX
  5
758
  8
1
  6
CONTINUOUS
 62
     7
 10
-248.9785393049717
 20
194.1487333275934
 30
0.0
  0
VERTEX
  5
759
  8
1
  6
CONTINUOUS
 62
     7
 10
-249.1658743285435
 20
194.2058884568582
 30
0.0
  0
VERTEX
  5
75A
  8
1
  6
CONTINUOUS
 62
     7
 10
-249.3608759720275
 20
194.2251873580371
 30
0.0
  0
SEQEND
  5
A28
  8
1
  6
CONTINUOUS
 62
     7
  0
LINE
  5
3F4
  8
1
  6
CONTINUOUS
 62
     9
 10
-202.1447521194697
 20
178.7237432413062
 30
0.0
 11
-200.5972656368574
 21
178.7237432413062
 31
0.0
  0
LINE
  5
3F5
  8
1
  6
CONTINUOUS
 62
     7
 10
-248.392902202962
 20
143.9586507124692
 30
0.0
 11
-248.3710088781635
 21
143.9805440372677
 31
0.0
  0
LINE
  5
3F6
  8
1
  6
CONTINUOUS
 62
     9
 10
-250.4229593191003
 20
143.9586507124692
 30
0.0
 11
-248.392902202962
 21
143.9586507124692
 31
0.0
  0
LINE
  5
3F7
  8
1
  6
CONTINUOUS
 62
     9
 10
-248.392902202962
 20
136.9413492875308
 30
0.0
 11
-250.4229593191003
 21
136.9413492875308
 31
0.0
  0
LINE
  5
3F8
  8
1
  6
CONTINUOUS
 62
     7
 10
-248.3710088781635
 20
136.9194559627323
 30
0.0
 11
-248.392902202962
 21
136.9413492875308
 31
0.0
  0
LINE
  5
3F9
  8
1
  6
CONTINUOUS
 62
     7
 10
-257.8710088781635
 20
194.25
 30
0.0
 11
-257.8710088781635
 21
186.5721761490706
 31
0.0
  0
LINE
  5
3FA
  8
1
  6
CONTINUOUS
 62
     7
 10
-257.8622820103727
 20
189.35
 30
0.0
 11
-257.8622820103727
 21
192.25
 31
0.0
  0
LINE
  5
3FB
  8
1
  6
CONTINUOUS
 62
     7
 10
-257.8710088781635
 20
154.25
 30
0.0
 11
-255.8710088781635
 21
154.25
 31
0.0
  0
LINE
  5
3FC
  8
1
  6
CONTINUOUS
 62
     7
 10
-254.3622820103728
 20
162.65
 30
0.0
 11
-250.3710088781635
 21
162.65
 31
0.0
  0
LINE
  5
3FD
  8
1
  6
CONTINUOUS
 62
     7
 10
-254.3710088781635
 20
134.25
 30
0.0
 11
-248.3710088781635
 21
134.25
 31
0.0
  0
LINE
  5
3FE
  8
1
  6
CONTINUOUS
 62
     7
 10
-254.3622820103728
 20
146.65
 30
0.0
 11
-250.3710088781635
 21
146.65
 31
0.0
  0
LINE
  5
3FF
  8
1
  6
CONTINUOUS
 62
     7
 10
-158.8710088781635
 20
174.25
 30
0.0
 11
-158.8710088781635
 21
186.2503046154866
 31
0.0
  0
LINE
  5
400
  8
1
  6
CONTINUOUS
 62
     7
 10
-158.8962771342573
 20
186.2250363593928
 30
0.0
 11
-158.8970361389842
 21
176.2588802103424
 31
0.0
  0
LINE
  5
401
  8
1
  6
CONTINUOUS
 62
     9
 10
-158.8710088781635
 20
186.2503046154866
 30
0.0
 11
-158.8962771342573
 21
186.2250363593928
 31
0.0
  0
LINE
  5
402
  8
1
  6
CONTINUOUS
 62
     7
 10
-160.9147203940937
 20
176.25
 30
0.0
 11
-160.9139600251659
 21
186.2340688686747
 31
0.0
  0
LINE
  5
403
  8
1
  6
CONTINUOUS
 62
     7
 10
-158.8962771342573
 20
186.2250363593928
 30
0.0
 11
-160.9139600251659
 21
186.2340688686748
 31
0.0
  0
ARC
  5
404
  8
1
  6
CONTINUOUS
 62
     7
 10
-166.8957863400759
 20
186.2256781310125
 30
0.0
 40
7.99950923156212
 50
359.9954033673578
 51
89.99807019244567
  0
ARC
  5
405
  8
1
  6
CONTINUOUS
 62
     7
 10
-166.8955560248502
 20
186.2349409132872
 30
0.0
 40
5.981596063251083
 50
359.9916469658781
 51
89.99962528012117
  0
LINE
  5
406
  8
1
  6
CONTINUOUS
 62
     7
 10
-166.8955169046398
 20
194.2251873580371
 30
0.0
 11
-166.8955169046398
 21
192.2165369764104
 31
0.0
  0
LINE
  5
407
  8
1
  6
CONTINUOUS
 62
     7
 10
-206.3450166908261
 20
178.7240078126626
 30
0.0
 11
-206.3450186703449
 21
178.75
 31
0.0
  0
LINE
  5
408
  8
1
  6
CONTINUOUS
 62
     7
 10
-202.3450166908261
 20
178.7240078126626
 30
0.0
 11
-205.4180503628241
 21
178.7240078126626
 31
0.0
  0
LINE
  5
409
  8
1
  6
CONTINUOUS
 62
     7
 10
-202.3450186703448
 20
178.75
 30
0.0
 11
-202.3450166908261
 21
178.7240078126626
 31
0.0
  0
LINE
  5
40A
  8
1
  6
CONTINUOUS
 62
     7
 10
-200.397001065501
 20
178.7240078126626
 30
0.0
 11
-200.3969990859822
 21
178.75
 31
0.0
  0
LINE
  5
40B
  8
1
  6
CONTINUOUS
 62
     7
 10
-195.8362898230353
 20
178.7240078126626
 30
0.0
 11
-200.397001065501
 21
178.7240078126626
 31
0.0
  0
LINE
  5
40C
  8
1
  6
CONTINUOUS
 62
     7
 10
-195.8362898230353
 20
178.7240078126626
 30
0.0
 11
-195.8362918025541
 21
178.75
 31
0.0
  0
LINE
  5
40D
  8
1
  6
CONTINUOUS
 62
     7
 10
-166.8955169046398
 20
192.2165369764104
 30
0.0
 11
-175.3710088781635
 21
192.2165369764104
 31
0.0
  0
CIRCLE
  5
40E
  8
1
  6
CONTINUOUS
 62
     7
 10
-166.8710088781635
 20
187.25
 30
0.0
 40
2.649999999999999
  0
LINE
  5
40F
  8
1
  6
CONTINUOUS
 62
     7
 10
-183.8141148127688
 20
178.7501904100549
 30
0.0
 11
-161.7211802497505
 21
178.7501904100549
 31
0.0
  0
POLYLINE
  5
410
  8
1
  6
CONTINUOUS
 62
     7
 66
     1
 10
0.0
 20
0.0
 30
0.0
  0
VERTEX
  5
75B
  8
1
  6
CONTINUOUS
 62
     7
 10
-161.2212373687794
 20
179.2502094521479
 30
0.0
  0
VERTEX
  5
75C
  8
1
  6
CONTINUOUS
 62
     7
 10
-161.2218377366519
 20
179.225674046629
 30
0.0
  0
VERTEX
  5
75D
  8
1
  6
CONTINUOUS
 62
     7
 10
-161.2236411312238
 20
179.2011978350517
 30
0.0
  0
VERTEX
  5
75E
  8
1
  6
CONTINUOUS
 62
     7
 10
-161.2266432083805
 20
179.1768397770375
 30
0.0
  0
VERTEX
  5
75F
  8
1
  6
CONTINUOUS
 62
     7
 10
-161.2308367365564
 20
179.1526585475935
 30
0.0
  0
VERTEX
  5
760
  8
1
  6
CONTINUOUS
 62
     7
 10
-161.2362116141542
 20
179.128712395772
 30
0.0
  0
VERTEX
  5
761
  8
1
  6
CONTINUOUS
 62
     7
 10
-161.2427548938781
 20
179.1050590043582
 30
0.0
  0
VERTEX
  5
762
  8
1
  6
CONTINUOUS
 62
     7
 10
-161.2504508139221
 20
179.0817553509198
 30
0.0
  0
VERTEX
  5
763
  8
1
  6
CONTINUOUS
 62
     7
 10
-161.2592808359382
 20
179.058857570557
 30
0.0
  0
VERTEX
  5
764
  8
1
  6
CONTINUOUS
 62
     7
 10
-161.269223689692
 20
179.0364208206809
 30
0.0
  0
VERTEX
  5
765
  8
1
  6
CONTINUOUS
 62
     7
 10
-161.2802554242998
 20
179.0144991481474
 30
0.0
  0
VERTEX
  5
766
  8
1
  6
CONTINUOUS
 62
     7
 10
-161.2923494659229
 20
178.9931453590664
 30
0.0
  0
VERTEX
  5
767
  8
1
  6
CONTINUOUS
 62
     7
 10
-161.3054766817803
 20
178.9724108915993
 30
0.0
  0
VERTEX
  5
768
  8
1
  6
CONTINUOUS
 62
     7
 10
-161.3196054503246
 20
178.9523456920521
 30
0.0
  0
VERTEX
  5
769
  8
1
  6
CONTINUOUS
 62
     7
 10
-161.3347017374146
 20
178.9329980945622
 30
0.0
  0
VERTEX
  5
76A
  8
1
  6
CONTINUOUS
 62
     7
 10
-161.3507291782977
 20
178.9144147046682
 30
0.0
  0
VERTEX
  5
76B
  8
1
  6
CONTINUOUS
 62
     7
 10
-161.367649165208
 20
178.8966402870445
 30
0.0
  0
VERTEX
  5
76C
  8
1
  6
CONTINUOUS
 62
     7
 10
-161.3854209403664
 20
178.8797176576687
 30
0.0
  0
VERTEX
  5
76D
  8
1
  6
CONTINUOUS
 62
     7
 10
-161.4040016941603
 20
178.8636875806855
 30
0.0
  0
VERTEX
  5
76E
  8
1
  6
CONTINUOUS
 62
     7
 10
-161.4233466682654
 20
178.8485886702109
 30
0.0
  0
VERTEX
  5
76F
  8
1
  6
CONTINUOUS
 62
     7
 10
-161.4434092634624
 20
178.8344572973164
 30
0.0
  0
VERTEX
  5
770
  8
1
  6
CONTINUOUS
 62
     7
 10
-161.4641411518876
 20
178.821327502417
 30
0.0
  0
VERTEX
  5
771
  8
1
  6
CONTINUOUS
 62
     7
 10
-161.4854923934473
 20
178.8092309132725
 30
0.0
  0
VERTEX
  5
772
  8
1
  6
CONTINUOUS
 62
     7
 10
-161.5074115561167
 20
178.7981966688007
 30
0.0
  0
VERTEX
  5
773
  8
1
  6
CONTINUOUS
 62
     7
 10
-161.529845839832
 20
178.7882513488861
 30
0.0
  0
VERTEX
  5
774
  8
1
  6
CONTINUOUS
 62
     7
 10
-161.5527412036777
 20
178.779418910353
 30
0.0
  0
VERTEX
  5
775
  8
1
  6
CONTINUOUS
 62
     7
 10
-161.5760424960639
 20
178.7717206292567
 30
0.0
  0
VERTEX
  5
776
  8
1
  6
CONTINUOUS
 62
     7
 10
-161.5996935875779
 20
178.7651750496329
 30
0.0
  0
VERTEX
  5
777
  8
1
  6
CONTINUOUS
 62
     7
 10
-161.6236375061918
 20
178.7597979388277
 30
0.0
  0
VERTEX
  5
778
  8
1
  6
CONTINUOUS
 62
     7
 10
-161.6478165745002
 20
178.755602249516
 30
0.0
  0
VERTEX
  5
779
  8
1
  6
CONTINUOUS
 62
     7
 10
-161.6721725486564
 20
178.7525980885014
 30
0.0
  0
VERTEX
  5
77A
  8
1
  6
CONTINUOUS
 62
     7
 10
-161.6966467586732
 20
178.750792692369
 30
0.0
  0
VERTEX
  5
77B
  8
1
  6
CONTINUOUS
 62
     7
 10
-161.7211802497505
 20
178.7501904100549
 30
0.0
  0
SEQEND
  5
A29
  8
1
  6
CONTINUOUS
 62
     7
  0
LINE
  5
411
  8
1
  6
CONTINUOUS
 62
     7
 10
-161.2212373687794
 20
179.2502094521479
 30
0.0
 11
-161.2215904651613
 21
183.886562235335
 31
0.0
  0
POLYLINE
  5
412
  8
1
  6
CONTINUOUS
 62
     7
 66
     1
 10
0.0
 20
0.0
 30
0.0
  0
VERTEX
  5
77C
  8
1
  6
CONTINUOUS
 62
     7
 10
-162.1401883558861
 20
184.1599118583213
 30
0.0
  0
VERTEX
  5
77D
  8
1
  6
CONTINUOUS
 62
     7
 10
-162.1284633371696
 20
184.1770677215607
 30
0.0
  0
VERTEX
  5
77E
  8
1
  6
CONTINUOUS
 62
     7
 10
-162.1160251342903
 20
184.1937362312331
 30
0.0
  0
VERTEX
  5
77F
  8
1
  6
CONTINUOUS
 62
     7
 10
-162.1029067864438
 20
184.2098749528911
 30
0.0
  0
VERTEX
  5
780
  8
1
  6
CONTINUOUS
 62
     7
 10
-162.0891413328255
 20
184.2254414520877
 30
0.0
  0
VERTEX
  5
781
  8
1
  6
CONTINUOUS
 62
     7
 10
-162.0743111818966
 20
184.240846342493
 30
0.0
  0
VERTEX
  5
782
  8
1
  6
CONTINUOUS
 62
     7
 10
-162.0588219631489
 20
184.2556168405296
 30
0.0
  0
VERTEX
  5
783
  8
1
  6
CONTINUOUS
 62
     7
 10
-162.0427169311553
 20
184.2697133954864
 30
0.0
  0
VERTEX
  5
784
  8
1
  6
CONTINUOUS
 62
     7
 10
-162.0260393404884
 20
184.2830964566521
 30
0.0
  0
VERTEX
  5
785
  8
1
  6
CONTINUOUS
 62
     7
 10
-162.0092965277107
 20
184.2954045887394
 30
0.0
  0
VERTEX
  5
786
  8
1
  6
CONTINUOUS
 62
     7
 10
-161.9920419557074
 20
184.3070166656021
 30
0.0
  0
VERTEX
  5
787
  8
1
  6
CONTINUOUS
 62
     7
 10
-161.9743208585582
 20
184.3179035597176
 30
0.0
  0
VERTEX
  5
788
  8
1
  6
CONTINUOUS
 62
     7
 10
-161.9561784703429
 20
184.3280361435634
 30
0.0
  0
VERTEX
  5
789
  8
1
  6
CONTINUOUS
 62
     7
 10
-161.9370845775073
 20
184.3376637499532
 30
0.0
  0
VERTEX
  5
78A
  8
1
  6
CONTINUOUS
 62
     7
 10
-161.9175786764558
 20
184.3464743671106
 30
0.0
  0
VERTEX
  5
78B
  8
1
  6
CONTINUOUS
 62
     7
 10
-161.8977147004609
 20
184.3544449746057
 30
0.0
  0
VERTEX
  5
78C
  8
1
  6
CONTINUOUS
 62
     7
 10
-161.8775465827949
 20
184.361552552009
 30
0.0
  0
VERTEX
  5
78D
  8
1
  6
CONTINUOUS
 62
     7
 10
-161.8576761186146
 20
184.3676230310207
 30
0.0
  0
VERTEX
  5
78E
  8
1
  6
CONTINUOUS
 62
     7
 10
-161.8375532140625
 20
184.3728673432331
 30
0.0
  0
VERTEX
  5
78F
  8
1
  6
CONTINUOUS
 62
     7
 10
-161.8172301970677
 20
184.3772729775466
 30
0.0
  0
VERTEX
  5
790
  8
1
  6
CONTINUOUS
 62
     7
 10
-161.796759395559
 20
184.3808274228616
 30
0.0
  0
VERTEX
  5
791
  8
1
  6
CONTINUOUS
 62
     7
 10
-161.7755579293471
 20
184.3835904184733
 30
0.0
  0
VERTEX
  5
792
  8
1
  6
CONTINUOUS
 62
     7
 10
-161.7542381912154
 20
184.385446152514
 30
0.0
  0
VERTEX
  5
793
  8
1
  6
CONTINUOUS
 62
     7
 10
-161.7328586961868
 20
184.3863907639575
 30
0.0
  0
VERTEX
  5
794
  8
1
  6
CONTINUOUS
 62
     7
 10
-161.7114779592838
 20
184.3864203917776
 30
0.0
  0
VERTEX
  5
795
  8
1
  6
CONTINUOUS
 62
     7
 10
-161.6907232692473
 20
184.385570143233
 30
0.0
  0
VERTEX
  5
796
  8
1
  6
CONTINUOUS
 62
     7
 10
-161.670003908814
 20
184.3838569824481
 30
0.0
  0
VERTEX
  5
797
  8
1
  6
CONTINUOUS
 62
     7
 10
-161.6493733784142
 20
184.3812864368276
 30
0.0
  0
VERTEX
  5
798
  8
1
  6
CONTINUOUS
 62
     7
 10
-161.628885178478
 20
184.377864033776
 30
0.0
  0
VERTEX
  5
799
  8
1
  6
CONTINUOUS
 62
     7
 10
-161.6079697354348
 20
184.3734532368459
 30
0.0
  0
VERTEX
  5
79A
  8
1
  6
CONTINUOUS
 62
     7
 10
-161.5872430127282
 20
184.3681474891744
 30
0.0
  0
VERTEX
  5
79B
  8
1
  6
CONTINUOUS
 62
     7
 10
-161.5667614735393
 20
184.3619625275254
 30
0.0
  0
VERTEX
  5
79C
  8
1
  6
CONTINUOUS
 62
     7
 10
-161.5465815810491
 20
184.3549140886627
 30
0.0
  0
VERTEX
  5
79D
  8
1
  6
CONTINUOUS
 62
     7
 10
-161.5272820187741
 20
184.3472423009882
 30
0.0
  0
VERTEX
  5
79E
  8
1
  6
CONTINUOUS
 62
     7
 10
-161.5083013991621
 20
184.3387681624401
 30
0.0
  0
VERTEX
  5
79F
  8
1
  6
CONTINUOUS
 62
     7
 10
-161.4896883500128
 20
184.3295146063235
 30
0.0
  0
VERTEX
  5
7A0
  8
1
  6
CONTINUOUS
 62
     7
 10
-161.4714914991262
 20
184.3195045659437
 30
0.0
  0
VERTEX
  5
7A1
  8
1
  6
CONTINUOUS
 62
     7
 10
-161.4532188040996
 20
184.3084208210012
 30
0.0
  0
VERTEX
  5
7A2
  8
1
  6
CONTINUOUS
 62
     7
 10
-161.4354202983035
 20
184.2965553348577
 30
0.0
  0
VERTEX
  5
7A3
  8
1
  6
CONTINUOUS
 62
     7
 10
-161.4181440135272
 20
184.2839416439206
 30
0.0
  0
VERTEX
  5
7A4
  8
1
  6
CONTINUOUS
 62
     7
 10
-161.4014379815598
 20
184.2706132845973
 30
0.0
  0
VERTEX
  5
7A5
  8
1
  6
CONTINUOUS
 62
     7
 10
-161.3857662963017
 20
184.2569861663021
 30
0.0
  0
VERTEX
  5
7A6
  8
1
  6
CONTINUOUS
 62
     7
 10
-161.3706610993776
 20
184.2427075807239
 30
0.0
  0
VERTEX
  5
7A7
  8
1
  6
CONTINUOUS
 62
     7
 10
-161.3561606644624
 20
184.2278152651866
 30
0.0
  0
VERTEX
  5
7A8
  8
1
  6
CONTINUOUS
 62
     7
 10
-161.3423032652307
 20
184.2123469570144
 30
0.0
  0
VERTEX
  5
7A9
  8
1
  6
CONTINUOUS
 62
     7
 10
-161.3287297012073
 20
184.1958406293334
 30
0.0
  0
VERTEX
  5
7AA
  8
1
  6
CONTINUOUS
 62
     7
 10
-161.3158622036183
 20
184.1787536962038
 30
0.0
  0
VERTEX
  5
7AB
  8
1
  6
CONTINUOUS
 62
     7
 10
-161.303734970657
 20
184.1611336883614
 30
0.0
  0
VERTEX
  5
7AC
  8
1
  6
CONTINUOUS
 62
     7
 10
-161.2923822005164
 20
184.1430281365423
 30
0.0
  0
VERTEX
  5
7AD
  8
1
  6
CONTINUOUS
 62
     7
 10
-161.2821025190223
 20
184.1249800634027
 30
0.0
  0
VERTEX
  5
7AE
  8
1
  6
CONTINUOUS
 62
     7
 10
-161.2725730623809
 20
184.1065046897211
 30
0.0
  0
VERTEX
  5
7AF
  8
1
  6
CONTINUOUS
 62
     7
 10
-161.2638174493883
 20
184.0876502943711
 30
0.0
  0
VERTEX
  5
7B0
  8
1
  6
CONTINUOUS
 62
     7
 10
-161.2558592988406
 20
184.0684651562261
 30
0.0
  0
VERTEX
  5
7B1
  8
1
  6
CONTINUOUS
 62
     7
 10
-161.248512566932
 20
184.0483944535033
 30
0.0
  0
VERTEX
  5
7B2
  8
1
  6
CONTINUOUS
 62
     7
 10
-161.2420242831018
 20
184.0280095185591
 30
0.0
  0
VERTEX
  5
7B3
  8
1
  6
CONTINUOUS
 62
     7
 10
-161.2364109838678
 20
184.007366515848
 30
0.0
  0
VERTEX
  5
7B4
  8
1
  6
CONTINUOUS
 62
     7
 10
-161.2316892057477
 20
183.9865216098239
 30
0.0
  0
VERTEX
  5
7B5
  8
1
  6
CONTINUOUS
 62
     7
 10
-161.2272867446621
 20
183.9617693366182
 30
0.0
  0
VERTEX
  5
7B6
  8
1
  6
CONTINUOUS
 62
     7
 10
-161.224129777194
 20
183.9367954959511
 30
0.0
  0
VERTEX
  5
7B7
  8
1
  6
CONTINUOUS
 62
     7
 10
-161.2222278388562
 20
183.9116948685982
 30
0.0
  0
VERTEX
  5
7B8
  8
1
  6
CONTINUOUS
 62
     7
 10
-161.2215904651613
 20
183.886562235335
 30
0.0
  0
SEQEND
  5
A2A
  8
1
  6
CONTINUOUS
 62
     7
  0
ARC
  5
413
  8
1
  6
CONTINUOUS
 62
     7
 10
-166.8710088781635
 20
187.2504303577544
 30
0.0
 40
5.650837773211095
 50
180.0043635446805
 51
326.8444888491164
  0
LINE
  5
414
  8
1
  6
CONTINUOUS
 62
     7
 10
-172.5218466185994
 20
187.25
 30
0.0
 11
-172.5221511659404
 21
191.248876750691
 31
0.0
  0
POLYLINE
  5
415
  8
1
  6
CONTINUOUS
 62
     7
 66
     1
 10
0.0
 20
0.0
 30
0.0
  0
VERTEX
  5
7B9
  8
1
  6
CONTINUOUS
 62
     7
 10
-173.0221702022336
 20
191.748819637462
 30
0.0
  0
VERTEX
  5
7BA
  8
1
  6
CONTINUOUS
 62
     7
 10
-172.9976366194258
 20
191.7482174468784
 30
0.0
  0
VERTEX
  5
7BB
  8
1
  6
CONTINUOUS
 62
     7
 10
-172.9731621344384
 20
191.7464123257166
 30
0.0
  0
VERTEX
  5
7BC
  8
1
  6
CONTINUOUS
 62
     7
 10
-172.9488057027339
 20
191.7434086222502
 30
0.0
  0
VERTEX
  5
7BD
  8
1
  6
CONTINUOUS
 62
     7
 10
-172.9246259954017
 20
191.7392135719624
 30
0.0
  0
VERTEX
  5
7BE
  8
1
  6
CONTINUOUS
 62
     7
 10
-172.9006812578278
 20
191.7338372801172
 30
0.0
  0
VERTEX
  5
7BF
  8
1
  6
CONTINUOUS
 62
     7
 10
-172.8770291693903
 20
191.7272926974168
 30
0.0
  0
VERTEX
  5
7C0
  8
1
  6
CONTINUOUS
 62
     7
 10
-172.8537267045186
 20
191.719595588806
 30
0.0
  0
VERTEX
  5
7C1
  8
1
  6
CONTINUOUS
 62
     7
 10
-172.8308299954497
 20
191.7107644954961
 30
0.0
  0
VERTEX
  5
7C2
  8
1
  6
CONTINUOUS
 62
     7
 10
-172.8083941970141
 20
191.7008206903019
 30
0.0
  0
VERTEX
  5
7C3
  8
1
  6
CONTINUOUS
 62
     7
 10
-172.7864733537757
 20
191.689788126399
 30
0.0
  0
VERTEX
  5
7C4
  8
1
  6
CONTINUOUS
 62
     7
 10
-172.7651202698469
 20
191.6776933796236
 30
0.0
  0
VERTEX
  5
7C5
  8
1
  6
CONTINUOUS
 62
     7
 10
-172.7443863816904
 20
191.6645655844556
 30
0.0
  0
VERTEX
  5
7C6
  8
1
  6
CONTINUOUS
 62
     7
 10
-172.7243216342169
 20
191.6504363638377
 30
0.0
  0
VERTEX
  5
7C7
  8
1
  6
CONTINUOUS
 62
     7
 10
-172.7049743604746
 20
191.6353397530002
 30
0.0
  0
VERTEX
  5
7C8
  8
1
  6
CONTINUOUS
 62
     7
 10
-172.6863911652223
 20
191.6193121174753
 30
0.0
  0
VERTEX
  5
7C9
  8
1
  6
CONTINUOUS
 62
     7
 10
-172.6686168126655
 20
191.6023920654981
 30
0.0
  0
VERTEX
  5
7CA
  8
1
  6
CONTINUOUS
 62
     7
 10
-172.6516941186253
 20
191.5846203550041
 30
0.0
  0
VERTEX
  5
7CB
  8
1
  6
CONTINUOUS
 62
     7
 10
-172.6356638474019
 20
191.5660397954505
 30
0.0
  0
VERTEX
  5
7CC
  8
1
  6
CONTINUOUS
 62
     7
 10
-172.6205646135791
 20
191.5466951446934
 30
0.0
  0
VERTEX
  5
7CD
  8
1
  6
CONTINUOUS
 62
     7
 10
-172.6064327890077
 20
191.5266330011733
 30
0.0
  0
VERTEX
  5
7CE
  8
1
  6
CONTINUOUS
 62
     7
 10
-172.5933024151905
 20
191.505901691666
 30
0.0
  0
VERTEX
  5
7CF
  8
1
  6
CONTINUOUS
 62
     7
 10
-172.5812051212818
 20
191.4845511548705
 30
0.0
  0
VERTEX
  5
7D0
  8
1
  6
CONTINUOUS
 62
     7
 10
-172.5701700478971
 20
191.4626328211139
 30
0.0
  0
VERTEX
  5
7D1
  8
1
  6
CONTINUOUS
 62
     7
 10
-172.5602237769177
 20
191.4401994884635
 30
0.0
  0
VERTEX
  5
7D2
  8
1
  6
CONTINUOUS
 62
     7
 10
-172.5513902674588
 20
191.4173051955436
 30
0.0
  0
VERTEX
  5
7D3
  8
1
  6
CONTINUOUS
 62
     7
 10
-172.5436907981554
 20
191.3940050913645
 30
0.0
  0
VERTEX
  5
7D4
  8
1
  6
CONTINUOUS
 62
     7
 10
-172.5371439159054
 20
191.3703553024767
 30
0.0
  0
VERTEX
  5
7D5
  8
1
  6
CONTINUOUS
 62
     7
 10
-172.5317653911928
 20
191.3464127977702
 30
0.0
  0
VERTEX
  5
7D6
  8
1
  6
CONTINUOUS
 62
     7
 10
-172.5275681800985
 20
191.3222352512445
 30
0.0
  0
VERTEX
  5
7D7
  8
1
  6
CONTINUOUS
 62
     7
 10
-172.5245623930915
 20
191.2978809030806
 30
0.0
  0
VERTEX
  5
7D8
  8
1
  6
CONTINUOUS
 62
     7
 10
-172.5227552706741
 20
191.2734084193488
 30
0.0
  0
VERTEX
  5
7D9
  8
1
  6
CONTINUOUS
 62
     7
 10
-172.5221511659404
 20
191.248876750691
 30
0.0
  0
SEQEND
  5
A2B
  8
1
  6
CONTINUOUS
 62
     7
  0
LINE
  5
416
  8
1
  6
CONTINUOUS
 62
     7
 10
-173.0221702022336
 20
191.748819637462
 30
0.0
 11
-175.3710088781635
 21
191.748819637462
 31
0.0
  0
LINE
  5
417
  8
1
  6
CONTINUOUS
 62
     7
 10
-224.404771404711
 20
191.2837625265475
 30
0.0
 11
-225.904771404711
 21
191.2837625265475
 31
0.0
  0
LINE
  5
418
  8
1
  6
CONTINUOUS
 62
     7
 10
-225.904771404711
 20
191.2837625265475
 30
0.0
 11
-225.9057279332917
 21
178.7240078126625
 31
0.0
  0
LINE
  5
419
  8
1
  6
CONTINUOUS
 62
     7
 10
-221.3450166908261
 20
178.7240078126626
 30
0.0
 11
-225.9057279332917
 21
178.7240078126626
 31
0.0
  0
LINE
  5
41A
  8
1
  6
CONTINUOUS
 62
     7
 10
-221.3451696805925
 20
180.7328489272493
 30
0.0
 11
-221.3450166908261
 21
178.7240078126626
 31
0.0
  0
LINE
  5
41B
  8
1
  6
CONTINUOUS
 62
     9
 10
-219.3968480757345
 20
180.7328489272493
 30
0.0
 11
-221.3451696805925
 21
180.7328489272493
 31
0.0
  0
LINE
  5
41C
  8
1
  6
CONTINUOUS
 62
     7
 10
-219.397001065501
 20
178.7240078126626
 30
0.0
 11
-219.3968480757345
 21
180.7328489272493
 31
0.0
  0
LINE
  5
41D
  8
1
  6
CONTINUOUS
 62
     7
 10
-216.323967393503
 20
178.7240078126626
 30
0.0
 11
-219.397001065501
 21
178.7240078126626
 31
0.0
  0
LINE
  5
41E
  8
1
  6
CONTINUOUS
 62
     7
 10
-216.3302298839245
 20
179.7092210057564
 30
0.0
 11
-216.323967393503
 21
178.7240078126672
 31
0.0
  0
LINE
  5
41F
  8
1
  6
CONTINUOUS
 62
     7
 10
-215.3969913103583
 20
178.8520982869119
 30
0.0
 11
-215.397001065501
 21
178.7240078126626
 31
0.0
  0
LINE
  5
420
  8
1
  6
CONTINUOUS
 62
     7
 10
-224.4047003662679
 20
192.2165369764104
 30
0.0
 11
-248.3697928951049
 21
192.2165369764104
 31
0.0
  0
LINE
  5
421
  8
1
  6
CONTINUOUS
 62
     7
 10
-224.4047003662679
 20
192.2165369764104
 30
0.0
 11
-224.404771404711
 21
191.2837625265475
 31
0.0
  0
POLYLINE
  5
422
  8
1
  6
CONTINUOUS
 62
     7
 66
     1
 10
0.0
 20
0.0
 30
0.0
  0
VERTEX
  5
7DA
  8
1
  6
CONTINUOUS
 62
     7
 10
-228.8721702022336
 20
191.748819637462
 30
0.0
  0
VERTEX
  5
7DB
  8
1
  6
CONTINUOUS
 62
     7
 10
-228.8476366194257
 20
191.7482174468784
 30
0.0
  0
VERTEX
  5
7DC
  8
1
  6
CONTINUOUS
 62
     7
 10
-228.8231621344384
 20
191.7464123257166
 30
0.0
  0
VERTEX
  5
7DD
  8
1
  6
CONTINUOUS
 62
     7
 10
-228.7988057027339
 20
191.7434086222502
 30
0.0
  0
VERTEX
  5
7DE
  8
1
  6
CONTINUOUS
 62
     7
 10
-228.7746259954017
 20
191.7392135719624
 30
0.0
  0
VERTEX
  5
7DF
  8
1
  6
CONTINUOUS
 62
     7
 10
-228.7506812578278
 20
191.7338372801172
 30
0.0
  0
VERTEX
  5
7E0
  8
1
  6
CONTINUOUS
 62
     7
 10
-228.7270291693903
 20
191.7272926974168
 30
0.0
  0
VERTEX
  5
7E1
  8
1
  6
CONTINUOUS
 62
     7
 10
-228.7037267045187
 20
191.719595588806
 30
0.0
  0
VERTEX
  5
7E2
  8
1
  6
CONTINUOUS
 62
     7
 10
-228.6808299954497
 20
191.7107644954961
 30
0.0
  0
VERTEX
  5
7E3
  8
1
  6
CONTINUOUS
 62
     7
 10
-228.658394197014
 20
191.7008206903019
 30
0.0
  0
VERTEX
  5
7E4
  8
1
  6
CONTINUOUS
 62
     7
 10
-228.6364733537757
 20
191.689788126399
 30
0.0
  0
VERTEX
  5
7E5
  8
1
  6
CONTINUOUS
 62
     7
 10
-228.6151202698469
 20
191.6776933796236
 30
0.0
  0
VERTEX
  5
7E6
  8
1
  6
CONTINUOUS
 62
     7
 10
-228.5943863816904
 20
191.6645655844556
 30
0.0
  0
VERTEX
  5
7E7
  8
1
  6
CONTINUOUS
 62
     7
 10
-228.5743216342168
 20
191.6504363638377
 30
0.0
  0
VERTEX
  5
7E8
  8
1
  6
CONTINUOUS
 62
     7
 10
-228.5549743604745
 20
191.6353397530002
 30
0.0
  0
VERTEX
  5
7E9
  8
1
  6
CONTINUOUS
 62
     7
 10
-228.5363911652223
 20
191.6193121174753
 30
0.0
  0
VERTEX
  5
7EA
  8
1
  6
CONTINUOUS
 62
     7
 10
-228.5186168126655
 20
191.6023920654981
 30
0.0
  0
VERTEX
  5
7EB
  8
1
  6
CONTINUOUS
 62
     7
 10
-228.5016941186252
 20
191.5846203550041
 30
0.0
  0
VERTEX
  5
7EC
  8
1
  6
CONTINUOUS
 62
     7
 10
-228.4856638474018
 20
191.5660397954505
 30
0.0
  0
VERTEX
  5
7ED
  8
1
  6
CONTINUOUS
 62
     7
 10
-228.4705646135791
 20
191.5466951446934
 30
0.0
  0
VERTEX
  5
7EE
  8
1
  6
CONTINUOUS
 62
     7
 10
-228.4564327890077
 20
191.5266330011733
 30
0.0
  0
VERTEX
  5
7EF
  8
1
  6
CONTINUOUS
 62
     7
 10
-228.4433024151905
 20
191.505901691666
 30
0.0
  0
VERTEX
  5
7F0
  8
1
  6
CONTINUOUS
 62
     7
 10
-228.4312051212818
 20
191.4845511548705
 30
0.0
  0
VERTEX
  5
7F1
  8
1
  6
CONTINUOUS
 62
     7
 10
-228.4201700478971
 20
191.4626328211139
 30
0.0
  0
VERTEX
  5
7F2
  8
1
  6
CONTINUOUS
 62
     7
 10
-228.4102237769177
 20
191.4401994884635
 30
0.0
  0
VERTEX
  5
7F3
  8
1
  6
CONTINUOUS
 62
     7
 10
-228.4013902674588
 20
191.4173051955436
 30
0.0
  0
VERTEX
  5
7F4
  8
1
  6
CONTINUOUS
 62
     7
 10
-228.3936907981554
 20
191.3940050913645
 30
0.0
  0
VERTEX
  5
7F5
  8
1
  6
CONTINUOUS
 62
     7
 10
-228.3871439159054
 20
191.3703553024768
 30
0.0
  0
VERTEX
  5
7F6
  8
1
  6
CONTINUOUS
 62
     7
 10
-228.3817653911927
 20
191.3464127977702
 30
0.0
  0
VERTEX
  5
7F7
  8
1
  6
CONTINUOUS
 62
     7
 10
-228.3775681800985
 20
191.3222352512445
 30
0.0
  0
VERTEX
  5
7F8
  8
1
  6
CONTINUOUS
 62
     7
 10
-228.3745623930915
 20
191.2978809030806
 30
0.0
  0
VERTEX
  5
7F9
  8
1
  6
CONTINUOUS
 62
     7
 10
-228.3727552706741
 20
191.2734084193488
 30
0.0
  0
VERTEX
  5
7FA
  8
1
  6
CONTINUOUS
 62
     7
 10
-228.3721511659404
 20
191.248876750691
 30
0.0
  0
SEQEND
  5
A2C
  8
1
  6
CONTINUOUS
 62
     7
  0
LINE
  5
423
  8
1
  6
CONTINUOUS
 62
     7
 10
-245.3698475540935
 20
191.748819637462
 30
0.0
 11
-228.8721702022336
 21
191.748819637462
 31
0.0
  0
POLYLINE
  5
424
  8
1
  6
CONTINUOUS
 62
     7
 66
     1
 10
0.0
 20
0.0
 30
0.0
  0
VERTEX
  5
7FB
  8
1
  6
CONTINUOUS
 62
     7
 10
-245.8698665903866
 20
191.248876750691
 30
0.0
  0
VERTEX
  5
7FC
  8
1
  6
CONTINUOUS
 62
     7
 10
-245.869262485653
 20
191.2734084193488
 30
0.0
  0
VERTEX
  5
7FD
  8
1
  6
CONTINUOUS
 62
     7
 10
-245.8674553632356
 20
191.2978809030806
 30
0.0
  0
VERTEX
  5
7FE
  8
1
  6
CONTINUOUS
 62
     7
 10
-245.8644495762286
 20
191.3222352512445
 30
0.0
  0
VERTEX
  5
7FF
  8
1
  6
CONTINUOUS
 62
     7
 10
-245.8602523651343
 20
191.3464127977702
 30
0.0
  0
VERTEX
  5
800
  8
1
  6
CONTINUOUS
 62
     7
 10
-245.8548738404216
 20
191.3703553024767
 30
0.0
  0
VERTEX
  5
801
  8
1
  6
CONTINUOUS
 62
     7
 10
-245.8483269581717
 20
191.3940050913645
 30
0.0
  0
VERTEX
  5
802
  8
1
  6
CONTINUOUS
 62
     7
 10
-245.8406274888683
 20
191.4173051955436
 30
0.0
  0
VERTEX
  5
803
  8
1
  6
CONTINUOUS
 62
     7
 10
-245.8317939794094
 20
191.4401994884635
 30
0.0
  0
VERTEX
  5
804
  8
1
  6
CONTINUOUS
 62
     7
 10
-245.8218477084299
 20
191.4626328211139
 30
0.0
  0
VERTEX
  5
805
  8
1
  6
CONTINUOUS
 62
     7
 10
-245.8108126350452
 20
191.4845511548705
 30
0.0
  0
VERTEX
  5
806
  8
1
  6
CONTINUOUS
 62
     7
 10
-245.7987153411366
 20
191.505901691666
 30
0.0
  0
VERTEX
  5
807
  8
1
  6
CONTINUOUS
 62
     7
 10
-245.7855849673194
 20
191.5266330011733
 30
0.0
  0
VERTEX
  5
808
  8
1
  6
CONTINUOUS
 62
     7
 10
-245.771453142748
 20
191.5466951446934
 30
0.0
  0
VERTEX
  5
809
  8
1
  6
CONTINUOUS
 62
     7
 10
-245.7563539089252
 20
191.5660397954505
 30
0.0
  0
VERTEX
  5
80A
  8
1
  6
CONTINUOUS
 62
     7
 10
-245.7403236377018
 20
191.5846203550041
 30
0.0
  0
VERTEX
  5
80B
  8
1
  6
CONTINUOUS
 62
     7
 10
-245.7234009436616
 20
191.6023920654981
 30
0.0
  0
VERTEX
  5
80C
  8
1
  6
CONTINUOUS
 62
     7
 10
-245.7056265911048
 20
191.6193121174753
 30
0.0
  0
VERTEX
  5
80D
  8
1
  6
CONTINUOUS
 62
     7
 10
-245.6870433958526
 20
191.6353397530002
 30
0.0
  0
VERTEX
  5
80E
  8
1
  6
CONTINUOUS
 62
     7
 10
-245.6676961221102
 20
191.6504363638377
 30
0.0
  0
VERTEX
  5
80F
  8
1
  6
CONTINUOUS
 62
     7
 10
-245.6476313746367
 20
191.6645655844556
 30
0.0
  0
VERTEX
  5
810
  8
1
  6
CONTINUOUS
 62
     7
 10
-245.6268974864802
 20
191.6776933796236
 30
0.0
  0
VERTEX
  5
811
  8
1
  6
CONTINUOUS
 62
     7
 10
-245.6055444025513
 20
191.689788126399
 30
0.0
  0
VERTEX
  5
812
  8
1
  6
CONTINUOUS
 62
     7
 10
-245.583623559313
 20
191.7008206903019
 30
0.0
  0
VERTEX
  5
813
  8
1
  6
CONTINUOUS
 62
     7
 10
-245.5611877608773
 20
191.7107644954961
 30
0.0
  0
VERTEX
  5
814
  8
1
  6
CONTINUOUS
 62
     7
 10
-245.5382910518084
 20
191.719595588806
 30
0.0
  0
VERTEX
  5
815
  8
1
  6
CONTINUOUS
 62
     7
 10
-245.5149885869367
 20
191.7272926974168
 30
0.0
  0
VERTEX
  5
816
  8
1
  6
CONTINUOUS
 62
     7
 10
-245.4913364984994
 20
191.7338372801172
 30
0.0
  0
VERTEX
  5
817
  8
1
  6
CONTINUOUS
 62
     7
 10
-245.4673917609254
 20
191.7392135719624
 30
0.0
  0
VERTEX
  5
818
  8
1
  6
CONTINUOUS
 62
     7
 10
-245.4432120535932
 20
191.7434086222502
 30
0.0
  0
VERTEX
  5
819
  8
1
  6
CONTINUOUS
 62
     7
 10
-245.4188556218887
 20
191.7464123257166
 30
0.0
  0
VERTEX
  5
81A
  8
1
  6
CONTINUOUS
 62
     7
 10
-245.3943811369013
 20
191.7482174468784
 30
0.0
  0
VERTEX
  5
81B
  8
1
  6
CONTINUOUS
 62
     7
 10
-245.3698475540935
 20
191.748819637462
 30
0.0
  0
SEQEND
  5
A2D
  8
1
  6
CONTINUOUS
 62
     7
  0
LINE
  5
425
  8
1
  6
CONTINUOUS
 62
     7
 10
-245.8707803875477
 20
179.2502094521479
 30
0.0
 11
-245.8698665903866
 21
191.248876750691
 31
0.0
  0
POLYLINE
  5
426
  8
1
  6
CONTINUOUS
 62
     7
 66
     1
 10
0.0
 20
0.0
 30
0.0
  0
VERTEX
  5
81C
  8
1
  6
CONTINUOUS
 62
     7
 10
-245.3708375065765
 20
178.7501904100549
 30
0.0
  0
VERTEX
  5
81D
  8
1
  6
CONTINUOUS
 62
     7
 10
-245.3953709976539
 20
178.750792692369
 30
0.0
  0
VERTEX
  5
81E
  8
1
  6
CONTINUOUS
 62
     7
 10
-245.4198452076707
 20
178.7525980885014
 30
0.0
  0
VERTEX
  5
81F
  8
1
  6
CONTINUOUS
 62
     7
 10
-245.4442011818269
 20
178.755602249516
 30
0.0
  0
VERTEX
  5
820
  8
1
  6
CONTINUOUS
 62
     7
 10
-245.4683802501353
 20
178.7597979388277
 30
0.0
  0
VERTEX
  5
821
  8
1
  6
CONTINUOUS
 62
     7
 10
-245.4923241687492
 20
178.7651750496329
 30
0.0
  0
VERTEX
  5
822
  8
1
  6
CONTINUOUS
 62
     7
 10
-245.5159752602631
 20
178.7717206292567
 30
0.0
  0
VERTEX
  5
823
  8
1
  6
CONTINUOUS
 62
     7
 10
-245.5392765526493
 20
178.779418910353
 30
0.0
  0
VERTEX
  5
824
  8
1
  6
CONTINUOUS
 62
     7
 10
-245.5621719164951
 20
178.7882513488861
 30
0.0
  0
VERTEX
  5
825
  8
1
  6
CONTINUOUS
 62
     7
 10
-245.5846062002103
 20
178.7981966688007
 30
0.0
  0
VERTEX
  5
826
  8
1
  6
CONTINUOUS
 62
     7
 10
-245.6065253628798
 20
178.8092309132725
 30
0.0
  0
VERTEX
  5
827
  8
1
  6
CONTINUOUS
 62
     7
 10
-245.6278766044395
 20
178.821327502417
 30
0.0
  0
VERTEX
  5
828
  8
1
  6
CONTINUOUS
 62
     7
 10
-245.6486084928646
 20
178.8344572973164
 30
0.0
  0
VERTEX
  5
829
  8
1
  6
CONTINUOUS
 62
     7
 10
-245.6686710880617
 20
178.8485886702109
 30
0.0
  0
VERTEX
  5
82A
  8
1
  6
CONTINUOUS
 62
     7
 10
-245.6880160621668
 20
178.8636875806855
 30
0.0
  0
VERTEX
  5
82B
  8
1
  6
CONTINUOUS
 62
     7
 10
-245.7065968159606
 20
178.8797176576687
 30
0.0
  0
VERTEX
  5
82C
  8
1
  6
CONTINUOUS
 62
     7
 10
-245.7243685911191
 20
178.8966402870445
 30
0.0
  0
VERTEX
  5
82D
  8
1
  6
CONTINUOUS
 62
     7
 10
-245.7412885780294
 20
178.9144147046682
 30
0.0
  0
VERTEX
  5
82E
  8
1
  6
CONTINUOUS
 62
     7
 10
-245.7573160189125
 20
178.9329980945622
 30
0.0
  0
VERTEX
  5
82F
  8
1
  6
CONTINUOUS
 62
     7
 10
-245.7724123060024
 20
178.9523456920521
 30
0.0
  0
VERTEX
  5
830
  8
1
  6
CONTINUOUS
 62
     7
 10
-245.7865410745468
 20
178.9724108915992
 30
0.0
  0
VERTEX
  5
831
  8
1
  6
CONTINUOUS
 62
     7
 10
-245.7996682904041
 20
178.9931453590664
 30
0.0
  0
VERTEX
  5
832
  8
1
  6
CONTINUOUS
 62
     7
 10
-245.8117623320273
 20
179.0144991481474
 30
0.0
  0
VERTEX
  5
833
  8
1
  6
CONTINUOUS
 62
     7
 10
-245.8227940666351
 20
179.0364208206809
 30
0.0
  0
VERTEX
  5
834
  8
1
  6
CONTINUOUS
 62
     7
 10
-245.8327369203888
 20
179.058857570557
 30
0.0
  0
VERTEX
  5
835
  8
1
  6
CONTINUOUS
 62
     7
 10
-245.8415669424049
 20
179.0817553509198
 30
0.0
  0
VERTEX
  5
836
  8
1
  6
CONTINUOUS
 62
     7
 10
-245.849262862449
 20
179.1050590043582
 30
0.0
  0
VERTEX
  5
837
  8
1
  6
CONTINUOUS
 62
     7
 10
-245.8558061421729
 20
179.128712395772
 30
0.0
  0
VERTEX
  5
838
  8
1
  6
CONTINUOUS
 62
     7
 10
-245.8611810197706
 20
179.1526585475935
 30
0.0
  0
VERTEX
  5
839
  8
1
  6
CONTINUOUS
 62
     7
 10
-245.8653745479466
 20
179.1768397770375
 30
0.0
  0
VERTEX
  5
83A
  8
1
  6
CONTINUOUS
 62
     7
 10
-245.8683766251033
 20
179.2011978350517
 30
0.0
  0
VERTEX
  5
83B
  8
1
  6
CONTINUOUS
 62
     7
 10
-245.8701800196751
 20
179.225674046629
 30
0.0
  0
VERTEX
  5
83C
  8
1
  6
CONTINUOUS
 62
     7
 10
-245.8707803875477
 20
179.2502094521479
 30
0.0
  0
SEQEND
  5
A2E
  8
1
  6
CONTINUOUS
 62
     7
  0
LINE
  5
427
  8
1
  6
CONTINUOUS
 62
     7
 10
-228.8711802497505
 20
178.7501904100549
 30
0.0
 11
-245.3708375065765
 21
178.7501904100549
 31
0.0
  0
POLYLINE
  5
428
  8
1
  6
CONTINUOUS
 62
     7
 66
     1
 10
0.0
 20
0.0
 30
0.0
  0
VERTEX
  5
83D
  8
1
  6
CONTINUOUS
 62
     7
 10
-228.3712373687793
 20
179.2502094521479
 30
0.0
  0
VERTEX
  5
83E
  8
1
  6
CONTINUOUS
 62
     7
 10
-228.3718377366519
 20
179.225674046629
 30
0.0
  0
VERTEX
  5
83F
  8
1
  6
CONTINUOUS
 62
     7
 10
-228.3736411312238
 20
179.2011978350517
 30
0.0
  0
VERTEX
  5
840
  8
1
  6
CONTINUOUS
 62
     7
 10
-228.3766432083805
 20
179.1768397770375
 30
0.0
  0
VERTEX
  5
841
  8
1
  6
CONTINUOUS
 62
     7
 10
-228.3808367365564
 20
179.1526585475935
 30
0.0
  0
VERTEX
  5
842
  8
1
  6
CONTINUOUS
 62
     7
 10
-228.3862116141542
 20
179.128712395772
 30
0.0
  0
VERTEX
  5
843
  8
1
  6
CONTINUOUS
 62
     7
 10
-228.392754893878
 20
179.1050590043582
 30
0.0
  0
VERTEX
  5
844
  8
1
  6
CONTINUOUS
 62
     7
 10
-228.4004508139222
 20
179.0817553509198
 30
0.0
  0
VERTEX
  5
845
  8
1
  6
CONTINUOUS
 62
     7
 10
-228.4092808359383
 20
179.058857570557
 30
0.0
  0
VERTEX
  5
846
  8
1
  6
CONTINUOUS
 62
     7
 10
-228.419223689692
 20
179.0364208206809
 30
0.0
  0
VERTEX
  5
847
  8
1
  6
CONTINUOUS
 62
     7
 10
-228.4302554242998
 20
179.0144991481474
 30
0.0
  0
VERTEX
  5
848
  8
1
  6
CONTINUOUS
 62
     7
 10
-228.4423494659229
 20
178.9931453590664
 30
0.0
  0
VERTEX
  5
849
  8
1
  6
CONTINUOUS
 62
     7
 10
-228.4554766817803
 20
178.9724108915993
 30
0.0
  0
VERTEX
  5
84A
  8
1
  6
CONTINUOUS
 62
     7
 10
-228.4696054503246
 20
178.9523456920521
 30
0.0
  0
VERTEX
  5
84B
  8
1
  6
CONTINUOUS
 62
     7
 10
-228.4847017374146
 20
178.9329980945622
 30
0.0
  0
VERTEX
  5
84C
  8
1
  6
CONTINUOUS
 62
     7
 10
-228.5007291782977
 20
178.9144147046683
 30
0.0
  0
VERTEX
  5
84D
  8
1
  6
CONTINUOUS
 62
     7
 10
-228.517649165208
 20
178.8966402870445
 30
0.0
  0
VERTEX
  5
84E
  8
1
  6
CONTINUOUS
 62
     7
 10
-228.5354209403664
 20
178.8797176576688
 30
0.0
  0
VERTEX
  5
84F
  8
1
  6
CONTINUOUS
 62
     7
 10
-228.5540016941603
 20
178.8636875806856
 30
0.0
  0
VERTEX
  5
850
  8
1
  6
CONTINUOUS
 62
     7
 10
-228.5733466682654
 20
178.8485886702109
 30
0.0
  0
VERTEX
  5
851
  8
1
  6
CONTINUOUS
 62
     7
 10
-228.5934092634624
 20
178.8344572973164
 30
0.0
  0
VERTEX
  5
852
  8
1
  6
CONTINUOUS
 62
     7
 10
-228.6141411518875
 20
178.821327502417
 30
0.0
  0
VERTEX
  5
853
  8
1
  6
CONTINUOUS
 62
     7
 10
-228.6354923934473
 20
178.8092309132725
 30
0.0
  0
VERTEX
  5
854
  8
1
  6
CONTINUOUS
 62
     7
 10
-228.6574115561167
 20
178.7981966688007
 30
0.0
  0
VERTEX
  5
855
  8
1
  6
CONTINUOUS
 62
     7
 10
-228.679845839832
 20
178.7882513488861
 30
0.0
  0
VERTEX
  5
856
  8
1
  6
CONTINUOUS
 62
     7
 10
-228.7027412036777
 20
178.779418910353
 30
0.0
  0
VERTEX
  5
857
  8
1
  6
CONTINUOUS
 62
     7
 10
-228.7260424960639
 20
178.7717206292567
 30
0.0
  0
VERTEX
  5
858
  8
1
  6
CONTINUOUS
 62
     7
 10
-228.7496935875778
 20
178.7651750496329
 30
0.0
  0
VERTEX
  5
859
  8
1
  6
CONTINUOUS
 62
     7
 10
-228.7736375061918
 20
178.7597979388277
 30
0.0
  0
VERTEX
  5
85A
  8
1
  6
CONTINUOUS
 62
     7
 10
-228.7978165745002
 20
178.755602249516
 30
0.0
  0
VERTEX
  5
85B
  8
1
  6
CONTINUOUS
 62
     7
 10
-228.8221725486564
 20
178.7525980885014
 30
0.0
  0
VERTEX
  5
85C
  8
1
  6
CONTINUOUS
 62
     7
 10
-228.8466467586732
 20
178.7507926923691
 30
0.0
  0
VERTEX
  5
85D
  8
1
  6
CONTINUOUS
 62
     7
 10
-228.8711802497505
 20
178.7501904100549
 30
0.0
  0
SEQEND
  5
A2F
  8
1
  6
CONTINUOUS
 62
     7
  0
LINE
  5
429
  8
1
  6
CONTINUOUS
 62
     7
 10
-228.3721511659404
 20
191.248876750691
 30
0.0
 11
-228.3712373687794
 21
179.2502094521479
 31
0.0
  0
LINE
  5
42A
  8
1
  6
CONTINUOUS
 62
     7
 10
-204.1954939167542
 20
178.75
 30
0.0
 11
-205.4180503628241
 21
178.7240078126625
 31
0.0
  0
LINE
  5
42B
  8
1
  6
CONTINUOUS
 62
     7
 10
-217.5465238395729
 20
178.75
 30
0.0
 11
-217.5465238395729
 21
180.9255149614093
 31
0.0
  0
LINE
  5
42C
  8
1
  6
CONTINUOUS
 62
     7
 10
-216.323967393503
 20
178.7240078126626
 30
0.0
 11
-217.5465238395729
 21
178.75
 31
0.0
  0
LINE
  5
42D
  8
1
  6
CONTINUOUS
 62
     7
 10
-221.3450166908261
 20
178.7240078126626
 30
0.0
 11
-221.3710088781635
 21
178.75
 31
0.0
  0
LINE
  5
42E
  8
1
  6
CONTINUOUS
 62
     7
 10
-225.9057279332917
 20
178.7240078126626
 30
0.0
 11
-225.8797357459543
 21
178.75
 31
0.0
  0
LINE
  5
42F
  8
1
  6
CONTINUOUS
 62
     7
 10
-221.3710088781635
 20
178.75
 30
0.0
 11
-225.8797357459543
 21
178.75
 31
0.0
  0
LINE
  5
430
  8
1
  6
CONTINUOUS
 62
     7
 10
-202.3450166908261
 20
178.7240078126626
 30
0.0
 11
-202.3710088781636
 21
178.75
 31
0.0
  0
LINE
  5
431
  8
1
  6
CONTINUOUS
 62
     7
 10
-219.397001065501
 20
178.7240078126626
 30
0.0
 11
-219.3710088781635
 21
178.75
 31
0.0
  0
LINE
  5
432
  8
1
  6
CONTINUOUS
 62
     7
 10
-217.5465238395729
 20
178.75
 30
0.0
 11
-219.3710088781635
 21
178.75
 31
0.0
  0
LINE
  5
433
  8
1
  6
CONTINUOUS
 62
     7
 10
-195.8362898230353
 20
178.7240078126626
 30
0.0
 11
-195.8622820103728
 21
178.75
 31
0.0
  0
LINE
  5
434
  8
1
  6
CONTINUOUS
 62
     7
 10
-221.3710088781635
 20
181.7412731322092
 30
0.0
 11
-221.3710088781635
 21
178.75
 31
0.0
  0
LINE
  5
435
  8
1
  6
CONTINUOUS
 62
     7
 10
-221.3538200607693
 20
181.724084314815
 30
0.0
 11
-221.3710088781635
 21
181.7412731322092
 31
0.0
  0
LINE
  5
436
  8
1
  6
CONTINUOUS
 62
     7
 10
-221.3451696805925
 20
180.7328489272493
 30
0.0
 11
-221.3538200607693
 21
181.724084314815
 31
0.0
  0
LINE
  5
437
  8
1
  6
CONTINUOUS
 62
     7
 10
-219.3710088781635
 20
178.75
 30
0.0
 11
-219.3710088781635
 21
181.7412731322092
 31
0.0
  0
LINE
  5
438
  8
1
  6
CONTINUOUS
 62
     7
 10
-219.3881976955577
 20
181.724084314815
 30
0.0
 11
-219.3968480757345
 21
180.7328489272493
 31
0.0
  0
LINE
  5
439
  8
1
  6
CONTINUOUS
 62
     7
 10
-219.3881976955577
 20
181.724084314815
 30
0.0
 11
-219.3710088781635
 21
181.7412731322092
 31
0.0
  0
LINE
  5
43A
  8
1
  6
CONTINUOUS
 62
     7
 10
-215.3710088781635
 20
178.8398202788755
 30
0.0
 11
-215.3710088781635
 21
178.75
 31
0.0
  0
LINE
  5
43B
  8
1
  6
CONTINUOUS
 62
     7
 10
-200.397001065501
 20
178.7240078126626
 30
0.0
 11
-200.3710088781635
 21
178.75
 31
0.0
  0
LINE
  5
43C
  8
1
  6
CONTINUOUS
 62
     7
 10
-225.8797357459543
 20
178.75
 30
0.0
 11
-225.8797357459543
 21
181.7412731322092
 31
0.0
  0
LINE
  5
43D
  8
1
  6
CONTINUOUS
 62
     7
 10
-225.8710088781635
 20
191.25
 30
0.0
 11
-225.904771404711
 21
191.2837625265475
 31
0.0
  0
LINE
  5
43E
  8
1
  6
CONTINUOUS
 62
     7
 10
-225.8710088781635
 20
181.75
 30
0.0
 11
-225.8710088781635
 21
191.25
 31
0.0
  0
LINE
  5
43F
  8
1
  6
CONTINUOUS
 62
     7
 10
-225.8710088781635
 20
181.75
 30
0.0
 11
-225.8797357459543
 21
181.7412731322092
 31
0.0
  0
LINE
  5
440
  8
1
  6
CONTINUOUS
 62
     9
 10
-228.8711802497505
 20
178.7501904100549
 30
0.0
 11
-228.8971704430679
 21
178.7761806033723
 31
0.0
  0
POLYLINE
  5
441
  8
1
  6
CONTINUOUS
 62
     7
 66
     1
 10
0.0
 20
0.0
 30
0.0
  0
VERTEX
  5
85E
  8
1
  6
CONTINUOUS
 62
     7
 10
-228.8971704430679
 20
178.7761806033723
 30
0.0
  0
VERTEX
  5
85F
  8
1
  6
CONTINUOUS
 62
     7
 10
-228.7996269678168
 20
178.7857874004527
 30
0.0
  0
VERTEX
  5
860
  8
1
  6
CONTINUOUS
 62
     7
 10
-228.7058331344959
 20
178.8142386435501
 30
0.0
  0
VERTEX
  5
861
  8
1
  6
CONTINUOUS
 62
     7
 10
-228.6193930391636
 20
178.8604410730175
 30
0.0
  0
VERTEX
  5
862
  8
1
  6
CONTINUOUS
 62
     7
 10
-228.5436282051633
 20
178.9226193269997
 30
0.0
  0
VERTEX
  5
863
  8
1
  6
CONTINUOUS
 62
     7
 10
-228.481449951181
 20
178.998384161
 30
0.0
  0
VERTEX
  5
864
  8
1
  6
CONTINUOUS
 62
     7
 10
-228.4352475217137
 20
179.0848242563324
 30
0.0
  0
VERTEX
  5
865
  8
1
  6
CONTINUOUS
 62
     7
 10
-228.4067962786163
 20
179.1786180896533
 30
0.0
  0
VERTEX
  5
866
  8
1
  6
CONTINUOUS
 62
     7
 10
-228.3971894815358
 20
179.2761615649043
 30
0.0
  0
SEQEND
  5
A30
  8
1
  6
CONTINUOUS
 62
     7
  0
LINE
  5
442
  8
1
  6
CONTINUOUS
 62
     9
 10
-228.3971894815358
 20
179.2761615649044
 30
0.0
 11
-228.3712373687793
 21
179.2502094521479
 31
0.0
  0
LINE
  5
443
  8
1
  6
CONTINUOUS
 62
     9
 10
-245.8707803875477
 20
179.2502094521479
 30
0.0
 11
-245.8448282747913
 21
179.2761615649044
 31
0.0
  0
POLYLINE
  5
444
  8
1
  6
CONTINUOUS
 62
     7
 66
     1
 10
0.0
 20
0.0
 30
0.0
  0
VERTEX
  5
867
  8
1
  6
CONTINUOUS
 62
     7
 10
-245.8448282747913
 20
179.2761615649043
 30
0.0
  0
VERTEX
  5
868
  8
1
  6
CONTINUOUS
 62
     7
 10
-245.8352214777108
 20
179.1786180896533
 30
0.0
  0
VERTEX
  5
869
  8
1
  6
CONTINUOUS
 62
     7
 10
-245.8067702346134
 20
179.0848242563324
 30
0.0
  0
VERTEX
  5
86A
  8
1
  6
CONTINUOUS
 62
     7
 10
-245.760567805146
 20
178.998384161
 30
0.0
  0
VERTEX
  5
86B
  8
1
  6
CONTINUOUS
 62
     7
 10
-245.6983895511638
 20
178.9226193269997
 30
0.0
  0
VERTEX
  5
86C
  8
1
  6
CONTINUOUS
 62
     7
 10
-245.6226247171635
 20
178.8604410730175
 30
0.0
  0
VERTEX
  5
86D
  8
1
  6
CONTINUOUS
 62
     7
 10
-245.5361846218311
 20
178.8142386435501
 30
0.0
  0
VERTEX
  5
86E
  8
1
  6
CONTINUOUS
 62
     7
 10
-245.4423907885103
 20
178.7857874004527
 30
0.0
  0
VERTEX
  5
86F
  8
1
  6
CONTINUOUS
 62
     7
 10
-245.3448473132592
 20
178.7761806033723
 30
0.0
  0
SEQEND
  5
A31
  8
1
  6
CONTINUOUS
 62
     7
  0
LINE
  5
445
  8
1
  6
CONTINUOUS
 62
     9
 10
-245.3448473132592
 20
178.7761806033723
 30
0.0
 11
-245.3708375065765
 21
178.7501904100549
 31
0.0
  0
LINE
  5
446
  8
1
  6
CONTINUOUS
 62
     9
 10
-161.7211802497505
 20
178.7501904100549
 30
0.0
 11
-161.7471704430679
 21
178.7761806033723
 31
0.0
  0
POLYLINE
  5
447
  8
1
  6
CONTINUOUS
 62
     7
 66
     1
 10
0.0
 20
0.0
 30
0.0
  0
VERTEX
  5
870
  8
1
  6
CONTINUOUS
 62
     7
 10
-161.7471704430679
 20
178.7761806033723
 30
0.0
  0
VERTEX
  5
871
  8
1
  6
CONTINUOUS
 62
     7
 10
-161.6496269678168
 20
178.7857874004527
 30
0.0
  0
VERTEX
  5
872
  8
1
  6
CONTINUOUS
 62
     7
 10
-161.5558331344959
 20
178.8142386435501
 30
0.0
  0
VERTEX
  5
873
  8
1
  6
CONTINUOUS
 62
     7
 10
-161.4693930391635
 20
178.8604410730175
 30
0.0
  0
VERTEX
  5
874
  8
1
  6
CONTINUOUS
 62
     7
 10
-161.3936282051633
 20
178.9226193269997
 30
0.0
  0
VERTEX
  5
875
  8
1
  6
CONTINUOUS
 62
     7
 10
-161.331449951181
 20
178.998384161
 30
0.0
  0
VERTEX
  5
876
  8
1
  6
CONTINUOUS
 62
     7
 10
-161.2852475217137
 20
179.0848242563324
 30
0.0
  0
VERTEX
  5
877
  8
1
  6
CONTINUOUS
 62
     7
 10
-161.2567962786163
 20
179.1786180896533
 30
0.0
  0
VERTEX
  5
878
  8
1
  6
CONTINUOUS
 62
     7
 10
-161.2471894815358
 20
179.2761615649043
 30
0.0
  0
SEQEND
  5
A32
  8
1
  6
CONTINUOUS
 62
     7
  0
LINE
  5
448
  8
1
  6
CONTINUOUS
 62
     9
 10
-161.2471894815358
 20
179.2761615649044
 30
0.0
 11
-161.2212373687794
 21
179.2502094521479
 31
0.0
  0
LINE
  5
449
  8
1
  6
CONTINUOUS
 62
     7
 10
-228.8971704430679
 20
178.7761806033723
 30
0.0
 11
-245.3448473132592
 21
178.7761806033723
 31
0.0
  0
LINE
  5
44A
  8
1
  6
CONTINUOUS
 62
     7
 10
-183.2043869213276
 20
178.7761806033723
 30
0.0
 11
-161.7471704430679
 21
178.7761806033723
 31
0.0
  0
LINE
  5
44B
  8
1
  6
CONTINUOUS
 62
     9
 10
-228.3721511659404
 20
191.248876750691
 30
0.0
 11
-228.3971894815358
 21
191.2238384350956
 31
0.0
  0
LINE
  5
44C
  8
1
  6
CONTINUOUS
 62
     7
 10
-228.3971894815358
 20
191.2238384350956
 30
0.0
 11
-228.3971894815358
 21
179.2761615649044
 31
0.0
  0
LINE
  5
44D
  8
1
  6
CONTINUOUS
 62
     9
 10
-245.8448282747913
 20
191.2238384350956
 30
0.0
 11
-245.8698665903866
 21
191.248876750691
 31
0.0
  0
LINE
  5
44E
  8
1
  6
CONTINUOUS
 62
     7
 10
-245.8448282747913
 20
179.2761615649044
 30
0.0
 11
-245.8448282747913
 21
191.2238384350956
 31
0.0
  0
LINE
  5
44F
  8
1
  6
CONTINUOUS
 62
     7
 10
-161.2471894815358
 20
179.2761615649044
 30
0.0
 11
-161.2471894815358
 21
183.801630622042
 31
0.0
  0
LINE
  5
450
  8
1
  6
CONTINUOUS
 62
     9
 10
-161.2215904651613
 20
183.886562235335
 30
0.0
 11
-161.2471894815358
 21
183.801630622042
 31
0.0
  0
POLYLINE
  5
451
  8
1
  6
CONTINUOUS
 62
     7
 66
     1
 10
0.0
 20
0.0
 30
0.0
  0
VERTEX
  5
879
  8
1
  6
CONTINUOUS
 62
     7
 10
-161.2471894815358
 20
183.801630622042
 30
0.0
  0
VERTEX
  5
87A
  8
1
  6
CONTINUOUS
 62
     7
 10
-161.2475029238118
 20
183.8193279029414
 30
0.0
  0
VERTEX
  5
87B
  8
1
  6
CONTINUOUS
 62
     7
 10
-161.2484420887521
 20
183.8370085768149
 30
0.0
  0
VERTEX
  5
87C
  8
1
  6
CONTINUOUS
 62
     7
 10
-161.2500052335252
 20
183.8546394743491
 30
0.0
  0
VERTEX
  5
87D
  8
1
  6
CONTINUOUS
 62
     7
 10
-161.2531984493866
 20
183.8789412039034
 30
0.0
  0
VERTEX
  5
87E
  8
1
  6
CONTINUOUS
 62
     7
 10
-161.2575773091558
 20
183.9030575100989
 30
0.0
  0
VERTEX
  5
87F
  8
1
  6
CONTINUOUS
 62
     7
 10
-161.2626193309999
 20
183.9249287143739
 30
0.0
  0
VERTEX
  5
880
  8
1
  6
CONTINUOUS
 62
     7
 10
-161.2686368124564
 20
183.9465518834671
 30
0.0
  0
VERTEX
  5
881
  8
1
  6
CONTINUOUS
 62
     7
 10
-161.2753846213997
 20
183.9672181722753
 30
0.0
  0
VERTEX
  5
882
  8
1
  6
CONTINUOUS
 62
     7
 10
-161.2815378199482
 20
183.9838143741224
 30
0.0
  0
VERTEX
  5
883
  8
1
  6
CONTINUOUS
 62
     7
 10
-161.2882762025925
 20
184.0001877176044
 30
0.0
  0
VERTEX
  5
884
  8
1
  6
CONTINUOUS
 62
     7
 10
-161.29558714545
 20
184.0163074520981
 30
0.0
  0
VERTEX
  5
885
  8
1
  6
CONTINUOUS
 62
     7
 10
-161.3066448325136
 20
184.0381824466818
 30
0.0
  0
VERTEX
  5
886
  8
1
  6
CONTINUOUS
 62
     7
 10
-161.318760409717
 20
184.0594897355087
 30
0.0
  0
VERTEX
  5
887
  8
1
  6
CONTINUOUS
 62
     7
 10
-161.3307590533059
 20
184.0784588644612
 30
0.0
  0
VERTEX
  5
888
  8
1
  6
CONTINUOUS
 62
     7
 10
-161.3435964372658
 20
184.0968707311335
 30
0.0
  0
VERTEX
  5
889
  8
1
  6
CONTINUOUS
 62
     7
 10
-161.3568065942713
 20
184.1141376762377
 30
0.0
  0
VERTEX
  5
88A
  8
1
  6
CONTINUOUS
 62
     7
 10
-161.3681044054391
 20
184.1277561550827
 30
0.0
  0
VERTEX
  5
88B
  8
1
  6
CONTINUOUS
 62
     7
 10
-161.3798805178118
 20
184.1409706555722
 30
0.0
  0
VERTEX
  5
88C
  8
1
  6
CONTINUOUS
 62
     7
 10
-161.3921128365525
 20
184.1537563445629
 30
0.0
  0
VERTEX
  5
88D
  8
1
  6
CONTINUOUS
 62
     7
 10
-161.4097846783117
 20
184.1707306776007
 30
0.0
  0
VERTEX
  5
88E
  8
1
  6
CONTINUOUS
 62
     7
 10
-161.4282665929909
 20
184.1868192062484
 30
0.0
  0
VERTEX
  5
88F
  8
1
  6
CONTINUOUS
 62
     7
 10
-161.4458643116724
 20
184.2007408115322
 30
0.0
  0
VERTEX
  5
890
  8
1
  6
CONTINUOUS
 62
     7
 10
-161.4640687878445
 20
184.213859036166
 30
0.0
  0
VERTEX
  5
891
  8
1
  6
CONTINUOUS
 62
     7
 10
-161.4822459390603
 20
184.2257738223942
 30
0.0
  0
VERTEX
  5
892
  8
1
  6
CONTINUOUS
 62
     7
 10
-161.5028568888448
 20
184.2379738914108
 30
0.0
  0
VERTEX
  5
893
  8
1
  6
CONTINUOUS
 62
     7
 10
-161.5240403589267
 20
184.2491798622197
 30
0.0
  0
VERTEX
  5
894
  8
1
  6
CONTINUOUS
 62
     7
 10
-161.5457234653573
 20
184.2593531486792
 30
0.0
  0
VERTEX
  5
895
  8
1
  6
CONTINUOUS
 62
     7
 10
-161.5659800412074
 20
184.267743522515
 30
0.0
  0
VERTEX
  5
896
  8
1
  6
CONTINUOUS
 62
     7
 10
-161.5865948182368
 20
184.2752416391169
 30
0.0
  0
VERTEX
  5
897
  8
1
  6
CONTINUOUS
 62
     7
 10
-161.6075083353643
 20
184.2818258646837
 30
0.0
  0
VERTEX
  5
898
  8
1
  6
CONTINUOUS
 62
     7
 10
-161.6224493022738
 20
184.2859211072953
 30
0.0
  0
VERTEX
  5
899
  8
1
  6
CONTINUOUS
 62
     7
 10
-161.6375099924984
 20
184.2895514123456
 30
0.0
  0
VERTEX
  5
89A
  8
1
  6
CONTINUOUS
 62
     7
 10
-161.6579993413613
 20
184.2937054563505
 30
0.0
  0
VERTEX
  5
89B
  8
1
  6
CONTINUOUS
 62
     7
 10
-161.6786625933371
 20
184.2970018616621
 30
0.0
  0
VERTEX
  5
89C
  8
1
  6
CONTINUOUS
 62
     7
 10
-161.6994454044154
 20
184.2994331335133
 30
0.0
  0
VERTEX
  5
89D
  8
1
  6
CONTINUOUS
 62
     7
 10
-161.7202934305861
 20
184.3009917771367
 30
0.0
  0
VERTEX
  5
89E
  8
1
  6
CONTINUOUS
 62
     7
 10
-161.741507386386
 20
184.3016773263106
 30
0.0
  0
VERTEX
  5
89F
  8
1
  6
CONTINUOUS
 62
     7
 10
-161.7627504985387
 20
184.3014614211546
 30
0.0
  0
VERTEX
  5
8A0
  8
1
  6
CONTINUOUS
 62
     7
 10
-161.7839654019259
 20
184.3003458916164
 30
0.0
  0
VERTEX
  5
8A1
  8
1
  6
CONTINUOUS
 62
     7
 10
-161.8050947314294
 20
184.298332567644
 30
0.0
  0
VERTEX
  5
8A2
  8
1
  6
CONTINUOUS
 62
     7
 10
-161.8288064233423
 20
184.2949831736467
 30
0.0
  0
VERTEX
  5
8A3
  8
1
  6
CONTINUOUS
 62
     7
 10
-161.8523442196173
 20
184.2905004812211
 30
0.0
  0
VERTEX
  5
8A4
  8
1
  6
CONTINUOUS
 62
     7
 10
-161.8756271990449
 20
184.2848999629866
 30
0.0
  0
VERTEX
  5
8A5
  8
1
  6
CONTINUOUS
 62
     7
 10
-161.8966827271059
 20
184.2787990491719
 30
0.0
  0
VERTEX
  5
8A6
  8
1
  6
CONTINUOUS
 62
     7
 10
-161.9174608138312
 20
184.2717783377453
 30
0.0
  0
VERTEX
  5
8A7
  8
1
  6
CONTINUOUS
 62
     7
 10
-161.9379016172217
 20
184.2638581049377
 30
0.0
  0
VERTEX
  5
8A8
  8
1
  6
CONTINUOUS
 62
     7
 10
-161.9521247776379
 20
184.257724993318
 30
0.0
  0
VERTEX
  5
8A9
  8
1
  6
CONTINUOUS
 62
     7
 10
-161.966151219309
 20
184.2511544308822
 30
0.0
  0
VERTEX
  5
8AA
  8
1
  6
CONTINUOUS
 62
     7
 10
-161.987425569872
 20
184.2401440893041
 30
0.0
  0
VERTEX
  5
8AB
  8
1
  6
CONTINUOUS
 62
     7
 10
-162.0081607022203
 20
184.2281216186842
 30
0.0
  0
VERTEX
  5
8AC
  8
1
  6
CONTINUOUS
 62
     7
 10
-162.0282853729169
 20
184.2151284112649
 30
0.0
  0
VERTEX
  5
8AD
  8
1
  6
CONTINUOUS
 62
     7
 10
-162.0461417948594
 20
184.2024002568104
 30
0.0
  0
VERTEX
  5
8AE
  8
1
  6
CONTINUOUS
 62
     7
 10
-162.0634319549423
 20
184.1888957716108
 30
0.0
  0
VERTEX
  5
8AF
  8
1
  6
CONTINUOUS
 62
     7
 10
-162.080106087765
 20
184.1746538920347
 30
0.0
  0
VERTEX
  5
8B0
  8
1
  6
CONTINUOUS
 62
     7
 10
-162.0915024636097
 20
184.1641569671308
 30
0.0
  0
VERTEX
  5
8B1
  8
1
  6
CONTINUOUS
 62
     7
 10
-162.1025684005422
 20
184.1533122513623
 30
0.0
  0
VERTEX
  5
8B2
  8
1
  6
CONTINUOUS
 62
     7
 10
-162.1186208840079
 20
184.1363086669524
 30
0.0
  0
VERTEX
  5
8B3
  8
1
  6
CONTINUOUS
 62
     7
 10
-162.1339141056179
 20
184.1185087517979
 30
0.0
  0
VERTEX
  5
8B4
  8
1
  6
CONTINUOUS
 62
     7
 10
-162.1483563606841
 20
184.1000117003842
 30
0.0
  0
VERTEX
  5
8B5
  8
1
  6
CONTINUOUS
 62
     7
 10
-162.1619623232013
 20
184.0807876711558
 30
0.0
  0
SEQEND
  5
A33
  8
1
  6
CONTINUOUS
 62
     7
  0
LINE
  5
452
  8
1
  6
CONTINUOUS
 62
     9
 10
-162.1619623232013
 20
184.0807876711558
 30
0.0
 11
-162.1401883558861
 21
184.1599118583213
 31
0.0
  0
LINE
  5
453
  8
1
  6
CONTINUOUS
 62
     9
 10
-221.3538200607693
 20
181.724084314815
 30
0.0
 11
-219.3881976955577
 21
181.724084314815
 31
0.0
  0
LINE
  5
454
  8
1
  6
CONTINUOUS
 62
     7
 10
-195.3710088781635
 20
194.2251873580371
 30
0.0
 11
-190.3836842252662
 21
194.2251873580371
 31
0.0
  0
LINE
  5
455
  8
1
  6
CONTINUOUS
 62
     7
 10
-175.3710088781635
 20
194.2251873580371
 30
0.0
 11
-166.8955169046398
 21
194.2251873580371
 31
0.0
  0
LINE
  5
456
  8
1
  6
CONTINUOUS
 62
     9
 10
-172.5218466185994
 20
187.25
 30
0.0
 11
-172.5471894815358
 21
187.25
 31
0.0
  0
ARC
  5
457
  8
1
  6
CONTINUOUS
 62
     7
 10
-166.8710088781635
 20
187.25
 30
0.0
 40
5.67618060337228
 50
180.0
 51
326.0592453494596
  0
LINE
  5
458
  8
1
  6
CONTINUOUS
 62
     7
 10
-208.0122500438597
 20
185.7412731322092
 30
0.0
 11
-212.7297677124673
 21
185.7412731322092
 31
0.0
  0
LINE
  5
459
  8
1
  6
CONTINUOUS
 62
     7
 10
-208.0066907946562
 20
185.75
 30
0.0
 11
-212.7353269616709
 21
185.75
 31
0.0
  0
LINE
  5
45A
  8
1
  6
CONTINUOUS
 62
     7
 10
-172.5471894815358
 20
187.25
 30
0.0
 11
-172.5471894815358
 21
191.2238384350956
 31
0.0
  0
LINE
  5
45B
  8
1
  6
CONTINUOUS
 62
     9
 10
-172.5221511659404
 20
191.248876750691
 30
0.0
 11
-172.5471894815358
 21
191.2238384350956
 31
0.0
  0
LINE
  5
45C
  8
1
  6
CONTINUOUS
 62
     9
 10
-245.3698475540935
 20
191.748819637462
 30
0.0
 11
-245.3448473132592
 21
191.7238193966277
 31
0.0
  0
POLYLINE
  5
45D
  8
1
  6
CONTINUOUS
 62
     7
 66
     1
 10
0.0
 20
0.0
 30
0.0
  0
VERTEX
  5
8B6
  8
1
  6
CONTINUOUS
 62
     7
 10
-245.3448473132592
 20
191.7238193966277
 30
0.0
  0
VERTEX
  5
8B7
  8
1
  6
CONTINUOUS
 62
     7
 10
-245.4423907885103
 20
191.7142125995473
 30
0.0
  0
VERTEX
  5
8B8
  8
1
  6
CONTINUOUS
 62
     7
 10
-245.5361846218312
 20
191.6857613564499
 30
0.0
  0
VERTEX
  5
8B9
  8
1
  6
CONTINUOUS
 62
     7
 10
-245.6226247171635
 20
191.6395589269825
 30
0.0
  0
VERTEX
  5
8BA
  8
1
  6
CONTINUOUS
 62
     7
 10
-245.6983895511638
 20
191.5773806730003
 30
0.0
  0
VERTEX
  5
8BB
  8
1
  6
CONTINUOUS
 62
     7
 10
-245.7605678051461
 20
191.501615839
 30
0.0
  0
VERTEX
  5
8BC
  8
1
  6
CONTINUOUS
 62
     7
 10
-245.8067702346134
 20
191.4151757436676
 30
0.0
  0
VERTEX
  5
8BD
  8
1
  6
CONTINUOUS
 62
     7
 10
-245.8352214777108
 20
191.3213819103467
 30
0.0
  0
VERTEX
  5
8BE
  8
1
  6
CONTINUOUS
 62
     7
 10
-245.8448282747913
 20
191.2238384350957
 30
0.0
  0
SEQEND
  5
A34
  8
1
  6
CONTINUOUS
 62
     7
  0
POLYLINE
  5
45E
  8
1
  6
CONTINUOUS
 62
     7
 66
     1
 10
0.0
 20
0.0
 30
0.0
  0
VERTEX
  5
8BF
  8
1
  6
CONTINUOUS
 62
     7
 10
-172.5471894815358
 20
191.2238384350957
 30
0.0
  0
VERTEX
  5
8C0
  8
1
  6
CONTINUOUS
 62
     7
 10
-172.5567962786163
 20
191.3213819103467
 30
0.0
  0
VERTEX
  5
8C1
  8
1
  6
CONTINUOUS
 62
     7
 10
-172.5852475217137
 20
191.4151757436676
 30
0.0
  0
VERTEX
  5
8C2
  8
1
  6
CONTINUOUS
 62
     7
 10
-172.631449951181
 20
191.501615839
 30
0.0
  0
VERTEX
  5
8C3
  8
1
  6
CONTINUOUS
 62
     7
 10
-172.6936282051632
 20
191.5773806730003
 30
0.0
  0
VERTEX
  5
8C4
  8
1
  6
CONTINUOUS
 62
     7
 10
-172.7693930391635
 20
191.6395589269825
 30
0.0
  0
VERTEX
  5
8C5
  8
1
  6
CONTINUOUS
 62
     7
 10
-172.855833134496
 20
191.6857613564499
 30
0.0
  0
VERTEX
  5
8C6
  8
1
  6
CONTINUOUS
 62
     7
 10
-172.9496269678168
 20
191.7142125995473
 30
0.0
  0
VERTEX
  5
8C7
  8
1
  6
CONTINUOUS
 62
     7
 10
-173.0471704430679
 20
191.7238193966277
 30
0.0
  0
SEQEND
  5
A35
  8
1
  6
CONTINUOUS
 62
     7
  0
LINE
  5
45F
  8
1
  6
CONTINUOUS
 62
     9
 10
-173.0471704430679
 20
191.7238193966277
 30
0.0
 11
-173.0221702022336
 21
191.748819637462
 31
0.0
  0
POLYLINE
  5
460
  8
1
  6
CONTINUOUS
 62
     7
 66
     1
 10
0.0
 20
0.0
 30
0.0
  0
VERTEX
  5
8C8
  8
1
  6
CONTINUOUS
 62
     7
 10
-228.3971894815358
 20
191.2238384350957
 30
0.0
  0
VERTEX
  5
8C9
  8
1
  6
CONTINUOUS
 62
     7
 10
-228.4067962786163
 20
191.3213819103467
 30
0.0
  0
VERTEX
  5
8CA
  8
1
  6
CONTINUOUS
 62
     7
 10
-228.4352475217137
 20
191.4151757436676
 30
0.0
  0
VERTEX
  5
8CB
  8
1
  6
CONTINUOUS
 62
     7
 10
-228.481449951181
 20
191.501615839
 30
0.0
  0
VERTEX
  5
8CC
  8
1
  6
CONTINUOUS
 62
     7
 10
-228.5436282051633
 20
191.5773806730003
 30
0.0
  0
VERTEX
  5
8CD
  8
1
  6
CONTINUOUS
 62
     7
 10
-228.6193930391636
 20
191.6395589269825
 30
0.0
  0
VERTEX
  5
8CE
  8
1
  6
CONTINUOUS
 62
     7
 10
-228.7058331344959
 20
191.6857613564499
 30
0.0
  0
VERTEX
  5
8CF
  8
1
  6
CONTINUOUS
 62
     7
 10
-228.7996269678168
 20
191.7142125995473
 30
0.0
  0
VERTEX
  5
8D0
  8
1
  6
CONTINUOUS
 62
     7
 10
-228.8971704430679
 20
191.7238193966277
 30
0.0
  0
SEQEND
  5
A36
  8
1
  6
CONTINUOUS
 62
     7
  0
LINE
  5
461
  8
1
  6
CONTINUOUS
 62
     9
 10
-228.8971704430679
 20
191.7238193966277
 30
0.0
 11
-228.8721702022336
 21
191.748819637462
 31
0.0
  0
LINE
  5
462
  8
1
  6
CONTINUOUS
 62
     7
 10
-224.3710088781635
 20
191.25
 30
0.0
 11
-224.3710088781635
 21
192.25
 31
0.0
  0
LINE
  5
463
  8
1
  6
CONTINUOUS
 62
     7
 10
-224.3710088781635
 20
191.25
 30
0.0
 11
-224.404771404711
 21
191.2837625265475
 31
0.0
  0
LINE
  5
464
  8
1
  6
CONTINUOUS
 62
     7
 10
-224.4046019467135
 20
192.2388023104833
 30
0.0
 11
-224.4047003662679
 21
192.2165369764104
 31
0.0
  0
LINE
  5
465
  8
1
  6
CONTINUOUS
 62
     7
 10
-224.3710088781635
 20
192.25
 30
0.0
 11
-224.4046019467135
 21
192.2388023104834
 31
0.0
  0
LINE
  5
466
  8
1
  6
CONTINUOUS
 62
     7
 10
-225.8710088781635
 20
191.25
 30
0.0
 11
-224.3710088781635
 21
191.25
 31
0.0
  0
LINE
  5
467
  8
1
  6
CONTINUOUS
 62
     7
 10
-245.3448473132592
 20
191.7238193966277
 30
0.0
 11
-228.8971704430679
 21
191.7238193966277
 31
0.0
  0
LINE
  5
468
  8
1
  6
CONTINUOUS
 62
     7
 10
-173.0471704430679
 20
191.7238193966277
 30
0.0
 11
-175.3710088781635
 21
191.7238193966277
 31
0.0
  0
LINE
  5
469
  8
1
  6
CONTINUOUS
 62
     7
 10
-225.883415199145
 20
194.2251873580371
 30
0.0
 11
-224.4046019467135
 21
192.2388023104833
 31
0.0
  0
LINE
  5
46A
  8
1
  6
CONTINUOUS
 62
     7
 10
-224.3710088781635
 20
192.25
 30
0.0
 11
-225.8710088781635
 21
194.25
 31
0.0
  0
POLYLINE
  5
46B
  8
1
  6
CONTINUOUS
 62
     7
 66
     1
 10
0.0
 20
0.0
 30
0.0
  0
VERTEX
  5
8D1
  8
1
  6
CONTINUOUS
 62
     7
 10
-202.9637406608877
 20
174.2783126950872
 30
0.0
  0
VERTEX
  5
8D2
  8
1
  6
CONTINUOUS
 62
     7
 10
-202.9668580926894
 20
174.2782749930813
 30
0.0
  0
VERTEX
  5
8D3
  8
1
  6
CONTINUOUS
 62
     7
 10
-202.9965377967247
 20
174.2769410416837
 30
0.0
  0
VERTEX
  5
8D4
  8
1
  6
CONTINUOUS
 62
     7
 10
-203.0260664754579
 20
174.2738518359238
 30
0.0
  0
VERTEX
  5
8D5
  8
1
  6
CONTINUOUS
 62
     7
 10
-203.0553913037269
 20
174.2690146958182
 30
0.0
  0
VERTEX
  5
8D6
  8
1
  6
CONTINUOUS
 62
     7
 10
-203.0844621612853
 20
174.2624301353822
 30
0.0
  0
VERTEX
  5
8D7
  8
1
  6
CONTINUOUS
 62
     7
 10
-203.1102538482829
 20
174.2550403605433
 30
0.0
  0
VERTEX
  5
8D8
  8
1
  6
CONTINUOUS
 62
     7
 10
-203.1357950252342
 20
174.2462205334769
 30
0.0
  0
VERTEX
  5
8D9
  8
1
  6
CONTINUOUS
 62
     7
 10
-203.161010408274
 20
174.235965320767
 30
0.0
  0
VERTEX
  5
8DA
  8
1
  6
CONTINUOUS
 62
     7
 10
-203.1859440801104
 20
174.2242111304965
 30
0.0
  0
VERTEX
  5
8DB
  8
1
  6
CONTINUOUS
 62
     7
 10
-203.2104648925283
 20
174.2109629231908
 30
0.0
  0
VERTEX
  5
8DC
  8
1
  6
CONTINUOUS
 62
     7
 10
-203.234606393843
 20
174.1961321378665
 30
0.0
  0
VERTEX
  5
8DD
  8
1
  6
CONTINUOUS
 62
     7
 10
-203.2582292577446
 20
174.1797179492594
 30
0.0
  0
VERTEX
  5
8DE
  8
1
  6
CONTINUOUS
 62
     7
 10
-203.2813039080475
 20
174.1616407593778
 30
0.0
  0
VERTEX
  5
8DF
  8
1
  6
CONTINUOUS
 62
     7
 10
-203.30144299457
 20
174.14398246403
 30
0.0
  0
VERTEX
  5
8E0
  8
1
  6
CONTINUOUS
 62
     7
 10
-203.3209912061016
 20
174.1249063840552
 30
0.0
  0
VERTEX
  5
8E1
  8
1
  6
CONTINUOUS
 62
     7
 10
-203.3399059259159
 20
174.1043223247045
 30
0.0
  0
VERTEX
  5
8E2
  8
1
  6
CONTINUOUS
 62
     7
 10
-203.3490952929311
 20
174.0934473826562
 30
0.0
  0
VERTEX
  5
8E3
  8
1
  6
CONTINUOUS
 62
     7
 10
-203.3580728659726
 20
174.0821938384512
 30
0.0
  0
VERTEX
  5
8E4
  8
1
  6
CONTINUOUS
 62
     7
 10
-203.3668675066941
 20
174.070498420961
 30
0.0
  0
VERTEX
  5
8E5
  8
1
  6
CONTINUOUS
 62
     7
 10
-203.3754206029437
 20
174.0584092283715
 30
0.0
  0
VERTEX
  5
8E6
  8
1
  6
CONTINUOUS
 62
     7
 10
-203.3837468036212
 20
174.0458738142051
 30
0.0
  0
VERTEX
  5
8E7
  8
1
  6
CONTINUOUS
 62
     7
 10
-203.3917966121582
 20
174.0329317407068
 30
0.0
  0
VERTEX
  5
8E8
  8
1
  6
CONTINUOUS
 62
     7
 10
-203.4032591373923
 20
174.0128455040819
 30
0.0
  0
VERTEX
  5
8E9
  8
1
  6
CONTINUOUS
 62
     7
 10
-203.4086246885711
 20
174.0026481306862
 30
0.0
  0
VERTEX
  5
8EA
  8
1
  6
CONTINUOUS
 62
     7
 10
-203.4138065269439
 20
173.9922283489145
 30
0.0
  0
VERTEX
  5
8EB
  8
1
  6
CONTINUOUS
 62
     7
 10
-203.4188105847462
 20
173.9815531598109
 30
0.0
  0
VERTEX
  5
8EC
  8
1
  6
CONTINUOUS
 62
     7
 10
-203.4236107258692
 20
173.970655931947
 30
0.0
  0
VERTEX
  5
8ED
  8
1
  6
CONTINUOUS
 62
     7
 10
-203.4280562522333
 20
173.9598906268625
 30
0.0
  0
VERTEX
  5
8EE
  8
1
  6
CONTINUOUS
 62
     7
 10
-203.4322912905547
 20
173.9489217832421
 30
0.0
  0
VERTEX
  5
8EF
  8
1
  6
CONTINUOUS
 62
     7
 10
-203.4363207473694
 20
173.9377100962998
 30
0.0
  0
VERTEX
  5
8F0
  8
1
  6
CONTINUOUS
 62
     7
 10
-203.440117884353
 20
173.9263021427527
 30
0.0
  0
VERTEX
  5
8F1
  8
1
  6
CONTINUOUS
 62
     7
 10
-203.4431492355879
 20
173.9164747279523
 30
0.0
  0
VERTEX
  5
8F2
  8
1
  6
CONTINUOUS
 62
     7
 10
-203.4459994878704
 20
173.9065150601533
 30
0.0
  0
VERTEX
  5
8F3
  8
1
  6
CONTINUOUS
 62
     7
 10
-203.4486710513393
 20
173.8963932519316
 30
0.0
  0
VERTEX
  5
8F4
  8
1
  6
CONTINUOUS
 62
     7
 10
-203.4511474614485
 20
173.8861497966937
 30
0.0
  0
VERTEX
  5
8F5
  8
1
  6
CONTINUOUS
 62
     7
 10
-203.4534359233615
 20
173.8757265772308
 30
0.0
  0
VERTEX
  5
8F6
  8
1
  6
CONTINUOUS
 62
     7
 10
-203.4555143415996
 20
173.8651952534848
 30
0.0
  0
VERTEX
  5
8F7
  8
1
  6
CONTINUOUS
 62
     7
 10
-203.4573840711101
 20
173.8545197884785
 30
0.0
  0
VERTEX
  5
8F8
  8
1
  6
CONTINUOUS
 62
     7
 10
-203.459030568994
 20
173.8437540534255
 30
0.0
  0
VERTEX
  5
8F9
  8
1
  6
CONTINUOUS
 62
     7
 10
-203.4604578825814
 20
173.832830823713
 30
0.0
  0
VERTEX
  5
8FA
  8
1
  6
CONTINUOUS
 62
     7
 10
-203.4616490128198
 20
173.8218384959088
 30
0.0
  0
VERTEX
  5
8FB
  8
1
  6
CONTINUOUS
 62
     7
 10
-203.4626037884831
 20
173.8107357200781
 30
0.0
  0
VERTEX
  5
8FC
  8
1
  6
CONTINUOUS
 62
     7
 10
-203.4633127953942
 20
173.7995888543051
 30
0.0
  0
SEQEND
  5
A37
  8
1
  6
CONTINUOUS
 62
     7
  0
POLYLINE
  5
46C
  8
1
  6
CONTINUOUS
 62
     7
 66
     1
 10
0.0
 20
0.0
 30
0.0
  0
VERTEX
  5
8FD
  8
1
  6
CONTINUOUS
 62
     7
 10
-202.9652244663627
 20
174.25
 30
0.0
  0
VERTEX
  5
8FE
  8
1
  6
CONTINUOUS
 62
     7
 10
-203.0595581168902
 20
174.2410201983812
 30
0.0
  0
VERTEX
  5
8FF
  8
1
  6
CONTINUOUS
 62
     7
 10
-203.1505035782427
 20
174.2144033285915
 30
0.0
  0
VERTEX
  5
900
  8
1
  6
CONTINUOUS
 62
     7
 10
-203.2347942860014
 20
174.1711054110691
 30
0.0
  0
VERTEX
  5
901
  8
1
  6
CONTINUOUS
 62
     7
 10
-203.3094027001142
 20
174.1126816134349
 30
0.0
  0
VERTEX
  5
902
  8
1
  6
CONTINUOUS
 62
     7
 10
-203.3716490475913
 20
174.0412303922336
 30
0.0
  0
VERTEX
  5
903
  8
1
  6
CONTINUOUS
 62
     7
 10
-203.4192975741592
 20
173.959318120909
 30
0.0
  0
VERTEX
  5
904
  8
1
  6
CONTINUOUS
 62
     7
 10
-203.4506368477225
 20
173.8698869112167
 30
0.0
  0
VERTEX
  5
905
  8
1
  6
CONTINUOUS
 62
     7
 10
-203.4645412293057
 20
173.7761489389286
 30
0.0
  0
SEQEND
  5
A38
  8
1
  6
CONTINUOUS
 62
     7
  0
LINE
  5
46D
  8
1
  6
CONTINUOUS
 62
     7
 10
-205.6211034885018
 20
173.7597077229334
 30
0.0
 11
-205.6210088781635
 21
173.7499809608071
 31
0.0
  0
LINE
  5
46E
  8
1
  6
CONTINUOUS
 62
     7
 10
-203.4633127953942
 20
173.7995888543051
 30
0.0
 11
-203.464461252306
 21
173.7776749909916
 31
0.0
  0
LINE
  5
46F
  8
1
  6
CONTINUOUS
 62
     9
 10
-203.464461252306
 20
173.7776749909915
 30
0.0
 11
-205.6210088781635
 21
173.7499809608071
 31
0.0
  0
POLYLINE
  5
470
  8
1
  6
CONTINUOUS
 62
     7
 66
     1
 10
0.0
 20
0.0
 30
0.0
  0
VERTEX
  5
906
  8
1
  6
CONTINUOUS
 62
     7
 10
-206.1210059492229
 20
174.25
 30
0.0
  0
VERTEX
  5
907
  8
1
  6
CONTINUOUS
 62
     7
 10
-206.1001701108786
 20
174.2495656632424
 30
0.0
  0
VERTEX
  5
908
  8
1
  6
CONTINUOUS
 62
     7
 10
-206.0793014097635
 20
174.2482576308792
 30
0.0
  0
VERTEX
  5
909
  8
1
  6
CONTINUOUS
 62
     7
 10
-206.0584692461829
 20
174.2460735971458
 30
0.0
  0
VERTEX
  5
90A
  8
1
  6
CONTINUOUS
 62
     7
 10
-206.0376315226639
 20
174.2429994331523
 30
0.0
  0
VERTEX
  5
90B
  8
1
  6
CONTINUOUS
 62
     7
 10
-206.016905084632
 20
174.2390425285972
 30
0.0
  0
VERTEX
  5
90C
  8
1
  6
CONTINUOUS
 62
     7
 10
-205.996249542932
 20
174.2341851276227
 30
0.0
  0
VERTEX
  5
90D
  8
1
  6
CONTINUOUS
 62
     7
 10
-205.9757820077748
 20
174.2284445486302
 30
0.0
  0
VERTEX
  5
90E
  8
1
  6
CONTINUOUS
 62
     7
 10
-205.9555089328746
 20
174.2218152869375
 30
0.0
  0
VERTEX
  5
90F
  8
1
  6
CONTINUOUS
 62
     7
 10
-205.9395154252554
 20
174.2158967800464
 30
0.0
  0
VERTEX
  5
910
  8
1
  6
CONTINUOUS
 62
     7
 10
-205.9237329962153
 20
174.2094364438476
 30
0.0
  0
VERTEX
  5
911
  8
1
  6
CONTINUOUS
 62
     7
 10
-205.908107727348
 20
174.2024074122984
 30
0.0
  0
VERTEX
  5
912
  8
1
  6
CONTINUOUS
 62
     7
 10
-205.8927323919424
 20
174.1948472950093
 30
0.0
  0
VERTEX
  5
913
  8
1
  6
CONTINUOUS
 62
     7
 10
-205.8779696076577
 20
174.186956418673
 30
0.0
  0
VERTEX
  5
914
  8
1
  6
CONTINUOUS
 62
     7
 10
-205.8634791637587
 20
174.178575919558
 30
0.0
  0
VERTEX
  5
915
  8
1
  6
CONTINUOUS
 62
     7
 10
-205.8492139548927
 20
174.1696737977943
 30
0.0
  0
VERTEX
  5
916
  8
1
  6
CONTINUOUS
 62
     7
 10
-205.8352560648919
 20
174.1602971638912
 30
0.0
  0
VERTEX
  5
917
  8
1
  6
CONTINUOUS
 62
     7
 10
-205.8218057996079
 20
174.1505942140914
 30
0.0
  0
VERTEX
  5
918
  8
1
  6
CONTINUOUS
 62
     7
 10
-205.8086704575262
 20
174.1404390959493
 30
0.0
  0
VERTEX
  5
919
  8
1
  6
CONTINUOUS
 62
     7
 10
-205.7955373753636
 20
174.1295602138379
 30
0.0
  0
VERTEX
  5
91A
  8
1
  6
CONTINUOUS
 62
     7
 10
-205.7827828162896
 20
174.1182399158341
 30
0.0
  0
VERTEX
  5
91B
  8
1
  6
CONTINUOUS
 62
     7
 10
-205.7703647942845
 20
174.1064350058609
 30
0.0
  0
VERTEX
  5
91C
  8
1
  6
CONTINUOUS
 62
     7
 10
-205.7583584008518
 20
174.0942116802979
 30
0.0
  0
VERTEX
  5
91D
  8
1
  6
CONTINUOUS
 62
     7
 10
-205.7470395104663
 20
174.0818790066875
 30
0.0
  0
VERTEX
  5
91E
  8
1
  6
CONTINUOUS
 62
     7
 10
-205.7361396655759
 20
174.0691744602451
 30
0.0
  0
VERTEX
  5
91F
  8
1
  6
CONTINUOUS
 62
     7
 10
-205.725625008813
 20
174.0560522561933
 30
0.0
  0
VERTEX
  5
920
  8
1
  6
CONTINUOUS
 62
     7
 10
-205.7155573998199
 20
174.0425840159137
 30
0.0
  0
VERTEX
  5
921
  8
1
  6
CONTINUOUS
 62
     7
 10
-205.706359567306
 20
174.0293959994752
 30
0.0
  0
SEQEND
  5
A39
  8
1
  6
CONTINUOUS
 62
     7
  0
LINE
  5
471
  8
1
  6
CONTINUOUS
 62
     9
 10
-200.1219905633128
 20
173.7507387314174
 30
0.0
 11
-202.2775565040211
 21
173.7776749909915
 31
0.0
  0
POLYLINE
  5
472
  8
1
  6
CONTINUOUS
 62
     7
 66
     1
 10
0.0
 20
0.0
 30
0.0
  0
VERTEX
  5
922
  8
1
  6
CONTINUOUS
 62
     7
 10
-202.2787049609329
 20
173.7995888543051
 30
0.0
  0
VERTEX
  5
923
  8
1
  6
CONTINUOUS
 62
     7
 10
-202.279675717838
 20
173.8140763934876
 30
0.0
  0
VERTEX
  5
924
  8
1
  6
CONTINUOUS
 62
     7
 10
-202.2810608608038
 20
173.8284902644814
 30
0.0
  0
VERTEX
  5
925
  8
1
  6
CONTINUOUS
 62
     7
 10
-202.2828510042185
 20
173.8427872593049
 30
0.0
  0
VERTEX
  5
926
  8
1
  6
CONTINUOUS
 62
     7
 10
-202.2850662697352
 20
173.8571111881674
 30
0.0
  0
VERTEX
  5
927
  8
1
  6
CONTINUOUS
 62
     7
 10
-202.2876758747053
 20
173.8712778574144
 30
0.0
  0
VERTEX
  5
928
  8
1
  6
CONTINUOUS
 62
     7
 10
-202.2906639499059
 20
173.8852516132167
 30
0.0
  0
VERTEX
  5
929
  8
1
  6
CONTINUOUS
 62
     7
 10
-202.2940565362116
 20
173.8991658860895
 30
0.0
  0
VERTEX
  5
92A
  8
1
  6
CONTINUOUS
 62
     7
 10
-202.2978082239277
 20
173.9128579600667
 30
0.0
  0
VERTEX
  5
92B
  8
1
  6
CONTINUOUS
 62
     7
 10
-202.3018998719741
 20
173.9263021427527
 30
0.0
  0
VERTEX
  5
92C
  8
1
  6
CONTINUOUS
 62
     7
 10
-202.3058658634094
 20
173.9381971042322
 30
0.0
  0
VERTEX
  5
92D
  8
1
  6
CONTINUOUS
 62
     7
 10
-202.3100841339219
 20
173.949878289321
 30
0.0
  0
VERTEX
  5
92E
  8
1
  6
CONTINUOUS
 62
     7
 10
-202.3159874739275
 20
173.964883438284
 30
0.0
  0
VERTEX
  5
92F
  8
1
  6
CONTINUOUS
 62
     7
 10
-202.3222829187963
 20
173.9795074726674
 30
0.0
  0
VERTEX
  5
930
  8
1
  6
CONTINUOUS
 62
     7
 10
-202.3289411002536
 20
173.9937329675678
 30
0.0
  0
VERTEX
  5
931
  8
1
  6
CONTINUOUS
 62
     7
 10
-202.3392507232695
 20
174.0137530173731
 30
0.0
  0
VERTEX
  5
932
  8
1
  6
CONTINUOUS
 62
     7
 10
-202.3502211441689
 20
174.0329317407068
 30
0.0
  0
VERTEX
  5
933
  8
1
  6
CONTINUOUS
 62
     7
 10
-202.3608277156683
 20
174.0498097011978
 30
0.0
  0
VERTEX
  5
934
  8
1
  6
CONTINUOUS
 62
     7
 10
-202.3719046150179
 20
174.0659985742921
 30
0.0
  0
VERTEX
  5
935
  8
1
  6
CONTINUOUS
 62
     7
 10
-202.383405447999
 20
174.0814963524185
 30
0.0
  0
VERTEX
  5
936
  8
1
  6
CONTINUOUS
 62
     7
 10
-202.3954005194755
 20
174.0964415468141
 30
0.0
  0
VERTEX
  5
937
  8
1
  6
CONTINUOUS
 62
     7
 10
-202.4077700137352
 20
174.1107214985466
 30
0.0
  0
VERTEX
  5
938
  8
1
  6
CONTINUOUS
 62
     7
 10
-202.4204787709684
 20
174.1243413915813
 30
0.0
  0
VERTEX
  5
939
  8
1
  6
CONTINUOUS
 62
     7
 10
-202.440270509095
 20
174.1437011180371
 30
0.0
  0
VERTEX
  5
93A
  8
1
  6
CONTINUOUS
 62
     7
 10
-202.4607138482795
 20
174.1616407593778
 30
0.0
  0
VERTEX
  5
93B
  8
1
  6
CONTINUOUS
 62
     7
 10
-202.4832684537229
 20
174.1793337535484
 30
0.0
  0
VERTEX
  5
93C
  8
1
  6
CONTINUOUS
 62
     7
 10
-202.5065335817604
 20
174.195557344889
 30
0.0
  0
VERTEX
  5
93D
  8
1
  6
CONTINUOUS
 62
     7
 10
-202.5303493389256
 20
174.210266983139
 30
0.0
  0
VERTEX
  5
93E
  8
1
  6
CONTINUOUS
 62
     7
 10
-202.5548386004974
 20
174.2235851695351
 30
0.0
  0
VERTEX
  5
93F
  8
1
  6
CONTINUOUS
 62
     7
 10
-202.5797833915182
 20
174.2354267002679
 30
0.0
  0
VERTEX
  5
940
  8
1
  6
CONTINUOUS
 62
     7
 10
-202.6053135540475
 20
174.2458781204774
 30
0.0
  0
VERTEX
  5
941
  8
1
  6
CONTINUOUS
 62
     7
 10
-202.6312179906296
 20
174.2548677398437
 30
0.0
  0
VERTEX
  5
942
  8
1
  6
CONTINUOUS
 62
     7
 10
-202.6575555950418
 20
174.2624301353822
 30
0.0
  0
VERTEX
  5
943
  8
1
  6
CONTINUOUS
 62
     7
 10
-202.6864768820852
 20
174.2689854284558
 30
0.0
  0
VERTEX
  5
944
  8
1
  6
CONTINUOUS
 62
     7
 10
-202.7157751250354
 20
174.2738281041724
 30
0.0
  0
VERTEX
  5
945
  8
1
  6
CONTINUOUS
 62
     7
 10
-202.7453270969684
 20
174.2769295930971
 30
0.0
  0
VERTEX
  5
946
  8
1
  6
CONTINUOUS
 62
     7
 10
-202.7751596636376
 20
174.2782749930813
 30
0.0
  0
VERTEX
  5
947
  8
1
  6
CONTINUOUS
 62
     7
 10
-202.7782770954394
 20
174.2783126950872
 30
0.0
  0
SEQEND
  5
A3A
  8
1
  6
CONTINUOUS
 62
     7
  0
POLYLINE
  5
473
  8
1
  6
CONTINUOUS
 62
     7
 66
     1
 10
0.0
 20
0.0
 30
0.0
  0
VERTEX
  5
948
  8
1
  6
CONTINUOUS
 62
     7
 10
-199.6210118071042
 20
174.25
 30
0.0
  0
VERTEX
  5
949
  8
1
  6
CONTINUOUS
 62
     7
 10
-199.6418476454485
 20
174.2495656632424
 30
0.0
  0
VERTEX
  5
94A
  8
1
  6
CONTINUOUS
 62
     7
 10
-199.6627163465635
 20
174.2482576308792
 30
0.0
  0
VERTEX
  5
94B
  8
1
  6
CONTINUOUS
 62
     7
 10
-199.6835485101442
 20
174.2460735971458
 30
0.0
  0
VERTEX
  5
94C
  8
1
  6
CONTINUOUS
 62
     7
 10
-199.7043862336631
 20
174.2429994331523
 30
0.0
  0
VERTEX
  5
94D
  8
1
  6
CONTINUOUS
 62
     7
 10
-199.725112671695
 20
174.2390425285972
 30
0.0
  0
VERTEX
  5
94E
  8
1
  6
CONTINUOUS
 62
     7
 10
-199.7457682133951
 20
174.2341851276227
 30
0.0
  0
VERTEX
  5
94F
  8
1
  6
CONTINUOUS
 62
     7
 10
-199.7662357485523
 20
174.2284445486302
 30
0.0
  0
VERTEX
  5
950
  8
1
  6
CONTINUOUS
 62
     7
 10
-199.7865088234525
 20
174.2218152869375
 30
0.0
  0
VERTEX
  5
951
  8
1
  6
CONTINUOUS
 62
     7
 10
-199.8025023310717
 20
174.2158967800464
 30
0.0
  0
VERTEX
  5
952
  8
1
  6
CONTINUOUS
 62
     7
 10
-199.8182847601118
 20
174.2094364438476
 30
0.0
  0
VERTEX
  5
953
  8
1
  6
CONTINUOUS
 62
     7
 10
-199.8339100289791
 20
174.2024074122984
 30
0.0
  0
VERTEX
  5
954
  8
1
  6
CONTINUOUS
 62
     7
 10
-199.8492853643847
 20
174.1948472950093
 30
0.0
  0
VERTEX
  5
955
  8
1
  6
CONTINUOUS
 62
     7
 10
-199.8640481486694
 20
174.186956418673
 30
0.0
  0
VERTEX
  5
956
  8
1
  6
CONTINUOUS
 62
     7
 10
-199.8785385925684
 20
174.178575919558
 30
0.0
  0
VERTEX
  5
957
  8
1
  6
CONTINUOUS
 62
     7
 10
-199.8928038014344
 20
174.1696737977943
 30
0.0
  0
VERTEX
  5
958
  8
1
  6
CONTINUOUS
 62
     7
 10
-199.9067616914352
 20
174.1602971638912
 30
0.0
  0
VERTEX
  5
959
  8
1
  6
CONTINUOUS
 62
     7
 10
-199.9202119567192
 20
174.1505942140914
 30
0.0
  0
VERTEX
  5
95A
  8
1
  6
CONTINUOUS
 62
     7
 10
-199.9333472988008
 20
174.1404390959493
 30
0.0
  0
VERTEX
  5
95B
  8
1
  6
CONTINUOUS
 62
     7
 10
-199.9464803809635
 20
174.1295602138379
 30
0.0
  0
VERTEX
  5
95C
  8
1
  6
CONTINUOUS
 62
     7
 10
-199.9592349400375
 20
174.1182399158341
 30
0.0
  0
VERTEX
  5
95D
  8
1
  6
CONTINUOUS
 62
     7
 10
-199.9716529620426
 20
174.1064350058609
 30
0.0
  0
VERTEX
  5
95E
  8
1
  6
CONTINUOUS
 62
     7
 10
-199.9836593554753
 20
174.0942116802979
 30
0.0
  0
VERTEX
  5
95F
  8
1
  6
CONTINUOUS
 62
     7
 10
-199.9949782458608
 20
174.0818790066875
 30
0.0
  0
VERTEX
  5
960
  8
1
  6
CONTINUOUS
 62
     7
 10
-200.0058780907511
 20
174.0691744602451
 30
0.0
  0
VERTEX
  5
961
  8
1
  6
CONTINUOUS
 62
     7
 10
-200.0163927475141
 20
174.0560522561933
 30
0.0
  0
VERTEX
  5
962
  8
1
  6
CONTINUOUS
 62
     7
 10
-200.0264603565071
 20
174.0425840159137
 30
0.0
  0
VERTEX
  5
963
  8
1
  6
CONTINUOUS
 62
     7
 10
-200.0356581890211
 20
174.0293959994752
 30
0.0
  0
SEQEND
  5
A3B
  8
1
  6
CONTINUOUS
 62
     7
  0
LINE
  5
474
  8
1
  6
CONTINUOUS
 62
     7
 10
-200.1210088781636
 20
173.7499809608071
 30
0.0
 11
-200.1219905633128
 21
173.7507387314174
 31
0.0
  0
LINE
  5
475
  8
1
  6
CONTINUOUS
 62
     7
 10
-202.2775565040211
 20
173.7776749909915
 30
0.0
 11
-202.2787049609329
 21
173.7995888543051
 31
0.0
  0
POLYLINE
  5
476
  8
1
  6
CONTINUOUS
 62
     7
 66
     1
 10
0.0
 20
0.0
 30
0.0
  0
VERTEX
  5
964
  8
1
  6
CONTINUOUS
 62
     7
 10
-202.2774765270214
 20
173.7761489389286
 30
0.0
  0
VERTEX
  5
965
  8
1
  6
CONTINUOUS
 62
     7
 10
-202.2913809086046
 20
173.8698869112167
 30
0.0
  0
VERTEX
  5
966
  8
1
  6
CONTINUOUS
 62
     7
 10
-202.3227201821678
 20
173.959318120909
 30
0.0
  0
VERTEX
  5
967
  8
1
  6
CONTINUOUS
 62
     7
 10
-202.3703687087357
 20
174.0412303922336
 30
0.0
  0
VERTEX
  5
968
  8
1
  6
CONTINUOUS
 62
     7
 10
-202.4326150562129
 20
174.1126816134349
 30
0.0
  0
VERTEX
  5
969
  8
1
  6
CONTINUOUS
 62
     7
 10
-202.5072234703257
 20
174.1711054110691
 30
0.0
  0
VERTEX
  5
96A
  8
1
  6
CONTINUOUS
 62
     7
 10
-202.5915141780844
 20
174.2144033285915
 30
0.0
  0
VERTEX
  5
96B
  8
1
  6
CONTINUOUS
 62
     7
 10
-202.6824596394369
 20
174.2410201983812
 30
0.0
  0
VERTEX
  5
96C
  8
1
  6
CONTINUOUS
 62
     7
 10
-202.7767932899643
 20
174.25
 30
0.0
  0
SEQEND
  5
A3C
  8
1
  6
CONTINUOUS
 62
     7
  0
LINE
  5
477
  8
1
  6
CONTINUOUS
 62
     7
 10
-167.6211034885018
 20
173.7597077229332
 30
0.0
 11
-167.6210088781635
 21
173.7499809608071
 31
0.0
  0
POLYLINE
  5
478
  8
1
  6
CONTINUOUS
 62
     7
 66
     1
 10
0.0
 20
0.0
 30
0.0
  0
VERTEX
  5
96D
  8
1
  6
CONTINUOUS
 62
     7
 10
-164.9637406608877
 20
174.2783126950872
 30
0.0
  0
VERTEX
  5
96E
  8
1
  6
CONTINUOUS
 62
     7
 10
-164.9668580926894
 20
174.2782749930813
 30
0.0
  0
VERTEX
  5
96F
  8
1
  6
CONTINUOUS
 62
     7
 10
-164.9965633759884
 20
174.2769391379727
 30
0.0
  0
VERTEX
  5
970
  8
1
  6
CONTINUOUS
 62
     7
 10
-165.0260664754579
 20
174.2738518359238
 30
0.0
  0
VERTEX
  5
971
  8
1
  6
CONTINUOUS
 62
     7
 10
-165.0554163611244
 20
174.269009833749
 30
0.0
  0
VERTEX
  5
972
  8
1
  6
CONTINUOUS
 62
     7
 10
-165.0844621612853
 20
174.2624301353822
 30
0.0
  0
VERTEX
  5
973
  8
1
  6
CONTINUOUS
 62
     7
 10
-165.1102901130175
 20
174.2550289664817
 30
0.0
  0
VERTEX
  5
974
  8
1
  6
CONTINUOUS
 62
     7
 10
-165.1357950252342
 20
174.2462205334769
 30
0.0
  0
VERTEX
  5
975
  8
1
  6
CONTINUOUS
 62
     7
 10
-165.1610724891997
 20
174.2359381856085
 30
0.0
  0
VERTEX
  5
976
  8
1
  6
CONTINUOUS
 62
     7
 10
-165.1859440801104
 20
174.2242111304965
 30
0.0
  0
VERTEX
  5
977
  8
1
  6
CONTINUOUS
 62
     7
 10
-165.2105277084857
 20
174.2109268586585
 30
0.0
  0
VERTEX
  5
978
  8
1
  6
CONTINUOUS
 62
     7
 10
-165.234606393843
 20
174.1961321378665
 30
0.0
  0
VERTEX
  5
979
  8
1
  6
CONTINUOUS
 62
     7
 10
-165.2582701326061
 20
174.1796880169258
 30
0.0
  0
VERTEX
  5
97A
  8
1
  6
CONTINUOUS
 62
     7
 10
-165.2813039080475
 20
174.1616407593778
 30
0.0
  0
VERTEX
  5
97B
  8
1
  6
CONTINUOUS
 62
     7
 10
-165.3014429945701
 20
174.14398246403
 30
0.0
  0
VERTEX
  5
97C
  8
1
  6
CONTINUOUS
 62
     7
 10
-165.3210286863751
 20
174.1248679856929
 30
0.0
  0
VERTEX
  5
97D
  8
1
  6
CONTINUOUS
 62
     7
 10
-165.3399059259159
 20
174.1043223247045
 30
0.0
  0
VERTEX
  5
97E
  8
1
  6
CONTINUOUS
 62
     7
 10
-165.3521400548045
 20
174.0897037646636
 30
0.0
  0
VERTEX
  5
97F
  8
1
  6
CONTINUOUS
 62
     7
 10
-165.3639919658529
 20
174.0744003002612
 30
0.0
  0
VERTEX
  5
980
  8
1
  6
CONTINUOUS
 62
     7
 10
-165.3754206029436
 20
174.0584092283715
 30
0.0
  0
VERTEX
  5
981
  8
1
  6
CONTINUOUS
 62
     7
 10
-165.3837468036212
 20
174.0458738142051
 30
0.0
  0
VERTEX
  5
982
  8
1
  6
CONTINUOUS
 62
     7
 10
-165.3917966121582
 20
174.0329317407068
 30
0.0
  0
VERTEX
  5
983
  8
1
  6
CONTINUOUS
 62
     7
 10
-165.3994458207666
 20
174.0197670872713
 30
0.0
  0
VERTEX
  5
984
  8
1
  6
CONTINUOUS
 62
     7
 10
-165.4067909224125
 20
174.0061968026945
 30
0.0
  0
VERTEX
  5
985
  8
1
  6
CONTINUOUS
 62
     7
 10
-165.4138065269439
 20
173.9922283489145
 30
0.0
  0
VERTEX
  5
986
  8
1
  6
CONTINUOUS
 62
     7
 10
-165.4203318006896
 20
173.9781736245594
 30
0.0
  0
VERTEX
  5
987
  8
1
  6
CONTINUOUS
 62
     7
 10
-165.4265027888602
 20
173.9637324280529
 30
0.0
  0
VERTEX
  5
988
  8
1
  6
CONTINUOUS
 62
     7
 10
-165.4322912905547
 20
173.9489217832421
 30
0.0
  0
VERTEX
  5
989
  8
1
  6
CONTINUOUS
 62
     7
 10
-165.4363207473694
 20
173.9377100962998
 30
0.0
  0
VERTEX
  5
98A
  8
1
  6
CONTINUOUS
 62
     7
 10
-165.440117884353
 20
173.9263021427527
 30
0.0
  0
VERTEX
  5
98B
  8
1
  6
CONTINUOUS
 62
     7
 10
-165.4431492355879
 20
173.9164747279523
 30
0.0
  0
VERTEX
  5
98C
  8
1
  6
CONTINUOUS
 62
     7
 10
-165.4459994878704
 20
173.9065150601533
 30
0.0
  0
VERTEX
  5
98D
  8
1
  6
CONTINUOUS
 62
     7
 10
-165.449528176475
 20
173.8929508764986
 30
0.0
  0
VERTEX
  5
98E
  8
1
  6
CONTINUOUS
 62
     7
 10
-165.4527055814141
 20
173.8791677658058
 30
0.0
  0
VERTEX
  5
98F
  8
1
  6
CONTINUOUS
 62
     7
 10
-165.4555143415996
 20
173.8651952534848
 30
0.0
  0
VERTEX
  5
990
  8
1
  6
CONTINUOUS
 62
     7
 10
-165.4579650781023
 20
173.8508914900605
 30
0.0
  0
VERTEX
  5
991
  8
1
  6
CONTINUOUS
 62
     7
 10
-165.460014477493
 20
173.8364255562689
 30
0.0
  0
VERTEX
  5
992
  8
1
  6
CONTINUOUS
 62
     7
 10
-165.4616490128198
 20
173.8218384959088
 30
0.0
  0
VERTEX
  5
993
  8
1
  6
CONTINUOUS
 62
     7
 10
-165.4626037884831
 20
173.8107357200781
 30
0.0
  0
VERTEX
  5
994
  8
1
  6
CONTINUOUS
 62
     7
 10
-165.4633127953942
 20
173.7995888543051
 30
0.0
  0
SEQEND
  5
A3D
  8
1
  6
CONTINUOUS
 62
     7
  0
LINE
  5
479
  8
1
  6
CONTINUOUS
 62
     7
 10
-165.4633127953942
 20
173.7995888543051
 30
0.0
 11
-165.464461252306
 21
173.7776749909915
 31
0.0
  0
LINE
  5
47A
  8
1
  6
CONTINUOUS
 62
     9
 10
-165.464461252306
 20
173.7776749909915
 30
0.0
 11
-167.6210088781636
 21
173.7499809608071
 31
0.0
  0
POLYLINE
  5
47B
  8
1
  6
CONTINUOUS
 62
     7
 66
     1
 10
0.0
 20
0.0
 30
0.0
  0
VERTEX
  5
995
  8
1
  6
CONTINUOUS
 62
     7
 10
-168.1210059492229
 20
174.25
 30
0.0
  0
VERTEX
  5
996
  8
1
  6
CONTINUOUS
 62
     7
 10
-168.1001701108786
 20
174.2495656632424
 30
0.0
  0
VERTEX
  5
997
  8
1
  6
CONTINUOUS
 62
     7
 10
-168.0793014097635
 20
174.2482576308792
 30
0.0
  0
VERTEX
  5
998
  8
1
  6
CONTINUOUS
 62
     7
 10
-168.0584692461828
 20
174.2460735971458
 30
0.0
  0
VERTEX
  5
999
  8
1
  6
CONTINUOUS
 62
     7
 10
-168.0376315226639
 20
174.2429994331523
 30
0.0
  0
VERTEX
  5
99A
  8
1
  6
CONTINUOUS
 62
     7
 10
-168.016905084632
 20
174.2390425285972
 30
0.0
  0
VERTEX
  5
99B
  8
1
  6
CONTINUOUS
 62
     7
 10
-167.996249542932
 20
174.2341851276227
 30
0.0
  0
VERTEX
  5
99C
  8
1
  6
CONTINUOUS
 62
     7
 10
-167.9757820077748
 20
174.2284445486302
 30
0.0
  0
VERTEX
  5
99D
  8
1
  6
CONTINUOUS
 62
     7
 10
-167.9555089328746
 20
174.2218152869375
 30
0.0
  0
VERTEX
  5
99E
  8
1
  6
CONTINUOUS
 62
     7
 10
-167.9395154252554
 20
174.2158967800464
 30
0.0
  0
VERTEX
  5
99F
  8
1
  6
CONTINUOUS
 62
     7
 10
-167.9237329962153
 20
174.2094364438476
 30
0.0
  0
VERTEX
  5
9A0
  8
1
  6
CONTINUOUS
 62
     7
 10
-167.908107727348
 20
174.2024074122984
 30
0.0
  0
VERTEX
  5
9A1
  8
1
  6
CONTINUOUS
 62
     7
 10
-167.8927323919424
 20
174.1948472950093
 30
0.0
  0
VERTEX
  5
9A2
  8
1
  6
CONTINUOUS
 62
     7
 10
-167.8779696076577
 20
174.186956418673
 30
0.0
  0
VERTEX
  5
9A3
  8
1
  6
CONTINUOUS
 62
     7
 10
-167.8634791637587
 20
174.178575919558
 30
0.0
  0
VERTEX
  5
9A4
  8
1
  6
CONTINUOUS
 62
     7
 10
-167.8492139548927
 20
174.1696737977943
 30
0.0
  0
VERTEX
  5
9A5
  8
1
  6
CONTINUOUS
 62
     7
 10
-167.8352560648919
 20
174.1602971638912
 30
0.0
  0
VERTEX
  5
9A6
  8
1
  6
CONTINUOUS
 62
     7
 10
-167.8218057996079
 20
174.1505942140914
 30
0.0
  0
VERTEX
  5
9A7
  8
1
  6
CONTINUOUS
 62
     7
 10
-167.8086704575262
 20
174.1404390959493
 30
0.0
  0
VERTEX
  5
9A8
  8
1
  6
CONTINUOUS
 62
     7
 10
-167.7955373753636
 20
174.1295602138379
 30
0.0
  0
VERTEX
  5
9A9
  8
1
  6
CONTINUOUS
 62
     7
 10
-167.7827828162896
 20
174.1182399158341
 30
0.0
  0
VERTEX
  5
9AA
  8
1
  6
CONTINUOUS
 62
     7
 10
-167.7703647942844
 20
174.1064350058609
 30
0.0
  0
VERTEX
  5
9AB
  8
1
  6
CONTINUOUS
 62
     7
 10
-167.7583584008518
 20
174.0942116802979
 30
0.0
  0
VERTEX
  5
9AC
  8
1
  6
CONTINUOUS
 62
     7
 10
-167.7470395104663
 20
174.0818790066875
 30
0.0
  0
VERTEX
  5
9AD
  8
1
  6
CONTINUOUS
 62
     7
 10
-167.7361396655759
 20
174.0691744602451
 30
0.0
  0
VERTEX
  5
9AE
  8
1
  6
CONTINUOUS
 62
     7
 10
-167.7256250088129
 20
174.0560522561933
 30
0.0
  0
VERTEX
  5
9AF
  8
1
  6
CONTINUOUS
 62
     7
 10
-167.7155573998199
 20
174.0425840159137
 30
0.0
  0
VERTEX
  5
9B0
  8
1
  6
CONTINUOUS
 62
     7
 10
-167.706359567306
 20
174.0293959994752
 30
0.0
  0
SEQEND
  5
A3E
  8
1
  6
CONTINUOUS
 62
     7
  0
POLYLINE
  5
47C
  8
1
  6
CONTINUOUS
 62
     7
 66
     1
 10
0.0
 20
0.0
 30
0.0
  0
VERTEX
  5
9B1
  8
1
  6
CONTINUOUS
 62
     7
 10
-164.9652244663627
 20
174.25
 30
0.0
  0
VERTEX
  5
9B2
  8
1
  6
CONTINUOUS
 62
     7
 10
-165.0595581168902
 20
174.2410201983812
 30
0.0
  0
VERTEX
  5
9B3
  8
1
  6
CONTINUOUS
 62
     7
 10
-165.1505035782427
 20
174.2144033285915
 30
0.0
  0
VERTEX
  5
9B4
  8
1
  6
CONTINUOUS
 62
     7
 10
-165.2347942860014
 20
174.1711054110691
 30
0.0
  0
VERTEX
  5
9B5
  8
1
  6
CONTINUOUS
 62
     7
 10
-165.3094027001142
 20
174.1126816134349
 30
0.0
  0
VERTEX
  5
9B6
  8
1
  6
CONTINUOUS
 62
     7
 10
-165.3716490475913
 20
174.0412303922336
 30
0.0
  0
VERTEX
  5
9B7
  8
1
  6
CONTINUOUS
 62
     7
 10
-165.4192975741592
 20
173.959318120909
 30
0.0
  0
VERTEX
  5
9B8
  8
1
  6
CONTINUOUS
 62
     7
 10
-165.4506368477225
 20
173.8698869112167
 30
0.0
  0
VERTEX
  5
9B9
  8
1
  6
CONTINUOUS
 62
     7
 10
-165.4645412293057
 20
173.7761489389286
 30
0.0
  0
SEQEND
  5
A3F
  8
1
  6
CONTINUOUS
 62
     7
  0
POLYLINE
  5
47D
  8
1
  6
CONTINUOUS
 62
     7
 66
     1
 10
0.0
 20
0.0
 30
0.0
  0
VERTEX
  5
9BA
  8
1
  6
CONTINUOUS
 62
     7
 10
-164.2787049609329
 20
173.7995888543051
 30
0.0
  0
VERTEX
  5
9BB
  8
1
  6
CONTINUOUS
 62
     7
 10
-164.2795897369858
 20
173.8130145856348
 30
0.0
  0
VERTEX
  5
9BC
  8
1
  6
CONTINUOUS
 62
     7
 10
-164.280830304844
 20
173.8263723872371
 30
0.0
  0
VERTEX
  5
9BD
  8
1
  6
CONTINUOUS
 62
     7
 10
-164.2824335618824
 20
173.8397335796676
 30
0.0
  0
VERTEX
  5
9BE
  8
1
  6
CONTINUOUS
 62
     7
 10
-164.2843836602236
 20
173.8529810582686
 30
0.0
  0
VERTEX
  5
9BF
  8
1
  6
CONTINUOUS
 62
     7
 10
-164.2865863587565
 20
173.8656389457225
 30
0.0
  0
VERTEX
  5
9C0
  8
1
  6
CONTINUOUS
 62
     7
 10
-164.2890944578667
 20
173.8781557818945
 30
0.0
  0
VERTEX
  5
9C1
  8
1
  6
CONTINUOUS
 62
     7
 10
-164.2919153483609
 20
173.8905875589072
 30
0.0
  0
VERTEX
  5
9C2
  8
1
  6
CONTINUOUS
 62
     7
 10
-164.2950245068767
 20
173.9028485636091
 30
0.0
  0
VERTEX
  5
9C3
  8
1
  6
CONTINUOUS
 62
     7
 10
-164.2983327241284
 20
173.9146603170021
 30
0.0
  0
VERTEX
  5
9C4
  8
1
  6
CONTINUOUS
 62
     7
 10
-164.3018998719741
 20
173.9263021427527
 30
0.0
  0
VERTEX
  5
9C5
  8
1
  6
CONTINUOUS
 62
     7
 10
-164.3067340417841
 20
173.9406760992857
 30
0.0
  0
VERTEX
  5
9C6
  8
1
  6
CONTINUOUS
 62
     7
 10
-164.3119343718604
 20
173.9547350073619
 30
0.0
  0
VERTEX
  5
9C7
  8
1
  6
CONTINUOUS
 62
     7
 10
-164.3175156206046
 20
173.9685525898081
 30
0.0
  0
VERTEX
  5
9C8
  8
1
  6
CONTINUOUS
 62
     7
 10
-164.3234267169396
 20
173.9820354527244
 30
0.0
  0
VERTEX
  5
9C9
  8
1
  6
CONTINUOUS
 62
     7
 10
-164.3296831569453
 20
173.9952497859209
 30
0.0
  0
VERTEX
  5
9CA
  8
1
  6
CONTINUOUS
 62
     7
 10
-164.33623501203
 20
174.0081193794035
 30
0.0
  0
VERTEX
  5
9CB
  8
1
  6
CONTINUOUS
 62
     7
 10
-164.3430961865133
 20
174.0206992659166
 30
0.0
  0
VERTEX
  5
9CC
  8
1
  6
CONTINUOUS
 62
     7
 10
-164.3502211441689
 20
174.0329317407068
 30
0.0
  0
VERTEX
  5
9CD
  8
1
  6
CONTINUOUS
 62
     7
 10
-164.3621355141265
 20
174.0517926020204
 30
0.0
  0
VERTEX
  5
9CE
  8
1
  6
CONTINUOUS
 62
     7
 10
-164.3746781896324
 20
174.0698503623511
 30
0.0
  0
VERTEX
  5
9CF
  8
1
  6
CONTINUOUS
 62
     7
 10
-164.3877771838706
 20
174.0870780024505
 30
0.0
  0
VERTEX
  5
9D0
  8
1
  6
CONTINUOUS
 62
     7
 10
-164.4014449025062
 20
174.1035536021323
 30
0.0
  0
VERTEX
  5
9D1
  8
1
  6
CONTINUOUS
 62
     7
 10
-164.4155854007702
 20
174.1192152754657
 30
0.0
  0
VERTEX
  5
9D2
  8
1
  6
CONTINUOUS
 62
     7
 10
-164.4302235720384
 20
174.1341375538368
 30
0.0
  0
VERTEX
  5
9D3
  8
1
  6
CONTINUOUS
 62
     7
 10
-164.4452674213179
 20
174.1482672478391
 30
0.0
  0
VERTEX
  5
9D4
  8
1
  6
CONTINUOUS
 62
     7
 10
-164.4607138482795
 20
174.1616407593778
 30
0.0
  0
VERTEX
  5
9D5
  8
1
  6
CONTINUOUS
 62
     7
 10
-164.4832478394072
 20
174.1793185030864
 30
0.0
  0
VERTEX
  5
9D6
  8
1
  6
CONTINUOUS
 62
     7
 10
-164.5064757231879
 20
174.1955191760836
 30
0.0
  0
VERTEX
  5
9D7
  8
1
  6
CONTINUOUS
 62
     7
 10
-164.5302969673705
 20
174.2102365989637
 30
0.0
  0
VERTEX
  5
9D8
  8
1
  6
CONTINUOUS
 62
     7
 10
-164.5547650199299
 20
174.2235476164407
 30
0.0
  0
VERTEX
  5
9D9
  8
1
  6
CONTINUOUS
 62
     7
 10
-164.5797289026603
 20
174.2354026316274
 30
0.0
  0
VERTEX
  5
9DA
  8
1
  6
CONTINUOUS
 62
     7
 10
-164.6052550251589
 20
174.2458559299875
 30
0.0
  0
VERTEX
  5
9DB
  8
1
  6
CONTINUOUS
 62
     7
 10
-164.6311946861494
 20
174.2548603557059
 30
0.0
  0
VERTEX
  5
9DC
  8
1
  6
CONTINUOUS
 62
     7
 10
-164.6575555950418
 20
174.2624301353822
 30
0.0
  0
VERTEX
  5
9DD
  8
1
  6
CONTINUOUS
 62
     7
 10
-164.6864768820852
 20
174.2689854284558
 30
0.0
  0
VERTEX
  5
9DE
  8
1
  6
CONTINUOUS
 62
     7
 10
-164.7157494115186
 20
174.2738246097568
 30
0.0
  0
VERTEX
  5
9DF
  8
1
  6
CONTINUOUS
 62
     7
 10
-164.7453270969685
 20
174.2769295930971
 30
0.0
  0
VERTEX
  5
9E0
  8
1
  6
CONTINUOUS
 62
     7
 10
-164.7751596636377
 20
174.2782749930813
 30
0.0
  0
VERTEX
  5
9E1
  8
1
  6
CONTINUOUS
 62
     7
 10
-164.7782770954394
 20
174.2783126950872
 30
0.0
  0
SEQEND
  5
A40
  8
1
  6
CONTINUOUS
 62
     7
  0
POLYLINE
  5
47E
  8
1
  6
CONTINUOUS
 62
     7
 66
     1
 10
0.0
 20
0.0
 30
0.0
  0
VERTEX
  5
9E2
  8
1
  6
CONTINUOUS
 62
     7
 10
-164.2774765270214
 20
173.7761489389286
 30
0.0
  0
VERTEX
  5
9E3
  8
1
  6
CONTINUOUS
 62
     7
 10
-164.2913809086046
 20
173.8698869112167
 30
0.0
  0
VERTEX
  5
9E4
  8
1
  6
CONTINUOUS
 62
     7
 10
-164.3227201821678
 20
173.959318120909
 30
0.0
  0
VERTEX
  5
9E5
  8
1
  6
CONTINUOUS
 62
     7
 10
-164.3703687087357
 20
174.0412303922336
 30
0.0
  0
VERTEX
  5
9E6
  8
1
  6
CONTINUOUS
 62
     7
 10
-164.4326150562129
 20
174.1126816134349
 30
0.0
  0
VERTEX
  5
9E7
  8
1
  6
CONTINUOUS
 62
     7
 10
-164.5072234703257
 20
174.1711054110691
 30
0.0
  0
VERTEX
  5
9E8
  8
1
  6
CONTINUOUS
 62
     7
 10
-164.5915141780844
 20
174.2144033285915
 30
0.0
  0
VERTEX
  5
9E9
  8
1
  6
CONTINUOUS
 62
     7
 10
-164.6824596394369
 20
174.2410201983812
 30
0.0
  0
VERTEX
  5
9EA
  8
1
  6
CONTINUOUS
 62
     7
 10
-164.7767932899643
 20
174.25
 30
0.0
  0
SEQEND
  5
A41
  8
1
  6
CONTINUOUS
 62
     7
  0
LINE
  5
47F
  8
1
  6
CONTINUOUS
 62
     9
 10
-162.1219905633128
 20
173.7507387314174
 30
0.0
 11
-164.2775565040211
 21
173.7776749909915
 31
0.0
  0
POLYLINE
  5
480
  8
1
  6
CONTINUOUS
 62
     7
 66
     1
 10
0.0
 20
0.0
 30
0.0
  0
VERTEX
  5
9EB
  8
1
  6
CONTINUOUS
 62
     7
 10
-161.6210118071042
 20
174.25
 30
0.0
  0
VERTEX
  5
9EC
  8
1
  6
CONTINUOUS
 62
     7
 10
-161.6418476454485
 20
174.2495656632424
 30
0.0
  0
VERTEX
  5
9ED
  8
1
  6
CONTINUOUS
 62
     7
 10
-161.6627163465635
 20
174.2482576308792
 30
0.0
  0
VERTEX
  5
9EE
  8
1
  6
CONTINUOUS
 62
     7
 10
-161.6835485101442
 20
174.2460735971458
 30
0.0
  0
VERTEX
  5
9EF
  8
1
  6
CONTINUOUS
 62
     7
 10
-161.7043862336632
 20
174.2429994331523
 30
0.0
  0
VERTEX
  5
9F0
  8
1
  6
CONTINUOUS
 62
     7
 10
-161.725112671695
 20
174.2390425285972
 30
0.0
  0
VERTEX
  5
9F1
  8
1
  6
CONTINUOUS
 62
     7
 10
-161.7457682133951
 20
174.2341851276227
 30
0.0
  0
VERTEX
  5
9F2
  8
1
  6
CONTINUOUS
 62
     7
 10
-161.7662357485523
 20
174.2284445486302
 30
0.0
  0
VERTEX
  5
9F3
  8
1
  6
CONTINUOUS
 62
     7
 10
-161.7865088234525
 20
174.2218152869375
 30
0.0
  0
VERTEX
  5
9F4
  8
1
  6
CONTINUOUS
 62
     7
 10
-161.8025023310717
 20
174.2158967800464
 30
0.0
  0
VERTEX
  5
9F5
  8
1
  6
CONTINUOUS
 62
     7
 10
-161.8182847601118
 20
174.2094364438476
 30
0.0
  0
VERTEX
  5
9F6
  8
1
  6
CONTINUOUS
 62
     7
 10
-161.8339100289791
 20
174.2024074122984
 30
0.0
  0
VERTEX
  5
9F7
  8
1
  6
CONTINUOUS
 62
     7
 10
-161.8492853643847
 20
174.1948472950093
 30
0.0
  0
VERTEX
  5
9F8
  8
1
  6
CONTINUOUS
 62
     7
 10
-161.8640481486693
 20
174.186956418673
 30
0.0
  0
VERTEX
  5
9F9
  8
1
  6
CONTINUOUS
 62
     7
 10
-161.8785385925684
 20
174.178575919558
 30
0.0
  0
VERTEX
  5
9FA
  8
1
  6
CONTINUOUS
 62
     7
 10
-161.8928038014344
 20
174.1696737977943
 30
0.0
  0
VERTEX
  5
9FB
  8
1
  6
CONTINUOUS
 62
     7
 10
-161.9067616914352
 20
174.1602971638912
 30
0.0
  0
VERTEX
  5
9FC
  8
1
  6
CONTINUOUS
 62
     7
 10
-161.9202119567192
 20
174.1505942140914
 30
0.0
  0
VERTEX
  5
9FD
  8
1
  6
CONTINUOUS
 62
     7
 10
-161.9333472988009
 20
174.1404390959493
 30
0.0
  0
VERTEX
  5
9FE
  8
1
  6
CONTINUOUS
 62
     7
 10
-161.9464803809635
 20
174.1295602138379
 30
0.0
  0
VERTEX
  5
9FF
  8
1
  6
CONTINUOUS
 62
     7
 10
-161.9592349400375
 20
174.1182399158341
 30
0.0
  0
VERTEX
  5
A00
  8
1
  6
CONTINUOUS
 62
     7
 10
-161.9716529620426
 20
174.1064350058609
 30
0.0
  0
VERTEX
  5
A01
  8
1
  6
CONTINUOUS
 62
     7
 10
-161.9836593554753
 20
174.0942116802979
 30
0.0
  0
VERTEX
  5
A02
  8
1
  6
CONTINUOUS
 62
     7
 10
-161.9949782458608
 20
174.0818790066875
 30
0.0
  0
VERTEX
  5
A03
  8
1
  6
CONTINUOUS
 62
     7
 10
-162.0058780907511
 20
174.0691744602451
 30
0.0
  0
VERTEX
  5
A04
  8
1
  6
CONTINUOUS
 62
     7
 10
-162.0163927475141
 20
174.0560522561933
 30
0.0
  0
VERTEX
  5
A05
  8
1
  6
CONTINUOUS
 62
     7
 10
-162.0264603565072
 20
174.0425840159137
 30
0.0
  0
VERTEX
  5
A06
  8
1
  6
CONTINUOUS
 62
     7
 10
-162.0356581890211
 20
174.0293959994752
 30
0.0
  0
SEQEND
  5
A42
  8
1
  6
CONTINUOUS
 62
     7
  0
LINE
  5
481
  8
1
  6
CONTINUOUS
 62
     7
 10
-162.1210088781635
 20
173.7499809608071
 30
0.0
 11
-162.1219905633128
 21
173.7507387314174
 31
0.0
  0
LINE
  5
482
  8
1
  6
CONTINUOUS
 62
     7
 10
-164.2775565040211
 20
173.7776749909915
 30
0.0
 11
-164.2787049609329
 21
173.7995888543051
 31
0.0
  0
POLYLINE
  5
483
  8
1
  6
CONTINUOUS
 62
     7
 66
     1
 10
0.0
 20
0.0
 30
0.0
  0
VERTEX
  5
A07
  8
1
  6
CONTINUOUS
 62
     7
 10
-158.8710088781636
 20
186.2503046154866
 30
0.0
  0
VERTEX
  5
A08
  8
1
  6
CONTINUOUS
 62
     7
 10
-159.024717631451
 20
187.8110002195035
 30
0.0
  0
VERTEX
  5
A09
  8
1
  6
CONTINUOUS
 62
     7
 10
-159.4799375210092
 20
189.3117015526376
 30
0.0
  0
VERTEX
  5
A0A
  8
1
  6
CONTINUOUS
 62
     7
 10
-160.2191763924871
 20
190.6947430779563
 30
0.0
  0
VERTEX
  5
A0B
  8
1
  6
CONTINUOUS
 62
     7
 10
-161.2140284562023
 20
191.9069804219612
 30
0.0
  0
VERTEX
  5
A0C
  8
1
  6
CONTINUOUS
 62
     7
 10
-162.4262658002072
 20
192.9018324856764
 30
0.0
  0
VERTEX
  5
A0D
  8
1
  6
CONTINUOUS
 62
     7
 10
-163.8093073255259
 20
193.6410713571544
 30
0.0
  0
VERTEX
  5
A0E
  8
1
  6
CONTINUOUS
 62
     7
 10
-165.31000865866
 20
194.0962912467125
 30
0.0
  0
VERTEX
  5
A0F
  8
1
  6
CONTINUOUS
 62
     7
 10
-166.8707042626769
 20
194.25
 30
0.0
  0
SEQEND
  5
A43
  8
1
  6
CONTINUOUS
 62
     7
  0
LINE
  5
484
  8
1
  6
CONTINUOUS
 62
     9
 10
-166.8955169046398
 20
194.2251873580371
 30
0.0
 11
-166.8707042626769
 21
194.25
 31
0.0
  0
LINE
  5
485
  8
1
  6
CONTINUOUS
 62
     7
 10
-225.8797357459543
 20
181.7412731322092
 30
0.0
 11
-221.3710088781635
 21
181.7412731322092
 31
0.0
  0
LINE
  5
486
  8
1
  6
CONTINUOUS
 62
     7
 10
-218.3710088781635
 20
181.75
 30
0.0
 11
-225.8710088781635
 21
181.75
 31
0.0
  0
LINE
  5
487
  8
1
  6
CONTINUOUS
 62
     7
 10
-219.3710088781635
 20
181.7412731322092
 30
0.0
 11
-218.3622820103728
 21
181.7412731322092
 31
0.0
  0
LINE
  5
488
  8
1
  6
CONTINUOUS
 62
     7
 10
-166.8707042626769
 20
194.25
 30
0.0
 11
-175.3710088781635
 21
194.25
 31
0.0
  0
LINE
  5
489
  8
1
  6
CONTINUOUS
 62
     7
 10
-190.3810340039503
 20
194.25
 30
0.0
 11
-195.3710088781635
 21
194.25
 31
0.0
  0
LINE
  5
48A
  8
1
  6
CONTINUOUS
 62
     9
 10
-168.6210088781636
 20
167.3816524975874
 30
0.0
 11
-165.7996625874297
 21
167.3816524975874
 31
0.0
  0
LINE
  5
48B
  8
1
  6
CONTINUOUS
 62
     7
 10
-165.7996625874297
 20
167.3816524975874
 30
0.0
 11
-165.8132267188196
 21
167.1228334524849
 31
0.0
  0
LINE
  5
48C
  8
1
  6
CONTINUOUS
 62
     9
 10
-165.8132267188196
 20
167.1228334524849
 30
0.0
 11
-168.5869347044526
 21
167.1228334524849
 31
0.0
  0
LINE
  5
48D
  8
1
  6
CONTINUOUS
 62
     9
 10
-161.1550830518745
 20
167.1228334524849
 30
0.0
 11
-163.9287910375075
 21
167.1228334524849
 31
0.0
  0
LINE
  5
48E
  8
1
  6
CONTINUOUS
 62
     9
 10
-163.9423551688974
 20
167.3816524975874
 30
0.0
 11
-161.1210088781635
 21
167.3816524975874
 31
0.0
  0
LINE
  5
48F
  8
1
  6
CONTINUOUS
 62
     7
 10
-163.9287910375074
 20
167.1228334524849
 30
0.0
 11
-163.9423551688974
 21
167.3816524975874
 31
0.0
  0
LINE
  5
490
  8
1
  6
CONTINUOUS
 62
     9
 10
-206.6210088781635
 20
167.3816524975874
 30
0.0
 11
-203.7996625874297
 21
167.3816524975874
 31
0.0
  0
LINE
  5
491
  8
1
  6
CONTINUOUS
 62
     9
 10
-203.8132267188197
 20
167.1228334524849
 30
0.0
 11
-206.5869347044526
 21
167.1228334524849
 31
0.0
  0
LINE
  5
492
  8
1
  6
CONTINUOUS
 62
     7
 10
-203.7996625874297
 20
167.3816524975874
 30
0.0
 11
-203.8132267188197
 21
167.1228334524849
 31
0.0
  0
LINE
  5
493
  8
1
  6
CONTINUOUS
 62
     9
 10
-199.1550830518745
 20
167.1228334524849
 30
0.0
 11
-201.9287910375074
 21
167.1228334524849
 31
0.0
  0
LINE
  5
494
  8
1
  6
CONTINUOUS
 62
     9
 10
-201.9423551688974
 20
167.3816524975874
 30
0.0
 11
-199.1210088781636
 21
167.3816524975874
 31
0.0
  0
LINE
  5
495
  8
1
  6
CONTINUOUS
 62
     7
 10
-201.9287910375074
 20
167.1228334524849
 30
0.0
 11
-201.9423551688974
 21
167.3816524975874
 31
0.0
  0
LINE
  5
496
  8
1
  6
CONTINUOUS
 62
     7
 10
-165.7698767569672
 20
167.95
 30
0.0
 11
-168.6210088781635
 21
167.95
 31
0.0
  0
LINE
  5
497
  8
1
  6
CONTINUOUS
 62
     7
 10
-165.7698767569672
 20
167.95
 30
0.0
 11
-165.7996625874297
 21
167.3816524975874
 31
0.0
  0
LINE
  5
498
  8
1
  6
CONTINUOUS
 62
     7
 10
-161.1210088781635
 20
167.95
 30
0.0
 11
-163.9721409993599
 21
167.95
 31
0.0
  0
LINE
  5
499
  8
1
  6
CONTINUOUS
 62
     7
 10
-163.9423551688974
 20
167.3816524975874
 30
0.0
 11
-163.9721409993599
 21
167.95
 31
0.0
  0
LINE
  5
49A
  8
1
  6
CONTINUOUS
 62
     7
 10
-199.1210088781636
 20
167.95
 30
0.0
 11
-201.9721409993599
 21
167.95
 31
0.0
  0
LINE
  5
49B
  8
1
  6
CONTINUOUS
 62
     7
 10
-201.9423551688974
 20
167.3816524975874
 30
0.0
 11
-201.9721409993599
 21
167.95
 31
0.0
  0
LINE
  5
49C
  8
1
  6
CONTINUOUS
 62
     7
 10
-203.7698767569672
 20
167.95
 30
0.0
 11
-206.6210088781636
 21
167.95
 31
0.0
  0
LINE
  5
49D
  8
1
  6
CONTINUOUS
 62
     7
 10
-203.7698767569672
 20
167.95
 30
0.0
 11
-203.7996625874297
 21
167.3816524975874
 31
0.0
  0
LINE
  5
49E
  8
1
  6
CONTINUOUS
 62
     9
 10
-163.6404307021101
 20
161.6205904774487
 30
0.0
 11
-162.6294046135952
 21
161.6205904774488
 31
0.0
  0
LINE
  5
49F
  8
1
  6
CONTINUOUS
 62
     7
 10
-163.6404307021101
 20
161.6205904774489
 30
0.0
 11
-163.9287910375074
 21
167.1228334524849
 31
0.0
  0
LINE
  5
4A0
  8
1
  6
CONTINUOUS
 62
     9
 10
-167.1126131427318
 20
161.6205904774487
 30
0.0
 11
-166.101587054217
 21
161.6205904774487
 31
0.0
  0
LINE
  5
4A1
  8
1
  6
CONTINUOUS
 62
     7
 10
-165.8132267188196
 20
167.1228334524849
 30
0.0
 11
-166.101587054217
 21
161.6205904774488
 31
0.0
  0
LINE
  5
4A2
  8
1
  6
CONTINUOUS
 62
     9
 10
-201.6404307021101
 20
161.6205904774487
 30
0.0
 11
-200.6294046135952
 21
161.6205904774488
 31
0.0
  0
LINE
  5
4A3
  8
1
  6
CONTINUOUS
 62
     7
 10
-201.6404307021101
 20
161.6205904774489
 30
0.0
 11
-201.9287910375074
 21
167.1228334524849
 31
0.0
  0
LINE
  5
4A4
  8
1
  6
CONTINUOUS
 62
     9
 10
-205.1126131427318
 20
161.6205904774487
 30
0.0
 11
-204.101587054217
 21
161.6205904774487
 31
0.0
  0
LINE
  5
4A5
  8
1
  6
CONTINUOUS
 62
     7
 10
-203.8132267188197
 20
167.1228334524849
 30
0.0
 11
-204.101587054217
 21
161.6205904774487
 31
0.0
  0
LINE
  5
4A6
  8
1
  6
CONTINUOUS
 62
     7
 10
-203.7698767569672
 20
167.95
 30
0.0
 11
-203.4671121034693
 21
173.7270937376045
 31
0.0
  0
LINE
  5
4A7
  8
1
  6
CONTINUOUS
 62
     7
 10
-203.4671121034693
 20
173.7270937376045
 30
0.0
 11
-203.464461252306
 21
173.7776749909915
 31
0.0
  0
LINE
  5
4A8
  8
1
  6
CONTINUOUS
 62
     7
 10
-202.2775565040211
 20
173.7776749909915
 30
0.0
 11
-202.2748851401666
 21
173.7267023321403
 31
0.0
  0
LINE
  5
4A9
  8
1
  6
CONTINUOUS
 62
     7
 10
-202.2748851401666
 20
173.7267023321403
 30
0.0
 11
-201.9721409993599
 21
167.95
 31
0.0
  0
LINE
  5
4AA
  8
1
  6
CONTINUOUS
 62
     7
 10
-165.7698767569672
 20
167.95
 30
0.0
 11
-165.4671121034693
 21
173.7270937376045
 31
0.0
  0
LINE
  5
4AB
  8
1
  6
CONTINUOUS
 62
     7
 10
-165.4671121034693
 20
173.7270937376045
 30
0.0
 11
-165.464461252306
 21
173.7776749909915
 31
0.0
  0
LINE
  5
4AC
  8
1
  6
CONTINUOUS
 62
     7
 10
-164.2775565040211
 20
173.7776749909915
 30
0.0
 11
-164.2748851401666
 21
173.7267023321403
 31
0.0
  0
LINE
  5
4AD
  8
1
  6
CONTINUOUS
 62
     7
 10
-164.2748851401666
 20
173.7267023321403
 30
0.0
 11
-163.9721409993599
 21
167.95
 31
0.0
  0
LINE
  5
4AE
  8
1
  6
CONTINUOUS
 62
     7
 10
-163.1123675267397
 20
161.25
 30
0.0
 11
-163.6210088781635
 21
161.25
 31
0.0
  0
LINE
  5
4AF
  8
1
  6
CONTINUOUS
 62
     7
 10
-163.6210088781636
 20
161.25
 30
0.0
 11
-163.6404307021101
 21
161.6205904774489
 31
0.0
  0
LINE
  5
4B0
  8
1
  6
CONTINUOUS
 62
     7
 10
-201.1123675267397
 20
161.25
 30
0.0
 11
-201.6210088781635
 21
161.25
 31
0.0
  0
LINE
  5
4B1
  8
1
  6
CONTINUOUS
 62
     7
 10
-201.6210088781635
 20
161.25
 30
0.0
 11
-201.6404307021101
 21
161.6205904774489
 31
0.0
  0
LINE
  5
4B2
  8
1
  6
CONTINUOUS
 62
     7
 10
-166.1210088781636
 20
161.25
 30
0.0
 11
-166.6296502295873
 21
161.25
 31
0.0
  0
LINE
  5
4B3
  8
1
  6
CONTINUOUS
 62
     7
 10
-166.101587054217
 20
161.6205904774487
 30
0.0
 11
-166.1210088781636
 21
161.25
 31
0.0
  0
LINE
  5
4B4
  8
1
  6
CONTINUOUS
 62
     7
 10
-204.1210088781635
 20
161.25
 30
0.0
 11
-204.6296502295873
 21
161.25
 31
0.0
  0
LINE
  5
4B5
  8
1
  6
CONTINUOUS
 62
     7
 10
-204.101587054217
 20
161.6205904774487
 30
0.0
 11
-204.1210088781636
 21
161.25
 31
0.0
  0
LINE
  5
4B6
  8
1
  6
CONTINUOUS
 62
     7
 10
-162.0880453310816
 20
173.9285300766051
 30
0.0
 11
-162.0921772884338
 21
173.9173214017943
 31
0.0
  0
LINE
  5
4B7
  8
1
  6
CONTINUOUS
 62
     7
 10
-162.0921772884338
 20
173.9173214017943
 30
0.0
 11
-162.1209142678253
 21
173.7597077229333
 31
0.0
  0
LINE
  5
4B8
  8
1
  6
CONTINUOUS
 62
     7
 10
-162.1209142678253
 20
173.7597077229333
 30
0.0
 11
-162.1210088781635
 21
173.7499809608072
 31
0.0
  0
LINE
  5
4B9
  8
1
  6
CONTINUOUS
 62
     7
 10
-200.0880453310817
 20
173.9285300766049
 30
0.0
 11
-200.0921772884338
 21
173.9173214017942
 31
0.0
  0
LINE
  5
4BA
  8
1
  6
CONTINUOUS
 62
     7
 10
-200.0921772884338
 20
173.9173214017942
 30
0.0
 11
-200.1209142678253
 21
173.7597077229335
 31
0.0
  0
LINE
  5
4BB
  8
1
  6
CONTINUOUS
 62
     7
 10
-200.1209142678253
 20
173.7597077229335
 30
0.0
 11
-200.1210088781636
 21
173.7499809608071
 31
0.0
  0
LINE
  5
4BC
  8
1
  6
CONTINUOUS
 62
     7
 10
-205.706359567306
 20
174.0293959994752
 30
0.0
 11
-205.6991751688306
 21
174.0184257928732
 31
0.0
  0
LINE
  5
4BD
  8
1
  6
CONTINUOUS
 62
     7
 10
-205.6991751688306
 20
174.0184257928732
 30
0.0
 11
-205.6539724252453
 21
173.9285300766048
 31
0.0
  0
LINE
  5
4BE
  8
1
  6
CONTINUOUS
 62
     7
 10
-167.706359567306
 20
174.0293959994752
 30
0.0
 11
-167.6991751688306
 21
174.0184257928731
 31
0.0
  0
LINE
  5
4BF
  8
1
  6
CONTINUOUS
 62
     7
 10
-167.6991751688306
 20
174.0184257928731
 30
0.0
 11
-167.6539724252453
 21
173.9285300766046
 31
0.0
  0
LINE
  5
4C0
  8
1
  6
CONTINUOUS
 62
     9
 10
-250.3710088781635
 20
137.941311210595
 30
0.0
 11
-248.4015529154312
 21
137.941311210595
 31
0.0
  0
LINE
  5
4C1
  8
1
  6
CONTINUOUS
 62
     7
 10
-248.4015529154312
 20
137.941311210595
 30
0.0
 11
-248.392902202962
 21
136.9413492875308
 31
0.0
  0
LINE
  5
4C2
  8
1
  6
CONTINUOUS
 62
     9
 10
-248.4015529154312
 20
142.958688789405
 30
0.0
 11
-250.3710088781635
 21
142.958688789405
 31
0.0
  0
LINE
  5
4C3
  8
1
  6
CONTINUOUS
 62
     7
 10
-248.392902202962
 20
143.9586507124692
 30
0.0
 11
-248.4015529154312
 21
142.958688789405
 31
0.0
  0
LINE
  5
4C4
  8
1
  6
CONTINUOUS
 62
     7
 10
-250.3710088781635
 20
138.2194559627324
 30
0.0
 11
-250.3710088781635
 21
142.6805440372677
 31
0.0
  0
LINE
  5
4C5
  8
1
  6
CONTINUOUS
 62
     7
 10
-248.4015529154312
 20
137.941311210595
 30
0.0
 11
-248.4015529154312
 21
142.958688789405
 31
0.0
  0
LINE
  5
4C6
  8
1
  6
CONTINUOUS
 62
     7
 10
-252.3710088781635
 20
182.05
 30
0.0
 11
-252.3710088781635
 21
186.45
 31
0.0
  0
LINE
  5
4C7
  8
1
  6
CONTINUOUS
 62
     7
 10
-257.748832729093
 20
186.45
 30
0.0
 11
-257.748832729093
 21
182.05
 31
0.0
  0
LINE
  5
4C8
  8
1
  6
CONTINUOUS
 62
     7
 10
-209.8710088781635
 20
202.25
 30
0.0
 11
-209.8710088781635
 21
215.25
 31
0.0
  0
LINE
  5
4C9
  8
1
  6
CONTINUOUS
 62
     7
 10
-209.8710088781635
 20
219.5190792596959
 30
0.0
 11
-209.8710088781635
 21
219.75
 31
0.0
  0
LINE
  5
4CA
  8
1
  6
CONTINUOUS
 62
     7
 10
-209.8710088781635
 20
224.25
 30
0.0
 11
-209.8710088781635
 21
224.6717468862726
 31
0.0
  0
LINE
  5
4CB
  8
1
  6
CONTINUOUS
 62
     7
 10
-209.8710088781635
 20
233.75
 30
0.0
 11
-209.8710088781635
 21
239.7610839203569
 31
0.0
  0
LINE
  5
4CC
  8
1
  6
CONTINUOUS
 62
     7
 10
-215.8710088781635
 20
239.7610839203569
 30
0.0
 11
-215.8710088781635
 21
233.75
 31
0.0
  0
LINE
  5
4CD
  8
1
  6
CONTINUOUS
 62
     7
 10
-215.8710088781635
 20
224.4622222693222
 30
0.0
 11
-215.8710088781635
 21
224.25
 31
0.0
  0
LINE
  5
4CE
  8
1
  6
CONTINUOUS
 62
     7
 10
-215.8710088781635
 20
219.75
 30
0.0
 11
-215.8710088781635
 21
219.2569841538983
 31
0.0
  0
LINE
  5
4CF
  8
1
  6
CONTINUOUS
 62
     7
 10
-215.8710088781635
 20
215.25
 30
0.0
 11
-215.8710088781635
 21
202.25
 31
0.0
  0
LINE
  5
4D0
  8
1
  6
CONTINUOUS
 62
     7
 10
-215.8710088781635
 20
202.25
 30
0.0
 11
-215.1210088781635
 21
199.75
 31
0.0
  0
LINE
  5
4D1
  8
1
  6
CONTINUOUS
 62
     7
 10
-210.6210088781635
 20
199.75
 30
0.0
 11
-209.8710088781635
 21
202.25
 31
0.0
  0
LINE
  5
4D2
  8
1
  6
CONTINUOUS
 62
     7
 10
-205.6539725716835
 20
173.9285304656265
 30
0.0
 11
-205.6527561565489
 21
173.9253199156757
 31
0.0
  0
LINE
  5
4D3
  8
1
  6
CONTINUOUS
 62
     7
 10
-205.6527561565489
 20
173.9253199156757
 30
0.0
 11
-205.621009288926
 21
173.7597101125891
 31
0.0
  0
LINE
  5
4D4
  8
1
  6
CONTINUOUS
 62
     7
 10
-205.621009288926
 20
173.7597101125891
 30
0.0
 11
-205.6209088857543
 21
173.7502228241087
 31
0.0
  0
LINE
  5
4D5
  8
1
  6
CONTINUOUS
 62
     7
 10
-200.1220770972438
 20
173.7507714180718
 30
0.0
 11
-200.0356592500839
 21
174.0293943797218
 31
0.0
  0
LINE
  5
4D6
  8
1
  6
CONTINUOUS
 62
     7
 10
-167.6539725716835
 20
173.9285304656263
 30
0.0
 11
-167.6527561565489
 21
173.9253199156757
 31
0.0
  0
LINE
  5
4D7
  8
1
  6
CONTINUOUS
 62
     7
 10
-167.6527561565489
 20
173.9253199156757
 30
0.0
 11
-167.621009288926
 21
173.7597101125888
 31
0.0
  0
LINE
  5
4D8
  8
1
  6
CONTINUOUS
 62
     7
 10
-167.621009288926
 20
173.7597101125888
 30
0.0
 11
-167.6209088857543
 21
173.7502228241087
 31
0.0
  0
LINE
  5
4D9
  8
1
  6
CONTINUOUS
 62
     7
 10
-162.1220770972438
 20
173.7507714180718
 30
0.0
 11
-162.0356592500839
 21
174.0293943797218
 31
0.0
  0
ARC
  5
4DA
  8
1
  6
CONTINUOUS
 62
     7
 10
-167.6210088781636
 20
167.3816524975874
 30
0.0
 40
1.000000000000001
 50
180.0
 51
195.0000000000001
  0
ARC
  5
4DB
  8
1
  6
CONTINUOUS
 62
     7
 10
-162.1210088781635
 20
167.3816524975874
 30
0.0
 40
1.000000000000004
 50
344.9999999999998
 51
0.0
  0
ARC
  5
4DC
  8
1
  6
CONTINUOUS
 62
     7
 10
-205.6210088781635
 20
167.3816524975874
 30
0.0
 40
1.000000000000001
 50
180.0
 51
195.0000000000001
  0
ARC
  5
4DD
  8
1
  6
CONTINUOUS
 62
     7
 10
-200.1210088781636
 20
167.3816524975874
 30
0.0
 40
1.0
 50
344.9999999999998
 51
0.0
  0
LINE
  5
4DE
  8
1
  6
CONTINUOUS
 62
     7
 10
-168.6210088781636
 20
167.95
 30
0.0
 11
-168.6210088781636
 21
167.3816524975874
 31
0.0
  0
LINE
  5
4DF
  8
1
  6
CONTINUOUS
 62
     7
 10
-161.1210088781635
 20
167.3816524975874
 30
0.0
 11
-161.1210088781635
 21
167.95
 31
0.0
  0
LINE
  5
4E0
  8
1
  6
CONTINUOUS
 62
     7
 10
-199.1210088781636
 20
167.3816524975874
 30
0.0
 11
-199.1210088781636
 21
167.95
 31
0.0
  0
LINE
  5
4E1
  8
1
  6
CONTINUOUS
 62
     7
 10
-206.6210088781635
 20
167.95
 30
0.0
 11
-206.6210088781635
 21
167.3816524975873
 31
0.0
  0
LINE
  5
4E2
  8
1
  6
CONTINUOUS
 62
     7
 10
-162.6294046135952
 20
161.6205904774487
 30
0.0
 11
-161.1550830518744
 21
167.1228334524849
 31
0.0
  0
LINE
  5
4E3
  8
1
  6
CONTINUOUS
 62
     7
 10
-168.5869347044526
 20
167.1228334524849
 30
0.0
 11
-167.1126131427319
 21
161.6205904774487
 31
0.0
  0
LINE
  5
4E4
  8
1
  6
CONTINUOUS
 62
     7
 10
-200.6294046135952
 20
161.6205904774487
 30
0.0
 11
-199.1550830518745
 21
167.1228334524849
 31
0.0
  0
LINE
  5
4E5
  8
1
  6
CONTINUOUS
 62
     7
 10
-206.5869347044526
 20
167.1228334524849
 30
0.0
 11
-205.1126131427318
 21
161.6205904774487
 31
0.0
  0
LINE
  5
4E6
  8
1
  6
CONTINUOUS
 62
     7
 10
-205.6210088781635
 20
173.7499809608071
 30
0.0
 11
-205.6210088781635
 21
167.95
 31
0.0
  0
LINE
  5
4E7
  8
1
  6
CONTINUOUS
 62
     7
 10
-200.1210088781636
 20
167.95
 30
0.0
 11
-200.1210088781636
 21
173.7499809608071
 31
0.0
  0
LINE
  5
4E8
  8
1
  6
CONTINUOUS
 62
     7
 10
-167.6210088781636
 20
173.7499809608071
 30
0.0
 11
-167.6210088781636
 21
167.95
 31
0.0
  0
LINE
  5
4E9
  8
1
  6
CONTINUOUS
 62
     7
 10
-162.1210088781635
 20
167.95
 30
0.0
 11
-162.1210088781635
 21
173.7499809608071
 31
0.0
  0
ARC
  5
4EA
  8
1
  6
CONTINUOUS
 62
     7
 10
-163.1123675267397
 20
161.75
 30
0.0
 40
0.5000000000000039
 50
270.0
 51
344.9999999999997
  0
ARC
  5
4EB
  8
1
  6
CONTINUOUS
 62
     7
 10
-201.1123675267397
 20
161.75
 30
0.0
 40
0.5000000000000039
 50
270.0
 51
344.9999999999997
  0
ARC
  5
4EC
  8
1
  6
CONTINUOUS
 62
     7
 10
-166.6296502295873
 20
161.75
 30
0.0
 40
0.5000000000000022
 50
195.0000000000003
 51
270.0
  0
ARC
  5
4ED
  8
1
  6
CONTINUOUS
 62
     7
 10
-204.6296502295874
 20
161.75
 30
0.0
 40
0.4999999999999996
 50
194.9999999999999
 51
270.0
  0
LINE
  5
4EE
  8
1
  6
CONTINUOUS
 62
     7
 10
-162.1211088705728
 20
173.7502228241087
 30
0.0
 11
-162.1210084674011
 21
173.7597101125889
 31
0.0
  0
LINE
  5
4EF
  8
1
  6
CONTINUOUS
 62
     7
 10
-162.1210084674011
 20
173.7597101125889
 30
0.0
 11
-162.0892615997782
 21
173.9253199156757
 31
0.0
  0
LINE
  5
4F0
  8
1
  6
CONTINUOUS
 62
     7
 10
-162.0892615997782
 20
173.9253199156757
 30
0.0
 11
-162.0880451846434
 21
173.9285304656267
 31
0.0
  0
LINE
  5
4F1
  8
1
  6
CONTINUOUS
 62
     7
 10
-200.1211088705728
 20
173.7502228241087
 30
0.0
 11
-200.1210084674011
 21
173.7597101125891
 31
0.0
  0
LINE
  5
4F2
  8
1
  6
CONTINUOUS
 62
     7
 10
-200.1210084674011
 20
173.7597101125891
 30
0.0
 11
-200.0892615997782
 21
173.9253199156757
 31
0.0
  0
LINE
  5
4F3
  8
1
  6
CONTINUOUS
 62
     7
 10
-200.0892615997782
 20
173.9253199156757
 30
0.0
 11
-200.0880451846435
 21
173.9285304656266
 31
0.0
  0
LINE
  5
4F4
  8
1
  6
CONTINUOUS
 62
     7
 10
-205.7063585062432
 20
174.0293943797218
 30
0.0
 11
-205.699158610418
 21
174.0184379215758
 31
0.0
  0
LINE
  5
4F5
  8
1
  6
CONTINUOUS
 62
     7
 10
-205.6991586104179
 20
174.0184379215758
 30
0.0
 11
-205.6549365537149
 21
173.9317126830634
 31
0.0
  0
LINE
  5
4F6
  8
1
  6
CONTINUOUS
 62
     7
 10
-167.7063585062432
 20
174.0293943797218
 30
0.0
 11
-167.6991586104179
 21
174.0184379215757
 31
0.0
  0
ENDBLK
  8
0
  0
ENDSEC
  0
SECTION
  2
ENTITIES
  0
POINT
  5
70
  8
1
 62
     7
 10
-208.3333333333333
 20
197.5
 30
0.0
  0
POINT
  5
71
  8
1
 62
     7
 10
-148.3333333333333
 20
77.5
 30
0.0
  0
POINT
  5
72
  8
1
 62
     7
 10
-208.3333333333333
 20
257.5
 30
0.0
  0
POINT
  5
73
  8
1
 62
     7
 10
-263.3333333333334
 20
77.5
 30
0.0
  0
POINT
  5
74
  8
1
 62
     7
 10
-110.0
 20
257.5
 30
0.0
  0
POINT
  5
75
  8
1
 62
     7
 10
-105.0
 20
127.5
 30
0.0
  0
INSERT
  5
18C
  8
1
  6
CONTINUOUS
 62
     7
  2
D_FRAME_VIEW_2464
 10
0.0
 20
0.0
 30
0.0
  0
INSERT
  5
26D
  8
1
  6
CONTINUOUS
 62
     7
  2
D_FRAME_VIEW_2688
 10
0.0
 20
0.0
 30
0.0
  0
LINE
  5
26E
  8
1
  6
CENTER
 62
     1
 10
-98.63608807453532
 20
180.05
 30
0.0
 11
-98.63608807453532
 21
188.45
 31
0.0
  0
LINE
  5
270
  8
1
  6
CENTER
 62
     1
 10
-210.3710088781635
 20
182.45
 30
0.0
 11
-210.3710088781635
 21
192.05
 31
0.0
  0
LINE
  5
271
  8
1
  6
CENTER
 62
     1
 10
-166.8710088781635
 20
182.6
 30
0.0
 11
-166.8710088781635
 21
191.9
 31
0.0
  0
LINE
  5
272
  8
1
  6
CENTER
 62
     1
 10
-215.1710088781635
 20
187.25
 30
0.0
 11
-205.5710088781635
 21
187.25
 31
0.0
  0
LINE
  5
273
  8
1
  6
CENTER
 62
     1
 10
-112.6360880745353
 20
136.25
 30
0.0
 11
-112.6360880745353
 21
144.65
 31
0.0
  0
LINE
  5
274
  8
1
  6
CENTER
 62
     1
 10
-190.8710088781635
 20
187.25
 30
0.0
 11
-176.8710088781635
 21
187.25
 31
0.0
  0
LINE
  5
275
  8
1
  6
CENTER
 62
     1
 10
-188.6710088781635
 20
225.25
 30
0.0
 11
-179.0710088781635
 21
225.25
 31
0.0
  0
LINE
  5
276
  8
1
  6
CENTER
 62
     1
 10
-183.8710088781635
 20
180.25
 30
0.0
 11
-183.8710088781635
 21
194.25
 31
0.0
  0
LINE
  5
277
  8
1
  6
CENTER
 62
     1
 10
-171.5210088781635
 20
187.25
 30
0.0
 11
-162.2210088781635
 21
187.25
 31
0.0
  0
LINE
  5
278
  8
1
  6
CENTER
 62
     1
 10
-102.8360880745353
 20
184.25
 30
0.0
 11
-94.4360880745353
 21
184.25
 31
0.0
  0
LINE
  5
279
  8
1
  6
CENTER
 62
     1
 10
-116.8360880745353
 20
140.45
 30
0.0
 11
-108.4360880745353
 21
140.45
 31
0.0
  0
LINE
  5
27A
  8
1
  6
CENTER
 62
     1
 10
-183.8710088781635
 20
220.45
 30
0.0
 11
-183.8710088781635
 21
230.05
 31
0.0
  0
TEXT
  5
27B
  8
1
  6
CONTINUOUS
 62
     7
 10
-121.7454816389479
 20
85.82842003251218
 30
0.0
 40
3.0
  1
SG-6
  0
LINE
  5
27C
  8
1
  6
CONTINUOUS
 62
     2
 10
-121.6606060606061
 20
85.27045454545454
 30
0.0
 11
-115.0060606060606
 21
85.27045454545454
 31
0.0
  0
LINE
  5
27D
  8
1
  6
CENTER
 62
     1
 10
-212.8710088781635
 20
257.5
 30
0.0
 11
-212.8710088781635
 21
197.5
 31
0.0
  0
LINE
  5
27E
  8
1
  6
CENTER
 62
     1
 10
-263.3333333333334
 20
80.13608807453531
 30
0.0
 11
-148.3333333333333
 21
80.13608807453531
 31
0.0
  0
LINE
  5
27F
  8
1
  6
CENTER
 62
     1
 10
-112.6360880745353
 20
257.5
 30
0.0
 11
-112.6360880745353
 21
127.5
 31
0.0
  0
INSERT
  5
4F7
  8
1
  6
CONTINUOUS
 62
     7
  2
D_FRAME_VIEW_1492
 10
0.0
 20
0.0
 30
0.0
  0
ENDSEC
  0
EOF
