  0
SECTION
  2
HEADER
  9
$ACADVER
  1
AC1006
  9
$DWGCODEPAGE
  3
ansi_932
  9
$INSBASE
 10
0.0
 20
0.0
 30
0.0
  9
$EXTMIN
 10
-390.0
 20
301.8694214078686
  9
$EXTMAX
 10
-203.5360880745353
 20
473.3333333333333
  9
$LIMMIN
 10
0.0
 20
0.0
  9
$LIMMAX
 10
12.0
 20
9.0
  9
$ORTHOMODE
 70
     0
  9
$REGENMODE
 70
     1
  9
$FILLMODE
 70
     1
  9
$QTEXTMODE
 70
     0
  9
$MIRRTEXT
 70
     1
  9
$DRAGMODE
 70
     2
  9
$LTSCALE
 40
1.0
  9
$OSMODE
 70
    37
  9
$ATTMODE
 70
     1
  9
$TEXTSIZE
 40
0.2
  9
$TRACEWID
 40
0.05
  9
$TEXTSTYLE
  7
STANDARD
  9
$CLAYER
  8
0
  9
$CELTYPE
  6
BYLAYER
  9
$CECOLOR
 62
   256
  9
$DIMSCALE
 40
1.0
  9
$DIMASZ
 40
3.0
  9
$DIMEXO
 40
0.0625
  9
$DIMDLI
 40
0.38
  9
$DIMRND
 40
0.0
  9
$DIMDLE
 40
0.0
  9
$DIMEXE
 40
1.5
  9
$DIMTP
 40
0.0
  9
$DIMTM
 40
0.0
  9
$DIMTXT
 40
3.0
  9
$DIMCEN
 40
0.09
  9
$DIMTSZ
 40
0.0
  9
$DIMTOL
 70
     0
  9
$DIMLIM
 70
     0
  9
$DIMTIH
 70
     1
  9
$DIMTOH
 70
     1
  9
$DIMSE1
 70
     0
  9
$DIMSE2
 70
     0
  9
$DIMTAD
 70
     1
  9
$DIMZIN
 70
     0
  9
$DIMBLK
  1

  9
$DIMASO
 70
     1
  9
$DIMSHO
 70
     1
  9
$DIMPOST
  1

  9
$DIMAPOST
  1

  9
$DIMALT
 70
     0
  9
$DIMALTD
 70
     2
  9
$DIMALTF
 40
25.4
  9
$DIMLFAC
 40
1.0
  9
$DIMTOFL
 70
     0
  9
$DIMTVP
 40
0.0
  9
$DIMTIX
 70
     0
  9
$DIMSOXD
 70
     0
  9
$DIMSAH
 70
     0
  9
$DIMBLK1
  1

  9
$DIMBLK2
  1

  9
$LUNITS
 70
     2
  9
$LUPREC
 70
     4
  9
$SKETCHINC
 40
0.1
  9
$FILLETRAD
 40
0.5
  9
$AUNITS
 70
     0
  9
$AUPREC
 70
     0
  9
$MENU
  1
.
  9
$ELEVATION
 40
0.0
  9
$THICKNESS
 40
0.0
  9
$LIMCHECK
 70
     0
  9
$CHAMFERA
 40
0.0
  9
$CHAMFERB
 40
0.0
  9
$SKPOLY
 70
     0
  9
$TDCREATE
 40
2460710.550649641
  9
$TDUPDATE
 40
2460710.550650012
  9
$TDINDWG
 40
0.0000000116
  9
$TDUSRTIMER
 40
0.0000000116
  9
$USRTIMER
 70
     1
  9
$ANGBASE
 50
0.0
  9
$ANGDIR
 70
     0
  9
$PDMODE
 70
     0
  9
$PDSIZE
 40
0.0
  9
$PLINEWID
 40
0.0
  9
$COORDS
 70
     1
  9
$SPLFRAME
 70
     0
  9
$SPLINETYPE
 70
     6
  9
$SPLINESEGS
 70
     8
  9
$ATTDIA
 70
     0
  9
$ATTREQ
 70
     1
  9
$HANDLING
 70
     1
  9
$HANDSEED
  5
9BA
  9
$SURFTAB1
 70
     6
  9
$SURFTAB2
 70
     6
  9
$SURFTYPE
 70
     6
  9
$SURFU
 70
     6
  9
$SURFV
 70
     6
  9
$UCSNAME
  2

  9
$UCSORG
 10
0.0
 20
0.0
 30
0.0
  9
$UCSXDIR
 10
1.0
 20
0.0
 30
0.0
  9
$UCSYDIR
 10
0.0
 20
1.0
 30
0.0
  9
$USERI1
 70
     0
  9
$USERI2
 70
     0
  9
$USERI3
 70
     0
  9
$USERI4
 70
     0
  9
$USERI5
 70
     0
  9
$USERR1
 40
0.0
  9
$USERR2
 40
0.0
  9
$USERR3
 40
0.0
  9
$USERR4
 40
0.0
  9
$USERR5
 40
0.0
  9
$WORLDVIEW
 70
     1
  0
ENDSEC
  0
SECTION
  2
TABLES
  0
TABLE
  2
VPORT
 70
     1
  0
VPORT
  2
*ACTIVE
 70
     0
 10
0.0
 20
0.0
 11
1.0
 21
1.0
 12
-296.7680440372677
 22
387.601377370601
 13
0.0
 23
0.0
 14
0.5
 24
0.5
 15
0.5
 25
0.5
 16
0.0
 26
0.0
 36
1.0
 17
0.0
 27
0.0
 37
0.0
 40
171.4639119254647
 41
1.6
 42
50.0
 43
0.0
 44
0.0
 50
0.0
 51
0.0
 71
     0
 72
   100
 73
     1
 74
     3
 75
     0
 76
     0
 77
     0
 78
     0
  0
ENDTAB
  0
TABLE
  2
LTYPE
 70
     2
  0
LTYPE
  2
CONTINUOUS
 70
     0
  3
Solid line
 72
    65
 73
     0
 40
0.0
  0
LTYPE
  2
CENTER
 70
     0
  3

 72
    65
 73
     0
 40
0.0
  0
ENDTAB
  0
TABLE
  2
LAYER
 70
     2
  0
LAYER
  2
0
 70
     0
 62
     7
  6
CONTINUOUS
  0
LAYER
  2
1
 70
     0
 62
     7
  6
CONTINUOUS
  0
ENDTAB
  0
TABLE
  2
STYLE
 70
     2
  0
STYLE
  2
STANDARD
 70
     0
 40
0.0
 41
1.0
 50
0.0
 71
     0
 42
0.2
  3
txt
  4

  0
STYLE
  2
ＭＳ_ゴシック
 70
     0
 40
0.0
 41
1.0
 50
0.0
 71
     0
 42
0.2
  3
ＭＳ ゴシック.shx
  4

  0
ENDTAB
  0
TABLE
  2
VIEW
 70
     0
  0
ENDTAB
  0
TABLE
  2
UCS
 70
     0
  0
ENDTAB
  0
ENDSEC
  0
SECTION
  2
BLOCKS
  0
BLOCK
  8
0
  2
D_FRAME_VIEW_2746
 70
     0
 10
0.0
 20
0.0
 30
0.0
  0
ARC
  5
82
  8
1
  6
CONTINUOUS
 62
     7
 10
-341.2276030231748
 20
461.4174443814836
 30
0.0
 40
6.516702446524985
 50
90.90532718145349
 51
113.5425429793177
  0
ARC
  5
83
  8
1
  6
CONTINUOUS
 62
     7
 10
-341.4574723884602
 20
461.3069507717798
 30
0.0
 40
6.627597632781379
 50
66.64928251627965
 51
88.90284732294855
  0
LINE
  5
84
  8
1
  6
CONTINUOUS
 62
     7
 10
-338.8305687636435
 20
464.4749457490244
 30
0.0
 11
-338.8305687636435
 21
467.3917209176419
 31
0.0
  0
ARC
  5
85
  8
1
  6
CONTINUOUS
 62
     7
 10
-341.4335345041121
 20
470.4492222851824
 30
0.0
 40
6.516702446524754
 50
270.9053271814531
 51
293.5425429793181
  0
ARC
  5
86
  8
1
  6
CONTINUOUS
 62
     7
 10
-341.2036651388266
 20
470.5597158948871
 30
0.0
 40
6.627597632782027
 50
246.6492825162811
 51
268.9028473229478
  0
LINE
  5
87
  8
1
  6
CONTINUOUS
 62
     7
 10
-343.8305687636435
 20
464.4749457490244
 30
0.0
 11
-343.8305687636435
 21
467.3917209176419
 31
0.0
  0
ARC
  5
88
  8
1
  6
CONTINUOUS
 62
     7
 10
-336.2276030231745
 20
461.4174443814821
 30
0.0
 40
6.516702446526489
 50
90.90532718145668
 51
113.5425429793153
  0
ARC
  5
89
  8
1
  6
CONTINUOUS
 62
     7
 10
-336.457472388462
 20
461.3069507717669
 30
0.0
 40
6.627597632794372
 50
66.64928251631221
 51
88.90284732293597
  0
LINE
  5
8A
  8
1
  6
CONTINUOUS
 62
     7
 10
-333.8305687636436
 20
464.4749457490244
 30
0.0
 11
-333.8305687636436
 21
467.3917209176424
 31
0.0
  0
ARC
  5
8B
  8
1
  6
CONTINUOUS
 62
     7
 10
-336.4335345041124
 20
470.4492222851837
 30
0.0
 40
6.516702446526064
 50
270.9053271814554
 51
293.5425429793154
  0
ARC
  5
8C
  8
1
  6
CONTINUOUS
 62
     7
 10
-336.2036651388264
 20
470.5597158948884
 30
0.0
 40
6.627597632783379
 50
246.6492825162833
 51
268.9028473229451
  0
LINE
  5
8D
  8
1
  6
CONTINUOUS
 62
     7
 10
-341.3305687636436
 20
463.9333333333331
 30
0.0
 11
-336.3305687636436
 21
463.9333333333331
 31
0.0
  0
LINE
  5
8E
  8
1
  6
CONTINUOUS
 62
     7
 10
-341.3305687636436
 20
467.9333333333331
 30
0.0
 11
-336.3305687636436
 21
467.9333333333331
 31
0.0
  0
LINE
  5
8F
  8
1
  6
CONTINUOUS
 62
     7
 10
-333.8305687636436
 20
464.4749457490244
 30
0.0
 11
-333.8305687636436
 21
464.2079110988818
 31
0.0
  0
LINE
  5
90
  8
1
  6
CONTINUOUS
 62
     7
 10
-333.8305687636435
 20
464.2079110988818
 30
0.0
 11
-333.8305687636435
 21
463.9333333333331
 31
0.0
  0
LINE
  5
91
  8
1
  6
CONTINUOUS
 62
     7
 10
-336.3305687636436
 20
463.9333333333331
 30
0.0
 11
-333.8305687636434
 21
463.9333333333331
 31
0.0
  0
LINE
  5
92
  8
1
  6
CONTINUOUS
 62
     7
 10
-333.8305687636435
 20
467.9333333333332
 30
0.0
 11
-333.8305687636435
 21
467.6597000923961
 31
0.0
  0
LINE
  5
93
  8
1
  6
CONTINUOUS
 62
     7
 10
-333.8305687636435
 20
467.6597000923961
 30
0.0
 11
-333.8305687636435
 21
467.3917209176424
 31
0.0
  0
LINE
  5
94
  8
1
  6
CONTINUOUS
 62
     7
 10
-336.3305687636436
 20
467.9333333333331
 30
0.0
 11
-333.8305687636434
 21
467.9333333333331
 31
0.0
  0
LINE
  5
95
  8
1
  6
CONTINUOUS
 62
     7
 10
-343.8305687636435
 20
463.9333333333331
 30
0.0
 11
-343.8305687636435
 21
464.206966574493
 31
0.0
  0
LINE
  5
96
  8
1
  6
CONTINUOUS
 62
     7
 10
-343.8305687636435
 20
464.206966574493
 30
0.0
 11
-343.8305687636435
 21
464.4749457490244
 31
0.0
  0
LINE
  5
97
  8
1
  6
CONTINUOUS
 62
     7
 10
-343.8305687636436
 20
463.9333333333331
 30
0.0
 11
-341.3305687636436
 21
463.9333333333331
 31
0.0
  0
LINE
  5
98
  8
1
  6
CONTINUOUS
 62
     7
 10
-343.8305687636435
 20
467.3917209176419
 30
0.0
 11
-343.8305687636435
 21
467.6587555675606
 31
0.0
  0
LINE
  5
99
  8
1
  6
CONTINUOUS
 62
     7
 10
-343.8305687636435
 20
467.6587555675606
 30
0.0
 11
-343.8305687636435
 21
467.9333333333332
 31
0.0
  0
LINE
  5
9A
  8
1
  6
CONTINUOUS
 62
     7
 10
-343.8305687636436
 20
467.9333333333331
 30
0.0
 11
-341.3305687636436
 21
467.9333333333331
 31
0.0
  0
LINE
  5
9B
  8
1
  6
CONTINUOUS
 62
     7
 10
-341.8305687636432
 20
426.9333333333333
 30
0.0
 11
-340.9518891072029
 21
426.9333333333333
 31
0.0
  0
LINE
  5
9C
  8
1
  6
CONTINUOUS
 62
     7
 10
-340.9518891072029
 20
426.9333333333333
 30
0.0
 11
-335.8305687636435
 21
426.9333333333333
 31
0.0
  0
LINE
  5
9D
  8
1
  6
CONTINUOUS
 62
     7
 10
-336.3305687636436
 20
423.9333333333334
 30
0.0
 11
-337.0628018106772
 21
423.9333333333334
 31
0.0
  0
LINE
  5
9E
  8
1
  6
CONTINUOUS
 62
     7
 10
-337.0628018106772
 20
423.9333333333334
 30
0.0
 11
-341.3305687636432
 21
423.9333333333334
 31
0.0
  0
ARC
  5
9F
  8
1
  6
CONTINUOUS
 62
     7
 10
-310.5376755448302
 20
411.7333333333335
 30
0.0
 40
2.449999999999998
 50
255.824196484133
 51
284.1758035158671
  0
LINE
  5
A0
  8
1
  6
CONTINUOUS
 62
     7
 10
-309.9376755448302
 20
410.6333333333334
 30
0.0
 11
-309.9376755448302
 21
409.3579386292895
 31
0.0
  0
POLYLINE
  5
A1
  8
1
  6
CONTINUOUS
 62
     7
 66
     1
 10
0.0
 20
0.0
 30
0.0
  0
VERTEX
  5
505
  8
1
  6
CONTINUOUS
 62
     7
 10
-309.4376755448302
 20
411.1333333333334
 30
0.0
  0
VERTEX
  5
506
  8
1
  6
CONTINUOUS
 62
     7
 10
-309.4613831389736
 20
411.1327591093639
 30
0.0
  0
VERTEX
  5
507
  8
1
  6
CONTINUOUS
 62
     7
 10
-309.4851258603457
 20
411.1310436098734
 30
0.0
  0
VERTEX
  5
508
  8
1
  6
CONTINUOUS
 62
     7
 10
-309.5088226014761
 20
411.1281975934888
 30
0.0
  0
VERTEX
  5
509
  8
1
  6
CONTINUOUS
 62
     7
 10
-309.5323922548946
 20
411.1242318188373
 30
0.0
  0
VERTEX
  5
50A
  8
1
  6
CONTINUOUS
 62
     7
 10
-309.5557537131305
 20
411.1191570445458
 30
0.0
  0
VERTEX
  5
50B
  8
1
  6
CONTINUOUS
 62
     7
 10
-309.5788258687134
 20
411.1129840292414
 30
0.0
  0
VERTEX
  5
50C
  8
1
  6
CONTINUOUS
 62
     7
 10
-309.6015276141731
 20
411.1057235315511
 30
0.0
  0
VERTEX
  5
50D
  8
1
  6
CONTINUOUS
 62
     7
 10
-309.6238777491099
 20
411.0973550715204
 30
0.0
  0
VERTEX
  5
50E
  8
1
  6
CONTINUOUS
 62
     7
 10
-309.6458779857283
 20
411.0878845127256
 30
0.0
  0
VERTEX
  5
50F
  8
1
  6
CONTINUOUS
 62
     7
 10
-309.6674532345483
 20
411.0773511513684
 30
0.0
  0
VERTEX
  5
510
  8
1
  6
CONTINUOUS
 62
     7
 10
-309.6885284060898
 20
411.0657942836506
 30
0.0
  0
VERTEX
  5
511
  8
1
  6
CONTINUOUS
 62
     7
 10
-309.7090284108728
 20
411.0532532057737
 30
0.0
  0
VERTEX
  5
512
  8
1
  6
CONTINUOUS
 62
     7
 10
-309.7288781594173
 20
411.0397672139395
 30
0.0
  0
VERTEX
  5
513
  8
1
  6
CONTINUOUS
 62
     7
 10
-309.7480025622432
 20
411.0253756043496
 30
0.0
  0
VERTEX
  5
514
  8
1
  6
CONTINUOUS
 62
     7
 10
-309.7662177633508
 20
411.0102255815086
 30
0.0
  0
VERTEX
  5
515
  8
1
  6
CONTINUOUS
 62
     7
 10
-309.7837402402846
 20
410.9941728218474
 30
0.0
  0
VERTEX
  5
516
  8
1
  6
CONTINUOUS
 62
     7
 10
-309.8005145948167
 20
410.9772790776988
 30
0.0
  0
VERTEX
  5
517
  8
1
  6
CONTINUOUS
 62
     7
 10
-309.8164854287192
 20
410.9596061013959
 30
0.0
  0
VERTEX
  5
518
  8
1
  6
CONTINUOUS
 62
     7
 10
-309.8315973437639
 20
410.9412156452717
 30
0.0
  0
VERTEX
  5
519
  8
1
  6
CONTINUOUS
 62
     7
 10
-309.8457949417229
 20
410.922169461659
 30
0.0
  0
VERTEX
  5
51A
  8
1
  6
CONTINUOUS
 62
     7
 10
-309.8590228243681
 20
410.902529302891
 30
0.0
  0
VERTEX
  5
51B
  8
1
  6
CONTINUOUS
 62
     7
 10
-309.871226004946
 20
410.8823762172839
 30
0.0
  0
VERTEX
  5
51C
  8
1
  6
CONTINUOUS
 62
     7
 10
-309.8824836764501
 20
410.8616167126373
 30
0.0
  0
VERTEX
  5
51D
  8
1
  6
CONTINUOUS
 62
     7
 10
-309.8927661751121
 20
410.8403254792824
 30
0.0
  0
VERTEX
  5
51E
  8
1
  6
CONTINUOUS
 62
     7
 10
-309.9020438371634
 20
410.8185772075504
 30
0.0
  0
VERTEX
  5
51F
  8
1
  6
CONTINUOUS
 62
     7
 10
-309.9102869988355
 20
410.7964465877729
 30
0.0
  0
VERTEX
  5
520
  8
1
  6
CONTINUOUS
 62
     7
 10
-309.9174659963602
 20
410.774008310281
 30
0.0
  0
VERTEX
  5
521
  8
1
  6
CONTINUOUS
 62
     7
 10
-309.9235511659689
 20
410.7513370654062
 30
0.0
  0
VERTEX
  5
522
  8
1
  6
CONTINUOUS
 62
     7
 10
-309.928617994691
 20
410.7280449763476
 30
0.0
  0
VERTEX
  5
523
  8
1
  6
CONTINUOUS
 62
     7
 10
-309.9325705773137
 20
410.7045172384228
 30
0.0
  0
VERTEX
  5
524
  8
1
  6
CONTINUOUS
 62
     7
 10
-309.9354021834614
 20
410.6808351718201
 30
0.0
  0
VERTEX
  5
525
  8
1
  6
CONTINUOUS
 62
     7
 10
-309.9371060827588
 20
410.6570800967276
 30
0.0
  0
VERTEX
  5
526
  8
1
  6
CONTINUOUS
 62
     7
 10
-309.9376755448302
 20
410.6333333333334
 30
0.0
  0
SEQEND
  5
98D
  8
1
  6
CONTINUOUS
 62
     7
  0
LINE
  5
A2
  8
1
  6
CONTINUOUS
 62
     7
 10
-307.133752337929
 20
411.1333333333334
 30
0.0
 11
-309.4376755448302
 21
411.1333333333334
 31
0.0
  0
ARC
  5
A3
  8
1
  6
CONTINUOUS
 62
     9
 10
-310.5376755448302
 20
411.7333333333335
 30
0.0
 40
3.456398877224712
 50
189.996677858381
 51
350.0033221416189
  0
LINE
  5
A4
  8
1
  6
CONTINUOUS
 62
     7
 10
-311.6376755448302
 20
411.1333333333334
 30
0.0
 11
-313.9415987517314
 21
411.1333333333334
 31
0.0
  0
POLYLINE
  5
A5
  8
1
  6
CONTINUOUS
 62
     7
 66
     1
 10
0.0
 20
0.0
 30
0.0
  0
VERTEX
  5
527
  8
1
  6
CONTINUOUS
 62
     7
 10
-311.1376755448302
 20
410.6333333333334
 30
0.0
  0
VERTEX
  5
528
  8
1
  6
CONTINUOUS
 62
     7
 10
-311.1382497687997
 20
410.6570409274768
 30
0.0
  0
VERTEX
  5
529
  8
1
  6
CONTINUOUS
 62
     7
 10
-311.1399652682903
 20
410.6807836488489
 30
0.0
  0
VERTEX
  5
52A
  8
1
  6
CONTINUOUS
 62
     7
 10
-311.1428112846748
 20
410.7044803899794
 30
0.0
  0
VERTEX
  5
52B
  8
1
  6
CONTINUOUS
 62
     7
 10
-311.1467770593264
 20
410.7280500433978
 30
0.0
  0
VERTEX
  5
52C
  8
1
  6
CONTINUOUS
 62
     7
 10
-311.1518518336179
 20
410.7514115016337
 30
0.0
  0
VERTEX
  5
52D
  8
1
  6
CONTINUOUS
 62
     7
 10
-311.1580248489223
 20
410.7744836572166
 30
0.0
  0
VERTEX
  5
52E
  8
1
  6
CONTINUOUS
 62
     7
 10
-311.1652853466126
 20
410.7971854026762
 30
0.0
  0
VERTEX
  5
52F
  8
1
  6
CONTINUOUS
 62
     7
 10
-311.1736538066433
 20
410.8195355376131
 30
0.0
  0
VERTEX
  5
530
  8
1
  6
CONTINUOUS
 62
     7
 10
-311.1831243654381
 20
410.8415357742315
 30
0.0
  0
VERTEX
  5
531
  8
1
  6
CONTINUOUS
 62
     7
 10
-311.1936577267952
 20
410.8631110230515
 30
0.0
  0
VERTEX
  5
532
  8
1
  6
CONTINUOUS
 62
     7
 10
-311.2052145945131
 20
410.884186194593
 30
0.0
  0
VERTEX
  5
533
  8
1
  6
CONTINUOUS
 62
     7
 10
-311.21775567239
 20
410.9046861993761
 30
0.0
  0
VERTEX
  5
534
  8
1
  6
CONTINUOUS
 62
     7
 10
-311.2312416642242
 20
410.9245359479206
 30
0.0
  0
VERTEX
  5
535
  8
1
  6
CONTINUOUS
 62
     7
 10
-311.2456332738141
 20
410.9436603507465
 30
0.0
  0
VERTEX
  5
536
  8
1
  6
CONTINUOUS
 62
     7
 10
-311.260783296655
 20
410.961875551854
 30
0.0
  0
VERTEX
  5
537
  8
1
  6
CONTINUOUS
 62
     7
 10
-311.2768360563163
 20
410.9793980287878
 30
0.0
  0
VERTEX
  5
538
  8
1
  6
CONTINUOUS
 62
     7
 10
-311.2937298004649
 20
410.99617238332
 30
0.0
  0
VERTEX
  5
539
  8
1
  6
CONTINUOUS
 62
     7
 10
-311.3114027767677
 20
411.0121432172224
 30
0.0
  0
VERTEX
  5
53A
  8
1
  6
CONTINUOUS
 62
     7
 10
-311.329793232892
 20
411.0272551322671
 30
0.0
  0
VERTEX
  5
53B
  8
1
  6
CONTINUOUS
 62
     7
 10
-311.3488394165046
 20
411.0414527302261
 30
0.0
  0
VERTEX
  5
53C
  8
1
  6
CONTINUOUS
 62
     7
 10
-311.3684795752727
 20
411.0546806128714
 30
0.0
  0
VERTEX
  5
53D
  8
1
  6
CONTINUOUS
 62
     7
 10
-311.3886326608797
 20
411.0668837934492
 30
0.0
  0
VERTEX
  5
53E
  8
1
  6
CONTINUOUS
 62
     7
 10
-311.4093921655263
 20
411.0781414649534
 30
0.0
  0
VERTEX
  5
53F
  8
1
  6
CONTINUOUS
 62
     7
 10
-311.4306833988812
 20
411.0884239636153
 30
0.0
  0
VERTEX
  5
540
  8
1
  6
CONTINUOUS
 62
     7
 10
-311.4524316706132
 20
411.0977016256666
 30
0.0
  0
VERTEX
  5
541
  8
1
  6
CONTINUOUS
 62
     7
 10
-311.4745622903908
 20
411.1059447873387
 30
0.0
  0
VERTEX
  5
542
  8
1
  6
CONTINUOUS
 62
     7
 10
-311.4970005678827
 20
411.1131237848634
 30
0.0
  0
VERTEX
  5
543
  8
1
  6
CONTINUOUS
 62
     7
 10
-311.5196718127574
 20
411.1192089544721
 30
0.0
  0
VERTEX
  5
544
  8
1
  6
CONTINUOUS
 62
     7
 10
-311.5429639018161
 20
411.1242757831943
 30
0.0
  0
VERTEX
  5
545
  8
1
  6
CONTINUOUS
 62
     7
 10
-311.5664916397408
 20
411.1282283658169
 30
0.0
  0
VERTEX
  5
546
  8
1
  6
CONTINUOUS
 62
     7
 10
-311.5901737063435
 20
411.1310599719647
 30
0.0
  0
VERTEX
  5
547
  8
1
  6
CONTINUOUS
 62
     7
 10
-311.6139287814361
 20
411.132763871262
 30
0.0
  0
VERTEX
  5
548
  8
1
  6
CONTINUOUS
 62
     7
 10
-311.6376755448302
 20
411.1333333333334
 30
0.0
  0
SEQEND
  5
98E
  8
1
  6
CONTINUOUS
 62
     7
  0
LINE
  5
A6
  8
1
  6
CONTINUOUS
 62
     7
 10
-311.1376755448302
 20
409.3579386292895
 30
0.0
 11
-311.1376755448302
 21
410.6333333333334
 31
0.0
  0
ARC
  5
A7
  8
1
  6
CONTINUOUS
 62
     7
 10
-310.5376755448302
 20
411.7333333333335
 30
0.0
 40
2.45
 50
75.82419648413298
 51
104.175803515867
  0
LINE
  5
A8
  8
1
  6
CONTINUOUS
 62
     7
 10
-311.1376755448302
 20
412.8333333333334
 30
0.0
 11
-311.1376755448302
 21
414.1087280373774
 31
0.0
  0
LINE
  5
A9
  8
1
  6
CONTINUOUS
 62
     7
 10
-313.9415987517314
 20
412.3333333333334
 30
0.0
 11
-311.6376755448302
 21
412.3333333333334
 31
0.0
  0
ARC
  5
AA
  8
1
  6
CONTINUOUS
 62
     9
 10
-310.5376755448302
 20
411.7333333333335
 30
0.0
 40
3.456398877224709
 50
9.996677858381043
 51
170.003322141619
  0
LINE
  5
AB
  8
1
  6
CONTINUOUS
 62
     7
 10
-309.4376755448302
 20
412.3333333333334
 30
0.0
 11
-307.133752337929
 21
412.3333333333334
 31
0.0
  0
POLYLINE
  5
AC
  8
1
  6
CONTINUOUS
 62
     7
 66
     1
 10
0.0
 20
0.0
 30
0.0
  0
VERTEX
  5
549
  8
1
  6
CONTINUOUS
 62
     7
 10
-309.9376755448302
 20
412.8333333333334
 30
0.0
  0
VERTEX
  5
54A
  8
1
  6
CONTINUOUS
 62
     7
 10
-309.9371013208607
 20
412.80962573919
 30
0.0
  0
VERTEX
  5
54B
  8
1
  6
CONTINUOUS
 62
     7
 10
-309.9353858213701
 20
412.7858830178179
 30
0.0
  0
VERTEX
  5
54C
  8
1
  6
CONTINUOUS
 62
     7
 10
-309.9325398049856
 20
412.7621862766875
 30
0.0
  0
VERTEX
  5
54D
  8
1
  6
CONTINUOUS
 62
     7
 10
-309.928574030334
 20
412.7386166232691
 30
0.0
  0
VERTEX
  5
54E
  8
1
  6
CONTINUOUS
 62
     7
 10
-309.9234992560425
 20
412.7152551650332
 30
0.0
  0
VERTEX
  5
54F
  8
1
  6
CONTINUOUS
 62
     7
 10
-309.9173262407381
 20
412.6921830094503
 30
0.0
  0
VERTEX
  5
550
  8
1
  6
CONTINUOUS
 62
     7
 10
-309.9100657430478
 20
412.6694812639906
 30
0.0
  0
VERTEX
  5
551
  8
1
  6
CONTINUOUS
 62
     7
 10
-309.9016972830171
 20
412.6471311290538
 30
0.0
  0
VERTEX
  5
552
  8
1
  6
CONTINUOUS
 62
     7
 10
-309.8922267242224
 20
412.6251308924353
 30
0.0
  0
VERTEX
  5
553
  8
1
  6
CONTINUOUS
 62
     7
 10
-309.8816933628652
 20
412.6035556436154
 30
0.0
  0
VERTEX
  5
554
  8
1
  6
CONTINUOUS
 62
     7
 10
-309.8701364951473
 20
412.5824804720738
 30
0.0
  0
VERTEX
  5
555
  8
1
  6
CONTINUOUS
 62
     7
 10
-309.8575954172705
 20
412.5619804672908
 30
0.0
  0
VERTEX
  5
556
  8
1
  6
CONTINUOUS
 62
     7
 10
-309.8441094254363
 20
412.5421307187464
 30
0.0
  0
VERTEX
  5
557
  8
1
  6
CONTINUOUS
 62
     7
 10
-309.8297178158464
 20
412.5230063159204
 30
0.0
  0
VERTEX
  5
558
  8
1
  6
CONTINUOUS
 62
     7
 10
-309.8145677930054
 20
412.5047911148129
 30
0.0
  0
VERTEX
  5
559
  8
1
  6
CONTINUOUS
 62
     7
 10
-309.7985150333441
 20
412.487268637879
 30
0.0
  0
VERTEX
  5
55A
  8
1
  6
CONTINUOUS
 62
     7
 10
-309.7816212891956
 20
412.4704942833469
 30
0.0
  0
VERTEX
  5
55B
  8
1
  6
CONTINUOUS
 62
     7
 10
-309.7639483128926
 20
412.4545234494445
 30
0.0
  0
VERTEX
  5
55C
  8
1
  6
CONTINUOUS
 62
     7
 10
-309.7455578567684
 20
412.4394115343998
 30
0.0
  0
VERTEX
  5
55D
  8
1
  6
CONTINUOUS
 62
     7
 10
-309.7265116731558
 20
412.4252139364407
 30
0.0
  0
VERTEX
  5
55E
  8
1
  6
CONTINUOUS
 62
     7
 10
-309.7068715143877
 20
412.4119860537955
 30
0.0
  0
VERTEX
  5
55F
  8
1
  6
CONTINUOUS
 62
     7
 10
-309.6867184287808
 20
412.3997828732176
 30
0.0
  0
VERTEX
  5
560
  8
1
  6
CONTINUOUS
 62
     7
 10
-309.6659589241341
 20
412.3885252017135
 30
0.0
  0
VERTEX
  5
561
  8
1
  6
CONTINUOUS
 62
     7
 10
-309.6446676907792
 20
412.3782427030516
 30
0.0
  0
VERTEX
  5
562
  8
1
  6
CONTINUOUS
 62
     7
 10
-309.6229194190472
 20
412.3689650410004
 30
0.0
  0
VERTEX
  5
563
  8
1
  6
CONTINUOUS
 62
     7
 10
-309.6007887992697
 20
412.3607218793281
 30
0.0
  0
VERTEX
  5
564
  8
1
  6
CONTINUOUS
 62
     7
 10
-309.5783505217778
 20
412.3535428818035
 30
0.0
  0
VERTEX
  5
565
  8
1
  6
CONTINUOUS
 62
     7
 10
-309.555679276903
 20
412.3474577121947
 30
0.0
  0
VERTEX
  5
566
  8
1
  6
CONTINUOUS
 62
     7
 10
-309.5323871878444
 20
412.3423908834726
 30
0.0
  0
VERTEX
  5
567
  8
1
  6
CONTINUOUS
 62
     7
 10
-309.5088594499196
 20
412.3384383008499
 30
0.0
  0
VERTEX
  5
568
  8
1
  6
CONTINUOUS
 62
     7
 10
-309.4851773833169
 20
412.3356066947022
 30
0.0
  0
VERTEX
  5
569
  8
1
  6
CONTINUOUS
 62
     7
 10
-309.4614223082243
 20
412.3339027954049
 30
0.0
  0
VERTEX
  5
56A
  8
1
  6
CONTINUOUS
 62
     7
 10
-309.4376755448302
 20
412.3333333333334
 30
0.0
  0
SEQEND
  5
98F
  8
1
  6
CONTINUOUS
 62
     7
  0
LINE
  5
AD
  8
1
  6
CONTINUOUS
 62
     7
 10
-309.9376755448302
 20
414.1087280373774
 30
0.0
 11
-309.9376755448302
 21
412.8333333333334
 31
0.0
  0
POLYLINE
  5
AE
  8
1
  6
CONTINUOUS
 62
     7
 66
     1
 10
0.0
 20
0.0
 30
0.0
  0
VERTEX
  5
56B
  8
1
  6
CONTINUOUS
 62
     7
 10
-311.6376755448302
 20
412.3333333333334
 30
0.0
  0
VERTEX
  5
56C
  8
1
  6
CONTINUOUS
 62
     7
 10
-311.6139679506869
 20
412.333907557303
 30
0.0
  0
VERTEX
  5
56D
  8
1
  6
CONTINUOUS
 62
     7
 10
-311.5902252293147
 20
412.3356230567935
 30
0.0
  0
VERTEX
  5
56E
  8
1
  6
CONTINUOUS
 62
     7
 10
-311.5665284881842
 20
412.338469073178
 30
0.0
  0
VERTEX
  5
56F
  8
1
  6
CONTINUOUS
 62
     7
 10
-311.5429588347658
 20
412.3424348478296
 30
0.0
  0
VERTEX
  5
570
  8
1
  6
CONTINUOUS
 62
     7
 10
-311.5195973765299
 20
412.3475096221211
 30
0.0
  0
VERTEX
  5
571
  8
1
  6
CONTINUOUS
 62
     7
 10
-311.496525220947
 20
412.3536826374255
 30
0.0
  0
VERTEX
  5
572
  8
1
  6
CONTINUOUS
 62
     7
 10
-311.4738234754874
 20
412.3609431351159
 30
0.0
  0
VERTEX
  5
573
  8
1
  6
CONTINUOUS
 62
     7
 10
-311.4514733405505
 20
412.3693115951465
 30
0.0
  0
VERTEX
  5
574
  8
1
  6
CONTINUOUS
 62
     7
 10
-311.4294731039321
 20
412.3787821539413
 30
0.0
  0
VERTEX
  5
575
  8
1
  6
CONTINUOUS
 62
     7
 10
-311.4078978551121
 20
412.3893155152984
 30
0.0
  0
VERTEX
  5
576
  8
1
  6
CONTINUOUS
 62
     7
 10
-311.3868226835706
 20
412.4008723830163
 30
0.0
  0
VERTEX
  5
577
  8
1
  6
CONTINUOUS
 62
     7
 10
-311.3663226787876
 20
412.4134134608932
 30
0.0
  0
VERTEX
  5
578
  8
1
  6
CONTINUOUS
 62
     7
 10
-311.3464729302431
 20
412.4268994527274
 30
0.0
  0
VERTEX
  5
579
  8
1
  6
CONTINUOUS
 62
     7
 10
-311.3273485274171
 20
412.4412910623172
 30
0.0
  0
VERTEX
  5
57A
  8
1
  6
CONTINUOUS
 62
     7
 10
-311.3091333263097
 20
412.4564410851582
 30
0.0
  0
VERTEX
  5
57B
  8
1
  6
CONTINUOUS
 62
     7
 10
-311.2916108493758
 20
412.4724938448195
 30
0.0
  0
VERTEX
  5
57C
  8
1
  6
CONTINUOUS
 62
     7
 10
-311.2748364948437
 20
412.4893875889681
 30
0.0
  0
VERTEX
  5
57D
  8
1
  6
CONTINUOUS
 62
     7
 10
-311.2588656609412
 20
412.507060565271
 30
0.0
  0
VERTEX
  5
57E
  8
1
  6
CONTINUOUS
 62
     7
 10
-311.2437537458965
 20
412.5254510213952
 30
0.0
  0
VERTEX
  5
57F
  8
1
  6
CONTINUOUS
 62
     7
 10
-311.2295561479376
 20
412.5444972050079
 30
0.0
  0
VERTEX
  5
580
  8
1
  6
CONTINUOUS
 62
     7
 10
-311.2163282652923
 20
412.564137363776
 30
0.0
  0
VERTEX
  5
581
  8
1
  6
CONTINUOUS
 62
     7
 10
-311.2041250847145
 20
412.5842904493829
 30
0.0
  0
VERTEX
  5
582
  8
1
  6
CONTINUOUS
 62
     7
 10
-311.1928674132103
 20
412.6050499540295
 30
0.0
  0
VERTEX
  5
583
  8
1
  6
CONTINUOUS
 62
     7
 10
-311.1825849145484
 20
412.6263411873845
 30
0.0
  0
VERTEX
  5
584
  8
1
  6
CONTINUOUS
 62
     7
 10
-311.1733072524971
 20
412.6480894591164
 30
0.0
  0
VERTEX
  5
585
  8
1
  6
CONTINUOUS
 62
     7
 10
-311.1650640908249
 20
412.670220078894
 30
0.0
  0
VERTEX
  5
586
  8
1
  6
CONTINUOUS
 62
     7
 10
-311.1578850933002
 20
412.6926583563858
 30
0.0
  0
VERTEX
  5
587
  8
1
  6
CONTINUOUS
 62
     7
 10
-311.1517999236915
 20
412.7153296012607
 30
0.0
  0
VERTEX
  5
588
  8
1
  6
CONTINUOUS
 62
     7
 10
-311.1467330949694
 20
412.7386216903193
 30
0.0
  0
VERTEX
  5
589
  8
1
  6
CONTINUOUS
 62
     7
 10
-311.1427805123467
 20
412.7621494282441
 30
0.0
  0
VERTEX
  5
58A
  8
1
  6
CONTINUOUS
 62
     7
 10
-311.139948906199
 20
412.7858314948468
 30
0.0
  0
VERTEX
  5
58B
  8
1
  6
CONTINUOUS
 62
     7
 10
-311.1382450069017
 20
412.8095865699393
 30
0.0
  0
VERTEX
  5
58C
  8
1
  6
CONTINUOUS
 62
     7
 10
-311.1376755448302
 20
412.8333333333334
 30
0.0
  0
SEQEND
  5
990
  8
1
  6
CONTINUOUS
 62
     7
  0
ARC
  5
AF
  8
1
  6
CONTINUOUS
 62
     7
 10
-310.5376755448302
 20
411.7333333333335
 30
0.0
 40
1.22305552472827
 50
60.55599189447439
 51
119.4440081055256
  0
ARC
  5
B0
  8
1
  6
CONTINUOUS
 62
     7
 10
-310.5376755448302
 20
411.7333333333335
 30
0.0
 40
1.22305552472827
 50
240.5559918944744
 51
299.4440081055255
  0
ARC
  5
B1
  8
1
  6
CONTINUOUS
 62
     9
 10
-310.5376755448302
 20
411.7333333333335
 30
0.0
 40
4.359030618726566
 50
7.911611702842833
 51
172.0883882971572
  0
LINE
  5
B2
  8
1
  6
CONTINUOUS
 62
     7
 10
-307.133752337929
 20
412.3333333333334
 30
0.0
 11
-306.2201359752378
 21
412.3333333333334
 31
0.0
  0
LINE
  5
B3
  8
1
  6
CONTINUOUS
 62
     7
 10
-314.8552151144225
 20
412.3333333333334
 30
0.0
 11
-313.9415987517313
 21
412.3333333333334
 31
0.0
  0
ARC
  5
B4
  8
1
  6
CONTINUOUS
 62
     9
 10
-310.5376755448302
 20
411.7333333333335
 30
0.0
 40
4.359030618726562
 50
187.9116117028428
 51
352.0883882971589
  0
LINE
  5
B5
  8
1
  6
CONTINUOUS
 62
     7
 10
-313.9415987517314
 20
411.1333333333334
 30
0.0
 11
-314.8552151144226
 21
411.1333333333334
 31
0.0
  0
LINE
  5
B6
  8
1
  6
CONTINUOUS
 62
     7
 10
-306.2201359752369
 20
411.1333333333334
 30
0.0
 11
-307.133752337929
 21
411.1333333333334
 31
0.0
  0
ARC
  5
B7
  8
1
  6
CONTINUOUS
 62
     7
 10
-310.5376755448302
 20
411.7333333333335
 30
0.0
 40
4.368767004711112
 50
352.1061329340404
 51
7.89386706595957
  0
ARC
  5
B8
  8
1
  6
CONTINUOUS
 62
     7
 10
-310.5376755448302
 20
411.7333333333335
 30
0.0
 40
4.368767004711115
 50
172.1061329340405
 51
187.8938670659595
  0
ARC
  5
B9
  8
1
  6
CONTINUOUS
 62
     7
 10
-310.5376755448302
 20
411.7333333333335
 30
0.0
 40
4.5
 50
176.8152614632796
 51
183.1847385367205
  0
ARC
  5
BA
  8
1
  6
CONTINUOUS
 62
     7
 10
-310.5376755448302
 20
411.7333333333335
 30
0.0
 40
4.5
 50
171.4333392836855
 51
176.8152614632795
  0
ARC
  5
BB
  8
1
  6
CONTINUOUS
 62
     7
 10
-310.5376755448302
 20
411.7333333333335
 30
0.0
 40
4.500000000000002
 50
8.882495646278471
 51
171.4333392836856
  0
ARC
  5
BC
  8
1
  6
CONTINUOUS
 62
     7
 10
-310.5376755448302
 20
411.7333333333335
 30
0.0
 40
4.499999999999999
 50
8.181359927669746
 51
8.882495646278471
  0
ARC
  5
BD
  8
1
  6
CONTINUOUS
 62
     7
 10
-310.5376755448302
 20
411.7333333333335
 30
0.0
 40
4.499999999999999
 50
351.4333392836916
 51
8.181359927669746
  0
ARC
  5
BE
  8
1
  6
CONTINUOUS
 62
     7
 10
-310.5376755448302
 20
411.7333333333335
 30
0.0
 40
4.5
 50
188.1813599276692
 51
351.4333392836916
  0
ARC
  5
BF
  8
1
  6
CONTINUOUS
 62
     7
 10
-310.5376755448302
 20
411.7333333333335
 30
0.0
 40
4.500000000000003
 50
183.1847385367204
 51
188.1813599276692
  0
ARC
  5
C0
  8
1
  6
CONTINUOUS
 62
     7
 10
-310.5376755448302
 20
411.7333333333335
 30
0.0
 40
1.564468336724376
 50
157.4483034321429
 51
202.5516965678571
  0
ARC
  5
C1
  8
1
  6
CONTINUOUS
 62
     7
 10
-310.5376755448302
 20
411.7333333333335
 30
0.0
 40
1.22305552472827
 50
150.5559918944743
 51
209.4440081055256
  0
ARC
  5
C2
  8
1
  6
CONTINUOUS
 62
     7
 10
-310.5376755448302
 20
411.7333333333335
 30
0.0
 40
1.22305552472827
 50
330.5559918944744
 51
29.44400810552565
  0
ARC
  5
C3
  8
1
  6
CONTINUOUS
 62
     7
 10
-310.5376755448302
 20
411.7333333333335
 30
0.0
 40
1.564468336724369
 50
337.4483034321429
 51
22.55169656785711
  0
LINE
  5
C4
  8
1
  6
CONTINUOUS
 62
     7
 10
-315.2810920350828
 20
411.4833333333334
 30
0.0
 11
-315.0307257337331
 21
411.4833333333334
 31
0.0
  0
LINE
  5
C5
  8
1
  6
CONTINUOUS
 62
     7
 10
-315.0307257337331
 20
411.9833333333334
 30
0.0
 11
-315.2810920350828
 21
411.9833333333334
 31
0.0
  0
ARC
  5
C6
  8
1
  6
CONTINUOUS
 62
     7
 10
-310.5376755448302
 20
411.7333333333335
 30
0.0
 40
4.750000000000003
 50
183.016961309816
 51
176.983038690184
  0
CIRCLE
  5
C7
  8
1
  6
CONTINUOUS
 62
     7
 10
-310.5376755448302
 20
411.7333333333335
 30
0.0
 40
4.999999999999997
  0
LINE
  5
C8
  8
1
  6
CONTINUOUS
 62
     7
 10
-347.3158501378823
 20
448.7333333333334
 30
0.0
 11
-347.3158501378823
 21
444.2333333333334
 31
0.0
  0
LINE
  5
C9
  8
1
  6
CONTINUOUS
 62
     7
 10
-339.5376755448302
 20
448.7333333333334
 30
0.0
 11
-347.3158501378823
 21
448.7333333333334
 31
0.0
  0
LINE
  5
CA
  8
1
  6
CONTINUOUS
 62
     7
 10
-339.5376755448302
 20
448.7333333333334
 30
0.0
 11
-339.5376755448302
 21
444.2333333333334
 31
0.0
  0
LINE
  5
CB
  8
1
  6
CONTINUOUS
 62
     7
 10
-339.5376755448302
 20
444.2333333333334
 30
0.0
 11
-347.3158501378823
 21
444.2333333333334
 31
0.0
  0
LINE
  5
CC
  8
1
  6
CONTINUOUS
 62
     7
 10
-336.0260328772947
 20
448.7333333333334
 30
0.0
 11
-339.5376755448302
 21
448.7333333333334
 31
0.0
  0
LINE
  5
CD
  8
1
  6
CONTINUOUS
 62
     7
 10
-336.181010612105
 20
444.2333333333334
 30
0.0
 11
-339.5376755448302
 21
444.2333333333334
 31
0.0
  0
ARC
  5
CE
  8
1
  6
CONTINUOUS
 62
     7
 10
-337.0376755448302
 20
411.7333333333335
 30
0.0
 40
2.649999999999999
 50
0.0
 51
214.4743846098382
  0
ARC
  5
CF
  8
1
  6
CONTINUOUS
 62
     7
 10
-337.0376755448302
 20
411.7333333333335
 30
0.0
 40
2.65
 50
325.5256153901618
 51
0.0
  0
CIRCLE
  5
D0
  8
1
  6
CONTINUOUS
 62
     7
 10
-310.5376755448302
 20
449.7333333333334
 30
0.0
 40
2.649999999999999
  0
LINE
  5
D1
  8
1
  6
CONTINUOUS
 62
     9
 10
-346.0376755448302
 20
419.2333333333335
 30
0.0
 11
-346.0376755448302
 21
416.9333333333335
 31
0.0
  0
LINE
  5
D2
  8
1
  6
CONTINUOUS
 62
     7
 10
-346.0376755448302
 20
416.9333333333335
 30
0.0
 11
-347.0376755448302
 21
416.9333333333335
 31
0.0
  0
LINE
  5
D3
  8
1
  6
CONTINUOUS
 62
     7
 10
-347.0376755448302
 20
416.9333333333335
 30
0.0
 11
-347.0376755448302
 21
419.2333333333334
 31
0.0
  0
LINE
  5
D4
  8
1
  6
CONTINUOUS
 62
     7
 10
-347.0376755448302
 20
419.2333333333335
 30
0.0
 11
-346.0376755448302
 21
419.2333333333335
 31
0.0
  0
LINE
  5
D5
  8
1
  6
CONTINUOUS
 62
     9
 10
-323.0376755448302
 20
416.9333333333335
 30
0.0
 11
-323.0376755448302
 21
419.2333333333334
 31
0.0
  0
LINE
  5
D6
  8
1
  6
CONTINUOUS
 62
     7
 10
-323.0376755448302
 20
419.2333333333335
 30
0.0
 11
-322.0376755448302
 21
419.2333333333335
 31
0.0
  0
LINE
  5
D7
  8
1
  6
CONTINUOUS
 62
     7
 10
-322.0376755448302
 20
419.2333333333335
 30
0.0
 11
-322.0376755448302
 21
416.9333333333335
 31
0.0
  0
LINE
  5
D8
  8
1
  6
CONTINUOUS
 62
     7
 10
-322.0376755448302
 20
416.9333333333335
 30
0.0
 11
-323.0376755448302
 21
416.9333333333335
 31
0.0
  0
LINE
  5
D9
  8
1
  6
CONTINUOUS
 62
     7
 10
-323.0376755448302
 20
419.2333333333335
 30
0.0
 11
-346.0376755448302
 21
419.2333333333335
 31
0.0
  0
LINE
  5
DA
  8
1
  6
CONTINUOUS
 62
     7
 10
-346.0376755448302
 20
416.9333333333335
 30
0.0
 11
-323.0376755448302
 21
416.9333333333335
 31
0.0
  0
LINE
  5
DB
  8
1
  6
CONTINUOUS
 62
     9
 10
-327.0376755448302
 20
412.9333333333334
 30
0.0
 11
-327.0376755448302
 21
407.2333333333335
 31
0.0
  0
LINE
  5
DC
  8
1
  6
CONTINUOUS
 62
     9
 10
-327.0376755448302
 20
407.2333333333335
 30
0.0
 11
-327.5376755448302
 21
407.2333333333335
 31
0.0
  0
LINE
  5
DD
  8
1
  6
CONTINUOUS
 62
     7
 10
-327.5376755448302
 20
407.2333333333335
 30
0.0
 11
-327.5376755448302
 21
412.9333333333334
 31
0.0
  0
LINE
  5
DE
  8
1
  6
CONTINUOUS
 62
     9
 10
-327.0376755448302
 20
412.9333333333334
 30
0.0
 11
-327.5376755448302
 21
412.9333333333334
 31
0.0
  0
LINE
  5
DF
  8
1
  6
CONTINUOUS
 62
     9
 10
-325.5376755448302
 20
405.7333333333335
 30
0.0
 11
-310.5376755448302
 21
405.7333333333335
 31
0.0
  0
ARC
  5
E0
  8
1
  6
CONTINUOUS
 62
     9
 10
-325.5376755448302
 20
407.2333333333335
 30
0.0
 40
1.500000000000001
 50
180.0
 51
269.9999999999999
  0
ARC
  5
E1
  8
1
  6
CONTINUOUS
 62
     9
 10
-325.5376755448302
 20
412.9333333333334
 30
0.0
 40
1.500000000000002
 50
89.99999999999982
 51
180.0
  0
LINE
  5
E2
  8
1
  6
CONTINUOUS
 62
     9
 10
-319.0376755448302
 20
414.4333333333335
 30
0.0
 11
-325.5376755448302
 21
414.4333333333335
 31
0.0
  0
ARC
  5
E3
  8
1
  6
CONTINUOUS
 62
     9
 10
-319.0376755448302
 20
418.9333333333335
 30
0.0
 40
4.5
 50
270.0
 51
359.9999999999998
  0
LINE
  5
E4
  8
1
  6
CONTINUOUS
 62
     9
 10
-314.5376755448302
 20
439.7333333333334
 30
0.0
 11
-314.5376755448302
 21
418.9333333333334
 31
0.0
  0
ARC
  5
E5
  8
1
  6
CONTINUOUS
 62
     9
 10
-319.0376755448302
 20
439.7333333333334
 30
0.0
 40
4.5
 50
0.0
 51
90.0
  0
LINE
  5
E6
  8
1
  6
CONTINUOUS
 62
     9
 10
-323.5376755448302
 20
444.2333333333334
 30
0.0
 11
-319.0376755448302
 21
444.2333333333334
 31
0.0
  0
ARC
  5
E7
  8
1
  6
CONTINUOUS
 62
     9
 10
-323.5376755448302
 20
447.7333333333334
 30
0.0
 40
3.5
 50
179.9999999999999
 51
269.9999999999998
  0
LINE
  5
E8
  8
1
  6
CONTINUOUS
 62
     9
 10
-327.0376755448302
 20
452.2333333333334
 30
0.0
 11
-327.0376755448302
 21
447.7333333333334
 31
0.0
  0
ARC
  5
E9
  8
1
  6
CONTINUOUS
 62
     9
 10
-323.5376755448302
 20
452.2333333333334
 30
0.0
 40
3.500000000000003
 50
90.0
 51
180.0
  0
LINE
  5
EA
  8
1
  6
CONTINUOUS
 62
     9
 10
-306.0376755448302
 20
455.7333333333334
 30
0.0
 11
-323.5376755448302
 21
455.7333333333334
 31
0.0
  0
ARC
  5
EB
  8
1
  6
CONTINUOUS
 62
     9
 10
-306.0376755448302
 20
454.2333333333334
 30
0.0
 40
1.499999999999998
 50
359.9999999999997
 51
89.9999999999999
  0
LINE
  5
EC
  8
1
  6
CONTINUOUS
 62
     9
 10
-304.5376755448302
 20
411.7333333333335
 30
0.0
 11
-304.5376755448302
 21
454.2333333333335
 31
0.0
  0
ARC
  5
ED
  8
1
  6
CONTINUOUS
 62
     9
 10
-310.5376755448302
 20
411.7333333333335
 30
0.0
 40
5.999999999999998
 50
269.9999999999999
 51
0.0
  0
CIRCLE
  5
EE
  8
1
  6
CONTINUOUS
 62
     7
 10
-310.5376755448302
 20
449.7333333333334
 30
0.0
 40
2.8
  0
LINE
  5
EF
  8
1
  6
CONTINUOUS
 62
     9
 10
-310.5376755448302
 20
405.7333333333335
 30
0.0
 11
-310.5376755448302
 21
405.2333333333335
 31
0.0
  0
LINE
  5
F0
  8
1
  6
CONTINUOUS
 62
     7
 10
-310.5376755448302
 20
405.2333333333335
 30
0.0
 11
-325.5376755448302
 21
405.2333333333335
 31
0.0
  0
LINE
  5
F1
  8
1
  6
CONTINUOUS
 62
     9
 10
-325.5376755448302
 20
405.7333333333335
 30
0.0
 11
-325.5376755448302
 21
405.2333333333335
 31
0.0
  0
LINE
  5
F2
  8
1
  6
CONTINUOUS
 62
     9
 10
-304.5376755448302
 20
411.7333333333335
 30
0.0
 11
-304.0376755448302
 21
411.7333333333335
 31
0.0
  0
ARC
  5
F3
  8
1
  6
CONTINUOUS
 62
     7
 10
-310.5376755448302
 20
411.7333333333335
 30
0.0
 40
6.499999999999999
 50
270.0
 51
0.0
  0
ARC
  5
F4
  8
1
  6
CONTINUOUS
 62
     7
 10
-325.5376755448302
 20
407.2333333333335
 30
0.0
 40
2.000000000000002
 50
180.0
 51
270.0
  0
LINE
  5
F5
  8
1
  6
CONTINUOUS
 62
     9
 10
-319.0376755448302
 20
414.4333333333335
 30
0.0
 11
-319.0376755448302
 21
414.9333333333335
 31
0.0
  0
ARC
  5
F6
  8
1
  6
CONTINUOUS
 62
     7
 10
-319.0376755448302
 20
418.9333333333335
 30
0.0
 40
4.0
 50
269.9999999999999
 51
359.9999999999998
  0
LINE
  5
F7
  8
1
  6
CONTINUOUS
 62
     9
 10
-314.5376755448302
 20
418.9333333333335
 30
0.0
 11
-315.0376755448302
 21
418.9333333333335
 31
0.0
  0
LINE
  5
F8
  8
1
  6
CONTINUOUS
 62
     9
 10
-325.5376755448302
 20
414.4333333333335
 30
0.0
 11
-325.5376755448302
 21
414.9333333333335
 31
0.0
  0
LINE
  5
F9
  8
1
  6
CONTINUOUS
 62
     7
 10
-325.5376755448302
 20
414.9333333333335
 30
0.0
 11
-319.0376755448302
 21
414.9333333333335
 31
0.0
  0
LINE
  5
FA
  8
1
  6
CONTINUOUS
 62
     9
 10
-304.0376755448302
 20
454.2333333333334
 30
0.0
 11
-304.5376755448302
 21
454.2333333333334
 31
0.0
  0
LINE
  5
FB
  8
1
  6
CONTINUOUS
 62
     7
 10
-304.0376755448302
 20
454.2333333333334
 30
0.0
 11
-304.0376755448302
 21
411.7333333333334
 31
0.0
  0
ARC
  5
FC
  8
1
  6
CONTINUOUS
 62
     7
 10
-325.5376755448302
 20
412.9333333333334
 30
0.0
 40
2.000000000000002
 50
89.99999999999977
 51
180.0
  0
LINE
  5
FD
  8
1
  6
CONTINUOUS
 62
     7
 10
-315.0376755448302
 20
418.9333333333335
 30
0.0
 11
-315.0376755448302
 21
439.7333333333334
 31
0.0
  0
LINE
  5
FE
  8
1
  6
CONTINUOUS
 62
     9
 10
-315.0376755448302
 20
439.7333333333334
 30
0.0
 11
-314.5376755448302
 21
439.7333333333334
 31
0.0
  0
ARC
  5
FF
  8
1
  6
CONTINUOUS
 62
     7
 10
-319.0376755448302
 20
439.7333333333334
 30
0.0
 40
3.999999999999996
 50
0.0
 51
90.0
  0
LINE
  5
100
  8
1
  6
CONTINUOUS
 62
     9
 10
-319.0376755448302
 20
443.7333333333334
 30
0.0
 11
-319.0376755448302
 21
444.2333333333334
 31
0.0
  0
LINE
  5
101
  8
1
  6
CONTINUOUS
 62
     7
 10
-319.0376755448302
 20
443.7333333333334
 30
0.0
 11
-323.5376755448302
 21
443.7333333333334
 31
0.0
  0
LINE
  5
102
  8
1
  6
CONTINUOUS
 62
     9
 10
-323.5376755448302
 20
443.7333333333334
 30
0.0
 11
-323.5376755448302
 21
444.2333333333334
 31
0.0
  0
ARC
  5
103
  8
1
  6
CONTINUOUS
 62
     7
 10
-323.5376755448302
 20
447.7333333333334
 30
0.0
 40
4.000000000000004
 50
180.0
 51
269.9999999999998
  0
LINE
  5
104
  8
1
  6
CONTINUOUS
 62
     9
 10
-327.5376755448302
 20
447.7333333333334
 30
0.0
 11
-327.0376755448302
 21
447.7333333333334
 31
0.0
  0
LINE
  5
105
  8
1
  6
CONTINUOUS
 62
     7
 10
-327.5376755448302
 20
447.7333333333334
 30
0.0
 11
-327.5376755448302
 21
452.2333333333334
 31
0.0
  0
LINE
  5
106
  8
1
  6
CONTINUOUS
 62
     9
 10
-327.5376755448302
 20
452.2333333333334
 30
0.0
 11
-327.0376755448302
 21
452.2333333333334
 31
0.0
  0
ARC
  5
107
  8
1
  6
CONTINUOUS
 62
     7
 10
-323.5376755448302
 20
452.2333333333334
 30
0.0
 40
4.000000000000004
 50
90.0
 51
180.0
  0
LINE
  5
108
  8
1
  6
CONTINUOUS
 62
     9
 10
-323.5376755448302
 20
456.2333333333334
 30
0.0
 11
-323.5376755448302
 21
455.7333333333334
 31
0.0
  0
LINE
  5
109
  8
1
  6
CONTINUOUS
 62
     7
 10
-323.5376755448302
 20
456.2333333333334
 30
0.0
 11
-306.0376755448302
 21
456.2333333333334
 31
0.0
  0
LINE
  5
10A
  8
1
  6
CONTINUOUS
 62
     9
 10
-306.0376755448302
 20
456.2333333333334
 30
0.0
 11
-306.0376755448302
 21
455.7333333333334
 31
0.0
  0
ARC
  5
10B
  8
1
  6
CONTINUOUS
 62
     7
 10
-306.0376755448302
 20
454.2333333333334
 30
0.0
 40
2.000000000000002
 50
359.9999999999998
 51
89.9999999999999
  0
CIRCLE
  5
10C
  8
1
  6
CONTINUOUS
 62
     7
 10
-337.0376755448302
 20
411.7333333333335
 30
0.0
 40
2.8
  0
LINE
  5
10D
  8
1
  6
CONTINUOUS
 62
     9
 10
-339.5376755448302
 20
443.845079795707
 30
0.0
 11
-339.5376755448302
 21
439.7333333333334
 31
0.0
  0
LINE
  5
10E
  8
1
  6
CONTINUOUS
 62
     7
 10
-336.8555168438841
 20
443.9387428414431
 30
0.0
 11
-339.5376755448302
 21
443.8450797957071
 31
0.0
  0
ARC
  5
10F
  8
1
  6
CONTINUOUS
 62
     7
 10
-336.8904163405866
 20
444.9381336684621
 30
0.0
 40
0.9999999999999991
 50
271.9999999999998
 51
2.000000000000171
  0
LINE
  5
110
  8
1
  6
CONTINUOUS
 62
     7
 10
-336.0202257964789
 20
448.6728451908424
 30
0.0
 11
-335.8910255135675
 21
444.9730331651647
 31
0.0
  0
ARC
  5
111
  8
1
  6
CONTINUOUS
 62
     7
 10
-336.5199212099885
 20
448.6553954424911
 30
0.0
 40
0.4999999999999926
 50
2.000000000002501
 51
92.00000000000011
  0
LINE
  5
112
  8
1
  6
CONTINUOUS
 62
     7
 10
-339.5376755448302
 20
449.0503179111308
 30
0.0
 11
-336.5373709583397
 21
449.1550908560007
 31
0.0
  0
LINE
  5
113
  8
1
  6
CONTINUOUS
 62
     9
 10
-339.5376755448302
 20
458.2333333333335
 30
0.0
 11
-339.5376755448302
 21
449.0503179111308
 31
0.0
  0
LINE
  5
114
  8
1
  6
CONTINUOUS
 62
     7
 10
-304.5376755448302
 20
458.2333333333335
 30
0.0
 11
-339.5376755448302
 21
458.2333333333335
 31
0.0
  0
ARC
  5
115
  8
1
  6
CONTINUOUS
 62
     7
 10
-304.5376755448302
 20
455.7333333333334
 30
0.0
 40
2.500000000000002
 50
0.000000000000159
 51
90.0
  0
LINE
  5
116
  8
1
  6
CONTINUOUS
 62
     7
 10
-302.0376755448302
 20
411.7333333333335
 30
0.0
 11
-302.0376755448302
 21
455.7333333333335
 31
0.0
  0
ARC
  5
117
  8
1
  6
CONTINUOUS
 62
     7
 10
-341.6234619824571
 20
404.2333333333335
 30
0.0
 40
0.9999999999999989
 50
224.9999999999998
 51
270.0
  0
LINE
  5
118
  8
1
  6
CONTINUOUS
 62
     7
 10
-347.0376755448302
 20
408.2333333333335
 30
0.0
 11
-342.3305687636437
 21
403.5262265521469
 31
0.0
  0
LINE
  5
119
  8
1
  6
CONTINUOUS
 62
     7
 10
-319.0376755448302
 20
416.9333333333335
 30
0.0
 11
-322.0376755448302
 21
416.9333333333335
 31
0.0
  0
ARC
  5
11A
  8
1
  6
CONTINUOUS
 62
     7
 10
-319.0376755448302
 20
418.9333333333335
 30
0.0
 40
2.000000000000002
 50
269.9999999999999
 51
359.9999999999993
  0
LINE
  5
11B
  8
1
  6
CONTINUOUS
 62
     7
 10
-317.0376755448302
 20
439.7333333333334
 30
0.0
 11
-317.0376755448302
 21
418.9333333333335
 31
0.0
  0
ARC
  5
11C
  8
1
  6
CONTINUOUS
 62
     7
 10
-319.0376755448302
 20
439.7333333333334
 30
0.0
 40
2.000000000000004
 50
359.9999999999998
 51
110.0000000000015
  0
LINE
  5
11D
  8
1
  6
CONTINUOUS
 62
     7
 10
-324.553898019922
 20
439.8539480917617
 30
0.0
 11
-319.7217158314816
 21
441.6127185749052
 31
0.0
  0
ARC
  5
11E
  8
1
  6
CONTINUOUS
 62
     7
 10
-325.2379383065733
 20
441.7333333333335
 30
0.0
 40
2.000000000000002
 50
270.0
 51
289.9999999999999
  0
LINE
  5
11F
  8
1
  6
CONTINUOUS
 62
     7
 10
-339.5376755448302
 20
439.7333333333335
 30
0.0
 11
-325.2379383065733
 21
439.7333333333335
 31
0.0
  0
LINE
  5
120
  8
1
  6
CONTINUOUS
 62
     7
 10
-341.6234619824571
 20
403.2333333333335
 30
0.0
 11
-310.5376755448302
 21
403.2333333333335
 31
0.0
  0
ARC
  5
121
  8
1
  6
CONTINUOUS
 62
     7
 10
-310.5376755448302
 20
411.7333333333335
 30
0.0
 40
8.5
 50
269.9999999999999
 51
0.0
  0
LINE
  5
122
  8
1
  6
CONTINUOUS
 62
     7
 10
-347.0376755448302
 20
416.9333333333335
 30
0.0
 11
-347.0376755448302
 21
408.2333333333335
 31
0.0
  0
LINE
  5
123
  8
1
  6
CONTINUOUS
 62
     7
 10
-345.0376755448302
 20
439.7333333333335
 30
0.0
 11
-345.0376755448302
 21
443.7333333333335
 31
0.0
  0
LINE
  5
124
  8
1
  6
CONTINUOUS
 62
     7
 10
-345.0376755448302
 20
443.7333333333335
 30
0.0
 11
-342.7376755448302
 21
443.7333333333335
 31
0.0
  0
LINE
  5
125
  8
1
  6
CONTINUOUS
 62
     7
 10
-339.5376755448302
 20
439.7333333333335
 30
0.0
 11
-345.0376755448302
 21
439.7333333333335
 31
0.0
  0
LINE
  5
126
  8
1
  6
CONTINUOUS
 62
     7
 10
-342.7376755448302
 20
443.7333333333334
 30
0.0
 11
-339.5376755448302
 21
443.845079795707
 31
0.0
  0
LINE
  5
127
  8
1
  6
CONTINUOUS
 62
     7
 10
-342.8876755448303
 20
448.9333333333335
 30
0.0
 11
-345.0376755448302
 21
448.9333333333335
 31
0.0
  0
LINE
  5
128
  8
1
  6
CONTINUOUS
 62
     7
 10
-345.0376755448302
 20
448.9333333333335
 30
0.0
 11
-345.0376755448302
 21
458.2333333333334
 31
0.0
  0
LINE
  5
129
  8
1
  6
CONTINUOUS
 62
     7
 10
-345.0376755448302
 20
458.2333333333335
 30
0.0
 11
-339.5376755448302
 21
458.2333333333335
 31
0.0
  0
LINE
  5
12A
  8
1
  6
CONTINUOUS
 62
     7
 10
-339.5376755448302
 20
449.0503179111308
 30
0.0
 11
-342.8876755448303
 21
448.9333333333335
 31
0.0
  0
LINE
  5
12B
  8
1
  6
CONTINUOUS
 62
     7
 10
-342.7376755448302
 20
448.9333333333335
 30
0.0
 11
-342.7376755448302
 21
448.9385714487573
 31
0.0
  0
LINE
  5
12C
  8
1
  6
CONTINUOUS
 62
     7
 10
-342.8876755448308
 20
448.9333333333335
 30
0.0
 11
-342.7376755448302
 21
448.9333333333335
 31
0.0
  0
LINE
  5
12D
  8
1
  6
CONTINUOUS
 62
     7
 10
-380.9678606025041
 20
388.8031482756595
 30
0.0
 11
-382.6074904871563
 21
388.8031482756595
 31
0.0
  0
LINE
  5
12E
  8
1
  6
CONTINUOUS
 62
     7
 10
-380.9678606025041
 20
388.8031482756595
 30
0.0
 11
-381.0376755448302
 21
388.7333333333335
 31
0.0
  0
LINE
  5
12F
  8
1
  6
CONTINUOUS
 62
     7
 10
-382.5376755448302
 20
388.7333333333334
 30
0.0
 11
-381.0376755448302
 21
388.7333333333334
 31
0.0
  0
LINE
  5
130
  8
1
  6
CONTINUOUS
 62
     7
 10
-382.6074904871563
 20
388.8031482756595
 30
0.0
 11
-382.5376755448302
 21
388.7333333333335
 31
0.0
  0
POLYLINE
  5
131
  8
1
  6
CONTINUOUS
 62
     7
 66
     1
 10
0.0
 20
0.0
 30
0.0
  0
VERTEX
  5
58D
  8
1
  6
CONTINUOUS
 62
     7
 10
-372.1076047179638
 20
398.8031482756595
 30
0.0
  0
VERTEX
  5
58E
  8
1
  6
CONTINUOUS
 62
     7
 10
-372.6928655694701
 20
398.7455074931768
 30
0.0
  0
VERTEX
  5
58F
  8
1
  6
CONTINUOUS
 62
     7
 10
-373.2556285693954
 20
398.5748000345924
 30
0.0
  0
VERTEX
  5
590
  8
1
  6
CONTINUOUS
 62
     7
 10
-373.7742691413899
 20
398.2975854577882
 30
0.0
  0
VERTEX
  5
591
  8
1
  6
CONTINUOUS
 62
     7
 10
-374.2288581453918
 20
397.924515933895
 30
0.0
  0
VERTEX
  5
592
  8
1
  6
CONTINUOUS
 62
     7
 10
-374.6019276692849
 20
397.4699269298932
 30
0.0
  0
VERTEX
  5
593
  8
1
  6
CONTINUOUS
 62
     7
 10
-374.8791422460891
 20
396.9512863578987
 30
0.0
  0
VERTEX
  5
594
  8
1
  6
CONTINUOUS
 62
     7
 10
-375.0498497046735
 20
396.3885233579734
 30
0.0
  0
VERTEX
  5
595
  8
1
  6
CONTINUOUS
 62
     7
 10
-375.1074904871563
 20
395.803262506467
 30
0.0
  0
SEQEND
  5
991
  8
1
  6
CONTINUOUS
 62
     7
  0
LINE
  5
132
  8
1
  6
CONTINUOUS
 62
     7
 10
-375.1074904871563
 20
395.803262506467
 30
0.0
 11
-375.1074904871563
 21
369.5250035235222
 31
0.0
  0
LINE
  5
133
  8
1
  6
CONTINUOUS
 62
     9
 10
-377.6403650065852
 20
369.5250035235221
 30
0.0
 11
-375.1074904871563
 21
369.5250035235221
 31
0.0
  0
LINE
  5
134
  8
1
  6
CONTINUOUS
 62
     7
 10
-377.6403650065852
 20
360.3416631431447
 30
0.0
 11
-377.6403650065852
 21
369.5250035235221
 31
0.0
  0
LINE
  5
135
  8
1
  6
CONTINUOUS
 62
     9
 10
-375.1074904871563
 20
360.3416631431447
 30
0.0
 11
-377.6403650065852
 21
360.3416631431447
 31
0.0
  0
LINE
  5
136
  8
1
  6
CONTINUOUS
 62
     7
 10
-375.1074904871563
 20
360.3416631431447
 30
0.0
 11
-375.1074904871563
 21
359.7944594862545
 31
0.0
  0
LINE
  5
137
  8
1
  6
CONTINUOUS
 62
     9
 10
-380.9678606025041
 20
359.7944594862545
 30
0.0
 11
-375.1074904871563
 21
359.7944594862545
 31
0.0
  0
LINE
  5
138
  8
1
  6
CONTINUOUS
 62
     7
 10
-380.9678606025041
 20
359.7944594862545
 30
0.0
 11
-380.9678606025041
 21
370.0809340482032
 31
0.0
  0
LINE
  5
139
  8
1
  6
CONTINUOUS
 62
     9
 10
-376.9765874702949
 20
370.0809340482032
 30
0.0
 11
-380.9678606025041
 21
370.0809340482032
 31
0.0
  0
LINE
  5
13A
  8
1
  6
CONTINUOUS
 62
     7
 10
-376.9765874702949
 20
388.1857326184637
 30
0.0
 11
-376.9765874702949
 21
370.0809340482031
 31
0.0
  0
LINE
  5
13B
  8
1
  6
CONTINUOUS
 62
     9
 10
-380.9678606025041
 20
388.1857326184637
 30
0.0
 11
-376.9765874702949
 21
388.1857326184637
 31
0.0
  0
LINE
  5
13C
  8
1
  6
CONTINUOUS
 62
     7
 10
-380.9678606025041
 20
388.1857326184637
 30
0.0
 11
-380.9678606025041
 21
388.8031482756595
 31
0.0
  0
LINE
  5
13D
  8
1
  6
CONTINUOUS
 62
     7
 10
-382.6074904871563
 20
388.8031482756595
 30
0.0
 11
-382.6074904871563
 21
379.7944594862545
 31
0.0
  0
LINE
  5
13E
  8
1
  6
CONTINUOUS
 62
     9
 10
-384.4678606025041
 20
379.7944594862545
 30
0.0
 11
-382.6074904871563
 21
379.7944594862545
 31
0.0
  0
LINE
  5
13F
  8
1
  6
CONTINUOUS
 62
     7
 10
-384.4678606025041
 20
379.7944594862545
 30
0.0
 11
-384.4678606025041
 21
389.6722833357339
 31
0.0
  0
POLYLINE
  5
140
  8
1
  6
CONTINUOUS
 62
     7
 66
     1
 10
0.0
 20
0.0
 30
0.0
  0
VERTEX
  5
596
  8
1
  6
CONTINUOUS
 62
     7
 10
-383.46789867944
 20
390.6722452587981
 30
0.0
  0
VERTEX
  5
597
  8
1
  6
CONTINUOUS
 62
     7
 10
-383.6629856299421
 20
390.6530316646372
 30
0.0
  0
VERTEX
  5
598
  8
1
  6
CONTINUOUS
 62
     7
 10
-383.8505732965839
 20
390.5961291784424
 30
0.0
  0
VERTEX
  5
599
  8
1
  6
CONTINUOUS
 62
     7
 10
-384.0234534872487
 20
390.5037243195076
 30
0.0
  0
VERTEX
  5
59A
  8
1
  6
CONTINUOUS
 62
     7
 10
-384.1749831552493
 20
390.3793678115433
 30
0.0
  0
VERTEX
  5
59B
  8
1
  6
CONTINUOUS
 62
     7
 10
-384.2993396632137
 20
390.2278381435426
 30
0.0
  0
VERTEX
  5
59C
  8
1
  6
CONTINUOUS
 62
     7
 10
-384.3917445221484
 20
390.0549579528778
 30
0.0
  0
VERTEX
  5
59D
  8
1
  6
CONTINUOUS
 62
     7
 10
-384.4486470083432
 20
389.8673702862361
 30
0.0
  0
VERTEX
  5
59E
  8
1
  6
CONTINUOUS
 62
     7
 10
-384.4678606025041
 20
389.672283335734
 30
0.0
  0
SEQEND
  5
992
  8
1
  6
CONTINUOUS
 62
     7
  0
LINE
  5
141
  8
1
  6
CONTINUOUS
 62
     7
 10
-383.46789867944
 20
390.6722452587981
 30
0.0
 11
-378.4765874702949
 21
390.6722452587981
 31
0.0
  0
LINE
  5
142
  8
1
  6
CONTINUOUS
 62
     7
 10
-378.4765874702949
 20
390.6722452587981
 30
0.0
 11
-378.4765874702949
 21
398.7944214078688
 31
0.0
  0
LINE
  5
143
  8
1
  6
CONTINUOUS
 62
     7
 10
-378.4765874702949
 20
398.7944214078688
 30
0.0
 11
-383.4765493919091
 21
398.7944214078688
 31
0.0
  0
LINE
  5
144
  8
1
  6
CONTINUOUS
 62
     9
 10
-383.4765493919091
 20
400.6722452587981
 30
0.0
 11
-383.4765493919091
 21
398.7944214078688
 31
0.0
  0
LINE
  5
145
  8
1
  6
CONTINUOUS
 62
     7
 10
-383.4765493919091
 20
400.6722452587981
 30
0.0
 11
-378.4765874702949
 21
400.6722452587981
 31
0.0
  0
LINE
  5
146
  8
1
  6
CONTINUOUS
 62
     7
 10
-378.4765874702949
 20
400.6722452587981
 30
0.0
 11
-378.4765874702949
 21
403.6944214078687
 31
0.0
  0
LINE
  5
147
  8
1
  6
CONTINUOUS
 62
     7
 10
-378.4765874702949
 20
403.6944214078687
 30
0.0
 11
-383.4765493919091
 21
403.6944214078687
 31
0.0
  0
LINE
  5
148
  8
1
  6
CONTINUOUS
 62
     9
 10
-383.4765493919091
 20
406.3413422419367
 30
0.0
 11
-383.4765493919091
 21
403.6944214078687
 31
0.0
  0
LINE
  5
149
  8
1
  6
CONTINUOUS
 62
     7
 10
-378.5376755448302
 20
406.3413422419367
 30
0.0
 11
-383.4765493919091
 21
406.3413422419367
 31
0.0
  0
LINE
  5
14A
  8
1
  6
CONTINUOUS
 62
     7
 10
-378.5376755448302
 20
411.1253244247301
 30
0.0
 11
-378.5376755448302
 21
406.3413422419367
 31
0.0
  0
LINE
  5
14B
  8
1
  6
CONTINUOUS
 62
     7
 10
-383.4765493919091
 20
411.1253244247301
 30
0.0
 11
-378.5376755448302
 21
411.1253244247301
 31
0.0
  0
LINE
  5
14C
  8
1
  6
CONTINUOUS
 62
     9
 10
-383.4765493919091
 20
413.7722452587981
 30
0.0
 11
-383.4765493919091
 21
411.1253244247301
 31
0.0
  0
LINE
  5
14D
  8
1
  6
CONTINUOUS
 62
     7
 10
-383.4765493919091
 20
413.7722452587981
 30
0.0
 11
-378.4765874702949
 21
413.7722452587981
 31
0.0
  0
LINE
  5
14E
  8
1
  6
CONTINUOUS
 62
     7
 10
-378.4765874702949
 20
413.7722452587981
 30
0.0
 11
-378.4765874702949
 21
416.7944214078688
 31
0.0
  0
LINE
  5
14F
  8
1
  6
CONTINUOUS
 62
     7
 10
-378.4765874702949
 20
416.7944214078688
 30
0.0
 11
-383.4765493919091
 21
416.7944214078688
 31
0.0
  0
LINE
  5
150
  8
1
  6
CONTINUOUS
 62
     9
 10
-383.4765493919091
 20
418.6635183910074
 30
0.0
 11
-383.4765493919091
 21
416.7944214078687
 31
0.0
  0
LINE
  5
151
  8
1
  6
CONTINUOUS
 62
     7
 10
-383.4765493919091
 20
418.6635183910074
 30
0.0
 11
-376.0725449390574
 21
418.6635183910074
 31
0.0
  0
POLYLINE
  5
152
  8
1
  6
CONTINUOUS
 62
     7
 66
     1
 10
0.0
 20
0.0
 30
0.0
  0
VERTEX
  5
59F
  8
1
  6
CONTINUOUS
 62
     7
 10
-375.0725830159932
 20
417.6635564679432
 30
0.0
  0
VERTEX
  5
5A0
  8
1
  6
CONTINUOUS
 62
     7
 10
-375.0917966101542
 20
417.8586434184454
 30
0.0
  0
VERTEX
  5
5A1
  8
1
  6
CONTINUOUS
 62
     7
 10
-375.148699096349
 20
418.0462310850871
 30
0.0
  0
VERTEX
  5
5A2
  8
1
  6
CONTINUOUS
 62
     7
 10
-375.2411039552837
 20
418.2191112757519
 30
0.0
  0
VERTEX
  5
5A3
  8
1
  6
CONTINUOUS
 62
     7
 10
-375.3654604632481
 20
418.3706409437525
 30
0.0
  0
VERTEX
  5
5A4
  8
1
  6
CONTINUOUS
 62
     7
 10
-375.5169901312487
 20
418.4949974517169
 30
0.0
  0
VERTEX
  5
5A5
  8
1
  6
CONTINUOUS
 62
     7
 10
-375.6898703219135
 20
418.5874023106516
 30
0.0
  0
VERTEX
  5
5A6
  8
1
  6
CONTINUOUS
 62
     7
 10
-375.8774579885552
 20
418.6443047968464
 30
0.0
  0
VERTEX
  5
5A7
  8
1
  6
CONTINUOUS
 62
     7
 10
-376.0725449390574
 20
418.6635183910074
 30
0.0
  0
SEQEND
  5
993
  8
1
  6
CONTINUOUS
 62
     7
  0
LINE
  5
153
  8
1
  6
CONTINUOUS
 62
     7
 10
-375.0725830159932
 20
417.6635564679432
 30
0.0
 11
-375.0725830159932
 21
401.6983877852345
 31
0.0
  0
POLYLINE
  5
154
  8
1
  6
CONTINUOUS
 62
     7
 66
     1
 10
0.0
 20
0.0
 30
0.0
  0
VERTEX
  5
5A8
  8
1
  6
CONTINUOUS
 62
     7
 10
-375.0725830159932
 20
401.6983877852345
 30
0.0
  0
VERTEX
  5
5A9
  8
1
  6
CONTINUOUS
 62
     7
 10
-375.0533694218323
 20
401.5033008347324
 30
0.0
  0
VERTEX
  5
5AA
  8
1
  6
CONTINUOUS
 62
     7
 10
-374.9964669356375
 20
401.3157131680907
 30
0.0
  0
VERTEX
  5
5AB
  8
1
  6
CONTINUOUS
 62
     7
 10
-374.9040620767028
 20
401.1428329774258
 30
0.0
  0
VERTEX
  5
5AC
  8
1
  6
CONTINUOUS
 62
     7
 10
-374.7797055687384
 20
400.9913033094252
 30
0.0
  0
VERTEX
  5
5AD
  8
1
  6
CONTINUOUS
 62
     7
 10
-374.6281759007378
 20
400.8669468014609
 30
0.0
  0
VERTEX
  5
5AE
  8
1
  6
CONTINUOUS
 62
     7
 10
-374.455295710073
 20
400.7745419425261
 30
0.0
  0
VERTEX
  5
5AF
  8
1
  6
CONTINUOUS
 62
     7
 10
-374.2677080434312
 20
400.7176394563313
 30
0.0
  0
VERTEX
  5
5B0
  8
1
  6
CONTINUOUS
 62
     7
 10
-374.0726210929291
 20
400.6984258621704
 30
0.0
  0
SEQEND
  5
994
  8
1
  6
CONTINUOUS
 62
     7
  0
LINE
  5
155
  8
1
  6
CONTINUOUS
 62
     7
 10
-338.3027680736672
 20
400.6984258621704
 30
0.0
 11
-374.0726210929291
 21
400.6984258621704
 31
0.0
  0
LINE
  5
156
  8
1
  6
CONTINUOUS
 62
     7
 10
-338.3027680736672
 20
400.6984258621704
 30
0.0
 11
-338.3027680736672
 21
403.1722452587981
 31
0.0
  0
LINE
  5
157
  8
1
  6
CONTINUOUS
 62
     7
 10
-338.3027680736672
 20
403.1722452587981
 30
0.0
 11
-336.7725830159933
 21
403.1722452587981
 31
0.0
  0
LINE
  5
158
  8
1
  6
CONTINUOUS
 62
     7
 10
-336.7725830159933
 20
403.1722452587981
 30
0.0
 11
-336.7725830159933
 21
400.6984258621704
 31
0.0
  0
LINE
  5
159
  8
1
  6
CONTINUOUS
 62
     7
 10
-328.8027680736672
 20
400.6984258621704
 30
0.0
 11
-336.7725830159933
 21
400.6984258621704
 31
0.0
  0
LINE
  5
15A
  8
1
  6
CONTINUOUS
 62
     7
 10
-328.8027680736672
 20
400.6984258621704
 30
0.0
 11
-328.8027680736672
 21
402.2071146515754
 31
0.0
  0
LINE
  5
15B
  8
1
  6
CONTINUOUS
 62
     9
 10
-327.2725830159932
 20
402.2071146515754
 30
0.0
 11
-328.8027680736672
 21
402.2071146515754
 31
0.0
  0
LINE
  5
15C
  8
1
  6
CONTINUOUS
 62
     7
 10
-327.2725830159932
 20
402.2071146515754
 30
0.0
 11
-327.2725830159932
 21
400.6984258621704
 31
0.0
  0
LINE
  5
15D
  8
1
  6
CONTINUOUS
 62
     7
 10
-288.5814241189412
 20
400.6984258621704
 30
0.0
 11
-327.2725830159932
 21
400.6984258621704
 31
0.0
  0
LINE
  5
15E
  8
1
  6
CONTINUOUS
 62
     9
 10
-288.5814241189412
 20
398.8031482756595
 30
0.0
 11
-288.5814241189412
 21
400.6984258621703
 31
0.0
  0
LINE
  5
15F
  8
1
  6
CONTINUOUS
 62
     7
 10
-372.1076047179638
 20
398.8031482756595
 30
0.0
 11
-288.5814241189412
 21
398.8031482756595
 31
0.0
  0
LINE
  5
160
  8
1
  6
CONTINUOUS
 62
     7
 10
-381.0289486770395
 20
387.1333333333334
 30
0.0
 11
-381.0289486770395
 21
371.1333333333334
 31
0.0
  0
LINE
  5
161
  8
1
  6
CONTINUOUS
 62
     7
 10
-381.0289486770395
 20
371.1333333333334
 30
0.0
 11
-380.9765113149733
 21
371.0808959712673
 31
0.0
  0
LINE
  5
162
  8
1
  6
CONTINUOUS
 62
     7
 10
-380.9678606025041
 20
370.0809340482032
 30
0.0
 11
-380.9765113149733
 21
371.0808959712674
 31
0.0
  0
LINE
  5
163
  8
1
  6
CONTINUOUS
 62
     7
 10
-380.9765113149733
 20
358.7944975631903
 30
0.0
 11
-380.9678606025041
 21
359.7944594862545
 31
0.0
  0
LINE
  5
164
  8
1
  6
CONTINUOUS
 62
     7
 10
-380.9765113149733
 20
358.7944975631903
 30
0.0
 11
-381.0376755448302
 21
358.7333333333335
 31
0.0
  0
LINE
  5
165
  8
1
  6
CONTINUOUS
 62
     7
 10
-381.0376755448302
 20
362.7333333333335
 30
0.0
 11
-381.0376755448302
 21
358.7333333333335
 31
0.0
  0
LINE
  5
166
  8
1
  6
CONTINUOUS
 62
     7
 10
-381.0376755448302
 20
362.7333333333335
 30
0.0
 11
-381.0376755448302
 21
367.1333333333335
 31
0.0
  0
LINE
  5
167
  8
1
  6
CONTINUOUS
 62
     7
 10
-381.0376755448302
 20
388.7333333333334
 30
0.0
 11
-381.0376755448302
 21
367.1333333333334
 31
0.0
  0
LINE
  5
168
  8
1
  6
CONTINUOUS
 62
     7
 10
-380.9765113149733
 20
387.1857706953995
 30
0.0
 11
-380.9678606025041
 21
388.1857326184637
 31
0.0
  0
LINE
  5
169
  8
1
  6
CONTINUOUS
 62
     7
 10
-380.9765113149733
 20
387.1857706953995
 30
0.0
 11
-381.0289486770395
 21
387.1333333333334
 31
0.0
  0
LINE
  5
16A
  8
1
  6
CONTINUOUS
 62
     7
 10
-328.8376755448302
 20
400.7333333333334
 30
0.0
 11
-328.8027680736672
 21
400.6984258621704
 31
0.0
  0
LINE
  5
16B
  8
1
  6
CONTINUOUS
 62
     7
 10
-328.8378659403838
 20
403.2333333333335
 30
0.0
 11
-328.8376755448302
 21
400.7333333333334
 31
0.0
  0
LINE
  5
16C
  8
1
  6
CONTINUOUS
 62
     7
 10
-328.8376755448302
 20
403.2333333333335
 30
0.0
 11
-328.8114187861364
 21
403.2070765746396
 31
0.0
  0
LINE
  5
16D
  8
1
  6
CONTINUOUS
 62
     7
 10
-328.8027680736672
 20
402.2071146515754
 30
0.0
 11
-328.8114187861364
 21
403.2070765746396
 31
0.0
  0
LINE
  5
16E
  8
1
  6
CONTINUOUS
 62
     7
 10
-378.4765874702949
 20
390.6722452587981
 30
0.0
 11
-378.5376755448302
 21
390.7333333333334
 31
0.0
  0
LINE
  5
16F
  8
1
  6
CONTINUOUS
 62
     9
 10
-383.5289867539753
 20
390.7333333333334
 30
0.0
 11
-383.46789867944
 21
390.6722452587981
 31
0.0
  0
LINE
  5
170
  8
1
  6
CONTINUOUS
 62
     7
 10
-383.5289867539753
 20
390.7333333333334
 30
0.0
 11
-378.5376755448302
 21
390.7333333333334
 31
0.0
  0
LINE
  5
171
  8
1
  6
CONTINUOUS
 62
     7
 10
-338.3027680736672
 20
403.1722452587981
 30
0.0
 11
-338.337863960865
 21
403.207341145996
 31
0.0
  0
LINE
  5
172
  8
1
  6
CONTINUOUS
 62
     7
 10
-338.3027680736672
 20
400.6984258621704
 30
0.0
 11
-338.3376755448302
 21
400.7333333333334
 31
0.0
  0
LINE
  5
173
  8
1
  6
CONTINUOUS
 62
     7
 10
-338.3376755448302
 20
400.7333333333334
 30
0.0
 11
-338.337863960865
 21
403.207341145996
 31
0.0
  0
LINE
  5
174
  8
1
  6
CONTINUOUS
 62
     7
 10
-376.9852381827641
 20
371.0808959712674
 30
0.0
 11
-376.9765874702949
 21
370.0809340482032
 31
0.0
  0
LINE
  5
175
  8
1
  6
CONTINUOUS
 62
     7
 10
-377.0376755448302
 20
371.1333333333334
 30
0.0
 11
-376.9852381827641
 21
371.0808959712673
 31
0.0
  0
LINE
  5
176
  8
1
  6
CONTINUOUS
 62
     7
 10
-377.0376755448302
 20
387.1333333333334
 30
0.0
 11
-377.0376755448302
 21
371.1333333333334
 31
0.0
  0
LINE
  5
177
  8
1
  6
CONTINUOUS
 62
     7
 10
-376.9852381827641
 20
387.1857706953995
 30
0.0
 11
-377.0376755448302
 21
387.1333333333334
 31
0.0
  0
LINE
  5
178
  8
1
  6
CONTINUOUS
 62
     7
 10
-376.9765874702949
 20
388.1857326184637
 30
0.0
 11
-376.9852381827641
 21
387.1857706953995
 31
0.0
  0
LINE
  5
179
  8
1
  6
CONTINUOUS
 62
     7
 10
-378.5376755448302
 20
403.6333333333334
 30
0.0
 11
-378.4765874702949
 21
403.6944214078687
 31
0.0
  0
LINE
  5
17A
  8
1
  6
CONTINUOUS
 62
     7
 10
-384.5289486770395
 20
403.6333333333334
 30
0.0
 11
-378.5376755448302
 21
403.6333333333334
 31
0.0
  0
LINE
  5
17B
  8
1
  6
CONTINUOUS
 62
     7
 10
-384.5289486770395
 20
403.6333333333334
 30
0.0
 11
-384.4765113149733
 21
403.6857706953996
 31
0.0
  0
LINE
  5
17C
  8
1
  6
CONTINUOUS
 62
     7
 10
-383.4765493919091
 20
403.6944214078687
 30
0.0
 11
-384.4765113149733
 21
403.6857706953996
 31
0.0
  0
LINE
  5
17D
  8
1
  6
CONTINUOUS
 62
     7
 10
-285.5376755448302
 20
398.7333333333334
 30
0.0
 11
-288.2876784737708
 21
398.7333333333334
 31
0.0
  0
LINE
  5
17E
  8
1
  6
CONTINUOUS
 62
     9
 10
-291.444943762106
 20
398.7616460284207
 30
0.0
 11
-288.2876784737708
 21
398.7333333333334
 31
0.0
  0
LINE
  5
17F
  8
1
  6
CONTINUOUS
 62
     9
 10
-291.443459956631
 20
398.7333333333334
 30
0.0
 11
-291.444943762106
 21
398.7616460284207
 31
0.0
  0
LINE
  5
180
  8
1
  6
CONTINUOUS
 62
     7
 10
-291.443459956631
 20
398.7333333333334
 30
0.0
 11
-291.6318911330294
 21
398.7333333333334
 31
0.0
  0
LINE
  5
181
  8
1
  6
CONTINUOUS
 62
     9
 10
-291.6304073275544
 20
398.7616460284207
 30
0.0
 11
-291.6318911330295
 21
398.7333333333334
 31
0.0
  0
LINE
  5
182
  8
1
  6
CONTINUOUS
 62
     9
 10
-294.7876726158896
 20
398.7333333333334
 30
0.0
 11
-291.6304073275544
 21
398.7616460284207
 31
0.0
  0
LINE
  5
183
  8
1
  6
CONTINUOUS
 62
     7
 10
-294.7876726158896
 20
398.7333333333334
 30
0.0
 11
-326.2876784737709
 21
398.7333333333334
 31
0.0
  0
LINE
  5
184
  8
1
  6
CONTINUOUS
 62
     9
 10
-329.444943762106
 20
398.7616460284207
 30
0.0
 11
-326.2876784737708
 21
398.7333333333334
 31
0.0
  0
LINE
  5
185
  8
1
  6
CONTINUOUS
 62
     9
 10
-329.443459956631
 20
398.7333333333334
 30
0.0
 11
-329.4449437621061
 21
398.7616460284207
 31
0.0
  0
LINE
  5
186
  8
1
  6
CONTINUOUS
 62
     7
 10
-329.443459956631
 20
398.7333333333334
 30
0.0
 11
-329.6318911330294
 21
398.7333333333334
 31
0.0
  0
LINE
  5
187
  8
1
  6
CONTINUOUS
 62
     9
 10
-329.6304073275544
 20
398.7616460284207
 30
0.0
 11
-329.6318911330294
 21
398.7333333333334
 31
0.0
  0
LINE
  5
188
  8
1
  6
CONTINUOUS
 62
     9
 10
-332.7876726158896
 20
398.7333333333334
 30
0.0
 11
-329.6304073275544
 21
398.7616460284207
 31
0.0
  0
LINE
  5
189
  8
1
  6
CONTINUOUS
 62
     7
 10
-332.7876726158896
 20
398.7333333333334
 30
0.0
 11
-372.0377897756377
 21
398.7333333333334
 31
0.0
  0
LINE
  5
18A
  8
1
  6
CONTINUOUS
 62
     9
 10
-372.1076047179638
 20
398.8031482756595
 30
0.0
 11
-372.0377897756377
 21
398.7333333333334
 31
0.0
  0
LINE
  5
18B
  8
1
  6
CONTINUOUS
 62
     7
 10
-285.5815383497487
 20
398.7771961382519
 30
0.0
 11
-288.5814241189412
 21
398.8031482756595
 31
0.0
  0
LINE
  5
18C
  8
1
  6
CONTINUOUS
 62
     7
 10
-285.5815383497487
 20
398.7771961382519
 30
0.0
 11
-285.5376755448302
 21
398.7333333333334
 31
0.0
  0
LINE
  5
18D
  8
1
  6
CONTINUOUS
 62
     7
 10
-382.5376755448302
 20
378.7333333333334
 30
0.0
 11
-382.5376755448302
 21
388.7333333333334
 31
0.0
  0
LINE
  5
18E
  8
1
  6
CONTINUOUS
 62
     7
 10
-382.5988397746871
 20
378.7944975631903
 30
0.0
 11
-382.5376755448302
 21
378.7333333333335
 31
0.0
  0
LINE
  5
18F
  8
1
  6
CONTINUOUS
 62
     7
 10
-382.6074904871563
 20
379.7944594862545
 30
0.0
 11
-382.5988397746871
 21
378.7944975631903
 31
0.0
  0
LINE
  5
190
  8
1
  6
CONTINUOUS
 62
     7
 10
-327.2376755448302
 20
400.7333333333334
 30
0.0
 11
-327.2374851492766
 21
403.2333333333335
 31
0.0
  0
LINE
  5
191
  8
1
  6
CONTINUOUS
 62
     7
 10
-327.2376755448302
 20
400.7333333333334
 30
0.0
 11
-327.2725830159932
 21
400.6984258621704
 31
0.0
  0
LINE
  5
192
  8
1
  6
CONTINUOUS
 62
     7
 10
-327.2639323035241
 20
403.2070765746396
 30
0.0
 11
-327.2725830159932
 21
402.2071146515754
 31
0.0
  0
LINE
  5
193
  8
1
  6
CONTINUOUS
 62
     7
 10
-327.2376755448302
 20
403.2333333333335
 30
0.0
 11
-327.2639323035241
 21
403.2070765746396
 31
0.0
  0
LINE
  5
194
  8
1
  6
CONTINUOUS
 62
     9
 10
-375.0320204768252
 20
417.7041190071113
 30
0.0
 11
-375.0725830159932
 21
417.6635564679432
 31
0.0
  0
LINE
  5
195
  8
1
  6
CONTINUOUS
 62
     7
 10
-375.0364595617716
 20
416.6998703097438
 30
0.0
 11
-375.0320204768251
 21
417.7041190071113
 31
0.0
  0
LINE
  5
196
  8
1
  6
CONTINUOUS
 62
     7
 10
-375.0375993837083
 20
401.7333714175194
 30
0.0
 11
-375.0364595617716
 21
416.6998703097438
 31
0.0
  0
LINE
  5
197
  8
1
  6
CONTINUOUS
 62
     9
 10
-375.0725830159932
 20
401.6983877852346
 30
0.0
 11
-375.0375993837083
 21
401.7333714175194
 31
0.0
  0
LINE
  5
198
  8
1
  6
CONTINUOUS
 62
     7
 10
-375.1074904871563
 20
369.5250035235221
 30
0.0
 11
-375.0988397746871
 21
368.5250416004579
 31
0.0
  0
LINE
  5
199
  8
1
  6
CONTINUOUS
 62
     9
 10
-375.0988397746871
 20
368.5250416004579
 30
0.0
 11
-377.5884145656485
 21
368.5250416004579
 31
0.0
  0
LINE
  5
19A
  8
1
  6
CONTINUOUS
 62
     7
 10
-377.5884145656485
 20
368.5250416004579
 30
0.0
 11
-377.6403650065852
 21
369.5250035235221
 31
0.0
  0
LINE
  5
19B
  8
1
  6
CONTINUOUS
 62
     7
 10
-384.5289486770395
 20
413.8333333333334
 30
0.0
 11
-378.5376755448302
 21
413.8333333333334
 31
0.0
  0
LINE
  5
19C
  8
1
  6
CONTINUOUS
 62
     7
 10
-378.4765874702949
 20
413.7722452587981
 30
0.0
 11
-378.5376755448302
 21
413.8333333333334
 31
0.0
  0
LINE
  5
19D
  8
1
  6
CONTINUOUS
 62
     7
 10
-384.4765113149733
 20
413.7808959712673
 30
0.0
 11
-383.4765493919091
 21
413.7722452587981
 31
0.0
  0
LINE
  5
19E
  8
1
  6
CONTINUOUS
 62
     7
 10
-384.4765113149733
 20
413.7808959712673
 30
0.0
 11
-384.5289486770395
 21
413.8333333333334
 31
0.0
  0
LINE
  5
19F
  8
1
  6
CONTINUOUS
 62
     9
 10
-382.5988397746871
 20
378.7944975631903
 30
0.0
 11
-384.4765113149733
 21
378.7944975631903
 31
0.0
  0
LINE
  5
1A0
  8
1
  6
CONTINUOUS
 62
     7
 10
-384.4765113149733
 20
378.7944975631903
 30
0.0
 11
-384.4678606025041
 21
379.7944594862545
 31
0.0
  0
LINE
  5
1A1
  8
1
  6
CONTINUOUS
 62
     7
 10
-378.5376755448302
 20
416.7333333333335
 30
0.0
 11
-378.4765874702949
 21
416.7944214078688
 31
0.0
  0
LINE
  5
1A2
  8
1
  6
CONTINUOUS
 62
     7
 10
-384.5289486770395
 20
416.7333333333335
 30
0.0
 11
-378.5376755448302
 21
416.7333333333335
 31
0.0
  0
LINE
  5
1A3
  8
1
  6
CONTINUOUS
 62
     7
 10
-384.5289486770395
 20
416.7333333333335
 30
0.0
 11
-384.4765113149733
 21
416.7857706953995
 31
0.0
  0
LINE
  5
1A4
  8
1
  6
CONTINUOUS
 62
     7
 10
-383.4765493919091
 20
416.7944214078688
 30
0.0
 11
-384.4765113149733
 21
416.7857706953995
 31
0.0
  0
LINE
  5
1A5
  8
1
  6
CONTINUOUS
 62
     7
 10
-378.5376755448302
 20
413.8333333333334
 30
0.0
 11
-378.5376755448302
 21
416.7333333333335
 31
0.0
  0
LINE
  5
1A6
  8
1
  6
CONTINUOUS
 62
     7
 10
-384.5289486770395
 20
400.7333333333334
 30
0.0
 11
-378.5376755448302
 21
400.7333333333334
 31
0.0
  0
LINE
  5
1A7
  8
1
  6
CONTINUOUS
 62
     7
 10
-378.4765874702949
 20
400.6722452587981
 30
0.0
 11
-378.5376755448302
 21
400.7333333333334
 31
0.0
  0
LINE
  5
1A8
  8
1
  6
CONTINUOUS
 62
     7
 10
-384.4765113149733
 20
400.6808959712673
 30
0.0
 11
-383.4765493919091
 21
400.6722452587981
 31
0.0
  0
LINE
  5
1A9
  8
1
  6
CONTINUOUS
 62
     7
 10
-384.4765113149733
 20
400.6808959712673
 30
0.0
 11
-384.5289486770395
 21
400.7333333333334
 31
0.0
  0
LINE
  5
1AA
  8
1
  6
CONTINUOUS
 62
     9
 10
-384.4678606025041
 20
389.6722833357339
 30
0.0
 11
-384.5289486770395
 21
389.7333714102692
 31
0.0
  0
POLYLINE
  5
1AB
  8
1
  6
CONTINUOUS
 62
     7
 66
     1
 10
0.0
 20
0.0
 30
0.0
  0
VERTEX
  5
5B1
  8
1
  6
CONTINUOUS
 62
     7
 10
-383.5289867539753
 20
390.7333333333334
 30
0.0
  0
VERTEX
  5
5B2
  8
1
  6
CONTINUOUS
 62
     7
 10
-383.7240737044774
 20
390.7141197391725
 30
0.0
  0
VERTEX
  5
5B3
  8
1
  6
CONTINUOUS
 62
     7
 10
-383.9116613711192
 20
390.6572172529777
 30
0.0
  0
VERTEX
  5
5B4
  8
1
  6
CONTINUOUS
 62
     7
 10
-384.084541561784
 20
390.5648123940429
 30
0.0
  0
VERTEX
  5
5B5
  8
1
  6
CONTINUOUS
 62
     7
 10
-384.2360712297846
 20
390.4404558860786
 30
0.0
  0
VERTEX
  5
5B6
  8
1
  6
CONTINUOUS
 62
     7
 10
-384.360427737749
 20
390.288926218078
 30
0.0
  0
VERTEX
  5
5B7
  8
1
  6
CONTINUOUS
 62
     7
 10
-384.4528325966837
 20
390.1160460274131
 30
0.0
  0
VERTEX
  5
5B8
  8
1
  6
CONTINUOUS
 62
     7
 10
-384.5097350828785
 20
389.9284583607714
 30
0.0
  0
VERTEX
  5
5B9
  8
1
  6
CONTINUOUS
 62
     7
 10
-384.5289486770395
 20
389.7333714102693
 30
0.0
  0
SEQEND
  5
995
  8
1
  6
CONTINUOUS
 62
     7
  0
LINE
  5
1AC
  8
1
  6
CONTINUOUS
 62
     7
 10
-378.5376755448302
 20
400.7333333333334
 30
0.0
 11
-378.5376755448302
 21
403.6333333333334
 31
0.0
  0
LINE
  5
1AD
  8
1
  6
CONTINUOUS
 62
     7
 10
-384.4154993957596
 20
406.5333333333335
 30
0.0
 11
-384.5376755448302
 21
406.4111571842628
 31
0.0
  0
LINE
  5
1AE
  8
1
  6
CONTINUOUS
 62
     7
 10
-384.4154993957596
 20
406.5333333333335
 30
0.0
 11
-379.0376755448302
 21
406.5333333333335
 31
0.0
  0
LINE
  5
1AF
  8
1
  6
CONTINUOUS
 62
     7
 10
-379.0376755448302
 20
406.5333333333335
 30
0.0
 11
-379.0376755448302
 21
406.5248501248075
 31
0.0
  0
LINE
  5
1B0
  8
1
  6
CONTINUOUS
 62
     7
 10
-379.0376755448302
 20
406.5248501248074
 30
0.0
 11
-378.5376755448302
 21
406.5248501248074
 31
0.0
  0
LINE
  5
1B1
  8
1
  6
CONTINUOUS
 62
     7
 10
-384.4765113149733
 20
406.3499929544059
 30
0.0
 11
-383.4765493919091
 21
406.3413422419367
 31
0.0
  0
LINE
  5
1B2
  8
1
  6
CONTINUOUS
 62
     7
 10
-384.5376755448302
 20
406.4111571842628
 30
0.0
 11
-384.4765113149733
 21
406.3499929544059
 31
0.0
  0
LINE
  5
1B3
  8
1
  6
CONTINUOUS
 62
     9
 10
-384.4765113149733
 20
416.7857706953995
 30
0.0
 11
-384.4765113149733
 21
418.6721691034766
 31
0.0
  0
LINE
  5
1B4
  8
1
  6
CONTINUOUS
 62
     7
 10
-384.4765113149733
 20
418.6721691034766
 30
0.0
 11
-383.4765493919091
 21
418.6635183910074
 31
0.0
  0
LINE
  5
1B5
  8
1
  6
CONTINUOUS
 62
     9
 10
-384.4765113149733
 20
398.7857706953995
 30
0.0
 11
-384.4765113149733
 21
400.6808959712673
 31
0.0
  0
LINE
  5
1B6
  8
1
  6
CONTINUOUS
 62
     7
 10
-383.4765493919091
 20
398.7944214078688
 30
0.0
 11
-384.4765113149733
 21
398.7857706953995
 31
0.0
  0
LINE
  5
1B7
  8
1
  6
CONTINUOUS
 62
     9
 10
-384.4765113149733
 20
411.1166737122609
 30
0.0
 11
-384.4765113149733
 21
413.7808959712673
 31
0.0
  0
LINE
  5
1B8
  8
1
  6
CONTINUOUS
 62
     7
 10
-383.4765493919091
 20
411.1253244247301
 30
0.0
 11
-384.4765113149733
 21
411.1166737122609
 31
0.0
  0
LINE
  5
1B9
  8
1
  6
CONTINUOUS
 62
     7
 10
-384.5376755448302
 20
406.4111571842628
 30
0.0
 11
-384.5376755448302
 21
378.7333333333334
 31
0.0
  0
LINE
  5
1BA
  8
1
  6
CONTINUOUS
 62
     9
 10
-384.4765113149733
 20
403.6857706953996
 30
0.0
 11
-384.4765113149733
 21
406.3499929544059
 31
0.0
  0
LINE
  5
1BB
  8
1
  6
CONTINUOUS
 62
     7
 10
-384.5289486770395
 20
400.7333333333334
 30
0.0
 11
-384.5289486770395
 21
403.6333333333334
 31
0.0
  0
LINE
  5
1BC
  8
1
  6
CONTINUOUS
 62
     7
 10
-384.5289486770395
 20
398.7333333333334
 30
0.0
 11
-384.4765113149733
 21
398.7857706953995
 31
0.0
  0
LINE
  5
1BD
  8
1
  6
CONTINUOUS
 62
     7
 10
-384.5289486770395
 20
389.7333714102692
 30
0.0
 11
-384.5289486770395
 21
398.7333333333334
 31
0.0
  0
LINE
  5
1BE
  8
1
  6
CONTINUOUS
 62
     7
 10
-384.4765113149733
 20
378.7944975631902
 30
0.0
 11
-384.5376755448302
 21
378.7333333333334
 31
0.0
  0
LINE
  5
1BF
  8
1
  6
CONTINUOUS
 62
     7
 10
-336.7725830159933
 20
400.6984258621704
 30
0.0
 11
-336.7376755448303
 21
400.7333333333334
 31
0.0
  0
LINE
  5
1C0
  8
1
  6
CONTINUOUS
 62
     7
 10
-328.8376755448302
 20
400.7333333333334
 30
0.0
 11
-336.7376755448303
 21
400.7333333333334
 31
0.0
  0
LINE
  5
1C1
  8
1
  6
CONTINUOUS
 62
     9
 10
-376.9852381827641
 20
387.1857706953995
 30
0.0
 11
-380.9765113149733
 21
387.1857706953995
 31
0.0
  0
LINE
  5
1C2
  8
1
  6
CONTINUOUS
 62
     7
 10
-336.7725830159933
 20
403.1722452587981
 30
0.0
 11
-336.7374871287954
 21
403.207341145996
 31
0.0
  0
LINE
  5
1C3
  8
1
  6
CONTINUOUS
 62
     7
 10
-336.7374871287954
 20
403.207341145996
 30
0.0
 11
-336.7376755448303
 21
400.7333333333334
 31
0.0
  0
LINE
  5
1C4
  8
1
  6
CONTINUOUS
 62
     7
 10
-287.5813870607603
 20
400.7333333333334
 30
0.0
 11
-327.2376755448302
 21
400.7333333333334
 31
0.0
  0
LINE
  5
1C5
  8
1
  6
CONTINUOUS
 62
     7
 10
-285.5637028056509
 20
400.7422135436759
 30
0.0
 11
-287.5813870607604
 21
400.7333333333334
 31
0.0
  0
LINE
  5
1C6
  8
1
  6
CONTINUOUS
 62
     7
 10
-285.5815383497487
 20
400.724377999578
 30
0.0
 11
-285.5637028056508
 21
400.7422135436759
 31
0.0
  0
LINE
  5
1C7
  8
1
  6
CONTINUOUS
 62
     7
 10
-288.5814241189412
 20
400.6984258621704
 30
0.0
 11
-285.5815383497487
 21
400.724377999578
 31
0.0
  0
LINE
  5
1C8
  8
1
  6
CONTINUOUS
 62
     7
 10
-377.6403650065852
 20
360.3416631431447
 30
0.0
 11
-377.5884145656485
 21
361.3416250662089
 31
0.0
  0
LINE
  5
1C9
  8
1
  6
CONTINUOUS
 62
     9
 10
-377.5884145656485
 20
361.3416250662089
 30
0.0
 11
-375.0988397746871
 21
361.3416250662089
 31
0.0
  0
LINE
  5
1CA
  8
1
  6
CONTINUOUS
 62
     7
 10
-375.0988397746871
 20
361.3416250662089
 30
0.0
 11
-375.1074904871563
 21
360.3416631431447
 31
0.0
  0
LINE
  5
1CB
  8
1
  6
CONTINUOUS
 62
     9
 10
-374.037713621766
 20
400.7333333333334
 30
0.0
 11
-374.072621092929
 21
400.6984258621704
 31
0.0
  0
LINE
  5
1CC
  8
1
  6
CONTINUOUS
 62
     7
 10
-338.3376755448302
 20
400.7333333333334
 30
0.0
 11
-374.037713621766
 21
400.7333333333334
 31
0.0
  0
LINE
  5
1CD
  8
1
  6
CONTINUOUS
 62
     9
 10
-375.0988397746871
 20
358.7944975631903
 30
0.0
 11
-380.9765113149733
 21
358.7944975631903
 31
0.0
  0
LINE
  5
1CE
  8
1
  6
CONTINUOUS
 62
     7
 10
-375.1074904871563
 20
359.7944594862545
 30
0.0
 11
-375.0988397746871
 21
358.7944975631903
 31
0.0
  0
LINE
  5
1CF
  8
1
  6
CONTINUOUS
 62
     7
 10
-377.2211027723208
 20
367.1333333333334
 30
0.0
 11
-377.0376755448302
 21
367.1638773706011
 31
0.0
  0
LINE
  5
1D0
  8
1
  6
CONTINUOUS
 62
     7
 10
-377.2211027723208
 20
362.7333333333335
 30
0.0
 11
-377.2599452002952
 21
362.8619363899308
 31
0.0
  0
ARC
  5
1D1
  8
1
  6
CONTINUOUS
 62
     7
 10
-351.429124340401
 20
364.8524542531468
 30
0.0
 40
25.9074017929188
 50
175.0020234094645
 51
184.4064927909574
  0
LINE
  5
1D2
  8
1
  6
CONTINUOUS
 62
     7
 10
-377.2380203726235
 20
367.1095216552559
 30
0.0
 11
-377.2211027723208
 21
367.1333333333334
 31
0.0
  0
LINE
  5
1D3
  8
1
  6
CONTINUOUS
 62
     7
 10
-377.2211027723208
 20
362.7333333333335
 30
0.0
 11
-377.0376755448302
 21
362.7027892960658
 31
0.0
  0
LINE
  5
1D4
  8
1
  6
CONTINUOUS
 62
     7
 10
-377.0376755448302
 20
362.4246445439284
 30
0.0
 11
-377.0376755448302
 21
362.7027892960658
 31
0.0
  0
LINE
  5
1D5
  8
1
  6
CONTINUOUS
 62
     7
 10
-377.0896259857669
 20
361.4246826208642
 30
0.0
 11
-377.0376755448302
 21
362.4246445439284
 31
0.0
  0
LINE
  5
1D6
  8
1
  6
CONTINUOUS
 62
     7
 10
-377.5884145656485
 20
361.3416250662089
 30
0.0
 11
-377.0896259857669
 21
361.4246826208642
 31
0.0
  0
LINE
  5
1D7
  8
1
  6
CONTINUOUS
 62
     7
 10
-377.0896259857669
 20
368.4419840458027
 30
0.0
 11
-377.5884145656485
 21
368.5250416004579
 31
0.0
  0
LINE
  5
1D8
  8
1
  6
CONTINUOUS
 62
     7
 10
-377.0376755448302
 20
367.4420221227385
 30
0.0
 11
-377.0896259857669
 21
368.4419840458027
 31
0.0
  0
LINE
  5
1D9
  8
1
  6
CONTINUOUS
 62
     7
 10
-377.0376755448302
 20
367.1638773706011
 30
0.0
 11
-377.0376755448302
 21
367.4420221227385
 31
0.0
  0
LINE
  5
1DA
  8
1
  6
CONTINUOUS
 62
     7
 10
-375.0376755448302
 20
368.4638773706011
 30
0.0
 11
-375.0988397746871
 21
368.5250416004579
 31
0.0
  0
LINE
  5
1DB
  8
1
  6
CONTINUOUS
 62
     9
 10
-375.0376755448302
 20
395.7334475641409
 30
0.0
 11
-375.1074904871562
 21
395.803262506467
 31
0.0
  0
LINE
  5
1DC
  8
1
  6
CONTINUOUS
 62
     7
 10
-375.0376755448302
 20
368.4638773706011
 30
0.0
 11
-375.0376755448302
 21
395.7334475641409
 31
0.0
  0
LINE
  5
1DD
  8
1
  6
CONTINUOUS
 62
     7
 10
-375.0376755448302
 20
358.7333333333335
 30
0.0
 11
-375.0376755448302
 21
361.4027892960658
 31
0.0
  0
LINE
  5
1DE
  8
1
  6
CONTINUOUS
 62
     7
 10
-375.0988397746871
 20
358.7944975631903
 30
0.0
 11
-375.0376755448302
 21
358.7333333333335
 31
0.0
  0
LINE
  5
1DF
  8
1
  6
CONTINUOUS
 62
     7
 10
-375.0988397746871
 20
361.3416250662089
 30
0.0
 11
-375.0376755448302
 21
361.4027892960658
 31
0.0
  0
LINE
  5
1E0
  8
1
  6
CONTINUOUS
 62
     7
 10
-378.5376755448302
 20
390.7333333333334
 30
0.0
 11
-378.5376755448302
 21
398.7333333333334
 31
0.0
  0
LINE
  5
1E1
  8
1
  6
CONTINUOUS
 62
     7
 10
-378.5376755448302
 20
398.7333333333334
 30
0.0
 11
-378.4765874702949
 21
398.7944214078688
 31
0.0
  0
LINE
  5
1E2
  8
1
  6
CONTINUOUS
 62
     7
 10
-378.5376755448302
 20
410.9418165418594
 30
0.0
 11
-379.0376755448302
 21
410.9418165418594
 31
0.0
  0
LINE
  5
1E3
  8
1
  6
CONTINUOUS
 62
     7
 10
-379.0376755448302
 20
410.9418165418594
 30
0.0
 11
-379.0376755448302
 21
410.9333333333334
 31
0.0
  0
LINE
  5
1E4
  8
1
  6
CONTINUOUS
 62
     7
 10
-384.4154993957596
 20
410.9333333333334
 30
0.0
 11
-379.0376755448302
 21
410.9333333333334
 31
0.0
  0
LINE
  5
1E5
  8
1
  6
CONTINUOUS
 62
     7
 10
-384.5376755448302
 20
411.055509482404
 30
0.0
 11
-384.4154993957596
 21
410.9333333333334
 31
0.0
  0
LINE
  5
1E6
  8
1
  6
CONTINUOUS
 62
     7
 10
-384.4765113149733
 20
411.1166737122609
 30
0.0
 11
-384.5376755448302
 21
411.0555094824041
 31
0.0
  0
LINE
  5
1E7
  8
1
  6
CONTINUOUS
 62
     9
 10
-328.8114187861364
 20
403.2070765746396
 30
0.0
 11
-327.2639323035241
 21
403.2070765746396
 31
0.0
  0
LINE
  5
1E8
  8
1
  6
CONTINUOUS
 62
     7
 10
-384.4765113149733
 20
418.6721691034766
 30
0.0
 11
-384.5376755448302
 21
418.7333333333334
 31
0.0
  0
LINE
  5
1E9
  8
1
  6
CONTINUOUS
 62
     7
 10
-352.5376755448302
 20
418.7333333333335
 30
0.0
 11
-384.5376755448302
 21
418.7333333333335
 31
0.0
  0
LINE
  5
1EA
  8
1
  6
CONTINUOUS
 62
     7
 10
-352.5500818658116
 20
418.7085206913706
 30
0.0
 11
-352.5376755448302
 21
418.7333333333335
 31
0.0
  0
LINE
  5
1EB
  8
1
  6
CONTINUOUS
 62
     7
 10
-376.0275426386942
 20
418.7085206913706
 30
0.0
 11
-352.5500818658116
 21
418.7085206913706
 31
0.0
  0
LINE
  5
1EC
  8
1
  6
CONTINUOUS
 62
     9
 10
-376.0725449390574
 20
418.6635183910074
 30
0.0
 11
-376.0275426386942
 21
418.7085206913706
 31
0.0
  0
POLYLINE
  5
1ED
  8
1
  6
CONTINUOUS
 62
     7
 66
     1
 10
0.0
 20
0.0
 30
0.0
  0
VERTEX
  5
5BA
  8
1
  6
CONTINUOUS
 62
     7
 10
-375.0375993837083
 20
401.7333714175194
 30
0.0
  0
VERTEX
  5
5BB
  8
1
  6
CONTINUOUS
 62
     7
 10
-375.0184006481542
 20
401.5382696084106
 30
0.0
  0
VERTEX
  5
5BC
  8
1
  6
CONTINUOUS
 62
     7
 10
-374.9615124493906
 20
401.3506676543376
 30
0.0
  0
VERTEX
  5
5BD
  8
1
  6
CONTINUOUS
 62
     7
 10
-374.8691207577065
 20
401.1777742964221
 30
0.0
  0
VERTEX
  5
5BE
  8
1
  6
CONTINUOUS
 62
     7
 10
-374.744775790851
 20
401.0262330873126
 30
0.0
  0
VERTEX
  5
5BF
  8
1
  6
CONTINUOUS
 62
     7
 10
-374.5932555943422
 20
400.9018671078564
 30
0.0
  0
VERTEX
  5
5C0
  8
1
  6
CONTINUOUS
 62
     7
 10
-374.4203824416031
 20
400.8094552109959
 30
0.0
  0
VERTEX
  5
5C1
  8
1
  6
CONTINUOUS
 62
     7
 10
-374.2327991088835
 20
400.7525483908789
 30
0.0
  0
VERTEX
  5
5C2
  8
1
  6
CONTINUOUS
 62
     7
 10
-374.037713621766
 20
400.7333333333333
 30
0.0
  0
SEQEND
  5
996
  8
1
  6
CONTINUOUS
 62
     7
  0
LINE
  5
1EE
  8
1
  6
CONTINUOUS
 62
     7
 10
-336.7374871287954
 20
403.207341145996
 30
0.0
 11
-333.0116833574928
 21
403.207341145996
 31
0.0
  0
LINE
  5
1EF
  8
1
  6
CONTINUOUS
 62
     7
 10
-342.0636677321677
 20
403.207341145996
 30
0.0
 11
-338.337863960865
 21
403.207341145996
 31
0.0
  0
LINE
  5
1F0
  8
1
  6
CONTINUOUS
 62
     7
 10
-342.0376755448302
 20
403.2333333333335
 30
0.0
 11
-342.0636677321677
 21
403.207341145996
 31
0.0
  0
LINE
  5
1F1
  8
1
  6
CONTINUOUS
 62
     7
 10
-342.0376755448302
 20
403.2333333333335
 30
0.0
 11
-341.6234619824571
 21
403.2333333333335
 31
0.0
  0
LINE
  5
1F2
  8
1
  6
CONTINUOUS
 62
     7
 10
-333.0376755448302
 20
403.2333333333335
 30
0.0
 11
-333.0116833574928
 21
403.207341145996
 31
0.0
  0
POLYLINE
  5
1F3
  8
1
  6
CONTINUOUS
 62
     7
 66
     1
 10
0.0
 20
0.0
 30
0.0
  0
VERTEX
  5
5C3
  8
1
  6
CONTINUOUS
 62
     7
 10
-372.0377897756377
 20
398.7333333333334
 30
0.0
  0
VERTEX
  5
5C4
  8
1
  6
CONTINUOUS
 62
     7
 10
-372.6230506271441
 20
398.6756925508506
 30
0.0
  0
VERTEX
  5
5C5
  8
1
  6
CONTINUOUS
 62
     7
 10
-373.1858136270694
 20
398.5049850922663
 30
0.0
  0
VERTEX
  5
5C6
  8
1
  6
CONTINUOUS
 62
     7
 10
-373.7044541990639
 20
398.2277705154621
 30
0.0
  0
VERTEX
  5
5C7
  8
1
  6
CONTINUOUS
 62
     7
 10
-374.1590432030657
 20
397.8547009915689
 30
0.0
  0
VERTEX
  5
5C8
  8
1
  6
CONTINUOUS
 62
     7
 10
-374.5321127269589
 20
397.4001119875671
 30
0.0
  0
VERTEX
  5
5C9
  8
1
  6
CONTINUOUS
 62
     7
 10
-374.8093273037631
 20
396.8814714155725
 30
0.0
  0
VERTEX
  5
5CA
  8
1
  6
CONTINUOUS
 62
     7
 10
-374.9800347623474
 20
396.3187084156473
 30
0.0
  0
VERTEX
  5
5CB
  8
1
  6
CONTINUOUS
 62
     7
 10
-375.0376755448302
 20
395.7334475641409
 30
0.0
  0
SEQEND
  5
997
  8
1
  6
CONTINUOUS
 62
     7
  0
LINE
  5
1F4
  8
1
  6
CONTINUOUS
 62
     7
 10
-384.5289486770395
 20
398.7333333333334
 30
0.0
 11
-378.5376755448302
 21
398.7333333333334
 31
0.0
  0
LINE
  5
1F5
  8
1
  6
CONTINUOUS
 62
     9
 10
-285.5815383497487
 20
400.724377999578
 30
0.0
 11
-285.5815383497487
 21
398.777196138252
 31
0.0
  0
LINE
  5
1F6
  8
1
  6
CONTINUOUS
 62
     9
 10
-380.9765113149733
 20
371.0808959712674
 30
0.0
 11
-376.9852381827641
 21
371.0808959712674
 31
0.0
  0
POLYLINE
  5
1F7
  8
1
  6
CONTINUOUS
 62
     7
 66
     1
 10
0.0
 20
0.0
 30
0.0
  0
VERTEX
  5
5CC
  8
1
  6
CONTINUOUS
 62
     7
 10
-375.0320204768252
 20
417.7041190071113
 30
0.0
  0
VERTEX
  5
5CD
  8
1
  6
CONTINUOUS
 62
     7
 10
-375.0503678985324
 20
417.9000721300671
 30
0.0
  0
VERTEX
  5
5CE
  8
1
  6
CONTINUOUS
 62
     7
 10
-375.1064375085708
 20
418.0884926728653
 30
0.0
  0
VERTEX
  5
5CF
  8
1
  6
CONTINUOUS
 62
     7
 10
-375.1980747915166
 20
418.262140439519
 30
0.0
  0
VERTEX
  5
5D0
  8
1
  6
CONTINUOUS
 62
     7
 10
-375.3217585183237
 20
418.4143428886769
 30
0.0
  0
VERTEX
  5
5D1
  8
1
  6
CONTINUOUS
 62
     7
 10
-375.4727360521023
 20
418.5392515308633
 30
0.0
  0
VERTEX
  5
5D2
  8
1
  6
CONTINUOUS
 62
     7
 10
-375.6452059716383
 20
418.6320666609269
 30
0.0
  0
VERTEX
  5
5D3
  8
1
  6
CONTINUOUS
 62
     7
 10
-375.8325409952101
 20
418.6892217901917
 30
0.0
  0
VERTEX
  5
5D4
  8
1
  6
CONTINUOUS
 62
     7
 10
-376.0275426386942
 20
418.7085206913706
 30
0.0
  0
SEQEND
  5
998
  8
1
  6
CONTINUOUS
 62
     7
  0
LINE
  5
1F8
  8
1
  6
CONTINUOUS
 62
     7
 10
-375.0595688696287
 20
368.4419840458027
 30
0.0
 11
-375.0376755448302
 21
368.4638773706011
 31
0.0
  0
LINE
  5
1F9
  8
1
  6
CONTINUOUS
 62
     9
 10
-377.0896259857669
 20
368.4419840458027
 30
0.0
 11
-375.0595688696287
 21
368.4419840458027
 31
0.0
  0
LINE
  5
1FA
  8
1
  6
CONTINUOUS
 62
     9
 10
-375.0595688696287
 20
361.4246826208642
 30
0.0
 11
-377.0896259857669
 21
361.4246826208642
 31
0.0
  0
LINE
  5
1FB
  8
1
  6
CONTINUOUS
 62
     7
 10
-375.0376755448302
 20
361.4027892960658
 30
0.0
 11
-375.0595688696287
 21
361.4246826208642
 31
0.0
  0
LINE
  5
1FC
  8
1
  6
CONTINUOUS
 62
     7
 10
-381.0289486770395
 20
387.1333333333334
 30
0.0
 11
-377.0376755448302
 21
387.1333333333334
 31
0.0
  0
LINE
  5
1FD
  8
1
  6
CONTINUOUS
 62
     7
 10
-384.5376755448302
 20
418.7333333333335
 30
0.0
 11
-384.5376755448302
 21
411.0555094824041
 31
0.0
  0
LINE
  5
1FE
  8
1
  6
CONTINUOUS
 62
     7
 10
-384.5289486770395
 20
413.8333333333334
 30
0.0
 11
-384.5289486770395
 21
416.7333333333335
 31
0.0
  0
LINE
  5
1FF
  8
1
  6
CONTINUOUS
 62
     7
 10
-381.0376755448302
 20
358.7333333333335
 30
0.0
 11
-375.0376755448302
 21
358.7333333333335
 31
0.0
  0
LINE
  5
200
  8
1
  6
CONTINUOUS
 62
     7
 10
-384.5376755448302
 20
378.7333333333334
 30
0.0
 11
-382.5376755448302
 21
378.7333333333334
 31
0.0
  0
LINE
  5
201
  8
1
  6
CONTINUOUS
 62
     7
 10
-381.0289486770395
 20
371.1333333333334
 30
0.0
 11
-377.0376755448302
 21
371.1333333333334
 31
0.0
  0
LINE
  5
202
  8
1
  6
CONTINUOUS
 62
     7
 10
-285.5376755448302
 20
398.7333333333334
 30
0.0
 11
-285.5376755448302
 21
410.73363794882
 31
0.0
  0
LINE
  5
203
  8
1
  6
CONTINUOUS
 62
     7
 10
-285.562943800924
 20
410.7083696927263
 30
0.0
 11
-285.5637028056509
 21
400.7422135436758
 31
0.0
  0
LINE
  5
204
  8
1
  6
CONTINUOUS
 62
     9
 10
-285.5376755448302
 20
410.73363794882
 30
0.0
 11
-285.562943800924
 21
410.7083696927263
 31
0.0
  0
ARC
  5
205
  8
1
  6
CONTINUOUS
 62
     7
 10
-293.5624530067426
 20
410.7090114643459
 30
0.0
 40
7.99950923156212
 50
359.9954033673578
 51
89.99807019244567
  0
LINE
  5
206
  8
1
  6
CONTINUOUS
 62
     7
 10
-285.562943800924
 20
410.7083696927263
 30
0.0
 11
-287.5806266918326
 21
410.7174022020082
 31
0.0
  0
ARC
  5
207
  8
1
  6
CONTINUOUS
 62
     7
 10
-293.5622226915169
 20
410.7182742466206
 30
0.0
 40
5.981596063251083
 50
359.9916469658781
 51
89.99962528012117
  0
LINE
  5
208
  8
1
  6
CONTINUOUS
 62
     7
 10
-293.5621835713065
 20
418.7085206913706
 30
0.0
 11
-293.5621835713065
 21
416.6998703097438
 31
0.0
  0
LINE
  5
209
  8
1
  6
CONTINUOUS
 62
     7
 10
-287.5813870607603
 20
400.7333333333334
 30
0.0
 11
-287.5806266918326
 21
410.7174022020082
 31
0.0
  0
LINE
  5
20A
  8
1
  6
CONTINUOUS
 62
     7
 10
-333.0116833574928
 20
403.207341145996
 30
0.0
 11
-333.0116853370115
 21
403.2333333333335
 31
0.0
  0
LINE
  5
20B
  8
1
  6
CONTINUOUS
 62
     7
 10
-329.0116833574928
 20
403.207341145996
 30
0.0
 11
-332.0847170294907
 21
403.207341145996
 31
0.0
  0
LINE
  5
20C
  8
1
  6
CONTINUOUS
 62
     7
 10
-329.0116853370115
 20
403.2333333333335
 30
0.0
 11
-329.0116833574928
 21
403.207341145996
 31
0.0
  0
LINE
  5
20D
  8
1
  6
CONTINUOUS
 62
     7
 10
-327.0636677321676
 20
403.207341145996
 30
0.0
 11
-327.0636657526489
 21
403.2333333333335
 31
0.0
  0
LINE
  5
20E
  8
1
  6
CONTINUOUS
 62
     7
 10
-322.502956489702
 20
403.207341145996
 30
0.0
 11
-327.0636677321676
 21
403.207341145996
 31
0.0
  0
LINE
  5
20F
  8
1
  6
CONTINUOUS
 62
     7
 10
-322.502956489702
 20
403.207341145996
 30
0.0
 11
-322.5029584692208
 21
403.2333333333335
 31
0.0
  0
LINE
  5
210
  8
1
  6
CONTINUOUS
 62
     7
 10
-293.5621835713065
 20
416.6998703097438
 30
0.0
 11
-302.0376755448302
 21
416.6998703097438
 31
0.0
  0
CIRCLE
  5
211
  8
1
  6
CONTINUOUS
 62
     7
 10
-293.5376755448302
 20
411.7333333333335
 30
0.0
 40
2.649999999999999
  0
LINE
  5
212
  8
1
  6
CONTINUOUS
 62
     7
 10
-310.4807814794354
 20
403.2335237433883
 30
0.0
 11
-288.3878469164172
 21
403.2335237433883
 31
0.0
  0
POLYLINE
  5
213
  8
1
  6
CONTINUOUS
 62
     7
 66
     1
 10
0.0
 20
0.0
 30
0.0
  0
VERTEX
  5
5D5
  8
1
  6
CONTINUOUS
 62
     7
 10
-287.8879040354461
 20
403.7335427854813
 30
0.0
  0
VERTEX
  5
5D6
  8
1
  6
CONTINUOUS
 62
     7
 10
-287.8885044033186
 20
403.7090073799624
 30
0.0
  0
VERTEX
  5
5D7
  8
1
  6
CONTINUOUS
 62
     7
 10
-287.8903077978904
 20
403.6845311683851
 30
0.0
  0
VERTEX
  5
5D8
  8
1
  6
CONTINUOUS
 62
     7
 10
-287.8933098750472
 20
403.660173110371
 30
0.0
  0
VERTEX
  5
5D9
  8
1
  6
CONTINUOUS
 62
     7
 10
-287.8975034032231
 20
403.6359918809269
 30
0.0
  0
VERTEX
  5
5DA
  8
1
  6
CONTINUOUS
 62
     7
 10
-287.9028782808209
 20
403.6120457291055
 30
0.0
  0
VERTEX
  5
5DB
  8
1
  6
CONTINUOUS
 62
     7
 10
-287.9094215605447
 20
403.5883923376916
 30
0.0
  0
VERTEX
  5
5DC
  8
1
  6
CONTINUOUS
 62
     7
 10
-287.9171174805888
 20
403.5650886842532
 30
0.0
  0
VERTEX
  5
5DD
  8
1
  6
CONTINUOUS
 62
     7
 10
-287.9259475026049
 20
403.5421909038904
 30
0.0
  0
VERTEX
  5
5DE
  8
1
  6
CONTINUOUS
 62
     7
 10
-287.9358903563586
 20
403.5197541540143
 30
0.0
  0
VERTEX
  5
5DF
  8
1
  6
CONTINUOUS
 62
     7
 10
-287.9469220909664
 20
403.4978324814808
 30
0.0
  0
VERTEX
  5
5E0
  8
1
  6
CONTINUOUS
 62
     7
 10
-287.9590161325896
 20
403.4764786923998
 30
0.0
  0
VERTEX
  5
5E1
  8
1
  6
CONTINUOUS
 62
     7
 10
-287.9721433484469
 20
403.4557442249327
 30
0.0
  0
VERTEX
  5
5E2
  8
1
  6
CONTINUOUS
 62
     7
 10
-287.9862721169914
 20
403.4356790253855
 30
0.0
  0
VERTEX
  5
5E3
  8
1
  6
CONTINUOUS
 62
     7
 10
-288.0013684040812
 20
403.4163314278956
 30
0.0
  0
VERTEX
  5
5E4
  8
1
  6
CONTINUOUS
 62
     7
 10
-288.0173958449644
 20
403.3977480380017
 30
0.0
  0
VERTEX
  5
5E5
  8
1
  6
CONTINUOUS
 62
     7
 10
-288.0343158318747
 20
403.3799736203779
 30
0.0
  0
VERTEX
  5
5E6
  8
1
  6
CONTINUOUS
 62
     7
 10
-288.0520876070331
 20
403.3630509910022
 30
0.0
  0
VERTEX
  5
5E7
  8
1
  6
CONTINUOUS
 62
     7
 10
-288.070668360827
 20
403.347020914019
 30
0.0
  0
VERTEX
  5
5E8
  8
1
  6
CONTINUOUS
 62
     7
 10
-288.0900133349321
 20
403.3319220035443
 30
0.0
  0
VERTEX
  5
5E9
  8
1
  6
CONTINUOUS
 62
     7
 10
-288.1100759301291
 20
403.3177906306498
 30
0.0
  0
VERTEX
  5
5EA
  8
1
  6
CONTINUOUS
 62
     7
 10
-288.1308078185542
 20
403.3046608357504
 30
0.0
  0
VERTEX
  5
5EB
  8
1
  6
CONTINUOUS
 62
     7
 10
-288.1521590601139
 20
403.292564246606
 30
0.0
  0
VERTEX
  5
5EC
  8
1
  6
CONTINUOUS
 62
     7
 10
-288.1740782227834
 20
403.2815300021342
 30
0.0
  0
VERTEX
  5
5ED
  8
1
  6
CONTINUOUS
 62
     7
 10
-288.1965125064986
 20
403.2715846822196
 30
0.0
  0
VERTEX
  5
5EE
  8
1
  6
CONTINUOUS
 62
     7
 10
-288.2194078703444
 20
403.2627522436865
 30
0.0
  0
VERTEX
  5
5EF
  8
1
  6
CONTINUOUS
 62
     7
 10
-288.2427091627306
 20
403.2550539625901
 30
0.0
  0
VERTEX
  5
5F0
  8
1
  6
CONTINUOUS
 62
     7
 10
-288.2663602542445
 20
403.2485083829664
 30
0.0
  0
VERTEX
  5
5F1
  8
1
  6
CONTINUOUS
 62
     7
 10
-288.2903041728584
 20
403.2431312721611
 30
0.0
  0
VERTEX
  5
5F2
  8
1
  6
CONTINUOUS
 62
     7
 10
-288.3144832411668
 20
403.2389355828495
 30
0.0
  0
VERTEX
  5
5F3
  8
1
  6
CONTINUOUS
 62
     7
 10
-288.3388392153231
 20
403.2359314218348
 30
0.0
  0
VERTEX
  5
5F4
  8
1
  6
CONTINUOUS
 62
     7
 10
-288.3633134253399
 20
403.2341260257025
 30
0.0
  0
VERTEX
  5
5F5
  8
1
  6
CONTINUOUS
 62
     7
 10
-288.3878469164172
 20
403.2335237433883
 30
0.0
  0
SEQEND
  5
999
  8
1
  6
CONTINUOUS
 62
     7
  0
LINE
  5
214
  8
1
  6
CONTINUOUS
 62
     7
 10
-287.8879040354461
 20
403.7335427854813
 30
0.0
 11
-287.888257131828
 21
408.3698955686685
 31
0.0
  0
POLYLINE
  5
215
  8
1
  6
CONTINUOUS
 62
     7
 66
     1
 10
0.0
 20
0.0
 30
0.0
  0
VERTEX
  5
5F6
  8
1
  6
CONTINUOUS
 62
     7
 10
-288.8068550225528
 20
408.6432451916548
 30
0.0
  0
VERTEX
  5
5F7
  8
1
  6
CONTINUOUS
 62
     7
 10
-288.7951300038363
 20
408.6604010548942
 30
0.0
  0
VERTEX
  5
5F8
  8
1
  6
CONTINUOUS
 62
     7
 10
-288.782691800957
 20
408.6770695645666
 30
0.0
  0
VERTEX
  5
5F9
  8
1
  6
CONTINUOUS
 62
     7
 10
-288.7695734531105
 20
408.6932082862245
 30
0.0
  0
VERTEX
  5
5FA
  8
1
  6
CONTINUOUS
 62
     7
 10
-288.7558079994922
 20
408.7087747854211
 30
0.0
  0
VERTEX
  5
5FB
  8
1
  6
CONTINUOUS
 62
     7
 10
-288.7409778485632
 20
408.7241796758264
 30
0.0
  0
VERTEX
  5
5FC
  8
1
  6
CONTINUOUS
 62
     7
 10
-288.7254886298156
 20
408.7389501738631
 30
0.0
  0
VERTEX
  5
5FD
  8
1
  6
CONTINUOUS
 62
     7
 10
-288.709383597822
 20
408.7530467288198
 30
0.0
  0
VERTEX
  5
5FE
  8
1
  6
CONTINUOUS
 62
     7
 10
-288.6927060071551
 20
408.7664297899855
 30
0.0
  0
VERTEX
  5
5FF
  8
1
  6
CONTINUOUS
 62
     7
 10
-288.6759631943774
 20
408.7787379220729
 30
0.0
  0
VERTEX
  5
600
  8
1
  6
CONTINUOUS
 62
     7
 10
-288.6587086223741
 20
408.7903499989355
 30
0.0
  0
VERTEX
  5
601
  8
1
  6
CONTINUOUS
 62
     7
 10
-288.6409875252249
 20
408.8012368930511
 30
0.0
  0
VERTEX
  5
602
  8
1
  6
CONTINUOUS
 62
     7
 10
-288.6228451370096
 20
408.8113694768968
 30
0.0
  0
VERTEX
  5
603
  8
1
  6
CONTINUOUS
 62
     7
 10
-288.603751244174
 20
408.8209970832867
 30
0.0
  0
VERTEX
  5
604
  8
1
  6
CONTINUOUS
 62
     7
 10
-288.5842453431225
 20
408.829807700444
 30
0.0
  0
VERTEX
  5
605
  8
1
  6
CONTINUOUS
 62
     7
 10
-288.5643813671276
 20
408.8377783079392
 30
0.0
  0
VERTEX
  5
606
  8
1
  6
CONTINUOUS
 62
     7
 10
-288.5442132494616
 20
408.8448858853425
 30
0.0
  0
VERTEX
  5
607
  8
1
  6
CONTINUOUS
 62
     7
 10
-288.5243427852812
 20
408.8509563643541
 30
0.0
  0
VERTEX
  5
608
  8
1
  6
CONTINUOUS
 62
     7
 10
-288.5042198807292
 20
408.8562006765665
 30
0.0
  0
VERTEX
  5
609
  8
1
  6
CONTINUOUS
 62
     7
 10
-288.4838968637343
 20
408.86060631088
 30
0.0
  0
VERTEX
  5
60A
  8
1
  6
CONTINUOUS
 62
     7
 10
-288.4634260622256
 20
408.864160756195
 30
0.0
  0
VERTEX
  5
60B
  8
1
  6
CONTINUOUS
 62
     7
 10
-288.4422245960137
 20
408.8669237518067
 30
0.0
  0
VERTEX
  5
60C
  8
1
  6
CONTINUOUS
 62
     7
 10
-288.4209048578821
 20
408.8687794858474
 30
0.0
  0
VERTEX
  5
60D
  8
1
  6
CONTINUOUS
 62
     7
 10
-288.3995253628535
 20
408.8697240972909
 30
0.0
  0
VERTEX
  5
60E
  8
1
  6
CONTINUOUS
 62
     7
 10
-288.3781446259505
 20
408.8697537251111
 30
0.0
  0
VERTEX
  5
60F
  8
1
  6
CONTINUOUS
 62
     7
 10
-288.3573899359139
 20
408.8689034765665
 30
0.0
  0
VERTEX
  5
610
  8
1
  6
CONTINUOUS
 62
     7
 10
-288.3366705754807
 20
408.8671903157816
 30
0.0
  0
VERTEX
  5
611
  8
1
  6
CONTINUOUS
 62
     7
 10
-288.3160400450808
 20
408.864619770161
 30
0.0
  0
VERTEX
  5
612
  8
1
  6
CONTINUOUS
 62
     7
 10
-288.2955518451447
 20
408.8611973671095
 30
0.0
  0
VERTEX
  5
613
  8
1
  6
CONTINUOUS
 62
     7
 10
-288.2746364021015
 20
408.8567865701793
 30
0.0
  0
VERTEX
  5
614
  8
1
  6
CONTINUOUS
 62
     7
 10
-288.2539096793949
 20
408.8514808225079
 30
0.0
  0
VERTEX
  5
615
  8
1
  6
CONTINUOUS
 62
     7
 10
-288.2334281402059
 20
408.8452958608589
 30
0.0
  0
VERTEX
  5
616
  8
1
  6
CONTINUOUS
 62
     7
 10
-288.2132482477157
 20
408.8382474219961
 30
0.0
  0
VERTEX
  5
617
  8
1
  6
CONTINUOUS
 62
     7
 10
-288.1939486854408
 20
408.8305756343217
 30
0.0
  0
VERTEX
  5
618
  8
1
  6
CONTINUOUS
 62
     7
 10
-288.1749680658288
 20
408.8221014957735
 30
0.0
  0
VERTEX
  5
619
  8
1
  6
CONTINUOUS
 62
     7
 10
-288.1563550166795
 20
408.8128479396569
 30
0.0
  0
VERTEX
  5
61A
  8
1
  6
CONTINUOUS
 62
     7
 10
-288.1381581657928
 20
408.8028378992772
 30
0.0
  0
VERTEX
  5
61B
  8
1
  6
CONTINUOUS
 62
     7
 10
-288.1198854707662
 20
408.7917541543347
 30
0.0
  0
VERTEX
  5
61C
  8
1
  6
CONTINUOUS
 62
     7
 10
-288.1020869649702
 20
408.7798886681911
 30
0.0
  0
VERTEX
  5
61D
  8
1
  6
CONTINUOUS
 62
     7
 10
-288.0848106801939
 20
408.767274977254
 30
0.0
  0
VERTEX
  5
61E
  8
1
  6
CONTINUOUS
 62
     7
 10
-288.0681046482264
 20
408.7539466179308
 30
0.0
  0
VERTEX
  5
61F
  8
1
  6
CONTINUOUS
 62
     7
 10
-288.0524329629684
 20
408.7403194996356
 30
0.0
  0
VERTEX
  5
620
  8
1
  6
CONTINUOUS
 62
     7
 10
-288.0373277660443
 20
408.7260409140573
 30
0.0
  0
VERTEX
  5
621
  8
1
  6
CONTINUOUS
 62
     7
 10
-288.0228273311291
 20
408.71114859852
 30
0.0
  0
VERTEX
  5
622
  8
1
  6
CONTINUOUS
 62
     7
 10
-288.0089699318974
 20
408.6956802903479
 30
0.0
  0
VERTEX
  5
623
  8
1
  6
CONTINUOUS
 62
     7
 10
-287.995396367874
 20
408.6791739626668
 30
0.0
  0
VERTEX
  5
624
  8
1
  6
CONTINUOUS
 62
     7
 10
-287.982528870285
 20
408.6620870295372
 30
0.0
  0
VERTEX
  5
625
  8
1
  6
CONTINUOUS
 62
     7
 10
-287.9704016373237
 20
408.6444670216949
 30
0.0
  0
VERTEX
  5
626
  8
1
  6
CONTINUOUS
 62
     7
 10
-287.959048867183
 20
408.6263614698758
 30
0.0
  0
VERTEX
  5
627
  8
1
  6
CONTINUOUS
 62
     7
 10
-287.9487691856889
 20
408.6083133967362
 30
0.0
  0
VERTEX
  5
628
  8
1
  6
CONTINUOUS
 62
     7
 10
-287.9392397290476
 20
408.5898380230545
 30
0.0
  0
VERTEX
  5
629
  8
1
  6
CONTINUOUS
 62
     7
 10
-287.930484116055
 20
408.5709836277045
 30
0.0
  0
VERTEX
  5
62A
  8
1
  6
CONTINUOUS
 62
     7
 10
-287.9225259655072
 20
408.5517984895595
 30
0.0
  0
VERTEX
  5
62B
  8
1
  6
CONTINUOUS
 62
     7
 10
-287.9151792335986
 20
408.5317277868367
 30
0.0
  0
VERTEX
  5
62C
  8
1
  6
CONTINUOUS
 62
     7
 10
-287.9086909497684
 20
408.5113428518926
 30
0.0
  0
VERTEX
  5
62D
  8
1
  6
CONTINUOUS
 62
     7
 10
-287.9030776505344
 20
408.4906998491814
 30
0.0
  0
VERTEX
  5
62E
  8
1
  6
CONTINUOUS
 62
     7
 10
-287.8983558724144
 20
408.4698549431574
 30
0.0
  0
VERTEX
  5
62F
  8
1
  6
CONTINUOUS
 62
     7
 10
-287.8939534113287
 20
408.4451026699517
 30
0.0
  0
VERTEX
  5
630
  8
1
  6
CONTINUOUS
 62
     7
 10
-287.8907964438607
 20
408.4201288292845
 30
0.0
  0
VERTEX
  5
631
  8
1
  6
CONTINUOUS
 62
     7
 10
-287.8888945055229
 20
408.3950282019316
 30
0.0
  0
VERTEX
  5
632
  8
1
  6
CONTINUOUS
 62
     7
 10
-287.888257131828
 20
408.3698955686685
 30
0.0
  0
SEQEND
  5
99A
  8
1
  6
CONTINUOUS
 62
     7
  0
ARC
  5
216
  8
1
  6
CONTINUOUS
 62
     7
 10
-293.5376755448302
 20
411.7337636910879
 30
0.0
 40
5.650837773211095
 50
180.0043635446805
 51
326.8444888491164
  0
LINE
  5
217
  8
1
  6
CONTINUOUS
 62
     7
 10
-299.188513285266
 20
411.7333333333335
 30
0.0
 11
-299.1888178326071
 21
415.7322100840245
 31
0.0
  0
POLYLINE
  5
218
  8
1
  6
CONTINUOUS
 62
     7
 66
     1
 10
0.0
 20
0.0
 30
0.0
  0
VERTEX
  5
633
  8
1
  6
CONTINUOUS
 62
     7
 10
-299.6888368689003
 20
416.2321529707955
 30
0.0
  0
VERTEX
  5
634
  8
1
  6
CONTINUOUS
 62
     7
 10
-299.6643032860924
 20
416.2315507802118
 30
0.0
  0
VERTEX
  5
635
  8
1
  6
CONTINUOUS
 62
     7
 10
-299.6398288011051
 20
416.2297456590501
 30
0.0
  0
VERTEX
  5
636
  8
1
  6
CONTINUOUS
 62
     7
 10
-299.6154723694006
 20
416.2267419555837
 30
0.0
  0
VERTEX
  5
637
  8
1
  6
CONTINUOUS
 62
     7
 10
-299.5912926620683
 20
416.2225469052959
 30
0.0
  0
VERTEX
  5
638
  8
1
  6
CONTINUOUS
 62
     7
 10
-299.5673479244944
 20
416.2171706134506
 30
0.0
  0
VERTEX
  5
639
  8
1
  6
CONTINUOUS
 62
     7
 10
-299.543695836057
 20
416.2106260307503
 30
0.0
  0
VERTEX
  5
63A
  8
1
  6
CONTINUOUS
 62
     7
 10
-299.5203933711854
 20
416.2029289221395
 30
0.0
  0
VERTEX
  5
63B
  8
1
  6
CONTINUOUS
 62
     7
 10
-299.4974966621164
 20
416.1940978288295
 30
0.0
  0
VERTEX
  5
63C
  8
1
  6
CONTINUOUS
 62
     7
 10
-299.4750608636808
 20
416.1841540236354
 30
0.0
  0
VERTEX
  5
63D
  8
1
  6
CONTINUOUS
 62
     7
 10
-299.4531400204424
 20
416.1731214597324
 30
0.0
  0
VERTEX
  5
63E
  8
1
  6
CONTINUOUS
 62
     7
 10
-299.4317869365136
 20
416.161026712957
 30
0.0
  0
VERTEX
  5
63F
  8
1
  6
CONTINUOUS
 62
     7
 10
-299.4110530483571
 20
416.1478989177891
 30
0.0
  0
VERTEX
  5
640
  8
1
  6
CONTINUOUS
 62
     7
 10
-299.3909883008835
 20
416.1337696971711
 30
0.0
  0
VERTEX
  5
641
  8
1
  6
CONTINUOUS
 62
     7
 10
-299.3716410271412
 20
416.1186730863336
 30
0.0
  0
VERTEX
  5
642
  8
1
  6
CONTINUOUS
 62
     7
 10
-299.353057831889
 20
416.1026454508088
 30
0.0
  0
VERTEX
  5
643
  8
1
  6
CONTINUOUS
 62
     7
 10
-299.3352834793321
 20
416.0857253988315
 30
0.0
  0
VERTEX
  5
644
  8
1
  6
CONTINUOUS
 62
     7
 10
-299.3183607852919
 20
416.0679536883376
 30
0.0
  0
VERTEX
  5
645
  8
1
  6
CONTINUOUS
 62
     7
 10
-299.3023305140685
 20
416.049373128784
 30
0.0
  0
VERTEX
  5
646
  8
1
  6
CONTINUOUS
 62
     7
 10
-299.2872312802458
 20
416.0300284780269
 30
0.0
  0
VERTEX
  5
647
  8
1
  6
CONTINUOUS
 62
     7
 10
-299.2730994556744
 20
416.0099663345068
 30
0.0
  0
VERTEX
  5
648
  8
1
  6
CONTINUOUS
 62
     7
 10
-299.2599690818572
 20
415.9892350249995
 30
0.0
  0
VERTEX
  5
649
  8
1
  6
CONTINUOUS
 62
     7
 10
-299.2478717879486
 20
415.967884488204
 30
0.0
  0
VERTEX
  5
64A
  8
1
  6
CONTINUOUS
 62
     7
 10
-299.2368367145638
 20
415.9459661544474
 30
0.0
  0
VERTEX
  5
64B
  8
1
  6
CONTINUOUS
 62
     7
 10
-299.2268904435844
 20
415.9235328217969
 30
0.0
  0
VERTEX
  5
64C
  8
1
  6
CONTINUOUS
 62
     7
 10
-299.2180569341255
 20
415.900638528877
 30
0.0
  0
VERTEX
  5
64D
  8
1
  6
CONTINUOUS
 62
     7
 10
-299.210357464822
 20
415.8773384246979
 30
0.0
  0
VERTEX
  5
64E
  8
1
  6
CONTINUOUS
 62
     7
 10
-299.2038105825721
 20
415.8536886358102
 30
0.0
  0
VERTEX
  5
64F
  8
1
  6
CONTINUOUS
 62
     7
 10
-299.1984320578595
 20
415.8297461311036
 30
0.0
  0
VERTEX
  5
650
  8
1
  6
CONTINUOUS
 62
     7
 10
-299.1942348467651
 20
415.8055685845779
 30
0.0
  0
VERTEX
  5
651
  8
1
  6
CONTINUOUS
 62
     7
 10
-299.1912290597582
 20
415.781214236414
 30
0.0
  0
VERTEX
  5
652
  8
1
  6
CONTINUOUS
 62
     7
 10
-299.1894219373407
 20
415.7567417526823
 30
0.0
  0
VERTEX
  5
653
  8
1
  6
CONTINUOUS
 62
     7
 10
-299.1888178326071
 20
415.7322100840244
 30
0.0
  0
SEQEND
  5
99B
  8
1
  6
CONTINUOUS
 62
     7
  0
LINE
  5
219
  8
1
  6
CONTINUOUS
 62
     7
 10
-299.6888368689003
 20
416.2321529707955
 30
0.0
 11
-302.0376755448302
 21
416.2321529707955
 31
0.0
  0
LINE
  5
21A
  8
1
  6
CONTINUOUS
 62
     7
 10
-351.0714380713777
 20
415.767095859881
 30
0.0
 11
-352.5714380713777
 21
415.767095859881
 31
0.0
  0
LINE
  5
21B
  8
1
  6
CONTINUOUS
 62
     7
 10
-352.5714380713777
 20
415.767095859881
 30
0.0
 11
-352.5723945999584
 21
403.2073411459961
 31
0.0
  0
LINE
  5
21C
  8
1
  6
CONTINUOUS
 62
     7
 10
-348.0116833574928
 20
403.207341145996
 30
0.0
 11
-352.5723945999584
 21
403.207341145996
 31
0.0
  0
LINE
  5
21D
  8
1
  6
CONTINUOUS
 62
     7
 10
-348.0118363472592
 20
405.2161822605827
 30
0.0
 11
-348.0116833574928
 21
403.207341145996
 31
0.0
  0
LINE
  5
21E
  8
1
  6
CONTINUOUS
 62
     9
 10
-346.0635147424012
 20
405.2161822605827
 30
0.0
 11
-348.0118363472592
 21
405.2161822605827
 31
0.0
  0
LINE
  5
21F
  8
1
  6
CONTINUOUS
 62
     7
 10
-346.0636677321677
 20
403.207341145996
 30
0.0
 11
-346.0635147424012
 21
405.2161822605827
 31
0.0
  0
LINE
  5
220
  8
1
  6
CONTINUOUS
 62
     7
 10
-342.9906340601697
 20
403.207341145996
 30
0.0
 11
-346.0636677321677
 21
403.207341145996
 31
0.0
  0
LINE
  5
221
  8
1
  6
CONTINUOUS
 62
     7
 10
-342.9968965505911
 20
404.1925543390899
 30
0.0
 11
-342.9906340601697
 21
403.2073411460007
 31
0.0
  0
LINE
  5
222
  8
1
  6
CONTINUOUS
 62
     7
 10
-342.063657977025
 20
403.3354316202453
 30
0.0
 11
-342.0636677321677
 21
403.207341145996
 31
0.0
  0
LINE
  5
223
  8
1
  6
CONTINUOUS
 62
     7
 10
-351.0713670329346
 20
416.6998703097438
 30
0.0
 11
-375.0364595617716
 21
416.6998703097438
 31
0.0
  0
LINE
  5
224
  8
1
  6
CONTINUOUS
 62
     7
 10
-351.0713670329346
 20
416.6998703097438
 30
0.0
 11
-351.0714380713778
 21
415.7670958598809
 31
0.0
  0
POLYLINE
  5
225
  8
1
  6
CONTINUOUS
 62
     7
 66
     1
 10
0.0
 20
0.0
 30
0.0
  0
VERTEX
  5
654
  8
1
  6
CONTINUOUS
 62
     7
 10
-355.5388368689003
 20
416.2321529707955
 30
0.0
  0
VERTEX
  5
655
  8
1
  6
CONTINUOUS
 62
     7
 10
-355.5143032860925
 20
416.2315507802118
 30
0.0
  0
VERTEX
  5
656
  8
1
  6
CONTINUOUS
 62
     7
 10
-355.4898288011051
 20
416.2297456590501
 30
0.0
  0
VERTEX
  5
657
  8
1
  6
CONTINUOUS
 62
     7
 10
-355.4654723694006
 20
416.2267419555837
 30
0.0
  0
VERTEX
  5
658
  8
1
  6
CONTINUOUS
 62
     7
 10
-355.4412926620683
 20
416.2225469052959
 30
0.0
  0
VERTEX
  5
659
  8
1
  6
CONTINUOUS
 62
     7
 10
-355.4173479244944
 20
416.2171706134506
 30
0.0
  0
VERTEX
  5
65A
  8
1
  6
CONTINUOUS
 62
     7
 10
-355.393695836057
 20
416.2106260307503
 30
0.0
  0
VERTEX
  5
65B
  8
1
  6
CONTINUOUS
 62
     7
 10
-355.3703933711853
 20
416.2029289221395
 30
0.0
  0
VERTEX
  5
65C
  8
1
  6
CONTINUOUS
 62
     7
 10
-355.3474966621164
 20
416.1940978288295
 30
0.0
  0
VERTEX
  5
65D
  8
1
  6
CONTINUOUS
 62
     7
 10
-355.3250608636807
 20
416.1841540236354
 30
0.0
  0
VERTEX
  5
65E
  8
1
  6
CONTINUOUS
 62
     7
 10
-355.3031400204424
 20
416.1731214597324
 30
0.0
  0
VERTEX
  5
65F
  8
1
  6
CONTINUOUS
 62
     7
 10
-355.2817869365136
 20
416.161026712957
 30
0.0
  0
VERTEX
  5
660
  8
1
  6
CONTINUOUS
 62
     7
 10
-355.2610530483571
 20
416.1478989177891
 30
0.0
  0
VERTEX
  5
661
  8
1
  6
CONTINUOUS
 62
     7
 10
-355.2409883008835
 20
416.1337696971711
 30
0.0
  0
VERTEX
  5
662
  8
1
  6
CONTINUOUS
 62
     7
 10
-355.2216410271412
 20
416.1186730863336
 30
0.0
  0
VERTEX
  5
663
  8
1
  6
CONTINUOUS
 62
     7
 10
-355.203057831889
 20
416.1026454508088
 30
0.0
  0
VERTEX
  5
664
  8
1
  6
CONTINUOUS
 62
     7
 10
-355.1852834793322
 20
416.0857253988315
 30
0.0
  0
VERTEX
  5
665
  8
1
  6
CONTINUOUS
 62
     7
 10
-355.168360785292
 20
416.0679536883376
 30
0.0
  0
VERTEX
  5
666
  8
1
  6
CONTINUOUS
 62
     7
 10
-355.1523305140685
 20
416.049373128784
 30
0.0
  0
VERTEX
  5
667
  8
1
  6
CONTINUOUS
 62
     7
 10
-355.1372312802458
 20
416.0300284780269
 30
0.0
  0
VERTEX
  5
668
  8
1
  6
CONTINUOUS
 62
     7
 10
-355.1230994556744
 20
416.0099663345068
 30
0.0
  0
VERTEX
  5
669
  8
1
  6
CONTINUOUS
 62
     7
 10
-355.1099690818572
 20
415.9892350249995
 30
0.0
  0
VERTEX
  5
66A
  8
1
  6
CONTINUOUS
 62
     7
 10
-355.0978717879485
 20
415.967884488204
 30
0.0
  0
VERTEX
  5
66B
  8
1
  6
CONTINUOUS
 62
     7
 10
-355.0868367145638
 20
415.9459661544474
 30
0.0
  0
VERTEX
  5
66C
  8
1
  6
CONTINUOUS
 62
     7
 10
-355.0768904435844
 20
415.9235328217969
 30
0.0
  0
VERTEX
  5
66D
  8
1
  6
CONTINUOUS
 62
     7
 10
-355.0680569341255
 20
415.900638528877
 30
0.0
  0
VERTEX
  5
66E
  8
1
  6
CONTINUOUS
 62
     7
 10
-355.0603574648221
 20
415.8773384246979
 30
0.0
  0
VERTEX
  5
66F
  8
1
  6
CONTINUOUS
 62
     7
 10
-355.0538105825721
 20
415.8536886358102
 30
0.0
  0
VERTEX
  5
670
  8
1
  6
CONTINUOUS
 62
     7
 10
-355.0484320578594
 20
415.8297461311036
 30
0.0
  0
VERTEX
  5
671
  8
1
  6
CONTINUOUS
 62
     7
 10
-355.0442348467652
 20
415.8055685845779
 30
0.0
  0
VERTEX
  5
672
  8
1
  6
CONTINUOUS
 62
     7
 10
-355.0412290597582
 20
415.781214236414
 30
0.0
  0
VERTEX
  5
673
  8
1
  6
CONTINUOUS
 62
     7
 10
-355.0394219373408
 20
415.7567417526823
 30
0.0
  0
VERTEX
  5
674
  8
1
  6
CONTINUOUS
 62
     7
 10
-355.0388178326071
 20
415.7322100840244
 30
0.0
  0
SEQEND
  5
99C
  8
1
  6
CONTINUOUS
 62
     7
  0
LINE
  5
226
  8
1
  6
CONTINUOUS
 62
     7
 10
-372.0365142207602
 20
416.2321529707955
 30
0.0
 11
-355.5388368689003
 21
416.2321529707955
 31
0.0
  0
POLYLINE
  5
227
  8
1
  6
CONTINUOUS
 62
     7
 66
     1
 10
0.0
 20
0.0
 30
0.0
  0
VERTEX
  5
675
  8
1
  6
CONTINUOUS
 62
     7
 10
-372.5365332570533
 20
415.7322100840244
 30
0.0
  0
VERTEX
  5
676
  8
1
  6
CONTINUOUS
 62
     7
 10
-372.5359291523196
 20
415.7567417526823
 30
0.0
  0
VERTEX
  5
677
  8
1
  6
CONTINUOUS
 62
     7
 10
-372.5341220299022
 20
415.781214236414
 30
0.0
  0
VERTEX
  5
678
  8
1
  6
CONTINUOUS
 62
     7
 10
-372.5311162428952
 20
415.8055685845779
 30
0.0
  0
VERTEX
  5
679
  8
1
  6
CONTINUOUS
 62
     7
 10
-372.526919031801
 20
415.8297461311036
 30
0.0
  0
VERTEX
  5
67A
  8
1
  6
CONTINUOUS
 62
     7
 10
-372.5215405070883
 20
415.8536886358102
 30
0.0
  0
VERTEX
  5
67B
  8
1
  6
CONTINUOUS
 62
     7
 10
-372.5149936248384
 20
415.8773384246979
 30
0.0
  0
VERTEX
  5
67C
  8
1
  6
CONTINUOUS
 62
     7
 10
-372.507294155535
 20
415.900638528877
 30
0.0
  0
VERTEX
  5
67D
  8
1
  6
CONTINUOUS
 62
     7
 10
-372.4984606460761
 20
415.9235328217969
 30
0.0
  0
VERTEX
  5
67E
  8
1
  6
CONTINUOUS
 62
     7
 10
-372.4885143750966
 20
415.9459661544474
 30
0.0
  0
VERTEX
  5
67F
  8
1
  6
CONTINUOUS
 62
     7
 10
-372.4774793017119
 20
415.967884488204
 30
0.0
  0
VERTEX
  5
680
  8
1
  6
CONTINUOUS
 62
     7
 10
-372.4653820078032
 20
415.9892350249995
 30
0.0
  0
VERTEX
  5
681
  8
1
  6
CONTINUOUS
 62
     7
 10
-372.4522516339861
 20
416.0099663345068
 30
0.0
  0
VERTEX
  5
682
  8
1
  6
CONTINUOUS
 62
     7
 10
-372.4381198094147
 20
416.0300284780269
 30
0.0
  0
VERTEX
  5
683
  8
1
  6
CONTINUOUS
 62
     7
 10
-372.4230205755919
 20
416.049373128784
 30
0.0
  0
VERTEX
  5
684
  8
1
  6
CONTINUOUS
 62
     7
 10
-372.4069903043684
 20
416.0679536883376
 30
0.0
  0
VERTEX
  5
685
  8
1
  6
CONTINUOUS
 62
     7
 10
-372.3900676103283
 20
416.0857253988315
 30
0.0
  0
VERTEX
  5
686
  8
1
  6
CONTINUOUS
 62
     7
 10
-372.3722932577714
 20
416.1026454508088
 30
0.0
  0
VERTEX
  5
687
  8
1
  6
CONTINUOUS
 62
     7
 10
-372.3537100625192
 20
416.1186730863336
 30
0.0
  0
VERTEX
  5
688
  8
1
  6
CONTINUOUS
 62
     7
 10
-372.3343627887769
 20
416.1337696971711
 30
0.0
  0
VERTEX
  5
689
  8
1
  6
CONTINUOUS
 62
     7
 10
-372.3142980413033
 20
416.1478989177891
 30
0.0
  0
VERTEX
  5
68A
  8
1
  6
CONTINUOUS
 62
     7
 10
-372.2935641531469
 20
416.161026712957
 30
0.0
  0
VERTEX
  5
68B
  8
1
  6
CONTINUOUS
 62
     7
 10
-372.272211069218
 20
416.1731214597324
 30
0.0
  0
VERTEX
  5
68C
  8
1
  6
CONTINUOUS
 62
     7
 10
-372.2502902259797
 20
416.1841540236354
 30
0.0
  0
VERTEX
  5
68D
  8
1
  6
CONTINUOUS
 62
     7
 10
-372.227854427544
 20
416.1940978288295
 30
0.0
  0
VERTEX
  5
68E
  8
1
  6
CONTINUOUS
 62
     7
 10
-372.2049577184751
 20
416.2029289221395
 30
0.0
  0
VERTEX
  5
68F
  8
1
  6
CONTINUOUS
 62
     7
 10
-372.1816552536034
 20
416.2106260307503
 30
0.0
  0
VERTEX
  5
690
  8
1
  6
CONTINUOUS
 62
     7
 10
-372.158003165166
 20
416.2171706134506
 30
0.0
  0
VERTEX
  5
691
  8
1
  6
CONTINUOUS
 62
     7
 10
-372.134058427592
 20
416.2225469052959
 30
0.0
  0
VERTEX
  5
692
  8
1
  6
CONTINUOUS
 62
     7
 10
-372.1098787202599
 20
416.2267419555837
 30
0.0
  0
VERTEX
  5
693
  8
1
  6
CONTINUOUS
 62
     7
 10
-372.0855222885554
 20
416.2297456590501
 30
0.0
  0
VERTEX
  5
694
  8
1
  6
CONTINUOUS
 62
     7
 10
-372.061047803568
 20
416.2315507802118
 30
0.0
  0
VERTEX
  5
695
  8
1
  6
CONTINUOUS
 62
     7
 10
-372.0365142207602
 20
416.2321529707955
 30
0.0
  0
SEQEND
  5
99D
  8
1
  6
CONTINUOUS
 62
     7
  0
LINE
  5
228
  8
1
  6
CONTINUOUS
 62
     7
 10
-372.5374470542144
 20
403.7335427854813
 30
0.0
 11
-372.5365332570533
 21
415.7322100840245
 31
0.0
  0
POLYLINE
  5
229
  8
1
  6
CONTINUOUS
 62
     7
 66
     1
 10
0.0
 20
0.0
 30
0.0
  0
VERTEX
  5
696
  8
1
  6
CONTINUOUS
 62
     7
 10
-372.0375041732432
 20
403.2335237433883
 30
0.0
  0
VERTEX
  5
697
  8
1
  6
CONTINUOUS
 62
     7
 10
-372.0620376643205
 20
403.2341260257025
 30
0.0
  0
VERTEX
  5
698
  8
1
  6
CONTINUOUS
 62
     7
 10
-372.0865118743373
 20
403.2359314218348
 30
0.0
  0
VERTEX
  5
699
  8
1
  6
CONTINUOUS
 62
     7
 10
-372.1108678484936
 20
403.2389355828495
 30
0.0
  0
VERTEX
  5
69A
  8
1
  6
CONTINUOUS
 62
     7
 10
-372.135046916802
 20
403.2431312721611
 30
0.0
  0
VERTEX
  5
69B
  8
1
  6
CONTINUOUS
 62
     7
 10
-372.1589908354159
 20
403.2485083829664
 30
0.0
  0
VERTEX
  5
69C
  8
1
  6
CONTINUOUS
 62
     7
 10
-372.1826419269298
 20
403.2550539625901
 30
0.0
  0
VERTEX
  5
69D
  8
1
  6
CONTINUOUS
 62
     7
 10
-372.205943219316
 20
403.2627522436865
 30
0.0
  0
VERTEX
  5
69E
  8
1
  6
CONTINUOUS
 62
     7
 10
-372.2288385831617
 20
403.2715846822196
 30
0.0
  0
VERTEX
  5
69F
  8
1
  6
CONTINUOUS
 62
     7
 10
-372.251272866877
 20
403.2815300021342
 30
0.0
  0
VERTEX
  5
6A0
  8
1
  6
CONTINUOUS
 62
     7
 10
-372.2731920295465
 20
403.292564246606
 30
0.0
  0
VERTEX
  5
6A1
  8
1
  6
CONTINUOUS
 62
     7
 10
-372.2945432711062
 20
403.3046608357504
 30
0.0
  0
VERTEX
  5
6A2
  8
1
  6
CONTINUOUS
 62
     7
 10
-372.3152751595313
 20
403.3177906306498
 30
0.0
  0
VERTEX
  5
6A3
  8
1
  6
CONTINUOUS
 62
     7
 10
-372.3353377547284
 20
403.3319220035443
 30
0.0
  0
VERTEX
  5
6A4
  8
1
  6
CONTINUOUS
 62
     7
 10
-372.3546827288335
 20
403.347020914019
 30
0.0
  0
VERTEX
  5
6A5
  8
1
  6
CONTINUOUS
 62
     7
 10
-372.3732634826274
 20
403.3630509910022
 30
0.0
  0
VERTEX
  5
6A6
  8
1
  6
CONTINUOUS
 62
     7
 10
-372.3910352577857
 20
403.3799736203779
 30
0.0
  0
VERTEX
  5
6A7
  8
1
  6
CONTINUOUS
 62
     7
 10
-372.407955244696
 20
403.3977480380017
 30
0.0
  0
VERTEX
  5
6A8
  8
1
  6
CONTINUOUS
 62
     7
 10
-372.4239826855792
 20
403.4163314278956
 30
0.0
  0
VERTEX
  5
6A9
  8
1
  6
CONTINUOUS
 62
     7
 10
-372.4390789726691
 20
403.4356790253855
 30
0.0
  0
VERTEX
  5
6AA
  8
1
  6
CONTINUOUS
 62
     7
 10
-372.4532077412135
 20
403.4557442249327
 30
0.0
  0
VERTEX
  5
6AB
  8
1
  6
CONTINUOUS
 62
     7
 10
-372.4663349570708
 20
403.4764786923998
 30
0.0
  0
VERTEX
  5
6AC
  8
1
  6
CONTINUOUS
 62
     7
 10
-372.478428998694
 20
403.4978324814808
 30
0.0
  0
VERTEX
  5
6AD
  8
1
  6
CONTINUOUS
 62
     7
 10
-372.4894607333018
 20
403.5197541540143
 30
0.0
  0
VERTEX
  5
6AE
  8
1
  6
CONTINUOUS
 62
     7
 10
-372.4994035870555
 20
403.5421909038904
 30
0.0
  0
VERTEX
  5
6AF
  8
1
  6
CONTINUOUS
 62
     7
 10
-372.5082336090716
 20
403.5650886842532
 30
0.0
  0
VERTEX
  5
6B0
  8
1
  6
CONTINUOUS
 62
     7
 10
-372.5159295291157
 20
403.5883923376916
 30
0.0
  0
VERTEX
  5
6B1
  8
1
  6
CONTINUOUS
 62
     7
 10
-372.5224728088396
 20
403.6120457291055
 30
0.0
  0
VERTEX
  5
6B2
  8
1
  6
CONTINUOUS
 62
     7
 10
-372.5278476864373
 20
403.6359918809269
 30
0.0
  0
VERTEX
  5
6B3
  8
1
  6
CONTINUOUS
 62
     7
 10
-372.5320412146132
 20
403.660173110371
 30
0.0
  0
VERTEX
  5
6B4
  8
1
  6
CONTINUOUS
 62
     7
 10
-372.53504329177
 20
403.6845311683851
 30
0.0
  0
VERTEX
  5
6B5
  8
1
  6
CONTINUOUS
 62
     7
 10
-372.5368466863418
 20
403.7090073799624
 30
0.0
  0
VERTEX
  5
6B6
  8
1
  6
CONTINUOUS
 62
     7
 10
-372.5374470542144
 20
403.7335427854813
 30
0.0
  0
SEQEND
  5
99E
  8
1
  6
CONTINUOUS
 62
     7
  0
LINE
  5
22A
  8
1
  6
CONTINUOUS
 62
     7
 10
-355.5378469164172
 20
403.2335237433883
 30
0.0
 11
-372.0375041732433
 21
403.2335237433883
 31
0.0
  0
POLYLINE
  5
22B
  8
1
  6
CONTINUOUS
 62
     7
 66
     1
 10
0.0
 20
0.0
 30
0.0
  0
VERTEX
  5
6B7
  8
1
  6
CONTINUOUS
 62
     7
 10
-355.037904035446
 20
403.7335427854813
 30
0.0
  0
VERTEX
  5
6B8
  8
1
  6
CONTINUOUS
 62
     7
 10
-355.0385044033186
 20
403.7090073799624
 30
0.0
  0
VERTEX
  5
6B9
  8
1
  6
CONTINUOUS
 62
     7
 10
-355.0403077978904
 20
403.6845311683851
 30
0.0
  0
VERTEX
  5
6BA
  8
1
  6
CONTINUOUS
 62
     7
 10
-355.0433098750472
 20
403.660173110371
 30
0.0
  0
VERTEX
  5
6BB
  8
1
  6
CONTINUOUS
 62
     7
 10
-355.0475034032231
 20
403.6359918809269
 30
0.0
  0
VERTEX
  5
6BC
  8
1
  6
CONTINUOUS
 62
     7
 10
-355.0528782808209
 20
403.6120457291055
 30
0.0
  0
VERTEX
  5
6BD
  8
1
  6
CONTINUOUS
 62
     7
 10
-355.0594215605448
 20
403.5883923376916
 30
0.0
  0
VERTEX
  5
6BE
  8
1
  6
CONTINUOUS
 62
     7
 10
-355.0671174805888
 20
403.5650886842532
 30
0.0
  0
VERTEX
  5
6BF
  8
1
  6
CONTINUOUS
 62
     7
 10
-355.0759475026049
 20
403.5421909038904
 30
0.0
  0
VERTEX
  5
6C0
  8
1
  6
CONTINUOUS
 62
     7
 10
-355.0858903563587
 20
403.5197541540143
 30
0.0
  0
VERTEX
  5
6C1
  8
1
  6
CONTINUOUS
 62
     7
 10
-355.0969220909664
 20
403.4978324814808
 30
0.0
  0
VERTEX
  5
6C2
  8
1
  6
CONTINUOUS
 62
     7
 10
-355.1090161325896
 20
403.4764786923998
 30
0.0
  0
VERTEX
  5
6C3
  8
1
  6
CONTINUOUS
 62
     7
 10
-355.122143348447
 20
403.4557442249327
 30
0.0
  0
VERTEX
  5
6C4
  8
1
  6
CONTINUOUS
 62
     7
 10
-355.1362721169913
 20
403.4356790253855
 30
0.0
  0
VERTEX
  5
6C5
  8
1
  6
CONTINUOUS
 62
     7
 10
-355.1513684040812
 20
403.4163314278956
 30
0.0
  0
VERTEX
  5
6C6
  8
1
  6
CONTINUOUS
 62
     7
 10
-355.1673958449643
 20
403.3977480380017
 30
0.0
  0
VERTEX
  5
6C7
  8
1
  6
CONTINUOUS
 62
     7
 10
-355.1843158318747
 20
403.3799736203779
 30
0.0
  0
VERTEX
  5
6C8
  8
1
  6
CONTINUOUS
 62
     7
 10
-355.2020876070331
 20
403.3630509910022
 30
0.0
  0
VERTEX
  5
6C9
  8
1
  6
CONTINUOUS
 62
     7
 10
-355.2206683608269
 20
403.347020914019
 30
0.0
  0
VERTEX
  5
6CA
  8
1
  6
CONTINUOUS
 62
     7
 10
-355.240013334932
 20
403.3319220035443
 30
0.0
  0
VERTEX
  5
6CB
  8
1
  6
CONTINUOUS
 62
     7
 10
-355.2600759301291
 20
403.3177906306498
 30
0.0
  0
VERTEX
  5
6CC
  8
1
  6
CONTINUOUS
 62
     7
 10
-355.2808078185543
 20
403.3046608357504
 30
0.0
  0
VERTEX
  5
6CD
  8
1
  6
CONTINUOUS
 62
     7
 10
-355.302159060114
 20
403.292564246606
 30
0.0
  0
VERTEX
  5
6CE
  8
1
  6
CONTINUOUS
 62
     7
 10
-355.3240782227834
 20
403.2815300021342
 30
0.0
  0
VERTEX
  5
6CF
  8
1
  6
CONTINUOUS
 62
     7
 10
-355.3465125064987
 20
403.2715846822196
 30
0.0
  0
VERTEX
  5
6D0
  8
1
  6
CONTINUOUS
 62
     7
 10
-355.3694078703444
 20
403.2627522436865
 30
0.0
  0
VERTEX
  5
6D1
  8
1
  6
CONTINUOUS
 62
     7
 10
-355.3927091627306
 20
403.2550539625902
 30
0.0
  0
VERTEX
  5
6D2
  8
1
  6
CONTINUOUS
 62
     7
 10
-355.4163602542445
 20
403.2485083829664
 30
0.0
  0
VERTEX
  5
6D3
  8
1
  6
CONTINUOUS
 62
     7
 10
-355.4403041728584
 20
403.2431312721611
 30
0.0
  0
VERTEX
  5
6D4
  8
1
  6
CONTINUOUS
 62
     7
 10
-355.4644832411669
 20
403.2389355828495
 30
0.0
  0
VERTEX
  5
6D5
  8
1
  6
CONTINUOUS
 62
     7
 10
-355.4888392153231
 20
403.2359314218348
 30
0.0
  0
VERTEX
  5
6D6
  8
1
  6
CONTINUOUS
 62
     7
 10
-355.5133134253398
 20
403.2341260257025
 30
0.0
  0
VERTEX
  5
6D7
  8
1
  6
CONTINUOUS
 62
     7
 10
-355.5378469164172
 20
403.2335237433883
 30
0.0
  0
SEQEND
  5
99F
  8
1
  6
CONTINUOUS
 62
     7
  0
LINE
  5
22C
  8
1
  6
CONTINUOUS
 62
     7
 10
-355.0388178326071
 20
415.7322100840244
 30
0.0
 11
-355.037904035446
 21
403.7335427854813
 31
0.0
  0
LINE
  5
22D
  8
1
  6
CONTINUOUS
 62
     7
 10
-322.502956489702
 20
403.207341145996
 30
0.0
 11
-322.5289486770395
 21
403.2333333333335
 31
0.0
  0
LINE
  5
22E
  8
1
  6
CONTINUOUS
 62
     7
 10
-348.0116833574928
 20
403.207341145996
 30
0.0
 11
-348.0376755448302
 21
403.2333333333335
 31
0.0
  0
LINE
  5
22F
  8
1
  6
CONTINUOUS
 62
     7
 10
-348.0376755448302
 20
406.2246064655427
 30
0.0
 11
-348.0376755448302
 21
403.2333333333335
 31
0.0
  0
LINE
  5
230
  8
1
  6
CONTINUOUS
 62
     7
 10
-348.020486727436
 20
406.2074176481485
 30
0.0
 11
-348.0376755448302
 21
406.2246064655427
 31
0.0
  0
LINE
  5
231
  8
1
  6
CONTINUOUS
 62
     7
 10
-348.0118363472592
 20
405.2161822605827
 30
0.0
 11
-348.020486727436
 21
406.2074176481485
 31
0.0
  0
LINE
  5
232
  8
1
  6
CONTINUOUS
 62
     7
 10
-327.0636677321676
 20
403.207341145996
 30
0.0
 11
-327.0376755448302
 21
403.2333333333335
 31
0.0
  0
LINE
  5
233
  8
1
  6
CONTINUOUS
 62
     7
 10
-352.546402412621
 20
403.2333333333335
 30
0.0
 11
-352.546402412621
 21
406.2246064655427
 31
0.0
  0
LINE
  5
234
  8
1
  6
CONTINUOUS
 62
     7
 10
-352.5723945999584
 20
403.207341145996
 30
0.0
 11
-352.5464024126209
 21
403.2333333333335
 31
0.0
  0
LINE
  5
235
  8
1
  6
CONTINUOUS
 62
     7
 10
-352.5376755448302
 20
415.7333333333335
 30
0.0
 11
-352.5714380713777
 21
415.767095859881
 31
0.0
  0
LINE
  5
236
  8
1
  6
CONTINUOUS
 62
     7
 10
-352.5376755448302
 20
406.2333333333335
 30
0.0
 11
-352.5376755448302
 21
415.7333333333335
 31
0.0
  0
LINE
  5
237
  8
1
  6
CONTINUOUS
 62
     7
 10
-352.5376755448302
 20
406.2333333333335
 30
0.0
 11
-352.5464024126209
 21
406.2246064655427
 31
0.0
  0
LINE
  5
238
  8
1
  6
CONTINUOUS
 62
     7
 10
-330.8621605834209
 20
403.2333333333335
 30
0.0
 11
-332.0847170294908
 21
403.207341145996
 31
0.0
  0
LINE
  5
239
  8
1
  6
CONTINUOUS
 62
     7
 10
-329.0116833574928
 20
403.207341145996
 30
0.0
 11
-329.0376755448302
 21
403.2333333333335
 31
0.0
  0
LINE
  5
23A
  8
1
  6
CONTINUOUS
 62
     7
 10
-346.0376755448302
 20
403.2333333333335
 30
0.0
 11
-346.0376755448302
 21
406.2246064655427
 31
0.0
  0
LINE
  5
23B
  8
1
  6
CONTINUOUS
 62
     7
 10
-346.0636677321677
 20
403.207341145996
 30
0.0
 11
-346.0376755448302
 21
403.2333333333335
 31
0.0
  0
LINE
  5
23C
  8
1
  6
CONTINUOUS
 62
     7
 10
-346.0548643622244
 20
406.2074176481485
 30
0.0
 11
-346.0635147424013
 21
405.2161822605827
 31
0.0
  0
LINE
  5
23D
  8
1
  6
CONTINUOUS
 62
     7
 10
-346.0548643622244
 20
406.2074176481485
 30
0.0
 11
-346.0376755448302
 21
406.2246064655427
 31
0.0
  0
LINE
  5
23E
  8
1
  6
CONTINUOUS
 62
     7
 10
-342.0376755448302
 20
403.323153612209
 30
0.0
 11
-342.0376755448302
 21
403.2333333333335
 31
0.0
  0
LINE
  5
23F
  8
1
  6
CONTINUOUS
 62
     7
 10
-344.2131905062395
 20
403.2333333333335
 30
0.0
 11
-344.2131905062395
 21
405.4088482947428
 31
0.0
  0
LINE
  5
240
  8
1
  6
CONTINUOUS
 62
     7
 10
-342.9906340601697
 20
403.207341145996
 30
0.0
 11
-344.2131905062395
 21
403.2333333333335
 31
0.0
  0
LINE
  5
241
  8
1
  6
CONTINUOUS
 62
     7
 10
-348.0376755448302
 20
403.2333333333335
 30
0.0
 11
-352.546402412621
 21
403.2333333333335
 31
0.0
  0
LINE
  5
242
  8
1
  6
CONTINUOUS
 62
     7
 10
-344.2131905062395
 20
403.2333333333335
 30
0.0
 11
-346.0376755448302
 21
403.2333333333335
 31
0.0
  0
LINE
  5
243
  8
1
  6
CONTINUOUS
 62
     9
 10
-355.5378469164172
 20
403.2335237433883
 30
0.0
 11
-355.5638371097346
 21
403.2595139367057
 31
0.0
  0
POLYLINE
  5
244
  8
1
  6
CONTINUOUS
 62
     7
 66
     1
 10
0.0
 20
0.0
 30
0.0
  0
VERTEX
  5
6D8
  8
1
  6
CONTINUOUS
 62
     7
 10
-355.5638371097345
 20
403.2595139367057
 30
0.0
  0
VERTEX
  5
6D9
  8
1
  6
CONTINUOUS
 62
     7
 10
-355.4662936344835
 20
403.2691207337862
 30
0.0
  0
VERTEX
  5
6DA
  8
1
  6
CONTINUOUS
 62
     7
 10
-355.3724998011626
 20
403.2975719768836
 30
0.0
  0
VERTEX
  5
6DB
  8
1
  6
CONTINUOUS
 62
     7
 10
-355.2860597058302
 20
403.3437744063509
 30
0.0
  0
VERTEX
  5
6DC
  8
1
  6
CONTINUOUS
 62
     7
 10
-355.2102948718299
 20
403.4059526603331
 30
0.0
  0
VERTEX
  5
6DD
  8
1
  6
CONTINUOUS
 62
     7
 10
-355.1481166178477
 20
403.4817174943335
 30
0.0
  0
VERTEX
  5
6DE
  8
1
  6
CONTINUOUS
 62
     7
 10
-355.1019141883804
 20
403.5681575896659
 30
0.0
  0
VERTEX
  5
6DF
  8
1
  6
CONTINUOUS
 62
     7
 10
-355.073462945283
 20
403.6619514229868
 30
0.0
  0
VERTEX
  5
6E0
  8
1
  6
CONTINUOUS
 62
     7
 10
-355.0638561482025
 20
403.7594948982378
 30
0.0
  0
SEQEND
  5
9A0
  8
1
  6
CONTINUOUS
 62
     7
  0
LINE
  5
245
  8
1
  6
CONTINUOUS
 62
     9
 10
-355.0638561482025
 20
403.7594948982378
 30
0.0
 11
-355.037904035446
 21
403.7335427854813
 31
0.0
  0
LINE
  5
246
  8
1
  6
CONTINUOUS
 62
     9
 10
-372.5374470542144
 20
403.7335427854813
 30
0.0
 11
-372.511494941458
 21
403.7594948982378
 31
0.0
  0
POLYLINE
  5
247
  8
1
  6
CONTINUOUS
 62
     7
 66
     1
 10
0.0
 20
0.0
 30
0.0
  0
VERTEX
  5
6E1
  8
1
  6
CONTINUOUS
 62
     7
 10
-372.511494941458
 20
403.7594948982377
 30
0.0
  0
VERTEX
  5
6E2
  8
1
  6
CONTINUOUS
 62
     7
 10
-372.5018881443775
 20
403.6619514229867
 30
0.0
  0
VERTEX
  5
6E3
  8
1
  6
CONTINUOUS
 62
     7
 10
-372.4734369012801
 20
403.5681575896658
 30
0.0
  0
VERTEX
  5
6E4
  8
1
  6
CONTINUOUS
 62
     7
 10
-372.4272344718128
 20
403.4817174943334
 30
0.0
  0
VERTEX
  5
6E5
  8
1
  6
CONTINUOUS
 62
     7
 10
-372.3650562178306
 20
403.4059526603331
 30
0.0
  0
VERTEX
  5
6E6
  8
1
  6
CONTINUOUS
 62
     7
 10
-372.2892913838302
 20
403.3437744063509
 30
0.0
  0
VERTEX
  5
6E7
  8
1
  6
CONTINUOUS
 62
     7
 10
-372.2028512884978
 20
403.2975719768835
 30
0.0
  0
VERTEX
  5
6E8
  8
1
  6
CONTINUOUS
 62
     7
 10
-372.1090574551769
 20
403.2691207337862
 30
0.0
  0
VERTEX
  5
6E9
  8
1
  6
CONTINUOUS
 62
     7
 10
-372.0115139799259
 20
403.2595139367057
 30
0.0
  0
SEQEND
  5
9A1
  8
1
  6
CONTINUOUS
 62
     7
  0
LINE
  5
248
  8
1
  6
CONTINUOUS
 62
     9
 10
-372.0115139799258
 20
403.2595139367057
 30
0.0
 11
-372.0375041732432
 21
403.2335237433883
 31
0.0
  0
LINE
  5
249
  8
1
  6
CONTINUOUS
 62
     9
 10
-288.3878469164172
 20
403.2335237433883
 30
0.0
 11
-288.4138371097346
 21
403.2595139367057
 31
0.0
  0
POLYLINE
  5
24A
  8
1
  6
CONTINUOUS
 62
     7
 66
     1
 10
0.0
 20
0.0
 30
0.0
  0
VERTEX
  5
6EA
  8
1
  6
CONTINUOUS
 62
     7
 10
-288.4138371097346
 20
403.2595139367057
 30
0.0
  0
VERTEX
  5
6EB
  8
1
  6
CONTINUOUS
 62
     7
 10
-288.3162936344835
 20
403.2691207337862
 30
0.0
  0
VERTEX
  5
6EC
  8
1
  6
CONTINUOUS
 62
     7
 10
-288.2224998011627
 20
403.2975719768835
 30
0.0
  0
VERTEX
  5
6ED
  8
1
  6
CONTINUOUS
 62
     7
 10
-288.1360597058302
 20
403.3437744063509
 30
0.0
  0
VERTEX
  5
6EE
  8
1
  6
CONTINUOUS
 62
     7
 10
-288.0602948718299
 20
403.4059526603331
 30
0.0
  0
VERTEX
  5
6EF
  8
1
  6
CONTINUOUS
 62
     7
 10
-287.9981166178477
 20
403.4817174943334
 30
0.0
  0
VERTEX
  5
6F0
  8
1
  6
CONTINUOUS
 62
     7
 10
-287.9519141883804
 20
403.5681575896658
 30
0.0
  0
VERTEX
  5
6F1
  8
1
  6
CONTINUOUS
 62
     7
 10
-287.923462945283
 20
403.6619514229867
 30
0.0
  0
VERTEX
  5
6F2
  8
1
  6
CONTINUOUS
 62
     7
 10
-287.9138561482025
 20
403.7594948982377
 30
0.0
  0
SEQEND
  5
9A2
  8
1
  6
CONTINUOUS
 62
     7
  0
LINE
  5
24B
  8
1
  6
CONTINUOUS
 62
     9
 10
-287.9138561482025
 20
403.7594948982378
 30
0.0
 11
-287.887904035446
 21
403.7335427854813
 31
0.0
  0
LINE
  5
24C
  8
1
  6
CONTINUOUS
 62
     7
 10
-309.8710535879942
 20
403.2595139367057
 30
0.0
 11
-288.4138371097346
 21
403.2595139367057
 31
0.0
  0
LINE
  5
24D
  8
1
  6
CONTINUOUS
 62
     7
 10
-355.5638371097346
 20
403.2595139367057
 30
0.0
 11
-372.0115139799259
 21
403.2595139367057
 31
0.0
  0
LINE
  5
24E
  8
1
  6
CONTINUOUS
 62
     7
 10
-287.9138561482025
 20
403.7594948982378
 30
0.0
 11
-287.9138561482025
 21
408.2849639553754
 31
0.0
  0
LINE
  5
24F
  8
1
  6
CONTINUOUS
 62
     9
 10
-287.888257131828
 20
408.3698955686685
 30
0.0
 11
-287.9138561482025
 21
408.2849639553754
 31
0.0
  0
LINE
  5
250
  8
1
  6
CONTINUOUS
 62
     9
 10
-372.511494941458
 20
415.7071717684291
 30
0.0
 11
-372.5365332570533
 21
415.7322100840244
 31
0.0
  0
LINE
  5
251
  8
1
  6
CONTINUOUS
 62
     7
 10
-372.511494941458
 20
403.7594948982378
 30
0.0
 11
-372.511494941458
 21
415.7071717684291
 31
0.0
  0
LINE
  5
252
  8
1
  6
CONTINUOUS
 62
     9
 10
-355.0388178326071
 20
415.7322100840244
 30
0.0
 11
-355.0638561482024
 21
415.7071717684291
 31
0.0
  0
LINE
  5
253
  8
1
  6
CONTINUOUS
 62
     7
 10
-355.0638561482025
 20
415.7071717684291
 30
0.0
 11
-355.0638561482025
 21
403.7594948982378
 31
0.0
  0
POLYLINE
  5
254
  8
1
  6
CONTINUOUS
 62
     7
 66
     1
 10
0.0
 20
0.0
 30
0.0
  0
VERTEX
  5
6F3
  8
1
  6
CONTINUOUS
 62
     7
 10
-287.9138561482025
 20
408.2849639553754
 30
0.0
  0
VERTEX
  5
6F4
  8
1
  6
CONTINUOUS
 62
     7
 10
-287.9140318186053
 20
408.298220821032
 30
0.0
  0
VERTEX
  5
6F5
  8
1
  6
CONTINUOUS
 62
     7
 10
-287.9145585882428
 20
408.311468381529
 30
0.0
  0
VERTEX
  5
6F6
  8
1
  6
CONTINUOUS
 62
     7
 10
-287.9165617639451
 20
408.3369245642371
 30
0.0
  0
VERTEX
  5
6F7
  8
1
  6
CONTINUOUS
 62
     7
 10
-287.9198602124742
 20
408.3622455068097
 30
0.0
  0
VERTEX
  5
6F8
  8
1
  6
CONTINUOUS
 62
     7
 10
-287.9240306578796
 20
408.3853533545184
 30
0.0
  0
VERTEX
  5
6F9
  8
1
  6
CONTINUOUS
 62
     7
 10
-287.9292801815715
 20
408.4082402000613
 30
0.0
  0
VERTEX
  5
6FA
  8
1
  6
CONTINUOUS
 62
     7
 10
-287.9351984539084
 20
408.4295368957922
 30
0.0
  0
VERTEX
  5
6FB
  8
1
  6
CONTINUOUS
 62
     7
 10
-287.9420512880663
 20
408.4505515056088
 30
0.0
  0
VERTEX
  5
6FC
  8
1
  6
CONTINUOUS
 62
     7
 10
-287.9466047710208
 20
408.4630031282268
 30
0.0
  0
VERTEX
  5
6FD
  8
1
  6
CONTINUOUS
 62
     7
 10
-287.9514866090643
 20
408.4753297160484
 30
0.0
  0
VERTEX
  5
6FE
  8
1
  6
CONTINUOUS
 62
     7
 10
-287.9618029361424
 20
408.4986881504265
 30
0.0
  0
VERTEX
  5
6FF
  8
1
  6
CONTINUOUS
 62
     7
 10
-287.9732972492772
 20
408.5214899869637
 30
0.0
  0
VERTEX
  5
700
  8
1
  6
CONTINUOUS
 62
     7
 10
-287.9848823615123
 20
408.541914754996
 30
0.0
  0
VERTEX
  5
701
  8
1
  6
CONTINUOUS
 62
     7
 10
-287.9974129864964
 20
408.5617734901393
 30
0.0
  0
VERTEX
  5
702
  8
1
  6
CONTINUOUS
 62
     7
 10
-288.010048699887
 20
408.579910191749
 30
0.0
  0
VERTEX
  5
703
  8
1
  6
CONTINUOUS
 62
     7
 10
-288.023473260938
 20
408.5974710095711
 30
0.0
  0
VERTEX
  5
704
  8
1
  6
CONTINUOUS
 62
     7
 10
-288.0318901562405
 20
408.6077094174371
 30
0.0
  0
VERTEX
  5
705
  8
1
  6
CONTINUOUS
 62
     7
 10
-288.0405754379399
 20
408.6177211606071
 30
0.0
  0
VERTEX
  5
706
  8
1
  6
CONTINUOUS
 62
     7
 10
-288.0580388664358
 20
408.6363403211948
 30
0.0
  0
VERTEX
  5
707
  8
1
  6
CONTINUOUS
 62
     7
 10
-288.0764293597723
 20
408.6540443932093
 30
0.0
  0
VERTEX
  5
708
  8
1
  6
CONTINUOUS
 62
     7
 10
-288.094118767546
 20
408.6694760593559
 30
0.0
  0
VERTEX
  5
709
  8
1
  6
CONTINUOUS
 62
     7
 10
-288.1125127709853
 20
408.6840607111706
 30
0.0
  0
VERTEX
  5
70A
  8
1
  6
CONTINUOUS
 62
     7
 10
-288.13043593255
 20
408.6969861412921
 30
0.0
  0
VERTEX
  5
70B
  8
1
  6
CONTINUOUS
 62
     7
 10
-288.1489126057269
 20
408.7091071557276
 30
0.0
  0
VERTEX
  5
70C
  8
1
  6
CONTINUOUS
 62
     7
 10
-288.1642786266878
 20
408.7183293153673
 30
0.0
  0
VERTEX
  5
70D
  8
1
  6
CONTINUOUS
 62
     7
 10
-288.1799652832523
 20
408.7269948579718
 30
0.0
  0
VERTEX
  5
70E
  8
1
  6
CONTINUOUS
 62
     7
 10
-288.2004872834185
 20
408.7372586200091
 30
0.0
  0
VERTEX
  5
70F
  8
1
  6
CONTINUOUS
 62
     7
 10
-288.2214694786957
 20
408.7465753189604
 30
0.0
  0
VERTEX
  5
710
  8
1
  6
CONTINUOUS
 62
     7
 10
-288.2428455974966
 20
408.7549155113255
 30
0.0
  0
VERTEX
  5
711
  8
1
  6
CONTINUOUS
 62
     7
 10
-288.263024675453
 20
408.7617739475479
 30
0.0
  0
VERTEX
  5
712
  8
1
  6
CONTINUOUS
 62
     7
 10
-288.2834869538854
 20
408.7677691389233
 30
0.0
  0
VERTEX
  5
713
  8
1
  6
CONTINUOUS
 62
     7
 10
-288.3041766591651
 20
408.7728847456791
 30
0.0
  0
VERTEX
  5
714
  8
1
  6
CONTINUOUS
 62
     7
 10
-288.3246025618236
 20
408.7770288524063
 30
0.0
  0
VERTEX
  5
715
  8
1
  6
CONTINUOUS
 62
     7
 10
-288.3451834239211
 20
408.7803181139979
 30
0.0
  0
VERTEX
  5
716
  8
1
  6
CONTINUOUS
 62
     7
 10
-288.3661046597988
 20
408.7827657046599
 30
0.0
  0
VERTEX
  5
717
  8
1
  6
CONTINUOUS
 62
     7
 10
-288.3871291413514
 20
408.7843309924337
 30
0.0
  0
VERTEX
  5
718
  8
1
  6
CONTINUOUS
 62
     7
 10
-288.4082008427366
 20
408.7850110123177
 30
0.0
  0
VERTEX
  5
719
  8
1
  6
CONTINUOUS
 62
     7
 10
-288.429263738112
 20
408.7848027993106
 30
0.0
  0
VERTEX
  5
71A
  8
1
  6
CONTINUOUS
 62
     7
 10
-288.4505459952967
 20
408.7836872140574
 30
0.0
  0
VERTEX
  5
71B
  8
1
  6
CONTINUOUS
 62
     7
 10
-288.471761398096
 20
408.7816659009775
 30
0.0
  0
VERTEX
  5
71C
  8
1
  6
CONTINUOUS
 62
     7
 10
-288.4895182617505
 20
408.7792676933281
 30
0.0
  0
VERTEX
  5
71D
  8
1
  6
CONTINUOUS
 62
     7
 10
-288.5071778087108
 20
408.7762348698505
 30
0.0
  0
VERTEX
  5
71E
  8
1
  6
CONTINUOUS
 62
     7
 10
-288.5296105982483
 20
408.7714299793746
 30
0.0
  0
VERTEX
  5
71F
  8
1
  6
CONTINUOUS
 62
     7
 10
-288.5518112561464
 20
408.7655987510028
 30
0.0
  0
VERTEX
  5
720
  8
1
  6
CONTINUOUS
 62
     7
 10
-288.5737097431359
 20
408.7587596408053
 30
0.0
  0
VERTEX
  5
721
  8
1
  6
CONTINUOUS
 62
     7
 10
-288.5937481294104
 20
408.7515119241313
 30
0.0
  0
VERTEX
  5
722
  8
1
  6
CONTINUOUS
 62
     7
 10
-288.6134687287731
 20
408.7434139361
 30
0.0
  0
VERTEX
  5
723
  8
1
  6
CONTINUOUS
 62
     7
 10
-288.6328178859757
 20
408.7344877642156
 30
0.0
  0
VERTEX
  5
724
  8
1
  6
CONTINUOUS
 62
     7
 10
-288.6487859348694
 20
408.7263463579596
 30
0.0
  0
VERTEX
  5
725
  8
1
  6
CONTINUOUS
 62
     7
 10
-288.664452091926
 20
408.717638165404
 30
0.0
  0
VERTEX
  5
726
  8
1
  6
CONTINUOUS
 62
     7
 10
-288.6840374945657
 20
408.7056773721775
 30
0.0
  0
VERTEX
  5
727
  8
1
  6
CONTINUOUS
 62
     7
 10
-288.7030641290654
 20
408.6928246920639
 30
0.0
  0
VERTEX
  5
728
  8
1
  6
CONTINUOUS
 62
     7
 10
-288.721472007232
 20
408.6791207237413
 30
0.0
  0
VERTEX
  5
729
  8
1
  6
CONTINUOUS
 62
     7
 10
-288.7379887973267
 20
408.6656468398844
 30
0.0
  0
VERTEX
  5
72A
  8
1
  6
CONTINUOUS
 62
     7
 10
-288.7539242609385
 20
408.6514755951512
 30
0.0
  0
VERTEX
  5
72B
  8
1
  6
CONTINUOUS
 62
     7
 10
-288.7692350672089
 20
408.6366455846957
 30
0.0
  0
VERTEX
  5
72C
  8
1
  6
CONTINUOUS
 62
     7
 10
-288.7853066596829
 20
408.6196203381059
 30
0.0
  0
VERTEX
  5
72D
  8
1
  6
CONTINUOUS
 62
     7
 10
-288.8005646347243
 20
408.6018622598826
 30
0.0
  0
VERTEX
  5
72E
  8
1
  6
CONTINUOUS
 62
     7
 10
-288.8150402451923
 20
408.5833213688206
 30
0.0
  0
VERTEX
  5
72F
  8
1
  6
CONTINUOUS
 62
     7
 10
-288.8286289898679
 20
408.5641210044893
 30
0.0
  0
SEQEND
  5
9A3
  8
1
  6
CONTINUOUS
 62
     7
  0
LINE
  5
255
  8
1
  6
CONTINUOUS
 62
     9
 10
-288.8286289898679
 20
408.5641210044893
 30
0.0
 11
-288.8068550225527
 21
408.6432451916548
 31
0.0
  0
LINE
  5
256
  8
1
  6
CONTINUOUS
 62
     9
 10
-348.020486727436
 20
406.2074176481485
 30
0.0
 11
-346.0548643622244
 21
406.2074176481485
 31
0.0
  0
LINE
  5
257
  8
1
  6
CONTINUOUS
 62
     7
 10
-322.0376755448302
 20
418.7085206913706
 30
0.0
 11
-317.0503508919329
 21
418.7085206913706
 31
0.0
  0
LINE
  5
258
  8
1
  6
CONTINUOUS
 62
     7
 10
-302.0376755448302
 20
418.7085206913706
 30
0.0
 11
-293.5621835713065
 21
418.7085206913706
 31
0.0
  0
LINE
  5
259
  8
1
  6
CONTINUOUS
 62
     9
 10
-299.188513285266
 20
411.7333333333335
 30
0.0
 11
-299.2138561482025
 21
411.7333333333335
 31
0.0
  0
ARC
  5
25A
  8
1
  6
CONTINUOUS
 62
     7
 10
-293.5376755448302
 20
411.7333333333335
 30
0.0
 40
5.676180603372279
 50
180.0
 51
326.0592453494596
  0
LINE
  5
25B
  8
1
  6
CONTINUOUS
 62
     7
 10
-334.6789167105264
 20
410.2246064655427
 30
0.0
 11
-339.396434379134
 21
410.2246064655427
 31
0.0
  0
LINE
  5
25C
  8
1
  6
CONTINUOUS
 62
     7
 10
-334.6733574613228
 20
410.2333333333335
 30
0.0
 11
-339.4019936283376
 21
410.2333333333335
 31
0.0
  0
LINE
  5
25D
  8
1
  6
CONTINUOUS
 62
     7
 10
-299.2138561482025
 20
411.7333333333335
 30
0.0
 11
-299.2138561482025
 21
415.7071717684291
 31
0.0
  0
LINE
  5
25E
  8
1
  6
CONTINUOUS
 62
     9
 10
-299.1888178326071
 20
415.7322100840244
 30
0.0
 11
-299.2138561482025
 21
415.7071717684291
 31
0.0
  0
LINE
  5
25F
  8
1
  6
CONTINUOUS
 62
     9
 10
-372.0365142207602
 20
416.2321529707955
 30
0.0
 11
-372.0115139799259
 21
416.2071527299611
 31
0.0
  0
POLYLINE
  5
260
  8
1
  6
CONTINUOUS
 62
     7
 66
     1
 10
0.0
 20
0.0
 30
0.0
  0
VERTEX
  5
730
  8
1
  6
CONTINUOUS
 62
     7
 10
-372.0115139799259
 20
416.2071527299611
 30
0.0
  0
VERTEX
  5
731
  8
1
  6
CONTINUOUS
 62
     7
 10
-372.1090574551769
 20
416.1975459328806
 30
0.0
  0
VERTEX
  5
732
  8
1
  6
CONTINUOUS
 62
     7
 10
-372.2028512884978
 20
416.1690946897833
 30
0.0
  0
VERTEX
  5
733
  8
1
  6
CONTINUOUS
 62
     7
 10
-372.2892913838302
 20
416.122892260316
 30
0.0
  0
VERTEX
  5
734
  8
1
  6
CONTINUOUS
 62
     7
 10
-372.3650562178306
 20
416.0607140063337
 30
0.0
  0
VERTEX
  5
735
  8
1
  6
CONTINUOUS
 62
     7
 10
-372.4272344718128
 20
415.9849491723334
 30
0.0
  0
VERTEX
  5
736
  8
1
  6
CONTINUOUS
 62
     7
 10
-372.4734369012801
 20
415.898509077001
 30
0.0
  0
VERTEX
  5
737
  8
1
  6
CONTINUOUS
 62
     7
 10
-372.5018881443775
 20
415.8047152436801
 30
0.0
  0
VERTEX
  5
738
  8
1
  6
CONTINUOUS
 62
     7
 10
-372.511494941458
 20
415.7071717684291
 30
0.0
  0
SEQEND
  5
9A4
  8
1
  6
CONTINUOUS
 62
     7
  0
POLYLINE
  5
261
  8
1
  6
CONTINUOUS
 62
     7
 66
     1
 10
0.0
 20
0.0
 30
0.0
  0
VERTEX
  5
739
  8
1
  6
CONTINUOUS
 62
     7
 10
-299.2138561482025
 20
415.7071717684291
 30
0.0
  0
VERTEX
  5
73A
  8
1
  6
CONTINUOUS
 62
     7
 10
-299.223462945283
 20
415.8047152436801
 30
0.0
  0
VERTEX
  5
73B
  8
1
  6
CONTINUOUS
 62
     7
 10
-299.2519141883803
 20
415.898509077001
 30
0.0
  0
VERTEX
  5
73C
  8
1
  6
CONTINUOUS
 62
     7
 10
-299.2981166178477
 20
415.9849491723334
 30
0.0
  0
VERTEX
  5
73D
  8
1
  6
CONTINUOUS
 62
     7
 10
-299.3602948718299
 20
416.0607140063337
 30
0.0
  0
VERTEX
  5
73E
  8
1
  6
CONTINUOUS
 62
     7
 10
-299.4360597058302
 20
416.122892260316
 30
0.0
  0
VERTEX
  5
73F
  8
1
  6
CONTINUOUS
 62
     7
 10
-299.5224998011626
 20
416.1690946897833
 30
0.0
  0
VERTEX
  5
740
  8
1
  6
CONTINUOUS
 62
     7
 10
-299.6162936344835
 20
416.1975459328806
 30
0.0
  0
VERTEX
  5
741
  8
1
  6
CONTINUOUS
 62
     7
 10
-299.7138371097345
 20
416.2071527299611
 30
0.0
  0
SEQEND
  5
9A5
  8
1
  6
CONTINUOUS
 62
     7
  0
LINE
  5
262
  8
1
  6
CONTINUOUS
 62
     9
 10
-299.7138371097346
 20
416.2071527299611
 30
0.0
 11
-299.6888368689003
 21
416.2321529707955
 31
0.0
  0
POLYLINE
  5
263
  8
1
  6
CONTINUOUS
 62
     7
 66
     1
 10
0.0
 20
0.0
 30
0.0
  0
VERTEX
  5
742
  8
1
  6
CONTINUOUS
 62
     7
 10
-355.0638561482025
 20
415.7071717684291
 30
0.0
  0
VERTEX
  5
743
  8
1
  6
CONTINUOUS
 62
     7
 10
-355.073462945283
 20
415.8047152436801
 30
0.0
  0
VERTEX
  5
744
  8
1
  6
CONTINUOUS
 62
     7
 10
-355.1019141883804
 20
415.898509077001
 30
0.0
  0
VERTEX
  5
745
  8
1
  6
CONTINUOUS
 62
     7
 10
-355.1481166178477
 20
415.9849491723334
 30
0.0
  0
VERTEX
  5
746
  8
1
  6
CONTINUOUS
 62
     7
 10
-355.2102948718299
 20
416.0607140063337
 30
0.0
  0
VERTEX
  5
747
  8
1
  6
CONTINUOUS
 62
     7
 10
-355.2860597058302
 20
416.122892260316
 30
0.0
  0
VERTEX
  5
748
  8
1
  6
CONTINUOUS
 62
     7
 10
-355.3724998011626
 20
416.1690946897833
 30
0.0
  0
VERTEX
  5
749
  8
1
  6
CONTINUOUS
 62
     7
 10
-355.4662936344835
 20
416.1975459328806
 30
0.0
  0
VERTEX
  5
74A
  8
1
  6
CONTINUOUS
 62
     7
 10
-355.5638371097345
 20
416.2071527299611
 30
0.0
  0
SEQEND
  5
9A6
  8
1
  6
CONTINUOUS
 62
     7
  0
LINE
  5
264
  8
1
  6
CONTINUOUS
 62
     9
 10
-355.5638371097346
 20
416.2071527299611
 30
0.0
 11
-355.5388368689003
 21
416.2321529707955
 31
0.0
  0
LINE
  5
265
  8
1
  6
CONTINUOUS
 62
     7
 10
-351.0376755448302
 20
415.7333333333335
 30
0.0
 11
-351.0714380713777
 21
415.767095859881
 31
0.0
  0
LINE
  5
266
  8
1
  6
CONTINUOUS
 62
     7
 10
-352.5376755448302
 20
415.7333333333335
 30
0.0
 11
-351.0376755448302
 21
415.7333333333335
 31
0.0
  0
LINE
  5
267
  8
1
  6
CONTINUOUS
 62
     7
 10
-351.0376755448302
 20
415.7333333333335
 30
0.0
 11
-351.0376755448302
 21
416.7333333333335
 31
0.0
  0
LINE
  5
268
  8
1
  6
CONTINUOUS
 62
     7
 10
-351.0712686133801
 20
416.7221356438168
 30
0.0
 11
-351.0713670329346
 21
416.6998703097438
 31
0.0
  0
LINE
  5
269
  8
1
  6
CONTINUOUS
 62
     7
 10
-351.0376755448302
 20
416.7333333333335
 30
0.0
 11
-351.0712686133801
 21
416.7221356438168
 31
0.0
  0
LINE
  5
26A
  8
1
  6
CONTINUOUS
 62
     7
 10
-299.7138371097346
 20
416.2071527299611
 30
0.0
 11
-302.0376755448302
 21
416.2071527299611
 31
0.0
  0
LINE
  5
26B
  8
1
  6
CONTINUOUS
 62
     7
 10
-372.0115139799259
 20
416.2071527299611
 30
0.0
 11
-355.5638371097346
 21
416.2071527299611
 31
0.0
  0
LINE
  5
26C
  8
1
  6
CONTINUOUS
 62
     7
 10
-352.5500818658116
 20
418.7085206913706
 30
0.0
 11
-351.0712686133802
 21
416.7221356438168
 31
0.0
  0
LINE
  5
26D
  8
1
  6
CONTINUOUS
 62
     7
 10
-351.0376755448302
 20
416.7333333333335
 30
0.0
 11
-352.5376755448302
 21
418.7333333333335
 31
0.0
  0
LINE
  5
26E
  8
1
  6
CONTINUOUS
 62
     7
 10
-332.2877701551685
 20
398.2430410562669
 30
0.0
 11
-332.2876755448302
 21
398.2333142941405
 31
0.0
  0
POLYLINE
  5
26F
  8
1
  6
CONTINUOUS
 62
     7
 66
     1
 10
0.0
 20
0.0
 30
0.0
  0
VERTEX
  5
74B
  8
1
  6
CONTINUOUS
 62
     7
 10
-329.6304073275544
 20
398.7616460284207
 30
0.0
  0
VERTEX
  5
74C
  8
1
  6
CONTINUOUS
 62
     7
 10
-329.6335247593561
 20
398.7616083264147
 30
0.0
  0
VERTEX
  5
74D
  8
1
  6
CONTINUOUS
 62
     7
 10
-329.6632048581558
 20
398.7602743455121
 30
0.0
  0
VERTEX
  5
74E
  8
1
  6
CONTINUOUS
 62
     7
 10
-329.6927583487142
 20
398.7571817959156
 30
0.0
  0
VERTEX
  5
74F
  8
1
  6
CONTINUOUS
 62
     7
 10
-329.7220583603899
 20
398.7523479528999
 30
0.0
  0
VERTEX
  5
750
  8
1
  6
CONTINUOUS
 62
     7
 10
-329.751128827952
 20
398.7457634687157
 30
0.0
  0
VERTEX
  5
751
  8
1
  6
CONTINUOUS
 62
     7
 10
-329.7769387242504
 20
398.7383679470432
 30
0.0
  0
VERTEX
  5
752
  8
1
  6
CONTINUOUS
 62
     7
 10
-329.8025109505542
 20
398.729535431929
 30
0.0
  0
VERTEX
  5
753
  8
1
  6
CONTINUOUS
 62
     7
 10
-329.8277200491464
 20
398.7192798081469
 30
0.0
  0
VERTEX
  5
754
  8
1
  6
CONTINUOUS
 62
     7
 10
-329.8526731069664
 20
398.707513072293
 30
0.0
  0
VERTEX
  5
755
  8
1
  6
CONTINUOUS
 62
     7
 10
-329.8771732770136
 20
398.6942722068869
 30
0.0
  0
VERTEX
  5
756
  8
1
  6
CONTINUOUS
 62
     7
 10
-329.9013245078556
 20
398.6794320300833
 30
0.0
  0
VERTEX
  5
757
  8
1
  6
CONTINUOUS
 62
     7
 10
-329.9249125247279
 20
398.6630390345431
 30
0.0
  0
VERTEX
  5
758
  8
1
  6
CONTINUOUS
 62
     7
 10
-329.9479705747142
 20
398.6449740927112
 30
0.0
  0
VERTEX
  5
759
  8
1
  6
CONTINUOUS
 62
     7
 10
-329.9681379905716
 20
398.6272897961665
 30
0.0
  0
VERTEX
  5
75A
  8
1
  6
CONTINUOUS
 62
     7
 10
-329.9876725067002
 20
398.6082246463794
 30
0.0
  0
VERTEX
  5
75B
  8
1
  6
CONTINUOUS
 62
     7
 10
-330.0066129178164
 20
398.5876094523787
 30
0.0
  0
VERTEX
  5
75C
  8
1
  6
CONTINUOUS
 62
     7
 10
-330.0247546969118
 20
398.5655075989239
 30
0.0
  0
VERTEX
  5
75D
  8
1
  6
CONTINUOUS
 62
     7
 10
-330.0364425741742
 20
398.5498043083119
 30
0.0
  0
VERTEX
  5
75E
  8
1
  6
CONTINUOUS
 62
     7
 10
-330.0476949000452
 20
398.5333894612423
 30
0.0
  0
VERTEX
  5
75F
  8
1
  6
CONTINUOUS
 62
     7
 10
-330.0584632788248
 20
398.5162650740402
 30
0.0
  0
VERTEX
  5
760
  8
1
  6
CONTINUOUS
 62
     7
 10
-330.0698093529739
 20
398.4963940495233
 30
0.0
  0
VERTEX
  5
761
  8
1
  6
CONTINUOUS
 62
     7
 10
-330.0769147298142
 20
398.4827808225625
 30
0.0
  0
VERTEX
  5
762
  8
1
  6
CONTINUOUS
 62
     7
 10
-330.083691975031
 20
398.4687694358623
 30
0.0
  0
VERTEX
  5
763
  8
1
  6
CONTINUOUS
 62
     7
 10
-330.0901141391026
 20
398.4543716020286
 30
0.0
  0
VERTEX
  5
764
  8
1
  6
CONTINUOUS
 62
     7
 10
-330.0960661839771
 20
398.4398252293651
 30
0.0
  0
VERTEX
  5
765
  8
1
  6
CONTINUOUS
 62
     7
 10
-330.1016327682124
 20
398.4249053030442
 30
0.0
  0
VERTEX
  5
766
  8
1
  6
CONTINUOUS
 62
     7
 10
-330.1067845510196
 20
398.4096354760862
 30
0.0
  0
VERTEX
  5
767
  8
1
  6
CONTINUOUS
 62
     7
 10
-330.1107946859785
 20
398.396472951558
 30
0.0
  0
VERTEX
  5
768
  8
1
  6
CONTINUOUS
 62
     7
 10
-330.1144791168408
 20
398.3830725517186
 30
0.0
  0
VERTEX
  5
769
  8
1
  6
CONTINUOUS
 62
     7
 10
-330.1178198569668
 20
398.3694582946836
 30
0.0
  0
VERTEX
  5
76A
  8
1
  6
CONTINUOUS
 62
     7
 10
-330.1208292980277
 20
398.3555074350353
 30
0.0
  0
VERTEX
  5
76B
  8
1
  6
CONTINUOUS
 62
     7
 10
-330.1234617283562
 20
398.3413626494545
 30
0.0
  0
VERTEX
  5
76C
  8
1
  6
CONTINUOUS
 62
     7
 10
-330.125701220754
 20
398.3270592878263
 30
0.0
  0
VERTEX
  5
76D
  8
1
  6
CONTINUOUS
 62
     7
 10
-330.1275532001234
 20
398.3124550405064
 30
0.0
  0
VERTEX
  5
76E
  8
1
  6
CONTINUOUS
 62
     7
 10
-330.1289826481096
 20
398.2977273291585
 30
0.0
  0
VERTEX
  5
76F
  8
1
  6
CONTINUOUS
 62
     7
 10
-330.1299794620609
 20
398.2829221876385
 30
0.0
  0
SEQEND
  5
9A7
  8
1
  6
CONTINUOUS
 62
     7
  0
LINE
  5
270
  8
1
  6
CONTINUOUS
 62
     7
 10
-330.1299794620609
 20
398.2829221876385
 30
0.0
 11
-330.1311279189727
 21
398.261008324325
 31
0.0
  0
LINE
  5
271
  8
1
  6
CONTINUOUS
 62
     9
 10
-330.1311279189727
 20
398.261008324325
 30
0.0
 11
-332.2876755448302
 21
398.2333142941406
 31
0.0
  0
POLYLINE
  5
272
  8
1
  6
CONTINUOUS
 62
     7
 66
     1
 10
0.0
 20
0.0
 30
0.0
  0
VERTEX
  5
770
  8
1
  6
CONTINUOUS
 62
     7
 10
-332.7876726158896
 20
398.7333333333334
 30
0.0
  0
VERTEX
  5
771
  8
1
  6
CONTINUOUS
 62
     7
 10
-332.7668203461599
 20
398.7328983109611
 30
0.0
  0
VERTEX
  5
772
  8
1
  6
CONTINUOUS
 62
     7
 10
-332.7459400180535
 20
398.7315886148214
 30
0.0
  0
VERTEX
  5
773
  8
1
  6
CONTINUOUS
 62
     7
 10
-332.7250962973656
 20
398.7294019346206
 30
0.0
  0
VERTEX
  5
774
  8
1
  6
CONTINUOUS
 62
     7
 10
-332.7042587033901
 20
398.7263260868696
 30
0.0
  0
VERTEX
  5
775
  8
1
  6
CONTINUOUS
 62
     7
 10
-332.6835324666458
 20
398.7223674975597
 30
0.0
  0
VERTEX
  5
776
  8
1
  6
CONTINUOUS
 62
     7
 10
-332.662888629548
 20
398.7175113534894
 30
0.0
  0
VERTEX
  5
777
  8
1
  6
CONTINUOUS
 62
     7
 10
-332.642432662356
 20
398.7117730212732
 30
0.0
  0
VERTEX
  5
778
  8
1
  6
CONTINUOUS
 62
     7
 10
-332.6221755995413
 20
398.705148620271
 30
0.0
  0
VERTEX
  5
779
  8
1
  6
CONTINUOUS
 62
     7
 10
-332.606291286723
 20
398.6992726397584
 30
0.0
  0
VERTEX
  5
77A
  8
1
  6
CONTINUOUS
 62
     7
 10
-332.5906150375714
 20
398.6928621987725
 30
0.0
  0
VERTEX
  5
77B
  8
1
  6
CONTINUOUS
 62
     7
 10
-332.5750940236616
 20
398.6858910308142
 30
0.0
  0
VERTEX
  5
77C
  8
1
  6
CONTINUOUS
 62
     7
 10
-332.5598191198376
 20
398.6783959411413
 30
0.0
  0
VERTEX
  5
77D
  8
1
  6
CONTINUOUS
 62
     7
 10
-332.5450106156328
 20
398.6704977591826
 30
0.0
  0
VERTEX
  5
77E
  8
1
  6
CONTINUOUS
 62
     7
 10
-332.5304754559222
 20
398.6621071568292
 30
0.0
  0
VERTEX
  5
77F
  8
1
  6
CONTINUOUS
 62
     7
 10
-332.516166141826
 20
398.6531919101847
 30
0.0
  0
VERTEX
  5
780
  8
1
  6
CONTINUOUS
 62
     7
 10
-332.5021654456148
 20
398.6437994345267
 30
0.0
  0
VERTEX
  5
781
  8
1
  6
CONTINUOUS
 62
     7
 10
-332.4885911396445
 20
398.634016159513
 30
0.0
  0
VERTEX
  5
782
  8
1
  6
CONTINUOUS
 62
     7
 10
-332.4753371241929
 20
398.6237724292827
 30
0.0
  0
VERTEX
  5
783
  8
1
  6
CONTINUOUS
 62
     7
 10
-332.4622930064729
 20
398.6129698209392
 30
0.0
  0
VERTEX
  5
784
  8
1
  6
CONTINUOUS
 62
     7
 10
-332.449622127832
 20
398.6017317521755
 30
0.0
  0
VERTEX
  5
785
  8
1
  6
CONTINUOUS
 62
     7
 10
-332.4372833323337
 20
398.5900159533916
 30
0.0
  0
VERTEX
  5
786
  8
1
  6
CONTINUOUS
 62
     7
 10
-332.4253501863638
 20
398.5778872335994
 30
0.0
  0
VERTEX
  5
787
  8
1
  6
CONTINUOUS
 62
     7
 10
-332.4139905711141
 20
398.5655325323354
 30
0.0
  0
VERTEX
  5
788
  8
1
  6
CONTINUOUS
 62
     7
 10
-332.403051874875
 20
398.5528036507055
 30
0.0
  0
VERTEX
  5
789
  8
1
  6
CONTINUOUS
 62
     7
 10
-332.3924999430902
 20
398.539654462298
 30
0.0
  0
VERTEX
  5
78A
  8
1
  6
CONTINUOUS
 62
     7
 10
-332.3823971841272
 20
398.5261571039429
 30
0.0
  0
VERTEX
  5
78B
  8
1
  6
CONTINUOUS
 62
     7
 10
-332.3730271656843
 20
398.5127307155718
 30
0.0
  0
SEQEND
  5
9A8
  8
1
  6
CONTINUOUS
 62
     7
  0
POLYLINE
  5
273
  8
1
  6
CONTINUOUS
 62
     7
 66
     1
 10
0.0
 20
0.0
 30
0.0
  0
VERTEX
  5
78C
  8
1
  6
CONTINUOUS
 62
     7
 10
-329.6318911330294
 20
398.7333333333334
 30
0.0
  0
VERTEX
  5
78D
  8
1
  6
CONTINUOUS
 62
     7
 10
-329.7262247835569
 20
398.7243535317146
 30
0.0
  0
VERTEX
  5
78E
  8
1
  6
CONTINUOUS
 62
     7
 10
-329.8171702449093
 20
398.697736661925
 30
0.0
  0
VERTEX
  5
78F
  8
1
  6
CONTINUOUS
 62
     7
 10
-329.9014609526681
 20
398.6544387444025
 30
0.0
  0
VERTEX
  5
790
  8
1
  6
CONTINUOUS
 62
     7
 10
-329.9760693667809
 20
398.5960149467683
 30
0.0
  0
VERTEX
  5
791
  8
1
  6
CONTINUOUS
 62
     7
 10
-330.038315714258
 20
398.524563725567
 30
0.0
  0
VERTEX
  5
792
  8
1
  6
CONTINUOUS
 62
     7
 10
-330.0859642408259
 20
398.4426514542424
 30
0.0
  0
VERTEX
  5
793
  8
1
  6
CONTINUOUS
 62
     7
 10
-330.1173035143892
 20
398.3532202445501
 30
0.0
  0
VERTEX
  5
794
  8
1
  6
CONTINUOUS
 62
     7
 10
-330.1312078959724
 20
398.259482272262
 30
0.0
  0
SEQEND
  5
9A9
  8
1
  6
CONTINUOUS
 62
     7
  0
POLYLINE
  5
274
  8
1
  6
CONTINUOUS
 62
     7
 66
     1
 10
0.0
 20
0.0
 30
0.0
  0
VERTEX
  5
795
  8
1
  6
CONTINUOUS
 62
     7
 10
-328.9453716275996
 20
398.2829221876385
 30
0.0
  0
VERTEX
  5
796
  8
1
  6
CONTINUOUS
 62
     7
 10
-328.9460578998118
 20
398.2937647062922
 30
0.0
  0
VERTEX
  5
797
  8
1
  6
CONTINUOUS
 62
     7
 10
-328.9469780920078
 20
398.3045785460856
 30
0.0
  0
VERTEX
  5
798
  8
1
  6
CONTINUOUS
 62
     7
 10
-328.9481353861481
 20
398.3153965108561
 30
0.0
  0
VERTEX
  5
799
  8
1
  6
CONTINUOUS
 62
     7
 10
-328.9495215628949
 20
398.3261484131134
 30
0.0
  0
VERTEX
  5
79A
  8
1
  6
CONTINUOUS
 62
     7
 10
-328.9511402264383
 20
398.3368709624119
 30
0.0
  0
VERTEX
  5
79B
  8
1
  6
CONTINUOUS
 62
     7
 10
-328.952980504867
 20
398.3475050208766
 30
0.0
  0
VERTEX
  5
79C
  8
1
  6
CONTINUOUS
 62
     7
 10
-328.9550522342098
 20
398.3581138797472
 30
0.0
  0
VERTEX
  5
79D
  8
1
  6
CONTINUOUS
 62
     7
 10
-328.9573372670193
 20
398.3686140127664
 30
0.0
  0
VERTEX
  5
79E
  8
1
  6
CONTINUOUS
 62
     7
 10
-328.9598398717235
 20
398.3790383807451
 30
0.0
  0
VERTEX
  5
79F
  8
1
  6
CONTINUOUS
 62
     7
 10
-328.9625446698922
 20
398.3893374535501
 30
0.0
  0
VERTEX
  5
7A0
  8
1
  6
CONTINUOUS
 62
     7
 10
-328.9654589619143
 20
398.3995515280414
 30
0.0
  0
VERTEX
  5
7A1
  8
1
  6
CONTINUOUS
 62
     7
 10
-328.9685665386407
 20
398.4096354760862
 30
0.0
  0
VERTEX
  5
7A2
  8
1
  6
CONTINUOUS
 62
     7
 10
-328.9724897804349
 20
398.4214072915835
 30
0.0
  0
VERTEX
  5
7A3
  8
1
  6
CONTINUOUS
 62
     7
 10
-328.9766601789981
 20
398.4329698316906
 30
0.0
  0
VERTEX
  5
7A4
  8
1
  6
CONTINUOUS
 62
     7
 10
-328.9810855029397
 20
398.4443646063074
 30
0.0
  0
VERTEX
  5
7A5
  8
1
  6
CONTINUOUS
 62
     7
 10
-328.9857375849557
 20
398.4555386881019
 30
0.0
  0
VERTEX
  5
7A6
  8
1
  6
CONTINUOUS
 62
     7
 10
-328.9904857999065
 20
398.4662273995954
 30
0.0
  0
VERTEX
  5
7A7
  8
1
  6
CONTINUOUS
 62
     7
 10
-328.9954300641029
 20
398.4767011330684
 30
0.0
  0
VERTEX
  5
7A8
  8
1
  6
CONTINUOUS
 62
     7
 10
-329.0005772651721
 20
398.4869900200513
 30
0.0
  0
VERTEX
  5
7A9
  8
1
  6
CONTINUOUS
 62
     7
 10
-329.0059035199399
 20
398.497061077896
 30
0.0
  0
VERTEX
  5
7AA
  8
1
  6
CONTINUOUS
 62
     7
 10
-329.0168878108356
 20
398.5162650740403
 30
0.0
  0
VERTEX
  5
7AB
  8
1
  6
CONTINUOUS
 62
     7
 10
-329.0247799045239
 20
398.5289617402616
 30
0.0
  0
VERTEX
  5
7AC
  8
1
  6
CONTINUOUS
 62
     7
 10
-329.0329463911222
 20
398.5412791622815
 30
0.0
  0
VERTEX
  5
7AD
  8
1
  6
CONTINUOUS
 62
     7
 10
-329.0413984617734
 20
398.5532573975202
 30
0.0
  0
VERTEX
  5
7AE
  8
1
  6
CONTINUOUS
 62
     7
 10
-329.0500877055597
 20
398.5648498795919
 30
0.0
  0
VERTEX
  5
7AF
  8
1
  6
CONTINUOUS
 62
     7
 10
-329.0590290263597
 20
398.5760974795813
 30
0.0
  0
VERTEX
  5
7B0
  8
1
  6
CONTINUOUS
 62
     7
 10
-329.0681818261787
 20
398.5869680628471
 30
0.0
  0
VERTEX
  5
7B1
  8
1
  6
CONTINUOUS
 62
     7
 10
-329.0871643617866
 20
398.6076942729894
 30
0.0
  0
VERTEX
  5
7B2
  8
1
  6
CONTINUOUS
 62
     7
 10
-329.1069154987181
 20
398.6270141678297
 30
0.0
  0
VERTEX
  5
7B3
  8
1
  6
CONTINUOUS
 62
     7
 10
-329.1273805149462
 20
398.6449740927112
 30
0.0
  0
VERTEX
  5
7B4
  8
1
  6
CONTINUOUS
 62
     7
 10
-329.1499526968403
 20
398.6626800886584
 30
0.0
  0
VERTEX
  5
7B5
  8
1
  6
CONTINUOUS
 62
     7
 10
-329.1731785341141
 20
398.6788762433335
 30
0.0
  0
VERTEX
  5
7B6
  8
1
  6
CONTINUOUS
 62
     7
 10
-329.1970606862105
 20
398.6936262320116
 30
0.0
  0
VERTEX
  5
7B7
  8
1
  6
CONTINUOUS
 62
     7
 10
-329.2214851673494
 20
398.7069081591764
 30
0.0
  0
VERTEX
  5
7B8
  8
1
  6
CONTINUOUS
 62
     7
 10
-329.2464965881149
 20
398.7187805805708
 30
0.0
  0
VERTEX
  5
7B9
  8
1
  6
CONTINUOUS
 62
     7
 10
-329.2719608924992
 20
398.7292040770399
 30
0.0
  0
VERTEX
  5
7BA
  8
1
  6
CONTINUOUS
 62
     7
 10
-329.2979045720438
 20
398.7382073822757
 30
0.0
  0
VERTEX
  5
7BB
  8
1
  6
CONTINUOUS
 62
     7
 10
-329.3242222617085
 20
398.7457634687157
 30
0.0
  0
VERTEX
  5
7BC
  8
1
  6
CONTINUOUS
 62
     7
 10
-329.3531439347977
 20
398.7523188373898
 30
0.0
  0
VERTEX
  5
7BD
  8
1
  6
CONTINUOUS
 62
     7
 10
-329.3824168596239
 20
398.757158048644
 30
0.0
  0
VERTEX
  5
7BE
  8
1
  6
CONTINUOUS
 62
     7
 10
-329.4119941584023
 20
398.7602629560571
 30
0.0
  0
VERTEX
  5
7BF
  8
1
  6
CONTINUOUS
 62
     7
 10
-329.4418263303043
 20
398.7616083264147
 30
0.0
  0
VERTEX
  5
7C0
  8
1
  6
CONTINUOUS
 62
     7
 10
-329.444943762106
 20
398.7616460284207
 30
0.0
  0
SEQEND
  5
9AA
  8
1
  6
CONTINUOUS
 62
     7
  0
POLYLINE
  5
275
  8
1
  6
CONTINUOUS
 62
     7
 66
     1
 10
0.0
 20
0.0
 30
0.0
  0
VERTEX
  5
7C1
  8
1
  6
CONTINUOUS
 62
     7
 10
-328.9441431936881
 20
398.259482272262
 30
0.0
  0
VERTEX
  5
7C2
  8
1
  6
CONTINUOUS
 62
     7
 10
-328.9580475752713
 20
398.3532202445501
 30
0.0
  0
VERTEX
  5
7C3
  8
1
  6
CONTINUOUS
 62
     7
 10
-328.9893868488345
 20
398.4426514542424
 30
0.0
  0
VERTEX
  5
7C4
  8
1
  6
CONTINUOUS
 62
     7
 10
-329.0370353754025
 20
398.524563725567
 30
0.0
  0
VERTEX
  5
7C5
  8
1
  6
CONTINUOUS
 62
     7
 10
-329.0992817228795
 20
398.5960149467683
 30
0.0
  0
VERTEX
  5
7C6
  8
1
  6
CONTINUOUS
 62
     7
 10
-329.1738901369924
 20
398.6544387444025
 30
0.0
  0
VERTEX
  5
7C7
  8
1
  6
CONTINUOUS
 62
     7
 10
-329.2581808447512
 20
398.697736661925
 30
0.0
  0
VERTEX
  5
7C8
  8
1
  6
CONTINUOUS
 62
     7
 10
-329.3491263061036
 20
398.7243535317146
 30
0.0
  0
VERTEX
  5
7C9
  8
1
  6
CONTINUOUS
 62
     7
 10
-329.443459956631
 20
398.7333333333334
 30
0.0
  0
SEQEND
  5
9AB
  8
1
  6
CONTINUOUS
 62
     7
  0
LINE
  5
276
  8
1
  6
CONTINUOUS
 62
     9
 10
-326.7886572299795
 20
398.2340720647508
 30
0.0
 11
-328.9442231706878
 21
398.261008324325
 31
0.0
  0
POLYLINE
  5
277
  8
1
  6
CONTINUOUS
 62
     7
 66
     1
 10
0.0
 20
0.0
 30
0.0
  0
VERTEX
  5
7CA
  8
1
  6
CONTINUOUS
 62
     7
 10
-326.2876784737708
 20
398.7333333333334
 30
0.0
  0
VERTEX
  5
7CB
  8
1
  6
CONTINUOUS
 62
     7
 10
-326.3085307435005
 20
398.7328983109611
 30
0.0
  0
VERTEX
  5
7CC
  8
1
  6
CONTINUOUS
 62
     7
 10
-326.3294110716069
 20
398.7315886148214
 30
0.0
  0
VERTEX
  5
7CD
  8
1
  6
CONTINUOUS
 62
     7
 10
-326.3502547922948
 20
398.7294019346206
 30
0.0
  0
VERTEX
  5
7CE
  8
1
  6
CONTINUOUS
 62
     7
 10
-326.3710923862703
 20
398.7263260868696
 30
0.0
  0
VERTEX
  5
7CF
  8
1
  6
CONTINUOUS
 62
     7
 10
-326.3918186230147
 20
398.7223674975597
 30
0.0
  0
VERTEX
  5
7D0
  8
1
  6
CONTINUOUS
 62
     7
 10
-326.4124624601125
 20
398.7175113534894
 30
0.0
  0
VERTEX
  5
7D1
  8
1
  6
CONTINUOUS
 62
     7
 10
-326.4329184273044
 20
398.7117730212732
 30
0.0
  0
VERTEX
  5
7D2
  8
1
  6
CONTINUOUS
 62
     7
 10
-326.4531754901191
 20
398.705148620271
 30
0.0
  0
VERTEX
  5
7D3
  8
1
  6
CONTINUOUS
 62
     7
 10
-326.4690598029375
 20
398.6992726397584
 30
0.0
  0
VERTEX
  5
7D4
  8
1
  6
CONTINUOUS
 62
     7
 10
-326.484736052089
 20
398.6928621987725
 30
0.0
  0
VERTEX
  5
7D5
  8
1
  6
CONTINUOUS
 62
     7
 10
-326.5002570659988
 20
398.6858910308142
 30
0.0
  0
VERTEX
  5
7D6
  8
1
  6
CONTINUOUS
 62
     7
 10
-326.5155319698228
 20
398.6783959411413
 30
0.0
  0
VERTEX
  5
7D7
  8
1
  6
CONTINUOUS
 62
     7
 10
-326.5303404740276
 20
398.6704977591826
 30
0.0
  0
VERTEX
  5
7D8
  8
1
  6
CONTINUOUS
 62
     7
 10
-326.5448756337382
 20
398.6621071568292
 30
0.0
  0
VERTEX
  5
7D9
  8
1
  6
CONTINUOUS
 62
     7
 10
-326.5591849478344
 20
398.6531919101847
 30
0.0
  0
VERTEX
  5
7DA
  8
1
  6
CONTINUOUS
 62
     7
 10
-326.5731856440456
 20
398.6437994345267
 30
0.0
  0
VERTEX
  5
7DB
  8
1
  6
CONTINUOUS
 62
     7
 10
-326.5867599500158
 20
398.634016159513
 30
0.0
  0
VERTEX
  5
7DC
  8
1
  6
CONTINUOUS
 62
     7
 10
-326.6000139654676
 20
398.6237724292827
 30
0.0
  0
VERTEX
  5
7DD
  8
1
  6
CONTINUOUS
 62
     7
 10
-326.6130580831876
 20
398.6129698209392
 30
0.0
  0
VERTEX
  5
7DE
  8
1
  6
CONTINUOUS
 62
     7
 10
-326.6257289618284
 20
398.6017317521755
 30
0.0
  0
VERTEX
  5
7DF
  8
1
  6
CONTINUOUS
 62
     7
 10
-326.6380677573267
 20
398.5900159533916
 30
0.0
  0
VERTEX
  5
7E0
  8
1
  6
CONTINUOUS
 62
     7
 10
-326.6500009032966
 20
398.5778872335994
 30
0.0
  0
VERTEX
  5
7E1
  8
1
  6
CONTINUOUS
 62
     7
 10
-326.6613605185462
 20
398.5655325323354
 30
0.0
  0
VERTEX
  5
7E2
  8
1
  6
CONTINUOUS
 62
     7
 10
-326.6722992147855
 20
398.5528036507055
 30
0.0
  0
VERTEX
  5
7E3
  8
1
  6
CONTINUOUS
 62
     7
 10
-326.6828511465703
 20
398.539654462298
 30
0.0
  0
VERTEX
  5
7E4
  8
1
  6
CONTINUOUS
 62
     7
 10
-326.6929539055333
 20
398.5261571039429
 30
0.0
  0
VERTEX
  5
7E5
  8
1
  6
CONTINUOUS
 62
     7
 10
-326.7023239239762
 20
398.5127307155718
 30
0.0
  0
SEQEND
  5
9AC
  8
1
  6
CONTINUOUS
 62
     7
  0
LINE
  5
278
  8
1
  6
CONTINUOUS
 62
     7
 10
-326.7876755448302
 20
398.2333142941405
 30
0.0
 11
-326.7886572299795
 21
398.2340720647508
 31
0.0
  0
LINE
  5
279
  8
1
  6
CONTINUOUS
 62
     7
 10
-328.9442231706878
 20
398.261008324325
 30
0.0
 11
-328.9453716275996
 21
398.2829221876385
 31
0.0
  0
LINE
  5
27A
  8
1
  6
CONTINUOUS
 62
     7
 10
-294.2877701551685
 20
398.2430410562667
 30
0.0
 11
-294.2876755448303
 21
398.2333142941406
 31
0.0
  0
POLYLINE
  5
27B
  8
1
  6
CONTINUOUS
 62
     7
 66
     1
 10
0.0
 20
0.0
 30
0.0
  0
VERTEX
  5
7E6
  8
1
  6
CONTINUOUS
 62
     7
 10
-291.6304073275544
 20
398.7616460284207
 30
0.0
  0
VERTEX
  5
7E7
  8
1
  6
CONTINUOUS
 62
     7
 10
-291.6335247593561
 20
398.7616083264147
 30
0.0
  0
VERTEX
  5
7E8
  8
1
  6
CONTINUOUS
 62
     7
 10
-291.6632048581558
 20
398.7602743455121
 30
0.0
  0
VERTEX
  5
7E9
  8
1
  6
CONTINUOUS
 62
     7
 10
-291.6927583487142
 20
398.7571817959156
 30
0.0
  0
VERTEX
  5
7EA
  8
1
  6
CONTINUOUS
 62
     7
 10
-291.72205836039
 20
398.7523479528999
 30
0.0
  0
VERTEX
  5
7EB
  8
1
  6
CONTINUOUS
 62
     7
 10
-291.751128827952
 20
398.7457634687157
 30
0.0
  0
VERTEX
  5
7EC
  8
1
  6
CONTINUOUS
 62
     7
 10
-291.7769387242504
 20
398.7383679470432
 30
0.0
  0
VERTEX
  5
7ED
  8
1
  6
CONTINUOUS
 62
     7
 10
-291.8025109505542
 20
398.729535431929
 30
0.0
  0
VERTEX
  5
7EE
  8
1
  6
CONTINUOUS
 62
     7
 10
-291.8277200491465
 20
398.7192798081469
 30
0.0
  0
VERTEX
  5
7EF
  8
1
  6
CONTINUOUS
 62
     7
 10
-291.8526731069664
 20
398.707513072293
 30
0.0
  0
VERTEX
  5
7F0
  8
1
  6
CONTINUOUS
 62
     7
 10
-291.8771732770136
 20
398.6942722068869
 30
0.0
  0
VERTEX
  5
7F1
  8
1
  6
CONTINUOUS
 62
     7
 10
-291.9013245078555
 20
398.6794320300833
 30
0.0
  0
VERTEX
  5
7F2
  8
1
  6
CONTINUOUS
 62
     7
 10
-291.9249125247279
 20
398.6630390345431
 30
0.0
  0
VERTEX
  5
7F3
  8
1
  6
CONTINUOUS
 62
     7
 10
-291.9479705747142
 20
398.6449740927112
 30
0.0
  0
VERTEX
  5
7F4
  8
1
  6
CONTINUOUS
 62
     7
 10
-291.9681379905716
 20
398.6272897961665
 30
0.0
  0
VERTEX
  5
7F5
  8
1
  6
CONTINUOUS
 62
     7
 10
-291.9876725067002
 20
398.6082246463794
 30
0.0
  0
VERTEX
  5
7F6
  8
1
  6
CONTINUOUS
 62
     7
 10
-292.0066129178163
 20
398.5876094523787
 30
0.0
  0
VERTEX
  5
7F7
  8
1
  6
CONTINUOUS
 62
     7
 10
-292.0247546969118
 20
398.5655075989239
 30
0.0
  0
VERTEX
  5
7F8
  8
1
  6
CONTINUOUS
 62
     7
 10
-292.0364425741741
 20
398.5498043083119
 30
0.0
  0
VERTEX
  5
7F9
  8
1
  6
CONTINUOUS
 62
     7
 10
-292.0476949000451
 20
398.5333894612423
 30
0.0
  0
VERTEX
  5
7FA
  8
1
  6
CONTINUOUS
 62
     7
 10
-292.0584632788248
 20
398.5162650740402
 30
0.0
  0
VERTEX
  5
7FB
  8
1
  6
CONTINUOUS
 62
     7
 10
-292.0698093529739
 20
398.4963940495233
 30
0.0
  0
VERTEX
  5
7FC
  8
1
  6
CONTINUOUS
 62
     7
 10
-292.0769147298143
 20
398.4827808225625
 30
0.0
  0
VERTEX
  5
7FD
  8
1
  6
CONTINUOUS
 62
     7
 10
-292.083691975031
 20
398.4687694358623
 30
0.0
  0
VERTEX
  5
7FE
  8
1
  6
CONTINUOUS
 62
     7
 10
-292.0901141391026
 20
398.4543716020286
 30
0.0
  0
VERTEX
  5
7FF
  8
1
  6
CONTINUOUS
 62
     7
 10
-292.0960661839771
 20
398.4398252293651
 30
0.0
  0
VERTEX
  5
800
  8
1
  6
CONTINUOUS
 62
     7
 10
-292.1016327682124
 20
398.4249053030442
 30
0.0
  0
VERTEX
  5
801
  8
1
  6
CONTINUOUS
 62
     7
 10
-292.1067845510197
 20
398.4096354760862
 30
0.0
  0
VERTEX
  5
802
  8
1
  6
CONTINUOUS
 62
     7
 10
-292.1107946859785
 20
398.396472951558
 30
0.0
  0
VERTEX
  5
803
  8
1
  6
CONTINUOUS
 62
     7
 10
-292.1144791168409
 20
398.3830725517186
 30
0.0
  0
VERTEX
  5
804
  8
1
  6
CONTINUOUS
 62
     7
 10
-292.1178198569668
 20
398.3694582946836
 30
0.0
  0
VERTEX
  5
805
  8
1
  6
CONTINUOUS
 62
     7
 10
-292.1208292980277
 20
398.3555074350353
 30
0.0
  0
VERTEX
  5
806
  8
1
  6
CONTINUOUS
 62
     7
 10
-292.1234617283561
 20
398.3413626494545
 30
0.0
  0
VERTEX
  5
807
  8
1
  6
CONTINUOUS
 62
     7
 10
-292.125701220754
 20
398.3270592878263
 30
0.0
  0
VERTEX
  5
808
  8
1
  6
CONTINUOUS
 62
     7
 10
-292.1275532001234
 20
398.3124550405064
 30
0.0
  0
VERTEX
  5
809
  8
1
  6
CONTINUOUS
 62
     7
 10
-292.1289826481096
 20
398.2977273291585
 30
0.0
  0
VERTEX
  5
80A
  8
1
  6
CONTINUOUS
 62
     7
 10
-292.1299794620609
 20
398.2829221876385
 30
0.0
  0
SEQEND
  5
9AD
  8
1
  6
CONTINUOUS
 62
     7
  0
LINE
  5
27C
  8
1
  6
CONTINUOUS
 62
     7
 10
-292.1299794620609
 20
398.2829221876385
 30
0.0
 11
-292.1311279189727
 21
398.261008324325
 31
0.0
  0
LINE
  5
27D
  8
1
  6
CONTINUOUS
 62
     9
 10
-292.1311279189727
 20
398.261008324325
 30
0.0
 11
-294.2876755448302
 21
398.2333142941406
 31
0.0
  0
POLYLINE
  5
27E
  8
1
  6
CONTINUOUS
 62
     7
 66
     1
 10
0.0
 20
0.0
 30
0.0
  0
VERTEX
  5
80B
  8
1
  6
CONTINUOUS
 62
     7
 10
-294.7876726158896
 20
398.7333333333334
 30
0.0
  0
VERTEX
  5
80C
  8
1
  6
CONTINUOUS
 62
     7
 10
-294.7668203461599
 20
398.7328983109611
 30
0.0
  0
VERTEX
  5
80D
  8
1
  6
CONTINUOUS
 62
     7
 10
-294.7459400180535
 20
398.7315886148214
 30
0.0
  0
VERTEX
  5
80E
  8
1
  6
CONTINUOUS
 62
     7
 10
-294.7250962973656
 20
398.7294019346206
 30
0.0
  0
VERTEX
  5
80F
  8
1
  6
CONTINUOUS
 62
     7
 10
-294.7042587033901
 20
398.7263260868696
 30
0.0
  0
VERTEX
  5
810
  8
1
  6
CONTINUOUS
 62
     7
 10
-294.6835324666457
 20
398.7223674975597
 30
0.0
  0
VERTEX
  5
811
  8
1
  6
CONTINUOUS
 62
     7
 10
-294.6628886295479
 20
398.7175113534894
 30
0.0
  0
VERTEX
  5
812
  8
1
  6
CONTINUOUS
 62
     7
 10
-294.642432662356
 20
398.7117730212732
 30
0.0
  0
VERTEX
  5
813
  8
1
  6
CONTINUOUS
 62
     7
 10
-294.6221755995413
 20
398.705148620271
 30
0.0
  0
VERTEX
  5
814
  8
1
  6
CONTINUOUS
 62
     7
 10
-294.606291286723
 20
398.6992726397584
 30
0.0
  0
VERTEX
  5
815
  8
1
  6
CONTINUOUS
 62
     7
 10
-294.5906150375714
 20
398.6928621987725
 30
0.0
  0
VERTEX
  5
816
  8
1
  6
CONTINUOUS
 62
     7
 10
-294.5750940236616
 20
398.6858910308142
 30
0.0
  0
VERTEX
  5
817
  8
1
  6
CONTINUOUS
 62
     7
 10
-294.5598191198376
 20
398.6783959411413
 30
0.0
  0
VERTEX
  5
818
  8
1
  6
CONTINUOUS
 62
     7
 10
-294.5450106156328
 20
398.6704977591826
 30
0.0
  0
VERTEX
  5
819
  8
1
  6
CONTINUOUS
 62
     7
 10
-294.5304754559223
 20
398.6621071568292
 30
0.0
  0
VERTEX
  5
81A
  8
1
  6
CONTINUOUS
 62
     7
 10
-294.5161661418261
 20
398.6531919101847
 30
0.0
  0
VERTEX
  5
81B
  8
1
  6
CONTINUOUS
 62
     7
 10
-294.5021654456149
 20
398.6437994345267
 30
0.0
  0
VERTEX
  5
81C
  8
1
  6
CONTINUOUS
 62
     7
 10
-294.4885911396446
 20
398.634016159513
 30
0.0
  0
VERTEX
  5
81D
  8
1
  6
CONTINUOUS
 62
     7
 10
-294.4753371241929
 20
398.6237724292827
 30
0.0
  0
VERTEX
  5
81E
  8
1
  6
CONTINUOUS
 62
     7
 10
-294.4622930064729
 20
398.6129698209392
 30
0.0
  0
VERTEX
  5
81F
  8
1
  6
CONTINUOUS
 62
     7
 10
-294.449622127832
 20
398.6017317521755
 30
0.0
  0
VERTEX
  5
820
  8
1
  6
CONTINUOUS
 62
     7
 10
-294.4372833323337
 20
398.5900159533916
 30
0.0
  0
VERTEX
  5
821
  8
1
  6
CONTINUOUS
 62
     7
 10
-294.4253501863638
 20
398.5778872335994
 30
0.0
  0
VERTEX
  5
822
  8
1
  6
CONTINUOUS
 62
     7
 10
-294.4139905711141
 20
398.5655325323354
 30
0.0
  0
VERTEX
  5
823
  8
1
  6
CONTINUOUS
 62
     7
 10
-294.403051874875
 20
398.5528036507055
 30
0.0
  0
VERTEX
  5
824
  8
1
  6
CONTINUOUS
 62
     7
 10
-294.3924999430902
 20
398.539654462298
 30
0.0
  0
VERTEX
  5
825
  8
1
  6
CONTINUOUS
 62
     7
 10
-294.3823971841271
 20
398.5261571039429
 30
0.0
  0
VERTEX
  5
826
  8
1
  6
CONTINUOUS
 62
     7
 10
-294.3730271656842
 20
398.5127307155718
 30
0.0
  0
SEQEND
  5
9AE
  8
1
  6
CONTINUOUS
 62
     7
  0
POLYLINE
  5
27F
  8
1
  6
CONTINUOUS
 62
     7
 66
     1
 10
0.0
 20
0.0
 30
0.0
  0
VERTEX
  5
827
  8
1
  6
CONTINUOUS
 62
     7
 10
-291.6318911330294
 20
398.7333333333334
 30
0.0
  0
VERTEX
  5
828
  8
1
  6
CONTINUOUS
 62
     7
 10
-291.7262247835569
 20
398.7243535317146
 30
0.0
  0
VERTEX
  5
829
  8
1
  6
CONTINUOUS
 62
     7
 10
-291.8171702449093
 20
398.697736661925
 30
0.0
  0
VERTEX
  5
82A
  8
1
  6
CONTINUOUS
 62
     7
 10
-291.9014609526681
 20
398.6544387444025
 30
0.0
  0
VERTEX
  5
82B
  8
1
  6
CONTINUOUS
 62
     7
 10
-291.9760693667809
 20
398.5960149467683
 30
0.0
  0
VERTEX
  5
82C
  8
1
  6
CONTINUOUS
 62
     7
 10
-292.038315714258
 20
398.524563725567
 30
0.0
  0
VERTEX
  5
82D
  8
1
  6
CONTINUOUS
 62
     7
 10
-292.0859642408259
 20
398.4426514542424
 30
0.0
  0
VERTEX
  5
82E
  8
1
  6
CONTINUOUS
 62
     7
 10
-292.1173035143892
 20
398.3532202445501
 30
0.0
  0
VERTEX
  5
82F
  8
1
  6
CONTINUOUS
 62
     7
 10
-292.1312078959724
 20
398.259482272262
 30
0.0
  0
SEQEND
  5
9AF
  8
1
  6
CONTINUOUS
 62
     7
  0
POLYLINE
  5
280
  8
1
  6
CONTINUOUS
 62
     7
 66
     1
 10
0.0
 20
0.0
 30
0.0
  0
VERTEX
  5
830
  8
1
  6
CONTINUOUS
 62
     7
 10
-290.9453716275995
 20
398.2829221876385
 30
0.0
  0
VERTEX
  5
831
  8
1
  6
CONTINUOUS
 62
     7
 10
-290.9462454750431
 20
398.29621009573
 30
0.0
  0
VERTEX
  5
832
  8
1
  6
CONTINUOUS
 62
     7
 10
-290.9474678923009
 20
398.3094316957223
 30
0.0
  0
VERTEX
  5
833
  8
1
  6
CONTINUOUS
 62
     7
 10
-290.9490455151402
 20
398.3226561629129
 30
0.0
  0
VERTEX
  5
834
  8
1
  6
CONTINUOUS
 62
     7
 10
-290.9509630445095
 20
398.3357699038953
 30
0.0
  0
VERTEX
  5
835
  8
1
  6
CONTINUOUS
 62
     7
 10
-290.9531616736699
 20
398.3484829729671
 30
0.0
  0
VERTEX
  5
836
  8
1
  6
CONTINUOUS
 62
     7
 10
-290.9556684809117
 20
398.3610544937417
 30
0.0
  0
VERTEX
  5
837
  8
1
  6
CONTINUOUS
 62
     7
 10
-290.9584909505923
 20
398.373541213872
 30
0.0
  0
VERTEX
  5
838
  8
1
  6
CONTINUOUS
 62
     7
 10
-290.9616043261261
 20
398.3858561830432
 30
0.0
  0
VERTEX
  5
839
  8
1
  6
CONTINUOUS
 62
     7
 10
-290.964952299822
 20
398.3978329673217
 30
0.0
  0
VERTEX
  5
83A
  8
1
  6
CONTINUOUS
 62
     7
 10
-290.9685665386408
 20
398.4096354760862
 30
0.0
  0
VERTEX
  5
83B
  8
1
  6
CONTINUOUS
 62
     7
 10
-290.973400925154
 20
398.4240100462604
 30
0.0
  0
VERTEX
  5
83C
  8
1
  6
CONTINUOUS
 62
     7
 10
-290.9786015026456
 20
398.438069540375
 30
0.0
  0
VERTEX
  5
83D
  8
1
  6
CONTINUOUS
 62
     7
 10
-290.9841830315492
 20
398.4518876902707
 30
0.0
  0
VERTEX
  5
83E
  8
1
  6
CONTINUOUS
 62
     7
 10
-290.9900944342982
 20
398.4653710907681
 30
0.0
  0
VERTEX
  5
83F
  8
1
  6
CONTINUOUS
 62
     7
 10
-290.9963506529376
 20
398.4785848074063
 30
0.0
  0
VERTEX
  5
840
  8
1
  6
CONTINUOUS
 62
     7
 10
-291.0029022590626
 20
398.4914538135998
 30
0.0
  0
VERTEX
  5
841
  8
1
  6
CONTINUOUS
 62
     7
 10
-291.0097631551
 20
398.5040331346661
 30
0.0
  0
VERTEX
  5
842
  8
1
  6
CONTINUOUS
 62
     7
 10
-291.0168878108356
 20
398.5162650740402
 30
0.0
  0
VERTEX
  5
843
  8
1
  6
CONTINUOUS
 62
     7
 10
-291.0288129172491
 20
398.5351421303649
 30
0.0
  0
VERTEX
  5
844
  8
1
  6
CONTINUOUS
 62
     7
 10
-291.0413640330425
 20
398.5532100639786
 30
0.0
  0
VERTEX
  5
845
  8
1
  6
CONTINUOUS
 62
     7
 10
-291.0544720992584
 20
398.5704468847946
 30
0.0
  0
VERTEX
  5
846
  8
1
  6
CONTINUOUS
 62
     7
 10
-291.0681408146395
 20
398.5869207100912
 30
0.0
  0
VERTEX
  5
847
  8
1
  6
CONTINUOUS
 62
     7
 10
-291.0822822239931
 20
398.602580641813
 30
0.0
  0
VERTEX
  5
848
  8
1
  6
CONTINUOUS
 62
     7
 10
-291.0969121798319
 20
398.6174923501097
 30
0.0
  0
VERTEX
  5
849
  8
1
  6
CONTINUOUS
 62
     7
 10
-291.1119472571505
 20
398.6316124549179
 30
0.0
  0
VERTEX
  5
84A
  8
1
  6
CONTINUOUS
 62
     7
 10
-291.1273805149463
 20
398.6449740927112
 30
0.0
  0
VERTEX
  5
84B
  8
1
  6
CONTINUOUS
 62
     7
 10
-291.1499351203896
 20
398.6626670868819
 30
0.0
  0
VERTEX
  5
84C
  8
1
  6
CONTINUOUS
 62
     7
 10
-291.1731785341142
 20
398.6788762433335
 30
0.0
  0
VERTEX
  5
84D
  8
1
  6
CONTINUOUS
 62
     7
 10
-291.1970160055923
 20
398.6936003164725
 30
0.0
  0
VERTEX
  5
84E
  8
1
  6
CONTINUOUS
 62
     7
 10
-291.2214851673493
 20
398.7069081591764
 30
0.0
  0
VERTEX
  5
84F
  8
1
  6
CONTINUOUS
 62
     7
 10
-291.246450058185
 20
398.7187600336013
 30
0.0
  0
VERTEX
  5
850
  8
1
  6
CONTINUOUS
 62
     7
 10
-291.2719608924992
 20
398.7292040770399
 30
0.0
  0
VERTEX
  5
851
  8
1
  6
CONTINUOUS
 62
     7
 10
-291.2978846572962
 20
398.7382010731772
 30
0.0
  0
VERTEX
  5
852
  8
1
  6
CONTINUOUS
 62
     7
 10
-291.3242222617084
 20
398.7457634687157
 30
0.0
  0
VERTEX
  5
853
  8
1
  6
CONTINUOUS
 62
     7
 10
-291.3531439347977
 20
398.7523188373898
 30
0.0
  0
VERTEX
  5
854
  8
1
  6
CONTINUOUS
 62
     7
 10
-291.3824168596239
 20
398.757158048644
 30
0.0
  0
VERTEX
  5
855
  8
1
  6
CONTINUOUS
 62
     7
 10
-291.4119941584024
 20
398.7602629560571
 30
0.0
  0
VERTEX
  5
856
  8
1
  6
CONTINUOUS
 62
     7
 10
-291.4418263303043
 20
398.7616083264147
 30
0.0
  0
VERTEX
  5
857
  8
1
  6
CONTINUOUS
 62
     7
 10
-291.444943762106
 20
398.7616460284207
 30
0.0
  0
SEQEND
  5
9B0
  8
1
  6
CONTINUOUS
 62
     7
  0
POLYLINE
  5
281
  8
1
  6
CONTINUOUS
 62
     7
 66
     1
 10
0.0
 20
0.0
 30
0.0
  0
VERTEX
  5
858
  8
1
  6
CONTINUOUS
 62
     7
 10
-290.9441431936881
 20
398.259482272262
 30
0.0
  0
VERTEX
  5
859
  8
1
  6
CONTINUOUS
 62
     7
 10
-290.9580475752713
 20
398.3532202445501
 30
0.0
  0
VERTEX
  5
85A
  8
1
  6
CONTINUOUS
 62
     7
 10
-290.9893868488345
 20
398.4426514542424
 30
0.0
  0
VERTEX
  5
85B
  8
1
  6
CONTINUOUS
 62
     7
 10
-291.0370353754025
 20
398.524563725567
 30
0.0
  0
VERTEX
  5
85C
  8
1
  6
CONTINUOUS
 62
     7
 10
-291.0992817228795
 20
398.5960149467683
 30
0.0
  0
VERTEX
  5
85D
  8
1
  6
CONTINUOUS
 62
     7
 10
-291.1738901369924
 20
398.6544387444025
 30
0.0
  0
VERTEX
  5
85E
  8
1
  6
CONTINUOUS
 62
     7
 10
-291.2581808447512
 20
398.697736661925
 30
0.0
  0
VERTEX
  5
85F
  8
1
  6
CONTINUOUS
 62
     7
 10
-291.3491263061036
 20
398.7243535317146
 30
0.0
  0
VERTEX
  5
860
  8
1
  6
CONTINUOUS
 62
     7
 10
-291.443459956631
 20
398.7333333333334
 30
0.0
  0
SEQEND
  5
9B1
  8
1
  6
CONTINUOUS
 62
     7
  0
LINE
  5
282
  8
1
  6
CONTINUOUS
 62
     9
 10
-288.7886572299795
 20
398.2340720647508
 30
0.0
 11
-290.9442231706877
 21
398.261008324325
 31
0.0
  0
POLYLINE
  5
283
  8
1
  6
CONTINUOUS
 62
     7
 66
     1
 10
0.0
 20
0.0
 30
0.0
  0
VERTEX
  5
861
  8
1
  6
CONTINUOUS
 62
     7
 10
-288.2876784737708
 20
398.7333333333334
 30
0.0
  0
VERTEX
  5
862
  8
1
  6
CONTINUOUS
 62
     7
 10
-288.3085307435005
 20
398.7328983109611
 30
0.0
  0
VERTEX
  5
863
  8
1
  6
CONTINUOUS
 62
     7
 10
-288.3294110716069
 20
398.7315886148214
 30
0.0
  0
VERTEX
  5
864
  8
1
  6
CONTINUOUS
 62
     7
 10
-288.3502547922949
 20
398.7294019346206
 30
0.0
  0
VERTEX
  5
865
  8
1
  6
CONTINUOUS
 62
     7
 10
-288.3710923862703
 20
398.7263260868696
 30
0.0
  0
VERTEX
  5
866
  8
1
  6
CONTINUOUS
 62
     7
 10
-288.3918186230147
 20
398.7223674975597
 30
0.0
  0
VERTEX
  5
867
  8
1
  6
CONTINUOUS
 62
     7
 10
-288.4124624601125
 20
398.7175113534894
 30
0.0
  0
VERTEX
  5
868
  8
1
  6
CONTINUOUS
 62
     7
 10
-288.4329184273045
 20
398.7117730212732
 30
0.0
  0
VERTEX
  5
869
  8
1
  6
CONTINUOUS
 62
     7
 10
-288.4531754901192
 20
398.705148620271
 30
0.0
  0
VERTEX
  5
86A
  8
1
  6
CONTINUOUS
 62
     7
 10
-288.4690598029374
 20
398.6992726397584
 30
0.0
  0
VERTEX
  5
86B
  8
1
  6
CONTINUOUS
 62
     7
 10
-288.4847360520891
 20
398.6928621987725
 30
0.0
  0
VERTEX
  5
86C
  8
1
  6
CONTINUOUS
 62
     7
 10
-288.5002570659988
 20
398.6858910308142
 30
0.0
  0
VERTEX
  5
86D
  8
1
  6
CONTINUOUS
 62
     7
 10
-288.5155319698228
 20
398.6783959411413
 30
0.0
  0
VERTEX
  5
86E
  8
1
  6
CONTINUOUS
 62
     7
 10
-288.5303404740276
 20
398.6704977591826
 30
0.0
  0
VERTEX
  5
86F
  8
1
  6
CONTINUOUS
 62
     7
 10
-288.5448756337382
 20
398.6621071568292
 30
0.0
  0
VERTEX
  5
870
  8
1
  6
CONTINUOUS
 62
     7
 10
-288.5591849478344
 20
398.6531919101847
 30
0.0
  0
VERTEX
  5
871
  8
1
  6
CONTINUOUS
 62
     7
 10
-288.5731856440456
 20
398.6437994345267
 30
0.0
  0
VERTEX
  5
872
  8
1
  6
CONTINUOUS
 62
     7
 10
-288.5867599500158
 20
398.634016159513
 30
0.0
  0
VERTEX
  5
873
  8
1
  6
CONTINUOUS
 62
     7
 10
-288.6000139654675
 20
398.6237724292827
 30
0.0
  0
VERTEX
  5
874
  8
1
  6
CONTINUOUS
 62
     7
 10
-288.6130580831875
 20
398.6129698209392
 30
0.0
  0
VERTEX
  5
875
  8
1
  6
CONTINUOUS
 62
     7
 10
-288.6257289618285
 20
398.6017317521755
 30
0.0
  0
VERTEX
  5
876
  8
1
  6
CONTINUOUS
 62
     7
 10
-288.6380677573267
 20
398.5900159533916
 30
0.0
  0
VERTEX
  5
877
  8
1
  6
CONTINUOUS
 62
     7
 10
-288.6500009032966
 20
398.5778872335994
 30
0.0
  0
VERTEX
  5
878
  8
1
  6
CONTINUOUS
 62
     7
 10
-288.6613605185463
 20
398.5655325323354
 30
0.0
  0
VERTEX
  5
879
  8
1
  6
CONTINUOUS
 62
     7
 10
-288.6722992147855
 20
398.5528036507055
 30
0.0
  0
VERTEX
  5
87A
  8
1
  6
CONTINUOUS
 62
     7
 10
-288.6828511465703
 20
398.539654462298
 30
0.0
  0
VERTEX
  5
87B
  8
1
  6
CONTINUOUS
 62
     7
 10
-288.6929539055333
 20
398.5261571039429
 30
0.0
  0
VERTEX
  5
87C
  8
1
  6
CONTINUOUS
 62
     7
 10
-288.7023239239762
 20
398.5127307155718
 30
0.0
  0
SEQEND
  5
9B2
  8
1
  6
CONTINUOUS
 62
     7
  0
LINE
  5
284
  8
1
  6
CONTINUOUS
 62
     7
 10
-288.7876755448302
 20
398.2333142941405
 30
0.0
 11
-288.7886572299795
 21
398.2340720647508
 31
0.0
  0
LINE
  5
285
  8
1
  6
CONTINUOUS
 62
     7
 10
-290.9442231706878
 20
398.261008324325
 30
0.0
 11
-290.9453716275996
 21
398.2829221876385
 31
0.0
  0
POLYLINE
  5
286
  8
1
  6
CONTINUOUS
 62
     7
 66
     1
 10
0.0
 20
0.0
 30
0.0
  0
VERTEX
  5
87D
  8
1
  6
CONTINUOUS
 62
     7
 10
-285.5376755448302
 20
410.73363794882
 30
0.0
  0
VERTEX
  5
87E
  8
1
  6
CONTINUOUS
 62
     7
 10
-285.6913842981177
 20
412.2943335528369
 30
0.0
  0
VERTEX
  5
87F
  8
1
  6
CONTINUOUS
 62
     7
 10
-286.1466041876758
 20
413.795034885971
 30
0.0
  0
VERTEX
  5
880
  8
1
  6
CONTINUOUS
 62
     7
 10
-286.8858430591538
 20
415.1780764112897
 30
0.0
  0
VERTEX
  5
881
  8
1
  6
CONTINUOUS
 62
     7
 10
-287.880695122869
 20
416.3903137552946
 30
0.0
  0
VERTEX
  5
882
  8
1
  6
CONTINUOUS
 62
     7
 10
-289.0929324668738
 20
417.3851658190098
 30
0.0
  0
VERTEX
  5
883
  8
1
  6
CONTINUOUS
 62
     7
 10
-290.4759739921925
 20
418.1244046904878
 30
0.0
  0
VERTEX
  5
884
  8
1
  6
CONTINUOUS
 62
     7
 10
-291.9766753253267
 20
418.579624580046
 30
0.0
  0
VERTEX
  5
885
  8
1
  6
CONTINUOUS
 62
     7
 10
-293.5373709293435
 20
418.7333333333334
 30
0.0
  0
SEQEND
  5
9B3
  8
1
  6
CONTINUOUS
 62
     7
  0
LINE
  5
287
  8
1
  6
CONTINUOUS
 62
     9
 10
-293.5621835713065
 20
418.7085206913706
 30
0.0
 11
-293.5373709293436
 21
418.7333333333335
 31
0.0
  0
LINE
  5
288
  8
1
  6
CONTINUOUS
 62
     7
 10
-352.546402412621
 20
406.2246064655427
 30
0.0
 11
-348.0376755448302
 21
406.2246064655427
 31
0.0
  0
LINE
  5
289
  8
1
  6
CONTINUOUS
 62
     7
 10
-345.0376755448302
 20
406.2333333333335
 30
0.0
 11
-352.5376755448302
 21
406.2333333333335
 31
0.0
  0
LINE
  5
28A
  8
1
  6
CONTINUOUS
 62
     7
 10
-346.0376755448302
 20
406.2246064655427
 30
0.0
 11
-345.0289486770395
 21
406.2246064655427
 31
0.0
  0
LINE
  5
28B
  8
1
  6
CONTINUOUS
 62
     7
 10
-293.5373709293436
 20
418.7333333333335
 30
0.0
 11
-302.0376755448302
 21
418.7333333333335
 31
0.0
  0
LINE
  5
28C
  8
1
  6
CONTINUOUS
 62
     7
 10
-317.0477006706169
 20
418.7333333333335
 30
0.0
 11
-322.0376755448302
 21
418.7333333333335
 31
0.0
  0
LINE
  5
28D
  8
1
  6
CONTINUOUS
 62
     9
 10
-295.2876755448302
 20
391.8649858309208
 30
0.0
 11
-292.4663292540963
 21
391.8649858309208
 31
0.0
  0
LINE
  5
28E
  8
1
  6
CONTINUOUS
 62
     9
 10
-292.4798933854863
 20
391.6061667858183
 30
0.0
 11
-295.2536013711193
 21
391.6061667858183
 31
0.0
  0
LINE
  5
28F
  8
1
  6
CONTINUOUS
 62
     7
 10
-292.4663292540963
 20
391.8649858309208
 30
0.0
 11
-292.4798933854863
 21
391.6061667858183
 31
0.0
  0
LINE
  5
290
  8
1
  6
CONTINUOUS
 62
     9
 10
-287.8217497185411
 20
391.6061667858183
 30
0.0
 11
-290.5954577041741
 21
391.6061667858183
 31
0.0
  0
LINE
  5
291
  8
1
  6
CONTINUOUS
 62
     9
 10
-290.6090218355641
 20
391.8649858309208
 30
0.0
 11
-287.7876755448302
 21
391.8649858309208
 31
0.0
  0
LINE
  5
292
  8
1
  6
CONTINUOUS
 62
     7
 10
-290.5954577041741
 20
391.6061667858183
 30
0.0
 11
-290.6090218355641
 21
391.8649858309208
 31
0.0
  0
LINE
  5
293
  8
1
  6
CONTINUOUS
 62
     9
 10
-333.2876755448302
 20
391.8649858309208
 30
0.0
 11
-330.4663292540964
 21
391.8649858309208
 31
0.0
  0
LINE
  5
294
  8
1
  6
CONTINUOUS
 62
     9
 10
-330.4798933854863
 20
391.6061667858183
 30
0.0
 11
-333.2536013711193
 21
391.6061667858183
 31
0.0
  0
LINE
  5
295
  8
1
  6
CONTINUOUS
 62
     7
 10
-330.4663292540964
 20
391.8649858309208
 30
0.0
 11
-330.4798933854863
 21
391.6061667858183
 31
0.0
  0
LINE
  5
296
  8
1
  6
CONTINUOUS
 62
     9
 10
-325.8217497185412
 20
391.6061667858183
 30
0.0
 11
-328.5954577041741
 21
391.6061667858183
 31
0.0
  0
LINE
  5
297
  8
1
  6
CONTINUOUS
 62
     9
 10
-328.6090218355641
 20
391.8649858309208
 30
0.0
 11
-325.7876755448302
 21
391.8649858309208
 31
0.0
  0
LINE
  5
298
  8
1
  6
CONTINUOUS
 62
     7
 10
-328.5954577041741
 20
391.6061667858183
 30
0.0
 11
-328.6090218355641
 21
391.8649858309208
 31
0.0
  0
LINE
  5
299
  8
1
  6
CONTINUOUS
 62
     7
 10
-292.4365434236339
 20
392.4333333333334
 30
0.0
 11
-295.2876755448302
 21
392.4333333333334
 31
0.0
  0
LINE
  5
29A
  8
1
  6
CONTINUOUS
 62
     7
 10
-292.4365434236339
 20
392.4333333333334
 30
0.0
 11
-292.4663292540963
 21
391.8649858309208
 31
0.0
  0
LINE
  5
29B
  8
1
  6
CONTINUOUS
 62
     7
 10
-287.7876755448302
 20
392.4333333333334
 30
0.0
 11
-290.6388076660265
 21
392.4333333333334
 31
0.0
  0
LINE
  5
29C
  8
1
  6
CONTINUOUS
 62
     7
 10
-290.6090218355641
 20
391.8649858309208
 30
0.0
 11
-290.6388076660265
 21
392.4333333333334
 31
0.0
  0
LINE
  5
29D
  8
1
  6
CONTINUOUS
 62
     7
 10
-325.7876755448302
 20
392.4333333333334
 30
0.0
 11
-328.6388076660266
 21
392.4333333333334
 31
0.0
  0
LINE
  5
29E
  8
1
  6
CONTINUOUS
 62
     7
 10
-328.6090218355641
 20
391.8649858309209
 30
0.0
 11
-328.6388076660266
 21
392.4333333333335
 31
0.0
  0
LINE
  5
29F
  8
1
  6
CONTINUOUS
 62
     7
 10
-330.4365434236338
 20
392.4333333333334
 30
0.0
 11
-333.2876755448302
 21
392.4333333333334
 31
0.0
  0
LINE
  5
2A0
  8
1
  6
CONTINUOUS
 62
     7
 10
-330.4365434236338
 20
392.4333333333334
 30
0.0
 11
-330.4663292540964
 21
391.8649858309208
 31
0.0
  0
LINE
  5
2A1
  8
1
  6
CONTINUOUS
 62
     9
 10
-290.3070973687767
 20
386.1039238107822
 30
0.0
 11
-289.2960712802619
 21
386.1039238107822
 31
0.0
  0
LINE
  5
2A2
  8
1
  6
CONTINUOUS
 62
     7
 10
-290.3070973687767
 20
386.1039238107823
 30
0.0
 11
-290.5954577041741
 21
391.6061667858183
 31
0.0
  0
LINE
  5
2A3
  8
1
  6
CONTINUOUS
 62
     9
 10
-293.7792798093985
 20
386.1039238107822
 30
0.0
 11
-292.7682537208837
 21
386.1039238107822
 31
0.0
  0
LINE
  5
2A4
  8
1
  6
CONTINUOUS
 62
     7
 10
-292.4798933854863
 20
391.6061667858183
 30
0.0
 11
-292.7682537208836
 21
386.1039238107822
 31
0.0
  0
LINE
  5
2A5
  8
1
  6
CONTINUOUS
 62
     9
 10
-328.3070973687768
 20
386.1039238107822
 30
0.0
 11
-327.2960712802619
 21
386.1039238107822
 31
0.0
  0
LINE
  5
2A6
  8
1
  6
CONTINUOUS
 62
     7
 10
-328.3070973687768
 20
386.1039238107823
 30
0.0
 11
-328.5954577041741
 21
391.6061667858183
 31
0.0
  0
LINE
  5
2A7
  8
1
  6
CONTINUOUS
 62
     9
 10
-331.7792798093985
 20
386.1039238107822
 30
0.0
 11
-330.7682537208837
 21
386.1039238107822
 31
0.0
  0
LINE
  5
2A8
  8
1
  6
CONTINUOUS
 62
     7
 10
-330.4798933854863
 20
391.6061667858183
 30
0.0
 11
-330.7682537208837
 21
386.1039238107822
 31
0.0
  0
LINE
  5
2A9
  8
1
  6
CONTINUOUS
 62
     7
 10
-330.4365434236338
 20
392.4333333333334
 30
0.0
 11
-330.133778770136
 21
398.210427070938
 31
0.0
  0
LINE
  5
2AA
  8
1
  6
CONTINUOUS
 62
     7
 10
-330.133778770136
 20
398.210427070938
 30
0.0
 11
-330.1311279189727
 21
398.261008324325
 31
0.0
  0
LINE
  5
2AB
  8
1
  6
CONTINUOUS
 62
     7
 10
-328.9442231706878
 20
398.261008324325
 30
0.0
 11
-328.9415518068332
 21
398.2100356654738
 31
0.0
  0
LINE
  5
2AC
  8
1
  6
CONTINUOUS
 62
     7
 10
-328.9415518068332
 20
398.2100356654738
 30
0.0
 11
-328.6388076660265
 21
392.4333333333334
 31
0.0
  0
LINE
  5
2AD
  8
1
  6
CONTINUOUS
 62
     7
 10
-292.4365434236339
 20
392.4333333333334
 30
0.0
 11
-292.133778770136
 21
398.210427070938
 31
0.0
  0
LINE
  5
2AE
  8
1
  6
CONTINUOUS
 62
     7
 10
-292.133778770136
 20
398.210427070938
 30
0.0
 11
-292.1311279189727
 21
398.261008324325
 31
0.0
  0
LINE
  5
2AF
  8
1
  6
CONTINUOUS
 62
     7
 10
-290.9442231706878
 20
398.261008324325
 30
0.0
 11
-290.9415518068332
 21
398.2100356654738
 31
0.0
  0
LINE
  5
2B0
  8
1
  6
CONTINUOUS
 62
     7
 10
-290.9415518068332
 20
398.2100356654738
 30
0.0
 11
-290.6388076660265
 21
392.4333333333334
 31
0.0
  0
LINE
  5
2B1
  8
1
  6
CONTINUOUS
 62
     7
 10
-289.7790341934065
 20
385.7333333333334
 30
0.0
 11
-290.2876755448303
 21
385.7333333333334
 31
0.0
  0
LINE
  5
2B2
  8
1
  6
CONTINUOUS
 62
     7
 10
-290.2876755448302
 20
385.7333333333334
 30
0.0
 11
-290.3070973687767
 21
386.1039238107823
 31
0.0
  0
LINE
  5
2B3
  8
1
  6
CONTINUOUS
 62
     7
 10
-327.7790341934064
 20
385.7333333333334
 30
0.0
 11
-328.2876755448302
 21
385.7333333333334
 31
0.0
  0
LINE
  5
2B4
  8
1
  6
CONTINUOUS
 62
     7
 10
-328.2876755448302
 20
385.7333333333334
 30
0.0
 11
-328.3070973687768
 21
386.1039238107823
 31
0.0
  0
LINE
  5
2B5
  8
1
  6
CONTINUOUS
 62
     7
 10
-292.7876755448302
 20
385.7333333333334
 30
0.0
 11
-293.296316896254
 21
385.7333333333334
 31
0.0
  0
LINE
  5
2B6
  8
1
  6
CONTINUOUS
 62
     7
 10
-292.7682537208836
 20
386.1039238107822
 30
0.0
 11
-292.7876755448302
 21
385.7333333333334
 31
0.0
  0
LINE
  5
2B7
  8
1
  6
CONTINUOUS
 62
     7
 10
-330.7876755448302
 20
385.7333333333334
 30
0.0
 11
-331.296316896254
 21
385.7333333333334
 31
0.0
  0
LINE
  5
2B8
  8
1
  6
CONTINUOUS
 62
     7
 10
-330.7682537208837
 20
386.1039238107822
 30
0.0
 11
-330.7876755448302
 21
385.7333333333334
 31
0.0
  0
LINE
  5
2B9
  8
1
  6
CONTINUOUS
 62
     7
 10
-288.7547101658229
 20
398.4118682021097
 30
0.0
 11
-288.787580934492
 21
398.2430410562667
 31
0.0
  0
LINE
  5
2BA
  8
1
  6
CONTINUOUS
 62
     7
 10
-288.787580934492
 20
398.2430410562667
 30
0.0
 11
-288.7876755448303
 21
398.2333142941405
 31
0.0
  0
LINE
  5
2BB
  8
1
  6
CONTINUOUS
 62
     7
 10
-326.754710165823
 20
398.4118682021095
 30
0.0
 11
-326.759060073649
 21
398.4000449213963
 31
0.0
  0
LINE
  5
2BC
  8
1
  6
CONTINUOUS
 62
     7
 10
-326.759060073649
 20
398.4000449213963
 30
0.0
 11
-326.787580934492
 21
398.2430410562669
 31
0.0
  0
LINE
  5
2BD
  8
1
  6
CONTINUOUS
 62
     7
 10
-326.7875809344919
 20
398.2430410562669
 30
0.0
 11
-326.7876755448302
 21
398.2333142941405
 31
0.0
  0
LINE
  5
2BE
  8
1
  6
CONTINUOUS
 62
     7
 10
-332.3730271656843
 20
398.5127307155718
 30
0.0
 11
-332.3658688537528
 21
398.5018015815295
 31
0.0
  0
LINE
  5
2BF
  8
1
  6
CONTINUOUS
 62
     7
 10
-332.3658688537528
 20
398.5018015815295
 30
0.0
 11
-332.3206409238374
 21
398.4118682021095
 31
0.0
  0
LINE
  5
2C0
  8
1
  6
CONTINUOUS
 62
     7
 10
-294.3730271656842
 20
398.5127307155718
 30
0.0
 11
-294.3658688537527
 21
398.5018015815294
 31
0.0
  0
LINE
  5
2C1
  8
1
  6
CONTINUOUS
 62
     7
 10
-294.3658688537527
 20
398.5018015815294
 30
0.0
 11
-294.3206409238373
 21
398.4118682021092
 31
0.0
  0
LINE
  5
2C2
  8
1
  6
CONTINUOUS
 62
     9
 10
-377.0376755448302
 20
362.4246445439284
 30
0.0
 11
-375.0682195820979
 21
362.4246445439284
 31
0.0
  0
LINE
  5
2C3
  8
1
  6
CONTINUOUS
 62
     7
 10
-375.0682195820979
 20
362.4246445439284
 30
0.0
 11
-375.0595688696287
 21
361.4246826208642
 31
0.0
  0
LINE
  5
2C4
  8
1
  6
CONTINUOUS
 62
     9
 10
-375.0682195820979
 20
367.4420221227385
 30
0.0
 11
-377.0376755448302
 21
367.4420221227385
 31
0.0
  0
LINE
  5
2C5
  8
1
  6
CONTINUOUS
 62
     7
 10
-375.0595688696287
 20
368.4419840458027
 30
0.0
 11
-375.0682195820979
 21
367.4420221227385
 31
0.0
  0
LINE
  5
2C6
  8
1
  6
CONTINUOUS
 62
     7
 10
-377.0376755448302
 20
362.7027892960658
 30
0.0
 11
-377.0376755448302
 21
367.1638773706011
 31
0.0
  0
LINE
  5
2C7
  8
1
  6
CONTINUOUS
 62
     7
 10
-375.0682195820979
 20
362.4246445439284
 30
0.0
 11
-375.0682195820979
 21
367.4420221227385
 31
0.0
  0
LINE
  5
2C8
  8
1
  6
CONTINUOUS
 62
     7
 10
-379.0376755448302
 20
406.5333333333335
 30
0.0
 11
-379.0376755448302
 21
410.9333333333335
 31
0.0
  0
LINE
  5
2C9
  8
1
  6
CONTINUOUS
 62
     7
 10
-384.4154993957596
 20
410.9333333333334
 30
0.0
 11
-384.4154993957596
 21
406.5333333333334
 31
0.0
  0
LINE
  5
2CA
  8
1
  6
CONTINUOUS
 62
     7
 10
-341.8305687636432
 20
463.9333333333316
 30
0.0
 11
-341.8305687636432
 21
458.2333333333328
 31
0.0
  0
LINE
  5
2CB
  8
1
  6
CONTINUOUS
 62
     7
 10
-341.8305687636432
 20
448.9702483155669
 30
0.0
 11
-341.8305687636432
 21
448.7333333333334
 31
0.0
  0
LINE
  5
2CC
  8
1
  6
CONTINUOUS
 62
     7
 10
-341.8305687636432
 20
444.2333333333334
 30
0.0
 11
-341.8305687636432
 21
443.7650102001433
 31
0.0
  0
LINE
  5
2CD
  8
1
  6
CONTINUOUS
 62
     7
 10
-341.8305687636432
 20
439.7333333333331
 30
0.0
 11
-341.8305687636432
 21
426.9333333333332
 31
0.0
  0
LINE
  5
2CE
  8
1
  6
CONTINUOUS
 62
     7
 10
-335.8305687636435
 20
426.9333333333332
 30
0.0
 11
-335.8305687636435
 21
439.7333333333334
 31
0.0
  0
LINE
  5
2CF
  8
1
  6
CONTINUOUS
 62
     7
 10
-335.8305687636435
 20
458.2333333333335
 30
0.0
 11
-335.8305687636435
 21
463.9333333333317
 31
0.0
  0
LINE
  5
2D0
  8
1
  6
CONTINUOUS
 62
     7
 10
-341.8305687636432
 20
426.9333333333333
 30
0.0
 11
-341.3305687636432
 21
423.9333333333334
 31
0.0
  0
LINE
  5
2D1
  8
1
  6
CONTINUOUS
 62
     7
 10
-336.3305687636436
 20
423.9333333333334
 30
0.0
 11
-335.8305687636435
 21
426.9333333333333
 31
0.0
  0
LINE
  5
2D2
  8
1
  6
CONTINUOUS
 62
     7
 10
-332.3206409673901
 20
398.4118683155979
 30
0.0
 11
-332.3195259958689
 21
398.4089281590046
 31
0.0
  0
LINE
  5
2D3
  8
1
  6
CONTINUOUS
 62
     7
 10
-332.3195259958688
 20
398.4089281590046
 30
0.0
 11
-332.2876759555926
 21
398.2430434459225
 31
0.0
  0
LINE
  5
2D4
  8
1
  6
CONTINUOUS
 62
     7
 10
-332.2876759555926
 20
398.2430434459225
 30
0.0
 11
-332.287575552421
 21
398.2335561574421
 31
0.0
  0
LINE
  5
2D5
  8
1
  6
CONTINUOUS
 62
     7
 10
-326.7887437639105
 20
398.2341047514053
 30
0.0
 11
-326.7023250376672
 21
398.5127290135527
 31
0.0
  0
LINE
  5
2D6
  8
1
  6
CONTINUOUS
 62
     7
 10
-294.32064096739
 20
398.4118683155978
 30
0.0
 11
-294.3195259958688
 21
398.4089281590046
 31
0.0
  0
LINE
  5
2D7
  8
1
  6
CONTINUOUS
 62
     7
 10
-294.3195259958688
 20
398.4089281590046
 30
0.0
 11
-294.2876759555926
 21
398.2430434459222
 31
0.0
  0
LINE
  5
2D8
  8
1
  6
CONTINUOUS
 62
     7
 10
-294.2876759555926
 20
398.2430434459223
 30
0.0
 11
-294.2875755524209
 21
398.2335561574421
 31
0.0
  0
LINE
  5
2D9
  8
1
  6
CONTINUOUS
 62
     7
 10
-288.7887437639105
 20
398.2341047514053
 30
0.0
 11
-288.7023250376672
 21
398.5127290135527
 31
0.0
  0
ARC
  5
2DA
  8
1
  6
CONTINUOUS
 62
     7
 10
-294.2876755448302
 20
391.8649858309208
 30
0.0
 40
1.000000000000001
 50
180.0
 51
195.0000000000001
  0
ARC
  5
2DB
  8
1
  6
CONTINUOUS
 62
     7
 10
-288.7876755448302
 20
391.8649858309208
 30
0.0
 40
1.000000000000004
 50
344.9999999999998
 51
0.0
  0
ARC
  5
2DC
  8
1
  6
CONTINUOUS
 62
     7
 10
-332.2876755448302
 20
391.8649858309208
 30
0.0
 40
1.000000000000001
 50
180.0
 51
195.0000000000001
  0
ARC
  5
2DD
  8
1
  6
CONTINUOUS
 62
     7
 10
-326.7876755448302
 20
391.8649858309208
 30
0.0
 40
1.0
 50
344.9999999999998
 51
0.0
  0
LINE
  5
2DE
  8
1
  6
CONTINUOUS
 62
     7
 10
-295.2876755448302
 20
392.4333333333334
 30
0.0
 11
-295.2876755448302
 21
391.8649858309208
 31
0.0
  0
LINE
  5
2DF
  8
1
  6
CONTINUOUS
 62
     7
 10
-287.7876755448302
 20
391.8649858309208
 30
0.0
 11
-287.7876755448302
 21
392.4333333333335
 31
0.0
  0
LINE
  5
2E0
  8
1
  6
CONTINUOUS
 62
     7
 10
-325.7876755448302
 20
391.8649858309208
 30
0.0
 11
-325.7876755448302
 21
392.4333333333335
 31
0.0
  0
LINE
  5
2E1
  8
1
  6
CONTINUOUS
 62
     7
 10
-333.2876755448302
 20
392.4333333333334
 30
0.0
 11
-333.2876755448302
 21
391.8649858309208
 31
0.0
  0
LINE
  5
2E2
  8
1
  6
CONTINUOUS
 62
     7
 10
-289.2960712802619
 20
386.1039238107822
 30
0.0
 11
-287.8217497185411
 21
391.6061667858183
 31
0.0
  0
LINE
  5
2E3
  8
1
  6
CONTINUOUS
 62
     7
 10
-295.2536013711193
 20
391.6061667858183
 30
0.0
 11
-293.7792798093985
 21
386.1039238107822
 31
0.0
  0
LINE
  5
2E4
  8
1
  6
CONTINUOUS
 62
     7
 10
-327.2960712802619
 20
386.1039238107822
 30
0.0
 11
-325.8217497185412
 21
391.6061667858183
 31
0.0
  0
LINE
  5
2E5
  8
1
  6
CONTINUOUS
 62
     7
 10
-333.2536013711193
 20
391.6061667858183
 30
0.0
 11
-331.7792798093986
 21
386.1039238107822
 31
0.0
  0
LINE
  5
2E6
  8
1
  6
CONTINUOUS
 62
     7
 10
-332.2876755448302
 20
398.2333142941405
 30
0.0
 11
-332.2876755448302
 21
392.4333333333335
 31
0.0
  0
LINE
  5
2E7
  8
1
  6
CONTINUOUS
 62
     7
 10
-326.7876755448302
 20
392.4333333333335
 30
0.0
 11
-326.7876755448302
 21
398.2333142941406
 31
0.0
  0
LINE
  5
2E8
  8
1
  6
CONTINUOUS
 62
     7
 10
-294.2876755448302
 20
398.2333142941405
 30
0.0
 11
-294.2876755448302
 21
392.4333333333335
 31
0.0
  0
LINE
  5
2E9
  8
1
  6
CONTINUOUS
 62
     7
 10
-288.7876755448302
 20
392.4333333333335
 30
0.0
 11
-288.7876755448302
 21
398.2333142941406
 31
0.0
  0
ARC
  5
2EA
  8
1
  6
CONTINUOUS
 62
     7
 10
-289.7790341934065
 20
386.2333333333334
 30
0.0
 40
0.5000000000000004
 50
270.0
 51
344.9999999999997
  0
ARC
  5
2EB
  8
1
  6
CONTINUOUS
 62
     7
 10
-327.7790341934064
 20
386.2333333333334
 30
0.0
 40
0.5000000000000004
 50
270.0
 51
344.9999999999997
  0
ARC
  5
2EC
  8
1
  6
CONTINUOUS
 62
     7
 10
-293.296316896254
 20
386.2333333333334
 30
0.0
 40
0.5000000000000022
 50
195.0000000000003
 51
270.0
  0
ARC
  5
2ED
  8
1
  6
CONTINUOUS
 62
     7
 10
-331.296316896254
 20
386.2333333333334
 30
0.0
 40
0.4999999999999996
 50
194.9999999999999
 51
270.0
  0
LINE
  5
2EE
  8
1
  6
CONTINUOUS
 62
     7
 10
-288.7877755372395
 20
398.2335561574421
 30
0.0
 11
-288.7876751340678
 21
398.2430434459224
 31
0.0
  0
LINE
  5
2EF
  8
1
  6
CONTINUOUS
 62
     7
 10
-288.7876751340678
 20
398.2430434459224
 30
0.0
 11
-288.7558250937915
 21
398.4089281590047
 31
0.0
  0
LINE
  5
2F0
  8
1
  6
CONTINUOUS
 62
     7
 10
-288.7558250937915
 20
398.4089281590047
 30
0.0
 11
-288.7547101222702
 21
398.4118683155982
 31
0.0
  0
LINE
  5
2F1
  8
1
  6
CONTINUOUS
 62
     7
 10
-326.7877755372395
 20
398.2335561574421
 30
0.0
 11
-326.7876751340678
 21
398.2430434459225
 31
0.0
  0
LINE
  5
2F2
  8
1
  6
CONTINUOUS
 62
     7
 10
-326.7876751340678
 20
398.2430434459225
 30
0.0
 11
-326.7558250937916
 21
398.4089281590046
 31
0.0
  0
LINE
  5
2F3
  8
1
  6
CONTINUOUS
 62
     7
 10
-326.7558250937916
 20
398.4089281590046
 30
0.0
 11
-326.7547101222703
 21
398.411868315598
 31
0.0
  0
LINE
  5
2F4
  8
1
  6
CONTINUOUS
 62
     7
 10
-332.3730260519933
 20
398.5127290135527
 30
0.0
 11
-332.3658523734792
 21
398.5018136785558
 31
0.0
  0
LINE
  5
2F5
  8
1
  6
CONTINUOUS
 62
     7
 10
-294.3730260519933
 20
398.5127290135527
 30
0.0
 11
-294.3658523734791
 21
398.5018136785557
 31
0.0
  0
ENDBLK
  8
0
  0
BLOCK
  8
0
  2
D_FRAME_VIEW_4012
 70
     0
 10
0.0
 20
0.0
 30
0.0
  0
LINE
  5
2FD
  8
1
  6
CONTINUOUS
 62
     7
 10
-307.9395993334768
 20
310.8713451965153
 30
0.0
 11
-307.9395993334768
 21
312.9694214078687
 31
0.0
  0
ARC
  5
2FE
  8
1
  6
CONTINUOUS
 62
     7
 10
-310.6100000012581
 20
319.5350102548317
 30
0.0
 40
9.065877341392767
 50
270.4570909035058
 51
287.1308628704877
  0
ARC
  5
2FF
  8
1
  6
CONTINUOUS
 62
     7
 10
-310.4496982095284
 20
319.6361920544419
 30
0.0
 40
9.167192814509976
 50
252.9619209245818
 51
269.450125301425
  0
LINE
  5
300
  8
1
  6
CONTINUOUS
 62
     7
 10
-313.1357517561835
 20
310.8713451965153
 30
0.0
 11
-313.1357517561835
 21
312.9694214078687
 31
0.0
  0
LINE
  5
301
  8
1
  6
CONTINUOUS
 62
     7
 10
-305.3415231221236
 20
310.8713451965153
 30
0.0
 11
-305.3415231221236
 21
312.9694214078687
 31
0.0
  0
ARC
  5
302
  8
1
  6
CONTINUOUS
 62
     7
 10
-306.7118845209904
 20
313.0001823888033
 30
0.0
 40
2.531765817521975
 50
271.6143137623442
 51
302.7699337056977
  0
ARC
  5
303
  8
1
  6
CONTINUOUS
 62
     7
 10
-306.5485910852334
 20
313.0669140550048
 30
0.0
 40
2.599120343318078
 50
237.6435929533621
 51
267.9721595785966
  0
ARC
  5
304
  8
1
  6
CONTINUOUS
 62
     7
 10
-314.5061131550503
 20
313.0001823888033
 30
0.0
 40
2.531765817521974
 50
271.614313762343
 51
302.7699337056977
  0
ARC
  5
305
  8
1
  6
CONTINUOUS
 62
     7
 10
-314.3428197192933
 20
313.0669140550052
 30
0.0
 40
2.599120343318513
 50
237.6435929533653
 51
267.9721595785945
  0
LINE
  5
306
  8
1
  6
CONTINUOUS
 62
     7
 10
-315.7338279675369
 20
310.8713451965153
 30
0.0
 11
-315.7338279675369
 21
312.9694214078687
 31
0.0
  0
LINE
  5
307
  8
1
  6
CONTINUOUS
 62
     7
 10
-310.5376755448302
 20
310.4694214078687
 30
0.0
 11
-306.6405612278003
 21
310.4694214078687
 31
0.0
  0
LINE
  5
308
  8
1
  6
CONTINUOUS
 62
     7
 10
-314.4347898618602
 20
310.4694214078687
 30
0.0
 11
-310.5376755448302
 21
310.4694214078687
 31
0.0
  0
LINE
  5
309
  8
1
  6
CONTINUOUS
 62
     7
 10
-306.6405612278003
 20
310.4694214078687
 30
0.0
 11
-306.0376755448302
 21
310.4694214078687
 31
0.0
  0
LINE
  5
30A
  8
1
  6
CONTINUOUS
 62
     7
 10
-315.0376755448302
 20
310.4694214078687
 30
0.0
 11
-314.4347898618602
 21
310.4694214078687
 31
0.0
  0
LINE
  5
30B
  8
1
  6
CONTINUOUS
 62
     7
 10
-315.2810920350827
 20
328.9694214078687
 30
0.0
 11
-315.2810920350827
 21
329.2694214078686
 31
0.0
  0
LINE
  5
30C
  8
1
  6
CONTINUOUS
 62
     7
 10
-315.2810920350827
 20
329.2694214078686
 30
0.0
 11
-305.7876755448302
 21
329.2694214078686
 31
0.0
  0
LINE
  5
30D
  8
1
  6
CONTINUOUS
 62
     7
 10
-306.168908540119
 20
330.7694214078686
 30
0.0
 11
-306.2103062352551
 21
330.7694214078686
 31
0.0
  0
LINE
  5
30E
  8
1
  6
CONTINUOUS
 62
     7
 10
-314.8552151144225
 20
330.8807088089119
 30
0.0
 11
-314.8650448544053
 21
330.7694214078686
 31
0.0
  0
LINE
  5
30F
  8
1
  6
CONTINUOUS
 62
     9
 10
-306.2201359752378
 20
330.8807088089119
 30
0.0
 11
-314.8552151144225
 21
330.880708808912
 31
0.0
  0
LINE
  5
310
  8
1
  6
CONTINUOUS
 62
     7
 10
-306.2103062352551
 20
330.7694214078686
 30
0.0
 11
-306.2201359752369
 21
330.8807088089119
 31
0.0
  0
LINE
  5
311
  8
1
  6
CONTINUOUS
 62
     7
 10
-314.8650448544053
 20
330.7694214078686
 30
0.0
 11
-314.9064425495413
 21
330.7694214078686
 31
0.0
  0
ARC
  5
312
  8
1
  6
CONTINUOUS
 62
     7
 10
-307.8116600054238
 20
330.7371538851924
 30
0.0
 40
1.597985217324153
 50
5.154112018070229
 51
64.89828712562543
  0
ARC
  5
313
  8
1
  6
CONTINUOUS
 62
     7
 10
-313.2637494522347
 20
330.7371947946942
 30
0.0
 40
1.597923410617661
 50
115.1004399505775
 51
174.8471609057773
  0
LINE
  5
314
  8
1
  6
CONTINUOUS
 62
     9
 10
-313.9415987517313
 20
332.1842191736774
 30
0.0
 11
-307.133752337929
 21
332.1842191736774
 31
0.0
  0
LINE
  5
315
  8
1
  6
CONTINUOUS
 62
     7
 10
-309.9376755448302
 20
332.5850303789228
 30
0.0
 11
-311.1376755448302
 21
332.5850303789228
 31
0.0
  0
LINE
  5
316
  8
1
  6
CONTINUOUS
 62
     7
 10
-309.9376755448302
 20
332.8706871292579
 30
0.0
 11
-309.9376755448302
 21
332.5850303789228
 31
0.0
  0
LINE
  5
317
  8
1
  6
CONTINUOUS
 62
     7
 10
-309.4376755448302
 20
332.8706871292579
 30
0.0
 11
-309.9376755448302
 21
332.8706871292579
 31
0.0
  0
ARC
  5
318
  8
1
  6
CONTINUOUS
 62
     7
 10
-310.5376755448302
 20
324.9694214078687
 30
0.0
 40
7.977468270071638
 50
64.74218097053684
 51
82.07432701122828
  0
ARC
  5
319
  8
1
  6
CONTINUOUS
 62
     7
 10
-310.5376755448302
 20
324.9694214078687
 30
0.0
 40
7.977468270071668
 50
97.92567298877171
 51
115.2578190294632
  0
LINE
  5
31A
  8
1
  6
CONTINUOUS
 62
     7
 10
-311.1376755448302
 20
332.8706871292579
 30
0.0
 11
-311.6376755448302
 21
332.8706871292579
 31
0.0
  0
LINE
  5
31B
  8
1
  6
CONTINUOUS
 62
     7
 10
-311.1376755448302
 20
332.5850303789228
 30
0.0
 11
-311.1376755448302
 21
332.8706871292579
 31
0.0
  0
LINE
  5
31C
  8
1
  6
CONTINUOUS
 62
     7
 10
-313.0376755448302
 20
309.6694214078687
 30
0.0
 11
-308.0376755448302
 21
309.6694214078687
 31
0.0
  0
LINE
  5
31D
  8
1
  6
CONTINUOUS
 62
     7
 10
-308.4376755448302
 20
309.2694214078687
 30
0.0
 11
-312.6376755448302
 21
309.2694214078687
 31
0.0
  0
ARC
  5
31E
  8
1
  6
CONTINUOUS
 62
     7
 10
-323.0376755448302
 20
308.197245258798
 30
0.0
 40
1.000000000000001
 50
270.0
 51
0.0
  0
LINE
  5
31F
  8
1
  6
CONTINUOUS
 62
     7
 10
-346.0376755448302
 20
307.197245258798
 30
0.0
 11
-323.0376755448302
 21
307.197245258798
 31
0.0
  0
ARC
  5
320
  8
1
  6
CONTINUOUS
 62
     7
 10
-346.0376755448302
 20
308.197245258798
 30
0.0
 40
1.000000000000001
 50
180.0
 51
270.0
  0
LINE
  5
321
  8
1
  6
CONTINUOUS
 62
     7
 10
-322.0376755448302
 20
312.9694214078687
 30
0.0
 11
-322.0376755448302
 21
308.197245258798
 31
0.0
  0
LINE
  5
322
  8
1
  6
CONTINUOUS
 62
     7
 10
-347.0376755448302
 20
312.9694214078687
 30
0.0
 11
-347.0376755448302
 21
308.197245258798
 31
0.0
  0
LINE
  5
323
  8
1
  6
CONTINUOUS
 62
     7
 10
-315.7338279675369
 20
312.697245258798
 30
0.0
 11
-317.5376755448302
 21
312.697245258798
 31
0.0
  0
LINE
  5
324
  8
1
  6
CONTINUOUS
 62
     7
 10
-317.5376755448302
 20
312.697245258798
 30
0.0
 11
-317.5376755448302
 21
312.9694214078687
 31
0.0
  0
ARC
  5
325
  8
1
  6
CONTINUOUS
 62
     7
 10
-346.0376755448302
 20
333.797245258798
 30
0.0
 40
1.000000000000001
 50
90.0
 51
180.0
  0
LINE
  5
326
  8
1
  6
CONTINUOUS
 62
     7
 10
-346.0376755448302
 20
334.797245258798
 30
0.0
 11
-323.0376755448302
 21
334.797245258798
 31
0.0
  0
ARC
  5
327
  8
1
  6
CONTINUOUS
 62
     7
 10
-323.0376755448302
 20
333.797245258798
 30
0.0
 40
1.000000000000001
 50
0.0
 51
90.0
  0
LINE
  5
328
  8
1
  6
CONTINUOUS
 62
     7
 10
-322.0376755448302
 20
328.9694214078687
 30
0.0
 11
-322.0376755448302
 21
333.797245258798
 31
0.0
  0
LINE
  5
329
  8
1
  6
CONTINUOUS
 62
     7
 10
-347.0376755448302
 20
328.9694214078687
 30
0.0
 11
-347.0376755448302
 21
333.797245258798
 31
0.0
  0
LINE
  5
32A
  8
1
  6
CONTINUOUS
 62
     7
 10
-381.0376755448302
 20
320.9694214078689
 30
0.0
 11
-375.0376755448302
 21
320.9694214078686
 31
0.0
  0
LINE
  5
32B
  8
1
  6
CONTINUOUS
 62
     7
 10
-380.9765113149733
 20
327.978147943367
 30
0.0
 11
-381.0376755448302
 21
320.9694214078689
 31
0.0
  0
LINE
  5
32C
  8
1
  6
CONTINUOUS
 62
     9
 10
-375.0988397746871
 20
327.978147943367
 30
0.0
 11
-380.9765113149733
 21
327.978147943367
 31
0.0
  0
LINE
  5
32D
  8
1
  6
CONTINUOUS
 62
     7
 10
-375.0988397746871
 20
327.978147943367
 30
0.0
 11
-375.0376755448302
 21
320.9694214078686
 31
0.0
  0
LINE
  5
32E
  8
1
  6
CONTINUOUS
 62
     7
 10
-375.0376755448302
 20
320.9694214078686
 30
0.0
 11
-375.0988397746871
 21
313.9606948723703
 31
0.0
  0
LINE
  5
32F
  8
1
  6
CONTINUOUS
 62
     9
 10
-380.9765113149733
 20
313.9606948723703
 30
0.0
 11
-375.0988397746871
 21
313.9606948723703
 31
0.0
  0
LINE
  5
330
  8
1
  6
CONTINUOUS
 62
     7
 10
-381.0376755448302
 20
320.9694214078689
 30
0.0
 11
-380.9765113149733
 21
313.9606948723703
 31
0.0
  0
LINE
  5
331
  8
1
  6
CONTINUOUS
 62
     7
 10
-380.9678606025041
 20
328.9694214078687
 30
0.0
 11
-375.1074904871563
 21
328.9694214078687
 31
0.0
  0
LINE
  5
332
  8
1
  6
CONTINUOUS
 62
     7
 10
-375.1074904871562
 20
328.9694214078687
 30
0.0
 11
-375.0988397746871
 21
327.978147943367
 31
0.0
  0
LINE
  5
333
  8
1
  6
CONTINUOUS
 62
     7
 10
-380.9765113149733
 20
327.978147943367
 30
0.0
 11
-380.9678606025041
 21
328.9694214078687
 31
0.0
  0
LINE
  5
334
  8
1
  6
CONTINUOUS
 62
     7
 10
-375.1074904871563
 20
312.9694214078687
 30
0.0
 11
-380.9678606025041
 21
312.9694214078687
 31
0.0
  0
LINE
  5
335
  8
1
  6
CONTINUOUS
 62
     7
 10
-375.0988397746871
 20
313.9606948723703
 30
0.0
 11
-375.1074904871563
 21
312.9694214078687
 31
0.0
  0
LINE
  5
336
  8
1
  6
CONTINUOUS
 62
     7
 10
-380.9678606025041
 20
312.9694214078687
 30
0.0
 11
-380.9765113149733
 21
313.9606948723703
 31
0.0
  0
LINE
  5
337
  8
1
  6
CONTINUOUS
 62
     7
 10
-384.5376755448302
 20
320.969421407869
 30
0.0
 11
-382.5376755448302
 21
320.9694214078685
 31
0.0
  0
LINE
  5
338
  8
1
  6
CONTINUOUS
 62
     7
 10
-382.5376755448302
 20
320.9694214078685
 30
0.0
 11
-382.5988397746871
 21
313.9606948723703
 31
0.0
  0
LINE
  5
339
  8
1
  6
CONTINUOUS
 62
     9
 10
-384.4765113149733
 20
313.9606948723703
 30
0.0
 11
-382.5988397746871
 21
313.9606948723703
 31
0.0
  0
LINE
  5
33A
  8
1
  6
CONTINUOUS
 62
     7
 10
-384.5376755448302
 20
320.969421407869
 30
0.0
 11
-384.4765113149733
 21
313.9606948723703
 31
0.0
  0
LINE
  5
33B
  8
1
  6
CONTINUOUS
 62
     9
 10
-382.5988397746871
 20
327.978147943367
 30
0.0
 11
-384.4765113149733
 21
327.978147943367
 31
0.0
  0
LINE
  5
33C
  8
1
  6
CONTINUOUS
 62
     7
 10
-382.5988397746871
 20
327.978147943367
 30
0.0
 11
-382.5376755448302
 21
320.9694214078685
 31
0.0
  0
LINE
  5
33D
  8
1
  6
CONTINUOUS
 62
     7
 10
-384.4765113149733
 20
327.978147943367
 30
0.0
 11
-384.5376755448302
 21
320.969421407869
 31
0.0
  0
LINE
  5
33E
  8
1
  6
CONTINUOUS
 62
     7
 10
-382.6074904871563
 20
328.9694214078687
 30
0.0
 11
-382.5988397746871
 21
327.978147943367
 31
0.0
  0
LINE
  5
33F
  8
1
  6
CONTINUOUS
 62
     7
 10
-384.4765113149733
 20
327.978147943367
 30
0.0
 11
-384.4678606025041
 21
328.9694214078687
 31
0.0
  0
LINE
  5
340
  8
1
  6
CONTINUOUS
 62
     7
 10
-384.4678606025041
 20
328.9694214078687
 30
0.0
 11
-382.6074904871563
 21
328.9694214078687
 31
0.0
  0
LINE
  5
341
  8
1
  6
CONTINUOUS
 62
     7
 10
-382.5988397746871
 20
313.9606948723703
 30
0.0
 11
-382.6074904871563
 21
312.9694214078687
 31
0.0
  0
LINE
  5
342
  8
1
  6
CONTINUOUS
 62
     7
 10
-384.4678606025041
 20
312.9694214078687
 30
0.0
 11
-384.4765113149733
 21
313.9606948723703
 31
0.0
  0
LINE
  5
343
  8
1
  6
CONTINUOUS
 62
     7
 10
-382.6074904871563
 20
312.9694214078687
 30
0.0
 11
-384.4678606025041
 21
312.9694214078687
 31
0.0
  0
LINE
  5
344
  8
1
  6
CONTINUOUS
 62
     7
 10
-330.4365434236338
 20
323.5683705294282
 30
0.0
 11
-330.4365434236338
 21
323.7175611958093
 31
0.0
  0
ARC
  5
345
  8
1
  6
CONTINUOUS
 62
     7
 10
-329.5376755448302
 20
320.9694214078687
 30
0.0
 40
2.750000000000001
 50
102.4625164264976
 51
109.0783641367906
  0
LINE
  5
346
  8
1
  6
CONTINUOUS
 62
     7
 10
-330.1299794620608
 20
323.6553696700101
 30
0.0
 11
-330.1311279189727
 21
323.6546242455747
 31
0.0
  0
LINE
  5
347
  8
1
  6
CONTINUOUS
 62
     9
 10
-330.1312078959724
 20
320.9694214078687
 30
0.0
 11
-330.1299794620608
 21
323.6553696700101
 31
0.0
  0
LINE
  5
348
  8
1
  6
CONTINUOUS
 62
     9
 10
-330.1299794620608
 20
318.2834731457272
 30
0.0
 11
-330.1312078959724
 21
320.9694214078687
 31
0.0
  0
LINE
  5
349
  8
1
  6
CONTINUOUS
 62
     7
 10
-330.1311279189727
 20
318.2842185701626
 30
0.0
 11
-330.1299794620608
 21
318.2834731457272
 31
0.0
  0
ARC
  5
34A
  8
1
  6
CONTINUOUS
 62
     7
 10
-329.5376755448302
 20
320.9694214078687
 30
0.0
 40
2.750000000000001
 50
250.9216358632093
 51
257.5374835735023
  0
LINE
  5
34B
  8
1
  6
CONTINUOUS
 62
     7
 10
-330.4365434236338
 20
318.221281619928
 30
0.0
 11
-330.4365434236338
 21
318.3704722863091
 31
0.0
  0
ARC
  5
34C
  8
1
  6
CONTINUOUS
 62
     7
 10
-330.5376755448302
 20
320.9694214078687
 30
0.0
 40
2.75
 50
271.4866545699228
 51
272.1075456741796
  0
LINE
  5
34D
  8
1
  6
CONTINUOUS
 62
     7
 10
-330.4798933854863
 20
318.2541103177787
 30
0.0
 11
-330.4663292540964
 21
318.220347071515
 31
0.0
  0
LINE
  5
34E
  8
1
  6
CONTINUOUS
 62
     7
 10
-330.7682537208836
 20
319.7494153199649
 30
0.0
 11
-330.4798933854863
 21
318.2541103177787
 31
0.0
  0
LINE
  5
34F
  8
1
  6
CONTINUOUS
 62
     7
 10
-330.7876755448302
 20
320.2531556051877
 30
0.0
 11
-330.7682537208836
 21
319.7494153199649
 31
0.0
  0
LINE
  5
350
  8
1
  6
CONTINUOUS
 62
     7
 10
-330.7876755448302
 20
320.2531556051877
 30
0.0
 11
-330.7876755448302
 21
321.6856872105496
 31
0.0
  0
LINE
  5
351
  8
1
  6
CONTINUOUS
 62
     7
 10
-330.7682537208837
 20
322.1894274957723
 30
0.0
 11
-330.7876755448302
 21
321.6856872105496
 31
0.0
  0
LINE
  5
352
  8
1
  6
CONTINUOUS
 62
     7
 10
-330.4798933854863
 20
323.6847324979586
 30
0.0
 11
-330.7682537208837
 21
322.1894274957723
 31
0.0
  0
LINE
  5
353
  8
1
  6
CONTINUOUS
 62
     7
 10
-330.4663292540964
 20
323.7184957442224
 30
0.0
 11
-330.4798933854863
 21
323.6847324979586
 31
0.0
  0
ARC
  5
354
  8
1
  6
CONTINUOUS
 62
     7
 10
-330.5376755448302
 20
320.9694214078687
 30
0.0
 40
2.75
 50
87.89245432582045
 51
88.51334543007721
  0
ARC
  5
355
  8
1
  6
CONTINUOUS
 62
     9
 10
-330.5376755448302
 20
320.9694214078687
 30
0.0
 40
0.7586413514237952
 50
109.2406440950062
 51
250.7593559049938
  0
ARC
  5
356
  8
1
  6
CONTINUOUS
 62
     9
 10
-330.5376755448302
 20
320.9694214078687
 30
0.0
 40
1.241604264568292
 50
100.7025226162913
 51
259.2974773837093
  0
ARC
  5
357
  8
1
  6
CONTINUOUS
 62
     9
 10
-292.5376755448302
 20
320.9694214078687
 30
0.0
 40
0.7586413514237952
 50
109.2406440950068
 51
250.7593559049932
  0
LINE
  5
358
  8
1
  6
CONTINUOUS
 62
     7
 10
-292.7876755448302
 20
320.2531556051877
 30
0.0
 11
-292.7682537208836
 21
319.7494153199649
 31
0.0
  0
ARC
  5
359
  8
1
  6
CONTINUOUS
 62
     9
 10
-292.5376755448302
 20
320.9694214078687
 30
0.0
 40
1.241604264568292
 50
100.7025226162917
 51
259.297477383709
  0
LINE
  5
35A
  8
1
  6
CONTINUOUS
 62
     7
 10
-292.7682537208836
 20
322.1894274957723
 30
0.0
 11
-292.7876755448302
 21
321.6856872105496
 31
0.0
  0
ARC
  5
35B
  8
1
  6
CONTINUOUS
 62
     9
 10
-290.5376755448302
 20
320.9694214078687
 30
0.0
 40
0.7586413514238135
 50
289.2406440950068
 51
70.75935590499319
  0
LINE
  5
35C
  8
1
  6
CONTINUOUS
 62
     7
 10
-290.2876755448302
 20
321.6856872105496
 30
0.0
 11
-290.3070973687767
 21
322.1894274957724
 31
0.0
  0
ARC
  5
35D
  8
1
  6
CONTINUOUS
 62
     9
 10
-290.5376755448302
 20
320.9694214078687
 30
0.0
 40
1.241604264568302
 50
280.7025226162917
 51
79.29747738370895
  0
LINE
  5
35E
  8
1
  6
CONTINUOUS
 62
     7
 10
-290.3070973687767
 20
319.749415319965
 30
0.0
 11
-290.2876755448302
 21
320.2531556051877
 31
0.0
  0
LINE
  5
35F
  8
1
  6
CONTINUOUS
 62
     7
 10
-290.6388076660265
 20
318.3704722863092
 30
0.0
 11
-290.6388076660265
 21
318.221281619928
 31
0.0
  0
ARC
  5
360
  8
1
  6
CONTINUOUS
 62
     7
 10
-291.5376755448302
 20
320.9694214078687
 30
0.0
 40
2.749999999999998
 50
282.4625164264987
 51
289.0783641367917
  0
LINE
  5
361
  8
1
  6
CONTINUOUS
 62
     7
 10
-290.9453716275995
 20
318.2834731457272
 30
0.0
 11
-290.9442231706877
 21
318.2842185701626
 31
0.0
  0
LINE
  5
362
  8
1
  6
CONTINUOUS
 62
     9
 10
-290.944143193688
 20
320.9694214078687
 30
0.0
 11
-290.9453716275995
 21
318.2834731457272
 31
0.0
  0
LINE
  5
363
  8
1
  6
CONTINUOUS
 62
     9
 10
-290.9453716275995
 20
323.6553696700101
 30
0.0
 11
-290.944143193688
 21
320.9694214078687
 31
0.0
  0
LINE
  5
364
  8
1
  6
CONTINUOUS
 62
     7
 10
-290.9442231706877
 20
323.6546242455747
 30
0.0
 11
-290.9453716275995
 21
323.6553696700101
 31
0.0
  0
ARC
  5
365
  8
1
  6
CONTINUOUS
 62
     7
 10
-291.5376755448302
 20
320.9694214078687
 30
0.0
 40
2.749999999999998
 50
70.92163586320794
 51
77.53748357350123
  0
LINE
  5
366
  8
1
  6
CONTINUOUS
 62
     7
 10
-290.6388076660265
 20
323.7175611958093
 30
0.0
 11
-290.6388076660265
 21
323.5683705294281
 31
0.0
  0
ARC
  5
367
  8
1
  6
CONTINUOUS
 62
     7
 10
-290.5376755448302
 20
320.9694214078687
 30
0.0
 40
2.750000000000004
 50
91.48665456992279
 51
92.10754567417841
  0
LINE
  5
368
  8
1
  6
CONTINUOUS
 62
     7
 10
-290.5954577041741
 20
323.6847324979586
 30
0.0
 11
-290.6090218355641
 21
323.7184957442224
 31
0.0
  0
LINE
  5
369
  8
1
  6
CONTINUOUS
 62
     7
 10
-290.3070973687767
 20
322.1894274957724
 30
0.0
 11
-290.5954577041741
 21
323.6847324979586
 31
0.0
  0
LINE
  5
36A
  8
1
  6
CONTINUOUS
 62
     7
 10
-290.2876755448302
 20
320.2531556051877
 30
0.0
 11
-290.2876755448302
 21
321.6856872105496
 31
0.0
  0
LINE
  5
36B
  8
1
  6
CONTINUOUS
 62
     7
 10
-290.5954577041741
 20
318.2541103177787
 30
0.0
 11
-290.3070973687767
 21
319.749415319965
 31
0.0
  0
LINE
  5
36C
  8
1
  6
CONTINUOUS
 62
     7
 10
-290.6090218355641
 20
318.220347071515
 30
0.0
 11
-290.5954577041741
 21
318.2541103177787
 31
0.0
  0
ARC
  5
36D
  8
1
  6
CONTINUOUS
 62
     7
 10
-290.5376755448302
 20
320.9694214078687
 30
0.0
 40
2.750000000000004
 50
267.8924543258216
 51
268.5133454300772
  0
LINE
  5
36E
  8
1
  6
CONTINUOUS
 62
     7
 10
-292.4365434236339
 20
323.5683705294281
 30
0.0
 11
-292.4365434236339
 21
323.7175611958093
 31
0.0
  0
ARC
  5
36F
  8
1
  6
CONTINUOUS
 62
     7
 10
-291.5376755448302
 20
320.9694214078687
 30
0.0
 40
2.749999999999998
 50
102.4625164264976
 51
109.0783641367906
  0
LINE
  5
370
  8
1
  6
CONTINUOUS
 62
     7
 10
-292.1299794620609
 20
323.6553696700101
 30
0.0
 11
-292.1311279189727
 21
323.6546242455747
 31
0.0
  0
LINE
  5
371
  8
1
  6
CONTINUOUS
 62
     9
 10
-292.1312078959724
 20
320.9694214078686
 30
0.0
 11
-292.1299794620609
 21
323.6553696700101
 31
0.0
  0
LINE
  5
372
  8
1
  6
CONTINUOUS
 62
     9
 10
-292.1299794620609
 20
318.2834731457272
 30
0.0
 11
-292.1312078959724
 21
320.9694214078686
 31
0.0
  0
LINE
  5
373
  8
1
  6
CONTINUOUS
 62
     7
 10
-292.1311279189727
 20
318.2842185701626
 30
0.0
 11
-292.1299794620609
 21
318.2834731457272
 31
0.0
  0
ARC
  5
374
  8
1
  6
CONTINUOUS
 62
     7
 10
-291.5376755448302
 20
320.9694214078687
 30
0.0
 40
2.749999999999998
 50
250.9216358632093
 51
257.5374835735023
  0
LINE
  5
375
  8
1
  6
CONTINUOUS
 62
     7
 10
-292.4365434236339
 20
318.221281619928
 30
0.0
 11
-292.4365434236339
 21
318.3704722863091
 31
0.0
  0
ARC
  5
376
  8
1
  6
CONTINUOUS
 62
     7
 10
-292.5376755448302
 20
320.9694214078687
 30
0.0
 40
2.750000000000004
 50
271.4866545699239
 51
272.1075456741796
  0
LINE
  5
377
  8
1
  6
CONTINUOUS
 62
     7
 10
-292.4798933854863
 20
318.2541103177787
 30
0.0
 11
-292.4663292540963
 21
318.220347071515
 31
0.0
  0
LINE
  5
378
  8
1
  6
CONTINUOUS
 62
     7
 10
-292.7682537208836
 20
319.7494153199649
 30
0.0
 11
-292.4798933854863
 21
318.2541103177787
 31
0.0
  0
LINE
  5
379
  8
1
  6
CONTINUOUS
 62
     7
 10
-292.7876755448302
 20
320.2531556051877
 30
0.0
 11
-292.7876755448302
 21
321.6856872105496
 31
0.0
  0
LINE
  5
37A
  8
1
  6
CONTINUOUS
 62
     7
 10
-292.4798933854863
 20
323.6847324979586
 30
0.0
 11
-292.7682537208836
 21
322.1894274957723
 31
0.0
  0
LINE
  5
37B
  8
1
  6
CONTINUOUS
 62
     7
 10
-292.4663292540963
 20
323.7184957442224
 30
0.0
 11
-292.4798933854863
 21
323.6847324979586
 31
0.0
  0
ARC
  5
37C
  8
1
  6
CONTINUOUS
 62
     7
 10
-292.5376755448302
 20
320.9694214078687
 30
0.0
 40
2.750000000000004
 50
87.89245432582045
 51
88.51334543007606
  0
LINE
  5
37D
  8
1
  6
CONTINUOUS
 62
     7
 10
-328.6388076660266
 20
318.3704722863091
 30
0.0
 11
-328.6388076660266
 21
318.221281619928
 31
0.0
  0
ARC
  5
37E
  8
1
  6
CONTINUOUS
 62
     7
 10
-329.5376755448302
 20
320.9694214078687
 30
0.0
 40
2.750000000000001
 50
282.4625164264976
 51
289.0783641367906
  0
LINE
  5
37F
  8
1
  6
CONTINUOUS
 62
     7
 10
-328.9453716275995
 20
318.2834731457272
 30
0.0
 11
-328.9442231706878
 21
318.2842185701626
 31
0.0
  0
LINE
  5
380
  8
1
  6
CONTINUOUS
 62
     9
 10
-328.9441431936881
 20
320.9694214078687
 30
0.0
 11
-328.9453716275995
 21
318.2834731457272
 31
0.0
  0
LINE
  5
381
  8
1
  6
CONTINUOUS
 62
     9
 10
-328.9453716275995
 20
323.6553696700101
 30
0.0
 11
-328.9441431936881
 21
320.9694214078687
 31
0.0
  0
LINE
  5
382
  8
1
  6
CONTINUOUS
 62
     7
 10
-328.9442231706878
 20
323.6546242455747
 30
0.0
 11
-328.9453716275995
 21
323.6553696700101
 31
0.0
  0
ARC
  5
383
  8
1
  6
CONTINUOUS
 62
     7
 10
-329.5376755448302
 20
320.9694214078687
 30
0.0
 40
2.750000000000001
 50
70.92163586320936
 51
77.53748357350234
  0
LINE
  5
384
  8
1
  6
CONTINUOUS
 62
     7
 10
-328.6388076660266
 20
323.7175611958093
 30
0.0
 11
-328.6388076660266
 21
323.5683705294281
 31
0.0
  0
ARC
  5
385
  8
1
  6
CONTINUOUS
 62
     7
 10
-328.5376755448302
 20
320.9694214078687
 30
0.0
 40
2.750000000000001
 50
91.48665456992279
 51
92.10754567417958
  0
LINE
  5
386
  8
1
  6
CONTINUOUS
 62
     7
 10
-328.5954577041741
 20
323.6847324979586
 30
0.0
 11
-328.6090218355641
 21
323.7184957442224
 31
0.0
  0
LINE
  5
387
  8
1
  6
CONTINUOUS
 62
     7
 10
-328.3070973687767
 20
322.1894274957724
 30
0.0
 11
-328.5954577041741
 21
323.6847324979586
 31
0.0
  0
LINE
  5
388
  8
1
  6
CONTINUOUS
 62
     7
 10
-328.2876755448302
 20
321.6856872105496
 30
0.0
 11
-328.3070973687767
 21
322.1894274957724
 31
0.0
  0
LINE
  5
389
  8
1
  6
CONTINUOUS
 62
     7
 10
-328.2876755448302
 20
320.2531556051877
 30
0.0
 11
-328.2876755448302
 21
321.6856872105496
 31
0.0
  0
LINE
  5
38A
  8
1
  6
CONTINUOUS
 62
     7
 10
-328.3070973687767
 20
319.749415319965
 30
0.0
 11
-328.2876755448302
 21
320.2531556051877
 31
0.0
  0
LINE
  5
38B
  8
1
  6
CONTINUOUS
 62
     7
 10
-328.5954577041741
 20
318.2541103177787
 30
0.0
 11
-328.3070973687767
 21
319.749415319965
 31
0.0
  0
LINE
  5
38C
  8
1
  6
CONTINUOUS
 62
     7
 10
-328.6090218355641
 20
318.220347071515
 30
0.0
 11
-328.5954577041741
 21
318.2541103177787
 31
0.0
  0
ARC
  5
38D
  8
1
  6
CONTINUOUS
 62
     7
 10
-328.5376755448302
 20
320.9694214078687
 30
0.0
 40
2.750000000000001
 50
267.8924543258204
 51
268.5133454300772
  0
ARC
  5
38E
  8
1
  6
CONTINUOUS
 62
     9
 10
-328.5376755448302
 20
320.9694214078687
 30
0.0
 40
0.7586413514238135
 50
289.2406440950074
 51
70.7593559049926
  0
ARC
  5
38F
  8
1
  6
CONTINUOUS
 62
     9
 10
-328.5376755448302
 20
320.9694214078687
 30
0.0
 40
1.241604264568302
 50
280.702522616292
 51
79.2974773837085
  0
ARC
  5
390
  8
1
  6
CONTINUOUS
 62
     9
 10
-330.5376755448302
 20
320.9694214078687
 30
0.0
 40
2.715925826289044
 50
88.78092264636297
 51
271.2190773536371
  0
ARC
  5
391
  8
1
  6
CONTINUOUS
 62
     9
 10
-328.5376755448302
 20
320.9694214078687
 30
0.0
 40
2.715925826289044
 50
268.7809226463633
 51
91.21907735363675
  0
ARC
  5
392
  8
1
  6
CONTINUOUS
 62
     9
 10
-292.5376755448302
 20
320.9694214078687
 30
0.0
 40
2.715925826289045
 50
88.78092264636315
 51
271.2190773536369
  0
ARC
  5
393
  8
1
  6
CONTINUOUS
 62
     9
 10
-290.5376755448302
 20
320.9694214078687
 30
0.0
 40
2.715925826289044
 50
268.7809226463631
 51
91.21907735363685
  0
LINE
  5
394
  8
1
  6
CONTINUOUS
 62
     7
 10
-382.5376755448302
 20
320.9694214078685
 30
0.0
 11
-381.0376755448302
 21
320.9694214078685
 31
0.0
  0
LINE
  5
395
  8
1
  6
CONTINUOUS
 62
     7
 10
-380.9678606025041
 20
312.9694214078687
 30
0.0
 11
-382.6074904871563
 21
312.9694214078687
 31
0.0
  0
LINE
  5
396
  8
1
  6
CONTINUOUS
 62
     7
 10
-380.9678606025041
 20
328.9694214078687
 30
0.0
 11
-382.6074904871563
 21
328.9694214078687
 31
0.0
  0
ARC
  5
397
  8
1
  6
CONTINUOUS
 62
     7
 10
-330.5376755448302
 20
320.9694214078687
 30
0.0
 40
2.749999999999988
 50
88.51334543007694
 51
271.4866545699232
  0
ARC
  5
398
  8
1
  6
CONTINUOUS
 62
     7
 10
-292.5376755448302
 20
320.9694214078687
 30
0.0
 40
2.749999999999989
 50
88.51334543007727
 51
271.4866545699231
  0
ARC
  5
399
  8
1
  6
CONTINUOUS
 62
     7
 10
-328.5376755448302
 20
320.9694214078687
 30
0.0
 40
2.749999999999988
 50
268.5133454300773
 51
91.48665456992296
  0
ARC
  5
39A
  8
1
  6
CONTINUOUS
 62
     7
 10
-290.5376755448302
 20
320.9694214078687
 30
0.0
 40
2.749999999999988
 50
268.5133454300773
 51
91.48665456992309
  0
LINE
  5
39B
  8
1
  6
CONTINUOUS
 62
     9
 10
-372.1076047179638
 20
328.9694214078687
 30
0.0
 11
-372.0377897756377
 21
320.9694214078687
 31
0.0
  0
LINE
  5
39C
  8
1
  6
CONTINUOUS
 62
     7
 10
-372.0377897756377
 20
320.9694214078687
 30
0.0
 11
-375.0376755448302
 21
320.9694214078687
 31
0.0
  0
LINE
  5
39D
  8
1
  6
CONTINUOUS
 62
     7
 10
-372.1076047179638
 20
328.9694214078687
 30
0.0
 11
-375.1074904871563
 21
328.9694214078687
 31
0.0
  0
LINE
  5
39E
  8
1
  6
CONTINUOUS
 62
     9
 10
-372.0377897756377
 20
320.9694214078687
 30
0.0
 11
-372.1076047179638
 21
312.9694214078687
 31
0.0
  0
LINE
  5
39F
  8
1
  6
CONTINUOUS
 62
     7
 10
-375.1074904871563
 20
312.9694214078687
 30
0.0
 11
-372.1076047179638
 21
312.9694214078687
 31
0.0
  0
ARC
  5
3A0
  8
1
  6
CONTINUOUS
 62
     9
 10
-291.5376755448302
 20
320.9737846756178
 30
0.0
 40
3.249999999999996
 50
271.6350341436087
 51
307.7296643058064
  0
LINE
  5
3A1
  8
1
  6
CONTINUOUS
 62
     7
 10
-291.444943762106
 20
317.7251078963009
 30
0.0
 11
-290.9453716275995
 21
318.2834731457272
 31
0.0
  0
LINE
  5
3A2
  8
1
  6
CONTINUOUS
 62
     7
 10
-290.9453716275995
 20
323.6553696700101
 30
0.0
 11
-291.444943762106
 21
324.2137349194364
 31
0.0
  0
ARC
  5
3A3
  8
1
  6
CONTINUOUS
 62
     9
 10
-291.5376755448302
 20
320.9650581401195
 30
0.0
 40
3.249999999999996
 50
52.27033569419365
 51
88.36496585639134
  0
ARC
  5
3A4
  8
1
  6
CONTINUOUS
 62
     9
 10
-329.5376755448302
 20
320.9737846756178
 30
0.0
 40
3.25
 50
271.6350341436087
 51
307.7296643058064
  0
LINE
  5
3A5
  8
1
  6
CONTINUOUS
 62
     7
 10
-329.444943762106
 20
317.7251078963009
 30
0.0
 11
-328.9453716275995
 21
318.2834731457272
 31
0.0
  0
LINE
  5
3A6
  8
1
  6
CONTINUOUS
 62
     7
 10
-328.9453716275995
 20
323.6553696700101
 30
0.0
 11
-329.444943762106
 21
324.2137349194364
 31
0.0
  0
ARC
  5
3A7
  8
1
  6
CONTINUOUS
 62
     9
 10
-329.5376755448302
 20
320.9650581401195
 30
0.0
 40
3.25
 50
52.27033569419365
 51
88.36496585639134
  0
ARC
  5
3A8
  8
1
  6
CONTINUOUS
 62
     9
 10
-329.5376755448302
 20
320.9650581401195
 30
0.0
 40
3.25
 50
91.63503414360866
 51
127.7296643058078
  0
LINE
  5
3A9
  8
1
  6
CONTINUOUS
 62
     7
 10
-329.6304073275544
 20
324.2137349194364
 30
0.0
 11
-330.1299794620608
 21
323.6553696700101
 31
0.0
  0
LINE
  5
3AA
  8
1
  6
CONTINUOUS
 62
     7
 10
-330.1299794620608
 20
318.2834731457272
 30
0.0
 11
-329.6304073275544
 21
317.7251078963009
 31
0.0
  0
ARC
  5
3AB
  8
1
  6
CONTINUOUS
 62
     9
 10
-329.5376755448302
 20
320.9737846756178
 30
0.0
 40
3.25
 50
232.2703356941922
 51
268.3649658563913
  0
LINE
  5
3AC
  8
1
  6
CONTINUOUS
 62
     7
 10
-292.1299794620609
 20
318.2834731457272
 30
0.0
 11
-291.6304073275543
 21
317.7251078963009
 31
0.0
  0
ARC
  5
3AD
  8
1
  6
CONTINUOUS
 62
     9
 10
-291.5376755448302
 20
320.9737846756178
 30
0.0
 40
3.249999999999996
 50
232.2703356941936
 51
268.3649658563922
  0
ARC
  5
3AE
  8
1
  6
CONTINUOUS
 62
     9
 10
-291.5376755448302
 20
320.9650581401195
 30
0.0
 40
3.249999999999996
 50
91.63503414360775
 51
127.7296643058064
  0
LINE
  5
3AF
  8
1
  6
CONTINUOUS
 62
     7
 10
-291.6304073275543
 20
324.2137349194364
 30
0.0
 11
-292.1299794620609
 21
323.6553696700101
 31
0.0
  0
LINE
  5
3B0
  8
1
  6
CONTINUOUS
 62
     7
 10
-290.9441431936881
 20
320.9694214078687
 30
0.0
 11
-291.443459956631
 21
320.9694214078687
 31
0.0
  0
LINE
  5
3B1
  8
1
  6
CONTINUOUS
 62
     9
 10
-291.444943762106
 20
317.7251078963009
 30
0.0
 11
-291.443459956631
 21
320.9694214078687
 31
0.0
  0
LINE
  5
3B2
  8
1
  6
CONTINUOUS
 62
     9
 10
-291.443459956631
 20
320.9694214078687
 30
0.0
 11
-291.444943762106
 21
324.2137349194364
 31
0.0
  0
LINE
  5
3B3
  8
1
  6
CONTINUOUS
 62
     9
 10
-291.6304073275543
 20
324.2137349194364
 30
0.0
 11
-291.6318911330294
 21
320.9694214078687
 31
0.0
  0
LINE
  5
3B4
  8
1
  6
CONTINUOUS
 62
     7
 10
-291.6318911330294
 20
320.9694214078688
 30
0.0
 11
-292.1312078959724
 21
320.9694214078688
 31
0.0
  0
LINE
  5
3B5
  8
1
  6
CONTINUOUS
 62
     7
 10
-329.6318911330293
 20
320.9694214078688
 30
0.0
 11
-330.1312078959724
 21
320.9694214078688
 31
0.0
  0
LINE
  5
3B6
  8
1
  6
CONTINUOUS
 62
     9
 10
-329.6318911330293
 20
320.9694214078687
 30
0.0
 11
-329.6304073275544
 21
317.7251078963009
 31
0.0
  0
LINE
  5
3B7
  8
1
  6
CONTINUOUS
 62
     9
 10
-291.6318911330294
 20
320.9694214078687
 30
0.0
 11
-291.6304073275543
 21
317.7251078963009
 31
0.0
  0
LINE
  5
3B8
  8
1
  6
CONTINUOUS
 62
     9
 10
-329.6304073275544
 20
324.2137349194364
 30
0.0
 11
-329.6318911330293
 21
320.9694214078687
 31
0.0
  0
LINE
  5
3B9
  8
1
  6
CONTINUOUS
 62
     9
 10
-329.443459956631
 20
320.9694214078687
 30
0.0
 11
-329.444943762106
 21
324.2137349194364
 31
0.0
  0
LINE
  5
3BA
  8
1
  6
CONTINUOUS
 62
     7
 10
-328.9441431936881
 20
320.9694214078687
 30
0.0
 11
-329.443459956631
 21
320.9694214078687
 31
0.0
  0
LINE
  5
3BB
  8
1
  6
CONTINUOUS
 62
     9
 10
-329.444943762106
 20
317.7251078963009
 30
0.0
 11
-329.443459956631
 21
320.9694214078687
 31
0.0
  0
LINE
  5
3BC
  8
1
  6
CONTINUOUS
 62
     7
 10
-285.5376755448302
 20
320.9694214078688
 30
0.0
 11
-287.7876755448302
 21
320.9694214078687
 31
0.0
  0
LINE
  5
3BD
  8
1
  6
CONTINUOUS
 62
     7
 10
-291.443459956631
 20
320.9694214078687
 30
0.0
 11
-291.6318911330294
 21
320.9694214078687
 31
0.0
  0
LINE
  5
3BE
  8
1
  6
CONTINUOUS
 62
     7
 10
-295.2876755448302
 20
320.9694214078687
 30
0.0
 11
-325.7876755448302
 21
320.9694214078687
 31
0.0
  0
LINE
  5
3BF
  8
1
  6
CONTINUOUS
 62
     7
 10
-329.443459956631
 20
320.9694214078687
 30
0.0
 11
-329.6318911330293
 21
320.9694214078687
 31
0.0
  0
LINE
  5
3C0
  8
1
  6
CONTINUOUS
 62
     7
 10
-333.2876755448302
 20
320.9694214078687
 30
0.0
 11
-372.0377897756377
 21
320.9694214078687
 31
0.0
  0
ARC
  5
3C1
  8
1
  6
CONTINUOUS
 62
     7
 10
-288.5814241189412
 20
325.9694214078687
 30
0.0
 40
3.0
 50
0.4999999999994185
 51
90.00000000000001
  0
LINE
  5
3C2
  8
1
  6
CONTINUOUS
 62
     7
 10
-285.5815383497487
 20
325.9956010143637
 30
0.0
 11
-285.5376755448302
 21
320.9694214078688
 31
0.0
  0
LINE
  5
3C3
  8
1
  6
CONTINUOUS
 62
     7
 10
-372.1076047179638
 20
328.9694214078687
 30
0.0
 11
-288.5814241189412
 21
328.9694214078687
 31
0.0
  0
LINE
  5
3C4
  8
1
  6
CONTINUOUS
 62
     7
 10
-285.5376755448302
 20
320.9694214078688
 30
0.0
 11
-285.5815383497487
 21
315.9432418013736
 31
0.0
  0
ARC
  5
3C5
  8
1
  6
CONTINUOUS
 62
     7
 10
-288.5814241189412
 20
315.9694214078687
 30
0.0
 40
3.0
 50
270.0
 51
359.5000000000005
  0
LINE
  5
3C6
  8
1
  6
CONTINUOUS
 62
     7
 10
-372.1076047179638
 20
312.9694214078687
 30
0.0
 11
-288.5814241189412
 21
312.9694214078687
 31
0.0
  0
LINE
  5
3C7
  8
1
  6
CONTINUOUS
 62
     7
 10
-379.0376755448302
 20
301.8694214078686
 30
0.0
 11
-379.0376755448302
 21
303.2014869780152
 31
0.0
  0
LINE
  5
3C8
  8
1
  6
CONTINUOUS
 62
     9
 10
-384.4154993957596
 20
306.9694214078687
 30
0.0
 11
-375.1249442227378
 21
306.9694214078687
 31
0.0
  0
LINE
  5
3C9
  8
1
  6
CONTINUOUS
 62
     9
 10
-379.0376755448302
 20
303.2014869780152
 30
0.0
 11
-375.1578264883514
 21
303.2014869780152
 31
0.0
  0
LINE
  5
3CA
  8
1
  6
CONTINUOUS
 62
     7
 10
-375.1249442227378
 20
306.9694214078687
 30
0.0
 11
-375.1578264883514
 21
303.2014869780152
 31
0.0
  0
LINE
  5
3CB
  8
1
  6
CONTINUOUS
 62
     7
 10
-384.4154993957596
 20
306.9694214078687
 30
0.0
 11
-384.3709923700267
 21
301.8694214078686
 31
0.0
  0
LINE
  5
3CC
  8
1
  6
CONTINUOUS
 62
     7
 10
-375.0725830159932
 20
312.9694214078687
 30
0.0
 11
-375.1249442227378
 21
306.9694214078687
 31
0.0
  0
LINE
  5
3CD
  8
1
  6
CONTINUOUS
 62
     7
 10
-384.4678606025041
 20
312.9694214078687
 30
0.0
 11
-384.4154993957596
 21
306.9694214078687
 31
0.0
  0
LINE
  5
3CE
  8
1
  6
CONTINUOUS
 62
     7
 10
-375.1578264883514
 20
303.2014869780152
 30
0.0
 11
-375.158966170716
 21
303.0708923142753
 31
0.0
  0
LINE
  5
3CF
  8
1
  6
CONTINUOUS
 62
     7
 10
-306.0376755448302
 20
310.4694214078687
 30
0.0
 11
-305.3415231221236
 21
310.8713451965153
 31
0.0
  0
LINE
  5
3D0
  8
1
  6
CONTINUOUS
 62
     7
 10
-315.7338279675369
 20
310.8713451965153
 30
0.0
 11
-315.0376755448302
 21
310.4694214078687
 31
0.0
  0
LINE
  5
3D1
  8
1
  6
CONTINUOUS
 62
     7
 10
-305.7876755448302
 20
328.9694214078687
 30
0.0
 11
-305.7876755448302
 21
329.2694214078686
 31
0.0
  0
LINE
  5
3D2
  8
1
  6
CONTINUOUS
 62
     7
 10
-306.0376755448302
 20
329.2694214078686
 30
0.0
 11
-306.168908540119
 21
330.7694214078686
 31
0.0
  0
LINE
  5
3D3
  8
1
  6
CONTINUOUS
 62
     7
 10
-314.9064425495413
 20
330.7694214078686
 30
0.0
 11
-315.0376755448302
 21
329.2694214078686
 31
0.0
  0
LINE
  5
3D4
  8
1
  6
CONTINUOUS
 62
     7
 10
-308.0376755448302
 20
309.6694214078687
 30
0.0
 11
-308.0376755448302
 21
310.4694214078687
 31
0.0
  0
LINE
  5
3D5
  8
1
  6
CONTINUOUS
 62
     7
 10
-313.0376755448302
 20
310.4694214078687
 30
0.0
 11
-313.0376755448302
 21
309.6694214078687
 31
0.0
  0
LINE
  5
3D6
  8
1
  6
CONTINUOUS
 62
     7
 10
-313.0376755448302
 20
309.6694214078687
 30
0.0
 11
-312.6376755448302
 21
309.2694214078687
 31
0.0
  0
LINE
  5
3D7
  8
1
  6
CONTINUOUS
 62
     7
 10
-308.4376755448302
 20
309.2694214078687
 30
0.0
 11
-308.0376755448302
 21
309.6694214078687
 31
0.0
  0
LINE
  5
3D8
  8
1
  6
CONTINUOUS
 62
     7
 10
-384.3709923700267
 20
301.8694214078686
 30
0.0
 11
-379.0376755448302
 21
301.8694214078686
 31
0.0
  0
LINE
  5
3D9
  8
1
  6
CONTINUOUS
 62
     7
 10
-379.0376755448302
 20
303.0708923142753
 30
0.0
 11
-375.158966170716
 21
303.0708923142753
 31
0.0
  0
ENDBLK
  8
0
  0
BLOCK
  8
0
  2
D_FRAME_VIEW_3785
 70
     0
 10
0.0
 20
0.0
 30
0.0
  0
LINE
  5
3DE
  8
1
  6
CONTINUOUS
 62
     7
 10
-226.9662150934577
 20
467.9333333333331
 30
0.0
 11
-222.6360880745355
 21
467.9333333333331
 31
0.0
  0
ARC
  5
3DF
  8
1
  6
CONTINUOUS
 62
     7
 10
-222.5395041379767
 20
459.4546641837604
 30
0.0
 40
8.479219244996475
 50
90.65265108114959
 51
110.599948069347
  0
ARC
  5
3E0
  8
1
  6
CONTINUOUS
 62
     7
 10
-227.0974089311979
 20
465.3896311858088
 30
0.0
 40
2.54708312357118
 50
51.81625902308166
 51
87.04753220135473
  0
LINE
  5
3E1
  8
1
  6
CONTINUOUS
 62
     7
 10
-226.9662150934577
 20
463.9333333333331
 30
0.0
 11
-222.6360880745355
 21
463.9333333333331
 31
0.0
  0
ARC
  5
3E2
  8
1
  6
CONTINUOUS
 62
     7
 10
-227.0726275802856
 20
466.410994160509
 30
0.0
 40
2.479944917104964
 50
272.4592719197378
 51
308.6769368558276
  0
ARC
  5
3E3
  8
1
  6
CONTINUOUS
 62
     7
 10
-222.5039072989913
 20
472.601730819755
 30
0.0
 40
8.669405212586893
 50
249.6210125727515
 51
269.1263882767273
  0
LINE
  5
3E4
  8
1
  6
CONTINUOUS
 62
     7
 10
-222.6360880745355
 20
463.9333333333331
 30
0.0
 11
-218.3059610556132
 21
463.9333333333331
 31
0.0
  0
ARC
  5
3E5
  8
1
  6
CONTINUOUS
 62
     7
 10
-222.7354421024102
 20
472.4267668505533
 30
0.0
 40
8.494014606432845
 50
270.6702009067226
 51
290.5823982438009
  0
ARC
  5
3E6
  8
1
  6
CONTINUOUS
 62
     7
 10
-218.1747672178728
 20
466.4770354808597
 30
0.0
 40
2.54708312357339
 50
231.8162590230811
 51
267.0475322013498
  0
ARC
  5
3E7
  8
1
  6
CONTINUOUS
 62
     7
 10
-218.1995485687859
 20
465.4556725061586
 30
0.0
 40
2.479944917103556
 50
92.45927191972761
 51
128.6769368558387
  0
ARC
  5
3E8
  8
1
  6
CONTINUOUS
 62
     7
 10
-222.7694396473231
 20
459.2586955901879
 30
0.0
 40
8.675662661535664
 50
69.62811549912608
 51
89.1192853503525
  0
LINE
  5
3E9
  8
1
  6
CONTINUOUS
 62
     7
 10
-222.6360880745355
 20
467.9333333333331
 30
0.0
 11
-218.3059610556132
 21
467.9333333333331
 31
0.0
  0
ARC
  5
3EA
  8
1
  6
CONTINUOUS
 62
     7
 10
-218.4371548933536
 20
465.3896311858068
 30
0.0
 40
2.547083123573156
 50
51.81625902308168
 51
87.0475322013533
  0
LINE
  5
3EB
  8
1
  6
CONTINUOUS
 62
     7
 10
-216.8625853826392
 20
464.4749457490244
 30
0.0
 11
-216.8625853826392
 21
467.3917209176419
 31
0.0
  0
ARC
  5
3EC
  8
1
  6
CONTINUOUS
 62
     7
 10
-218.4123735424412
 20
466.410994160509
 30
0.0
 40
2.479944917104964
 50
272.4592719197378
 51
308.6769368558276
  0
LINE
  5
3ED
  8
1
  6
CONTINUOUS
 62
     7
 10
-219.7493367285874
 20
464.4749457490244
 30
0.0
 11
-219.7493367285874
 21
467.3917209176419
 31
0.0
  0
LINE
  5
3EE
  8
1
  6
CONTINUOUS
 62
     7
 10
-225.5228394204836
 20
464.4749457490244
 30
0.0
 11
-225.5228394204847
 21
467.3917209176424
 31
0.0
  0
ARC
  5
3EF
  8
1
  6
CONTINUOUS
 62
     7
 10
-226.8598026066298
 20
465.4556725061576
 30
0.0
 40
2.479944917104629
 50
92.4592719197368
 51
128.6769368558304
  0
ARC
  5
3F0
  8
1
  6
CONTINUOUS
 62
     7
 10
-226.8350212557167
 20
466.4770354808608
 30
0.0
 40
2.547083123574494
 50
231.8162590230879
 51
267.0475322013398
  0
LINE
  5
3F1
  8
1
  6
CONTINUOUS
 62
     7
 10
-228.4095907664317
 20
464.4749457490244
 30
0.0
 11
-228.4095907664317
 21
467.3917209176419
 31
0.0
  0
LINE
  5
3F2
  8
1
  6
CONTINUOUS
 62
     7
 10
-220.1360880745357
 20
423.9333333333335
 30
0.0
 11
-224.4038550275017
 21
423.9333333333335
 31
0.0
  0
LINE
  5
3F3
  8
1
  6
CONTINUOUS
 62
     7
 10
-225.6360880745353
 20
426.9333333333333
 30
0.0
 11
-219.6360880745356
 21
426.9333333333333
 31
0.0
  0
LINE
  5
3F4
  8
1
  6
CONTINUOUS
 62
     7
 10
-224.4038550275017
 20
423.9333333333335
 30
0.0
 11
-225.1360880745353
 21
423.9333333333335
 31
0.0
  0
LINE
  5
3F5
  8
1
  6
CONTINUOUS
 62
     7
 10
-218.3059610556132
 20
467.9333333333331
 30
0.0
 11
-217.6360880745354
 21
467.9333333333331
 31
0.0
  0
LINE
  5
3F6
  8
1
  6
CONTINUOUS
 62
     7
 10
-218.3059610556133
 20
463.9333333333331
 30
0.0
 11
-217.6360880745354
 21
463.9333333333331
 31
0.0
  0
LINE
  5
3F7
  8
1
  6
CONTINUOUS
 62
     7
 10
-227.6360880745355
 20
467.9333333333331
 30
0.0
 11
-226.9662150934577
 21
467.9333333333331
 31
0.0
  0
LINE
  5
3F8
  8
1
  6
CONTINUOUS
 62
     7
 10
-227.6360880745355
 20
463.9333333333331
 30
0.0
 11
-226.9662150934577
 21
463.9333333333331
 31
0.0
  0
LINE
  5
3F9
  8
1
  6
CONTINUOUS
 62
     7
 10
-212.538011863182
 20
411.7333333333335
 30
0.0
 11
-215.5639119254647
 21
411.7333333333335
 31
0.0
  0
ARC
  5
3FA
  8
1
  6
CONTINUOUS
 62
     7
 10
-219.0631483176155
 20
409.406831586159
 30
0.0
 40
6.927482668948596
 50
0.6327430242670794
 51
19.6234149761485
  0
ARC
  5
3FB
  8
1
  6
CONTINUOUS
 62
     7
 10
-219.1869254575204
 20
409.5819457369605
 30
0.0
 40
7.051526941553062
 50
340.5451235887163
 51
359.1987184108685
  0
LINE
  5
3FC
  8
1
  6
CONTINUOUS
 62
     7
 10
-212.538011863182
 20
407.2333333333335
 30
0.0
 11
-215.5639119254647
 21
407.2333333333335
 31
0.0
  0
ARC
  5
3FD
  8
1
  6
CONTINUOUS
 62
     7
 10
-219.1869254575204
 20
414.0819457369605
 30
0.0
 40
7.051526941553062
 50
340.5451235887163
 51
359.1987184108685
  0
LINE
  5
3FE
  8
1
  6
CONTINUOUS
 62
     7
 10
-212.1360880745353
 20
409.4833333333335
 30
0.0
 11
-212.1360880745353
 21
413.9833333333335
 31
0.0
  0
LINE
  5
3FF
  8
1
  6
CONTINUOUS
 62
     7
 10
-212.538011863182
 20
416.2333333333335
 30
0.0
 11
-215.5639119254647
 21
416.2333333333335
 31
0.0
  0
ARC
  5
400
  8
1
  6
CONTINUOUS
 62
     7
 10
-219.0631483176155
 20
413.9068315861591
 30
0.0
 40
6.927482668948596
 50
0.6327430242670794
 51
19.6234149761485
  0
LINE
  5
401
  8
1
  6
CONTINUOUS
 62
     7
 10
-212.1360880745353
 20
407.2333333333335
 30
0.0
 11
-212.538011863182
 21
407.2333333333335
 31
0.0
  0
LINE
  5
402
  8
1
  6
CONTINUOUS
 62
     7
 10
-212.1360880745353
 20
407.2333333333335
 30
0.0
 11
-212.1360880745353
 21
409.4833333333335
 31
0.0
  0
LINE
  5
403
  8
1
  6
CONTINUOUS
 62
     7
 10
-212.538011863182
 20
416.2333333333335
 30
0.0
 11
-212.1360880745353
 21
416.2333333333335
 31
0.0
  0
LINE
  5
404
  8
1
  6
CONTINUOUS
 62
     7
 10
-212.1360880745353
 20
413.9833333333335
 30
0.0
 11
-212.1360880745353
 21
416.2333333333335
 31
0.0
  0
LINE
  5
405
  8
1
  6
CONTINUOUS
 62
     7
 10
-230.9360880745353
 20
406.9833333333335
 30
0.0
 11
-230.9360880745353
 21
416.4833333333335
 31
0.0
  0
LINE
  5
406
  8
1
  6
CONTINUOUS
 62
     9
 10
-232.5473754755786
 20
416.09236395206
 30
0.0
 11
-232.5473754755786
 21
412.3333333333334
 31
0.0
  0
LINE
  5
407
  8
1
  6
CONTINUOUS
 62
     9
 10
-232.5473754755786
 20
411.1333333333336
 30
0.0
 11
-232.5473754755786
 21
407.3743027146069
 31
0.0
  0
LINE
  5
408
  8
1
  6
CONTINUOUS
 62
     7
 10
-232.4360880745353
 20
411.1333333333334
 30
0.0
 11
-232.5473754755786
 21
411.1333333333334
 31
0.0
  0
LINE
  5
409
  8
1
  6
CONTINUOUS
 62
     7
 10
-232.4360880745353
 20
412.3333333333334
 30
0.0
 11
-232.4360880745353
 21
411.1333333333334
 31
0.0
  0
LINE
  5
40A
  8
1
  6
CONTINUOUS
 62
     7
 10
-232.5473754755786
 20
412.3333333333334
 30
0.0
 11
-232.4360880745353
 21
412.3333333333334
 31
0.0
  0
LINE
  5
40B
  8
1
  6
CONTINUOUS
 62
     7
 10
-233.8508858403441
 20
412.3333333333334
 30
0.0
 11
-232.5473754755786
 21
412.3333333333334
 31
0.0
  0
LINE
  5
40C
  8
1
  6
CONTINUOUS
 62
     9
 10
-233.8508858403441
 20
412.3333333333334
 30
0.0
 11
-233.8508858403441
 21
415.1897322105581
 31
0.0
  0
LINE
  5
40D
  8
1
  6
CONTINUOUS
 62
     9
 10
-233.8508858403441
 20
408.2769344561087
 30
0.0
 11
-233.8508858403441
 21
411.1333333333334
 31
0.0
  0
LINE
  5
40E
  8
1
  6
CONTINUOUS
 62
     7
 10
-232.5473754755786
 20
411.1333333333334
 30
0.0
 11
-233.8508858403441
 21
411.1333333333334
 31
0.0
  0
LINE
  5
40F
  8
1
  6
CONTINUOUS
 62
     7
 10
-234.2516970455895
 20
409.3579386292895
 30
0.0
 11
-234.2516970455895
 21
409.2833333333334
 31
0.0
  0
ARC
  5
410
  8
1
  6
CONTINUOUS
 62
     7
 10
-226.6360880745353
 20
411.7333333333335
 30
0.0
 40
7.977468270071668
 50
187.9256729887716
 51
197.3232917916808
  0
LINE
  5
411
  8
1
  6
CONTINUOUS
 62
     7
 10
-234.5373537959246
 20
411.1333333333334
 30
0.0
 11
-234.5373537959246
 21
410.6333333333334
 31
0.0
  0
LINE
  5
412
  8
1
  6
CONTINUOUS
 62
     7
 10
-233.8508858403441
 20
411.1333333333334
 30
0.0
 11
-234.5373537959246
 21
411.1333333333334
 31
0.0
  0
LINE
  5
413
  8
1
  6
CONTINUOUS
 62
     7
 10
-234.2516970455895
 20
414.1833333333335
 30
0.0
 11
-234.2516970455895
 21
414.1087280373774
 31
0.0
  0
LINE
  5
414
  8
1
  6
CONTINUOUS
 62
     7
 10
-234.5373537959246
 20
412.8333333333334
 30
0.0
 11
-234.5373537959246
 21
412.3333333333334
 31
0.0
  0
ARC
  5
415
  8
1
  6
CONTINUOUS
 62
     7
 10
-226.6360880745353
 20
411.7333333333335
 30
0.0
 40
7.977468270071661
 50
162.6767082083192
 51
172.0743270112283
  0
LINE
  5
416
  8
1
  6
CONTINUOUS
 62
     7
 10
-234.5373537959246
 20
412.3333333333334
 30
0.0
 11
-233.8508858403441
 21
412.3333333333334
 31
0.0
  0
LINE
  5
417
  8
1
  6
CONTINUOUS
 62
     7
 10
-210.9360880745353
 20
413.8333333333334
 30
0.0
 11
-210.9360880745353
 21
409.6333333333334
 31
0.0
  0
LINE
  5
418
  8
1
  6
CONTINUOUS
 62
     7
 10
-211.3360880745354
 20
409.2333333333335
 30
0.0
 11
-211.3360880745354
 21
414.2333333333335
 31
0.0
  0
LINE
  5
419
  8
1
  6
CONTINUOUS
 62
     7
 10
-230.4142626675873
 20
448.7333333333335
 30
0.0
 11
-230.4142626675873
 21
444.2333333333335
 31
0.0
  0
LINE
  5
41A
  8
1
  6
CONTINUOUS
 62
     7
 10
-222.6360880745353
 20
448.7333333333334
 30
0.0
 11
-226.6639119254647
 21
448.7333333333334
 31
0.0
  0
LINE
  5
41B
  8
1
  6
CONTINUOUS
 62
     7
 10
-229.7639119254647
 20
448.7333333333335
 30
0.0
 11
-230.4142626675873
 21
448.7333333333335
 31
0.0
  0
LINE
  5
41C
  8
1
  6
CONTINUOUS
 62
     7
 10
-222.6360880745353
 20
448.7333333333334
 30
0.0
 11
-222.6360880745353
 21
444.2333333333335
 31
0.0
  0
LINE
  5
41D
  8
1
  6
CONTINUOUS
 62
     7
 10
-222.6360880745353
 20
444.2333333333335
 30
0.0
 11
-226.6639119254647
 21
444.2333333333335
 31
0.0
  0
LINE
  5
41E
  8
1
  6
CONTINUOUS
 62
     7
 10
-229.7639119254647
 20
444.2333333333335
 30
0.0
 11
-230.4142626675873
 21
444.2333333333335
 31
0.0
  0
LINE
  5
41F
  8
1
  6
CONTINUOUS
 62
     7
 10
-214.8579134814833
 20
447.7503207979067
 30
0.0
 11
-214.8579134814833
 21
444.2333333333335
 31
0.0
  0
LINE
  5
420
  8
1
  6
CONTINUOUS
 62
     7
 10
-218.6639119254647
 20
448.7333333333334
 30
0.0
 11
-222.6360880745353
 21
448.7333333333334
 31
0.0
  0
LINE
  5
421
  8
1
  6
CONTINUOUS
 62
     7
 10
-214.8579134814833
 20
444.2333333333335
 30
0.0
 11
-215.5639119254647
 21
444.2333333333335
 31
0.0
  0
LINE
  5
422
  8
1
  6
CONTINUOUS
 62
     7
 10
-218.6639119254647
 20
444.2333333333335
 30
0.0
 11
-222.6360880745353
 21
444.2333333333335
 31
0.0
  0
LINE
  5
423
  8
1
  6
CONTINUOUS
 62
     7
 10
-216.3639119254647
 20
458.2333333333335
 30
0.0
 11
-218.6639119254647
 21
458.2333333333335
 31
0.0
  0
LINE
  5
424
  8
1
  6
CONTINUOUS
 62
     9
 10
-216.3639119254647
 20
455.7333333333335
 30
0.0
 11
-218.6639119254647
 21
455.7333333333335
 31
0.0
  0
LINE
  5
425
  8
1
  6
CONTINUOUS
 62
     7
 10
-216.3639119254647
 20
455.7333333333335
 30
0.0
 11
-216.3639119254647
 21
458.2333333333335
 31
0.0
  0
LINE
  5
426
  8
1
  6
CONTINUOUS
 62
     7
 10
-218.6639119254647
 20
455.7333333333335
 30
0.0
 11
-218.6639119254647
 21
458.2333333333335
 31
0.0
  0
LINE
  5
427
  8
1
  6
CONTINUOUS
 62
     9
 10
-216.3639119254647
 20
411.7333333333335
 30
0.0
 11
-218.6639119254647
 21
411.7333333333335
 31
0.0
  0
LINE
  5
428
  8
1
  6
CONTINUOUS
 62
     7
 10
-216.3639119254647
 20
411.7333333333335
 30
0.0
 11
-216.3639119254647
 21
455.7333333333335
 31
0.0
  0
LINE
  5
429
  8
1
  6
CONTINUOUS
 62
     7
 10
-218.6639119254647
 20
411.7333333333335
 30
0.0
 11
-218.6639119254647
 21
455.7333333333335
 31
0.0
  0
LINE
  5
42A
  8
1
  6
CONTINUOUS
 62
     7
 10
-216.3639119254647
 20
403.2333333333335
 30
0.0
 11
-218.6639119254647
 21
403.2333333333335
 31
0.0
  0
LINE
  5
42B
  8
1
  6
CONTINUOUS
 62
     7
 10
-216.3639119254647
 20
403.2333333333335
 30
0.0
 11
-216.3639119254647
 21
411.7333333333335
 31
0.0
  0
LINE
  5
42C
  8
1
  6
CONTINUOUS
 62
     7
 10
-218.6639119254647
 20
403.9216308527284
 30
0.0
 11
-218.6639119254647
 21
411.7333333333335
 31
0.0
  0
LINE
  5
42D
  8
1
  6
CONTINUOUS
 62
     9
 10
-216.0639119254647
 20
456.2333333333335
 30
0.0
 11
-216.0639119254647
 21
454.2333333333334
 31
0.0
  0
LINE
  5
42E
  8
1
  6
CONTINUOUS
 62
     9
 10
-216.3639119254647
 20
454.2333333333334
 30
0.0
 11
-216.0639119254647
 21
454.2333333333334
 31
0.0
  0
LINE
  5
42F
  8
1
  6
CONTINUOUS
 62
     7
 10
-216.3639119254647
 20
456.2333333333335
 30
0.0
 11
-216.0639119254647
 21
456.2333333333335
 31
0.0
  0
LINE
  5
430
  8
1
  6
CONTINUOUS
 62
     9
 10
-216.0639119254647
 20
454.2333333333334
 30
0.0
 11
-216.0639119254647
 21
411.7333333333335
 31
0.0
  0
LINE
  5
431
  8
1
  6
CONTINUOUS
 62
     9
 10
-216.3639119254647
 20
411.7333333333335
 30
0.0
 11
-216.0639119254647
 21
411.7333333333335
 31
0.0
  0
LINE
  5
432
  8
1
  6
CONTINUOUS
 62
     7
 10
-215.5639119254647
 20
454.2333333333334
 30
0.0
 11
-215.5639119254647
 21
455.7333333333334
 31
0.0
  0
LINE
  5
433
  8
1
  6
CONTINUOUS
 62
     9
 10
-216.0639119254647
 20
454.2333333333334
 30
0.0
 11
-215.5639119254647
 21
454.2333333333334
 31
0.0
  0
ARC
  5
434
  8
1
  6
CONTINUOUS
 62
     7
 10
-216.0639119254647
 20
455.7333333333334
 30
0.0
 40
0.500000000000056
 50
0.0000000000007958
 51
90.0000000000008
  0
LINE
  5
435
  8
1
  6
CONTINUOUS
 62
     7
 10
-215.5639119254647
 20
411.7333333333335
 30
0.0
 11
-215.5639119254647
 21
454.2333333333334
 31
0.0
  0
LINE
  5
436
  8
1
  6
CONTINUOUS
 62
     9
 10
-215.5639119254647
 20
411.7333333333335
 30
0.0
 11
-216.0639119254647
 21
411.7333333333335
 31
0.0
  0
LINE
  5
437
  8
1
  6
CONTINUOUS
 62
     9
 10
-216.0639119254647
 20
411.7333333333335
 30
0.0
 11
-216.0639119254647
 21
405.2333333333335
 31
0.0
  0
LINE
  5
438
  8
1
  6
CONTINUOUS
 62
     7
 10
-215.5639119254647
 20
405.7333333333335
 30
0.0
 11
-215.5639119254647
 21
411.7333333333335
 31
0.0
  0
ARC
  5
439
  8
1
  6
CONTINUOUS
 62
     7
 10
-216.0639119254647
 20
405.7333333333335
 30
0.0
 40
0.5000000000000004
 50
269.9999999999992
 51
0.0
  0
LINE
  5
43A
  8
1
  6
CONTINUOUS
 62
     7
 10
-216.3639119254647
 20
405.2333333333335
 30
0.0
 11
-216.0639119254647
 21
405.2333333333335
 31
0.0
  0
LINE
  5
43B
  8
1
  6
CONTINUOUS
 62
     7
 10
-214.3639119254647
 20
418.7333333333335
 30
0.0
 11
-214.3639119254647
 21
416.2333333333335
 31
0.0
  0
LINE
  5
43C
  8
1
  6
CONTINUOUS
 62
     7
 10
-215.5639119254647
 20
418.7333333333335
 30
0.0
 11
-214.3639119254647
 21
418.7333333333335
 31
0.0
  0
ARC
  5
43D
  8
1
  6
CONTINUOUS
 62
     7
 10
-216.3639119254647
 20
449.0663636113158
 30
0.0
 40
2.00000000000002
 50
293.5781784782018
 51
0.0
  0
LINE
  5
43E
  8
1
  6
CONTINUOUS
 62
     7
 10
-214.3639119254647
 20
449.0663636113158
 30
0.0
 11
-214.3639119254647
 21
450.4003030553511
 31
0.0
  0
ARC
  5
43F
  8
1
  6
CONTINUOUS
 62
     7
 10
-216.3639119254647
 20
450.4003030553511
 30
0.0
 40
2.000000000000002
 50
0.0
 51
66.42182152179838
  0
LINE
  5
440
  8
1
  6
CONTINUOUS
 62
     9
 10
-209.8639119254647
 20
419.2333333333335
 30
0.0
 11
-209.8639119254647
 21
416.9333333333335
 31
0.0
  0
LINE
  5
441
  8
1
  6
CONTINUOUS
 62
     7
 10
-214.3639119254647
 20
416.9333333333335
 30
0.0
 11
-209.8639119254647
 21
416.9333333333335
 31
0.0
  0
LINE
  5
442
  8
1
  6
CONTINUOUS
 62
     7
 10
-209.8639119254647
 20
419.2333333333335
 30
0.0
 11
-215.5639119254647
 21
419.2333333333335
 31
0.0
  0
LINE
  5
443
  8
1
  6
CONTINUOUS
 62
     7
 10
-208.8639119254647
 20
416.9333333333335
 30
0.0
 11
-208.8639119254647
 21
419.2333333333335
 31
0.0
  0
LINE
  5
444
  8
1
  6
CONTINUOUS
 62
     7
 10
-209.8639119254647
 20
416.9333333333335
 30
0.0
 11
-208.8639119254647
 21
416.9333333333335
 31
0.0
  0
LINE
  5
445
  8
1
  6
CONTINUOUS
 62
     7
 10
-208.8639119254647
 20
419.2333333333335
 30
0.0
 11
-209.8639119254647
 21
419.2333333333335
 31
0.0
  0
LINE
  5
446
  8
1
  6
CONTINUOUS
 62
     7
 10
-218.6639119254647
 20
448.9385714487573
 30
0.0
 11
-219.6360880745356
 21
448.9385714487573
 31
0.0
  0
LINE
  5
447
  8
1
  6
CONTINUOUS
 62
     7
 10
-219.6360880745356
 20
448.9762591409435
 30
0.0
 11
-218.6639119254647
 21
449.0607941419784
 31
0.0
  0
LINE
  5
448
  8
1
  6
CONTINUOUS
 62
     7
 10
-219.6360880745356
 20
443.7710210255198
 30
0.0
 11
-218.6639119254647
 21
443.8555560265546
 31
0.0
  0
LINE
  5
449
  8
1
  6
CONTINUOUS
 62
     7
 10
-219.6360880745356
 20
439.7333333333335
 30
0.0
 11
-218.6639119254647
 21
439.7333333333335
 31
0.0
  0
LINE
  5
44A
  8
1
  6
CONTINUOUS
 62
     7
 10
-219.6360880745356
 20
458.2333333333335
 30
0.0
 11
-218.6639119254647
 21
458.2333333333335
 31
0.0
  0
LINE
  5
44B
  8
1
  6
CONTINUOUS
 62
     7
 10
-219.6360880745356
 20
448.9333333333335
 30
0.0
 11
-218.6639119254647
 21
448.9333333333335
 31
0.0
  0
LINE
  5
44C
  8
1
  6
CONTINUOUS
 62
     9
 10
-228.9639119254647
 20
455.7333333333335
 30
0.0
 11
-226.6639119254647
 21
455.7333333333335
 31
0.0
  0
LINE
  5
44D
  8
1
  6
CONTINUOUS
 62
     7
 10
-228.9639119254647
 20
458.2333333333335
 30
0.0
 11
-226.6639119254647
 21
458.2333333333335
 31
0.0
  0
LINE
  5
44E
  8
1
  6
CONTINUOUS
 62
     7
 10
-226.6639119254647
 20
455.7333333333335
 30
0.0
 11
-226.6639119254647
 21
458.2333333333335
 31
0.0
  0
LINE
  5
44F
  8
1
  6
CONTINUOUS
 62
     7
 10
-228.9639119254647
 20
455.7333333333335
 30
0.0
 11
-228.9639119254647
 21
458.2333333333335
 31
0.0
  0
LINE
  5
450
  8
1
  6
CONTINUOUS
 62
     9
 10
-228.9639119254647
 20
411.7333333333335
 30
0.0
 11
-226.6639119254647
 21
411.7333333333335
 31
0.0
  0
LINE
  5
451
  8
1
  6
CONTINUOUS
 62
     7
 10
-226.6639119254647
 20
411.7333333333335
 30
0.0
 11
-226.6639119254647
 21
455.7333333333335
 31
0.0
  0
LINE
  5
452
  8
1
  6
CONTINUOUS
 62
     7
 10
-228.9639119254647
 20
411.7333333333335
 30
0.0
 11
-228.9639119254647
 21
455.7333333333335
 31
0.0
  0
LINE
  5
453
  8
1
  6
CONTINUOUS
 62
     7
 10
-228.9639119254647
 20
403.2333333333335
 30
0.0
 11
-226.6639119254647
 21
403.2333333333335
 31
0.0
  0
LINE
  5
454
  8
1
  6
CONTINUOUS
 62
     7
 10
-226.6639119254647
 20
403.2333333333335
 30
0.0
 11
-226.6639119254647
 21
411.7333333333335
 31
0.0
  0
LINE
  5
455
  8
1
  6
CONTINUOUS
 62
     7
 10
-228.9639119254647
 20
403.2333333333335
 30
0.0
 11
-228.9639119254647
 21
411.7333333333335
 31
0.0
  0
LINE
  5
456
  8
1
  6
CONTINUOUS
 62
     9
 10
-228.9639119254647
 20
454.2333333333334
 30
0.0
 11
-229.2639119254647
 21
454.2333333333334
 31
0.0
  0
LINE
  5
457
  8
1
  6
CONTINUOUS
 62
     9
 10
-229.2639119254647
 20
456.2333333333335
 30
0.0
 11
-229.2639119254647
 21
454.2333333333334
 31
0.0
  0
LINE
  5
458
  8
1
  6
CONTINUOUS
 62
     7
 10
-228.9639119254647
 20
456.2333333333335
 30
0.0
 11
-229.2639119254647
 21
456.2333333333335
 31
0.0
  0
LINE
  5
459
  8
1
  6
CONTINUOUS
 62
     7
 10
-229.7639119254647
 20
411.7333333333335
 30
0.0
 11
-229.7639119254647
 21
454.2333333333334
 31
0.0
  0
LINE
  5
45A
  8
1
  6
CONTINUOUS
 62
     9
 10
-229.2639119254647
 20
454.2333333333334
 30
0.0
 11
-229.7639119254647
 21
454.2333333333334
 31
0.0
  0
LINE
  5
45B
  8
1
  6
CONTINUOUS
 62
     9
 10
-229.2639119254647
 20
454.2333333333334
 30
0.0
 11
-229.2639119254647
 21
411.7333333333335
 31
0.0
  0
LINE
  5
45C
  8
1
  6
CONTINUOUS
 62
     9
 10
-229.7639119254647
 20
411.7333333333335
 30
0.0
 11
-229.2639119254647
 21
411.7333333333335
 31
0.0
  0
LINE
  5
45D
  8
1
  6
CONTINUOUS
 62
     9
 10
-228.9639119254647
 20
411.7333333333335
 30
0.0
 11
-229.2639119254647
 21
411.7333333333335
 31
0.0
  0
LINE
  5
45E
  8
1
  6
CONTINUOUS
 62
     7
 10
-229.7639119254647
 20
454.2333333333334
 30
0.0
 11
-229.7639119254647
 21
455.7333333333334
 31
0.0
  0
ARC
  5
45F
  8
1
  6
CONTINUOUS
 62
     7
 10
-229.2639119254647
 20
455.7333333333334
 30
0.0
 40
0.500000000000056
 50
89.9999999999992
 51
179.9999999999992
  0
LINE
  5
460
  8
1
  6
CONTINUOUS
 62
     7
 10
-229.7639119254647
 20
405.7333333333335
 30
0.0
 11
-229.7639119254647
 21
411.7333333333335
 31
0.0
  0
LINE
  5
461
  8
1
  6
CONTINUOUS
 62
     9
 10
-229.2639119254647
 20
411.7333333333335
 30
0.0
 11
-229.2639119254647
 21
405.2333333333335
 31
0.0
  0
ARC
  5
462
  8
1
  6
CONTINUOUS
 62
     7
 10
-229.2639119254647
 20
405.7333333333335
 30
0.0
 40
0.5000000000000004
 50
180.0
 51
270.0000000000007
  0
LINE
  5
463
  8
1
  6
CONTINUOUS
 62
     7
 10
-228.9639119254647
 20
405.2333333333335
 30
0.0
 11
-229.2639119254647
 21
405.2333333333335
 31
0.0
  0
LINE
  5
464
  8
1
  6
CONTINUOUS
 62
     7
 10
-229.7639119254647
 20
416.9333333333335
 30
0.0
 11
-235.4639119254647
 21
416.9333333333335
 31
0.0
  0
LINE
  5
465
  8
1
  6
CONTINUOUS
 62
     9
 10
-235.4639119254647
 20
419.2333333333335
 30
0.0
 11
-235.4639119254647
 21
416.9333333333335
 31
0.0
  0
LINE
  5
466
  8
1
  6
CONTINUOUS
 62
     7
 10
-235.4639119254647
 20
419.2333333333335
 30
0.0
 11
-229.7639119254647
 21
419.2333333333335
 31
0.0
  0
LINE
  5
467
  8
1
  6
CONTINUOUS
 62
     7
 10
-236.4639119254647
 20
416.9333333333335
 30
0.0
 11
-236.4639119254647
 21
419.2333333333335
 31
0.0
  0
LINE
  5
468
  8
1
  6
CONTINUOUS
 62
     7
 10
-235.4639119254647
 20
416.9333333333335
 30
0.0
 11
-236.4639119254647
 21
416.9333333333335
 31
0.0
  0
LINE
  5
469
  8
1
  6
CONTINUOUS
 62
     7
 10
-236.4639119254647
 20
419.2333333333335
 30
0.0
 11
-235.4639119254647
 21
419.2333333333335
 31
0.0
  0
LINE
  5
46A
  8
1
  6
CONTINUOUS
 62
     7
 10
-226.6639119254647
 20
449.0607941419784
 30
0.0
 11
-225.6360880745353
 21
448.9742755476071
 31
0.0
  0
LINE
  5
46B
  8
1
  6
CONTINUOUS
 62
     7
 10
-225.6360880745353
 20
448.9385714487573
 30
0.0
 11
-226.6639119254647
 21
448.9385714487573
 31
0.0
  0
LINE
  5
46C
  8
1
  6
CONTINUOUS
 62
     7
 10
-226.6639119254647
 20
443.8555560265546
 30
0.0
 11
-225.6360880745353
 21
443.7690374321833
 31
0.0
  0
LINE
  5
46D
  8
1
  6
CONTINUOUS
 62
     7
 10
-226.6639119254647
 20
439.7333333333335
 30
0.0
 11
-225.6360880745353
 21
439.7333333333335
 31
0.0
  0
LINE
  5
46E
  8
1
  6
CONTINUOUS
 62
     7
 10
-226.6639119254647
 20
458.2333333333335
 30
0.0
 11
-225.6360880745353
 21
458.2333333333335
 31
0.0
  0
LINE
  5
46F
  8
1
  6
CONTINUOUS
 62
     7
 10
-226.6639119254647
 20
448.9333333333335
 30
0.0
 11
-225.6360880745353
 21
448.9333333333335
 31
0.0
  0
LINE
  5
470
  8
1
  6
CONTINUOUS
 62
     7
 10
-225.479335223205
 20
418.7085206913706
 30
0.0
 11
-225.5315434314437
 21
410.7083696927263
 31
0.0
  0
LINE
  5
471
  8
1
  6
CONTINUOUS
 62
     7
 10
-225.5315434314437
 20
410.7083696927263
 30
0.0
 11
-226.5489584255046
 21
410.7174022020082
 31
0.0
  0
LINE
  5
472
  8
1
  6
CONTINUOUS
 62
     7
 10
-226.5489584255046
 20
410.7174022020082
 30
0.0
 11
-226.4967502172659
 21
416.6998703097439
 31
0.0
  0
LINE
  5
473
  8
1
  6
CONTINUOUS
 62
     7
 10
-222.6360880745353
 20
418.7333333333335
 30
0.0
 11
-222.6360880745353
 21
410.73363794882
 31
0.0
  0
LINE
  5
474
  8
1
  6
CONTINUOUS
 62
     7
 10
-222.6360880745353
 20
418.7333333333335
 30
0.0
 11
-219.7928409258656
 21
418.7085206913706
 31
0.0
  0
LINE
  5
475
  8
1
  6
CONTINUOUS
 62
     7
 10
-219.740632717627
 20
410.7083696927263
 30
0.0
 11
-219.7928409258656
 21
418.7085206913706
 31
0.0
  0
LINE
  5
476
  8
1
  6
CONTINUOUS
 62
     9
 10
-219.740632717627
 20
410.7083696927263
 30
0.0
 11
-222.6360880745353
 21
410.73363794882
 31
0.0
  0
LINE
  5
477
  8
1
  6
CONTINUOUS
 62
     9
 10
-222.6360880745353
 20
410.73363794882
 30
0.0
 11
-225.5315434314436
 21
410.7083696927263
 31
0.0
  0
LINE
  5
478
  8
1
  6
CONTINUOUS
 62
     7
 10
-225.479335223205
 20
418.7085206913706
 30
0.0
 11
-222.6360880745353
 21
418.7333333333335
 31
0.0
  0
LINE
  5
479
  8
1
  6
CONTINUOUS
 62
     7
 10
-218.7754259318047
 20
416.6998703097439
 30
0.0
 11
-218.7232177235661
 21
410.7174022020082
 31
0.0
  0
LINE
  5
47A
  8
1
  6
CONTINUOUS
 62
     7
 10
-218.7232177235661
 20
410.7174022020082
 30
0.0
 11
-219.740632717627
 21
410.7083696927263
 31
0.0
  0
LINE
  5
47B
  8
1
  6
CONTINUOUS
 62
     7
 10
-218.7232177235661
 20
410.7174022020082
 30
0.0
 11
-218.6360880745353
 21
400.7333333333334
 31
0.0
  0
LINE
  5
47C
  8
1
  6
CONTINUOUS
 62
     7
 10
-219.6536593905322
 20
400.7422135436759
 30
0.0
 11
-219.740632717627
 21
410.7083696927263
 31
0.0
  0
LINE
  5
47D
  8
1
  6
CONTINUOUS
 62
     7
 10
-225.5315434314437
 20
410.7083696927263
 30
0.0
 11
-225.6185167585385
 21
400.7422135436759
 31
0.0
  0
LINE
  5
47E
  8
1
  6
CONTINUOUS
 62
     7
 10
-226.6360880745353
 20
400.7333333333334
 30
0.0
 11
-226.5489584255046
 21
410.7174022020082
 31
0.0
  0
LINE
  5
47F
  8
1
  6
CONTINUOUS
 62
     9
 10
-217.6099084680402
 20
398.777196138252
 30
0.0
 11
-217.6099084680402
 21
400.724377999578
 31
0.0
  0
LINE
  5
480
  8
1
  6
CONTINUOUS
 62
     7
 10
-222.6360880745355
 20
398.7333333333334
 30
0.0
 11
-217.6099084680402
 21
398.777196138252
 31
0.0
  0
LINE
  5
481
  8
1
  6
CONTINUOUS
 62
     7
 10
-222.6360880745355
 20
398.7333333333334
 30
0.0
 11
-222.6360880745353
 21
410.73363794882
 31
0.0
  0
LINE
  5
482
  8
1
  6
CONTINUOUS
 62
     7
 10
-219.6536593905322
 20
400.7422135436759
 30
0.0
 11
-217.6099084680402
 21
400.724377999578
 31
0.0
  0
LINE
  5
483
  8
1
  6
CONTINUOUS
 62
     7
 10
-227.6622676810304
 20
398.777196138252
 30
0.0
 11
-222.6360880745355
 21
398.7333333333334
 31
0.0
  0
LINE
  5
484
  8
1
  6
CONTINUOUS
 62
     9
 10
-227.6622676810304
 20
400.724377999578
 30
0.0
 11
-227.6622676810304
 21
398.777196138252
 31
0.0
  0
LINE
  5
485
  8
1
  6
CONTINUOUS
 62
     7
 10
-227.6622676810304
 20
400.724377999578
 30
0.0
 11
-225.6185167585385
 21
400.7422135436759
 31
0.0
  0
LINE
  5
486
  8
1
  6
CONTINUOUS
 62
     7
 10
-214.6360880745353
 20
400.6984258621704
 30
0.0
 11
-214.6360880745353
 21
398.8031482756596
 31
0.0
  0
LINE
  5
487
  8
1
  6
CONTINUOUS
 62
     7
 10
-217.6099084680402
 20
400.724377999578
 30
0.0
 11
-214.6360880745353
 21
400.6984258621704
 31
0.0
  0
LINE
  5
488
  8
1
  6
CONTINUOUS
 62
     7
 10
-214.6360880745353
 20
398.8031482756596
 30
0.0
 11
-217.6099084680402
 21
398.777196138252
 31
0.0
  0
LINE
  5
489
  8
1
  6
CONTINUOUS
 62
     7
 10
-230.6360880745353
 20
398.8031482756596
 30
0.0
 11
-230.6360880745353
 21
400.6984258621704
 31
0.0
  0
LINE
  5
48A
  8
1
  6
CONTINUOUS
 62
     7
 10
-230.6360880745353
 20
400.6984258621704
 30
0.0
 11
-227.6622676810304
 21
400.724377999578
 31
0.0
  0
LINE
  5
48B
  8
1
  6
CONTINUOUS
 62
     7
 10
-227.6622676810304
 20
398.777196138252
 30
0.0
 11
-230.6360880745353
 21
398.8031482756596
 31
0.0
  0
LINE
  5
48C
  8
1
  6
CONTINUOUS
 62
     9
 10
-225.3860880745353
 20
391.8649858309208
 30
0.0
 11
-219.8860880745353
 21
391.8649858309208
 31
0.0
  0
LINE
  5
48D
  8
1
  6
CONTINUOUS
 62
     7
 10
-219.8860880745353
 20
392.4333333333335
 30
0.0
 11
-225.3860880745353
 21
392.4333333333335
 31
0.0
  0
LINE
  5
48E
  8
1
  6
CONTINUOUS
 62
     9
 10
-219.9201622482463
 20
391.6061667858183
 30
0.0
 11
-225.3520139008244
 21
391.6061667858183
 31
0.0
  0
LINE
  5
48F
  8
1
  6
CONTINUOUS
 62
     7
 10
-220.215371022308
 20
390.5044326435864
 30
0.0
 11
-221.4160819866316
 21
386.1039238107822
 31
0.0
  0
LINE
  5
490
  8
1
  6
CONTINUOUS
 62
     9
 10
-223.856094162439
 20
386.1039238107823
 30
0.0
 11
-221.4160819866316
 21
386.1039238107821
 31
0.0
  0
LINE
  5
491
  8
1
  6
CONTINUOUS
 62
     7
 10
-223.8560941624391
 20
386.1039238107823
 30
0.0
 11
-225.0568204614269
 21
390.504489873537
 31
0.0
  0
POLYLINE
  5
492
  8
1
  6
CONTINUOUS
 62
     7
 66
     1
 10
0.0
 20
0.0
 30
0.0
  0
VERTEX
  5
888
  8
1
  6
CONTINUOUS
 62
     7
 10
-225.3220363366767
 20
398.2829221876385
 30
0.0
  0
VERTEX
  5
889
  8
1
  6
CONTINUOUS
 62
     7
 10
-225.3229991510294
 20
398.2961199181578
 30
0.0
  0
VERTEX
  5
88A
  8
1
  6
CONTINUOUS
 62
     7
 10
-225.324389501751
 20
398.3092523886946
 30
0.0
  0
VERTEX
  5
88B
  8
1
  6
CONTINUOUS
 62
     7
 10
-225.3262141438244
 20
398.3223873940923
 30
0.0
  0
VERTEX
  5
88C
  8
1
  6
CONTINUOUS
 62
     7
 10
-225.328454536521
 20
398.3354136006635
 30
0.0
  0
VERTEX
  5
88D
  8
1
  6
CONTINUOUS
 62
     7
 10
-225.3310666324718
 20
398.3481627684395
 30
0.0
  0
VERTEX
  5
88E
  8
1
  6
CONTINUOUS
 62
     7
 10
-225.3340610641155
 20
398.3607700672097
 30
0.0
  0
VERTEX
  5
88F
  8
1
  6
CONTINUOUS
 62
     7
 10
-225.337445362745
 20
398.3732927427457
 30
0.0
  0
VERTEX
  5
890
  8
1
  6
CONTINUOUS
 62
     7
 10
-225.3411880198565
 20
398.3856430284901
 30
0.0
  0
VERTEX
  5
891
  8
1
  6
CONTINUOUS
 62
     7
 10
-225.3452453879977
 20
398.3977278243714
 30
0.0
  0
VERTEX
  5
892
  8
1
  6
CONTINUOUS
 62
     7
 10
-225.3496316461469
 20
398.4096354760862
 30
0.0
  0
VERTEX
  5
893
  8
1
  6
CONTINUOUS
 62
     7
 10
-225.3554502048521
 20
398.4240103529517
 30
0.0
  0
VERTEX
  5
894
  8
1
  6
CONTINUOUS
 62
     7
 10
-225.3617073032661
 20
398.4380701399615
 30
0.0
  0
VERTEX
  5
895
  8
1
  6
CONTINUOUS
 62
     7
 10
-225.3684172695291
 20
398.4518885734618
 30
0.0
  0
VERTEX
  5
896
  8
1
  6
CONTINUOUS
 62
     7
 10
-225.3755153059116
 20
398.4653722426352
 30
0.0
  0
VERTEX
  5
897
  8
1
  6
CONTINUOUS
 62
     7
 10
-225.3830156135212
 20
398.4785856511253
 30
0.0
  0
VERTEX
  5
898
  8
1
  6
CONTINUOUS
 62
     7
 10
-225.3908559504041
 20
398.4914543637987
 30
0.0
  0
VERTEX
  5
899
  8
1
  6
CONTINUOUS
 62
     7
 10
-225.3990496915681
 20
398.5040334022614
 30
0.0
  0
VERTEX
  5
89A
  8
1
  6
CONTINUOUS
 62
     7
 10
-225.4075393782572
 20
398.5162650740403
 30
0.0
  0
VERTEX
  5
89B
  8
1
  6
CONTINUOUS
 62
     7
 10
-225.421714973164
 20
398.535155922479
 30
0.0
  0
VERTEX
  5
89C
  8
1
  6
CONTINUOUS
 62
     7
 10
-225.4365683236531
 20
398.5532325385598
 30
0.0
  0
VERTEX
  5
89D
  8
1
  6
CONTINUOUS
 62
     7
 10
-225.4520099377588
 20
398.5704771943112
 30
0.0
  0
VERTEX
  5
89E
  8
1
  6
CONTINUOUS
 62
     7
 10
-225.4680253309875
 20
398.5869495330649
 30
0.0
  0
VERTEX
  5
89F
  8
1
  6
CONTINUOUS
 62
     7
 10
-225.4845101175778
 20
398.6026080035791
 30
0.0
  0
VERTEX
  5
8A0
  8
1
  6
CONTINUOUS
 62
     7
 10
-225.5014652002967
 20
398.6175106911106
 30
0.0
  0
VERTEX
  5
8A1
  8
1
  6
CONTINUOUS
 62
     7
 10
-225.5187945496283
 20
398.6316226118016
 30
0.0
  0
VERTEX
  5
8A2
  8
1
  6
CONTINUOUS
 62
     7
 10
-225.5364794834018
 20
398.6449740927112
 30
0.0
  0
VERTEX
  5
8A3
  8
1
  6
CONTINUOUS
 62
     7
 10
-225.5621847290008
 20
398.6626800886584
 30
0.0
  0
VERTEX
  5
8A4
  8
1
  6
CONTINUOUS
 62
     7
 10
-225.5884504630117
 20
398.6788964847062
 30
0.0
  0
VERTEX
  5
8A5
  8
1
  6
CONTINUOUS
 62
     7
 10
-225.6151614807357
 20
398.6936262320116
 30
0.0
  0
VERTEX
  5
8A6
  8
1
  6
CONTINUOUS
 62
     7
 10
-225.6423324831833
 20
398.7069313771706
 30
0.0
  0
VERTEX
  5
8A7
  8
1
  6
CONTINUOUS
 62
     7
 10
-225.6698162017238
 20
398.7187805805708
 30
0.0
  0
VERTEX
  5
8A8
  8
1
  6
CONTINUOUS
 62
     7
 10
-225.6976437984279
 20
398.7292167266033
 30
0.0
  0
VERTEX
  5
8A9
  8
1
  6
CONTINUOUS
 62
     7
 10
-225.7256774021122
 20
398.7382073822757
 30
0.0
  0
VERTEX
  5
8AA
  8
1
  6
CONTINUOUS
 62
     7
 10
-225.7539064224673
 20
398.7457634687157
 30
0.0
  0
VERTEX
  5
8AB
  8
1
  6
CONTINUOUS
 62
     7
 10
-225.7846510406063
 20
398.7523188751902
 30
0.0
  0
VERTEX
  5
8AC
  8
1
  6
CONTINUOUS
 62
     7
 10
-225.8154811648016
 20
398.7571581014207
 30
0.0
  0
VERTEX
  5
8AD
  8
1
  6
CONTINUOUS
 62
     7
 10
-225.8463457801265
 20
398.7602629708703
 30
0.0
  0
VERTEX
  5
8AE
  8
1
  6
CONTINUOUS
 62
     7
 10
-225.8771939852628
 20
398.7616083264148
 30
0.0
  0
VERTEX
  5
8AF
  8
1
  6
CONTINUOUS
 62
     7
 10
-225.8804015861031
 20
398.7616460284207
 30
0.0
  0
SEQEND
  5
9B4
  8
1
  6
CONTINUOUS
 62
     7
  0
LINE
  5
493
  8
1
  6
CONTINUOUS
 62
     7
 10
-222.6360880745353
 20
398.7333333333334
 30
0.0
 11
-222.6360880745353
 21
398.2333142941406
 31
0.0
  0
LINE
  5
494
  8
1
  6
CONTINUOUS
 62
     9
 10
-222.6360880745353
 20
398.2333142941405
 30
0.0
 11
-225.3212909122414
 21
398.261008324325
 31
0.0
  0
LINE
  5
495
  8
1
  6
CONTINUOUS
 62
     7
 10
-225.3212909122414
 20
398.261008324325
 30
0.0
 11
-225.3220363366767
 21
398.2829221876385
 31
0.0
  0
POLYLINE
  5
496
  8
1
  6
CONTINUOUS
 62
     7
 66
     1
 10
0.0
 20
0.0
 30
0.0
  0
VERTEX
  5
8B0
  8
1
  6
CONTINUOUS
 62
     7
 10
-219.3917745629676
 20
398.7616460284207
 30
0.0
  0
VERTEX
  5
8B1
  8
1
  6
CONTINUOUS
 62
     7
 10
-219.3949821638078
 20
398.7616083264148
 30
0.0
  0
VERTEX
  5
8B2
  8
1
  6
CONTINUOUS
 62
     7
 10
-219.4256713783329
 20
398.7602744340268
 30
0.0
  0
VERTEX
  5
8B3
  8
1
  6
CONTINUOUS
 62
     7
 10
-219.4564837691761
 20
398.7571852750286
 30
0.0
  0
VERTEX
  5
8B4
  8
1
  6
CONTINUOUS
 62
     7
 10
-219.4873666408923
 20
398.752348181655
 30
0.0
  0
VERTEX
  5
8B5
  8
1
  6
CONTINUOUS
 62
     7
 10
-219.5182697266034
 20
398.7457634687157
 30
0.0
  0
VERTEX
  5
8B6
  8
1
  6
CONTINUOUS
 62
     7
 10
-219.5459092076928
 20
398.738380412799
 30
0.0
  0
VERTEX
  5
8B7
  8
1
  6
CONTINUOUS
 62
     7
 10
-219.5735207917845
 20
398.7295673906752
 30
0.0
  0
VERTEX
  5
8B8
  8
1
  6
CONTINUOUS
 62
     7
 10
-219.6010144785569
 20
398.7193207105672
 30
0.0
  0
VERTEX
  5
8B9
  8
1
  6
CONTINUOUS
 62
     7
 10
-219.6284517834622
 20
398.7075695477167
 30
0.0
  0
VERTEX
  5
8BA
  8
1
  6
CONTINUOUS
 62
     7
 10
-219.6556681138796
 20
398.6943244465771
 30
0.0
  0
VERTEX
  5
8BB
  8
1
  6
CONTINUOUS
 62
     7
 10
-219.6827107130586
 20
398.6794876550038
 30
0.0
  0
VERTEX
  5
8BC
  8
1
  6
CONTINUOUS
 62
     7
 10
-219.7093995146318
 20
398.6630656552179
 30
0.0
  0
VERTEX
  5
8BD
  8
1
  6
CONTINUOUS
 62
     7
 10
-219.7356966656688
 20
398.6449740927112
 30
0.0
  0
VERTEX
  5
8BE
  8
1
  6
CONTINUOUS
 62
     7
 10
-219.7588006950482
 20
398.6273239779558
 30
0.0
  0
VERTEX
  5
8BF
  8
1
  6
CONTINUOUS
 62
     7
 10
-219.7813913987182
 20
398.6082573845471
 30
0.0
  0
VERTEX
  5
8C0
  8
1
  6
CONTINUOUS
 62
     7
 10
-219.8034115081113
 20
398.5876786130322
 30
0.0
  0
VERTEX
  5
8C1
  8
1
  6
CONTINUOUS
 62
     7
 10
-219.8141650500648
 20
398.5768065637244
 30
0.0
  0
VERTEX
  5
8C2
  8
1
  6
CONTINUOUS
 62
     7
 10
-219.8247057293905
 20
398.5655560686662
 30
0.0
  0
VERTEX
  5
8C3
  8
1
  6
CONTINUOUS
 62
     7
 10
-219.8350733889743
 20
398.5538542030869
 30
0.0
  0
VERTEX
  5
8C4
  8
1
  6
CONTINUOUS
 62
     7
 10
-219.8451875517686
 20
398.541758080605
 30
0.0
  0
VERTEX
  5
8C5
  8
1
  6
CONTINUOUS
 62
     7
 10
-219.855062674851
 20
398.5292151614339
 30
0.0
  0
VERTEX
  5
8C6
  8
1
  6
CONTINUOUS
 62
     7
 10
-219.8646367708134
 20
398.5162650740403
 30
0.0
  0
VERTEX
  5
8C7
  8
1
  6
CONTINUOUS
 62
     7
 10
-219.8716746507936
 20
398.5061796629637
 30
0.0
  0
VERTEX
  5
8C8
  8
1
  6
CONTINUOUS
 62
     7
 10
-219.878517615515
 20
398.4958498749818
 30
0.0
  0
VERTEX
  5
8C9
  8
1
  6
CONTINUOUS
 62
     7
 10
-219.8849584763265
 20
398.4855922851813
 30
0.0
  0
VERTEX
  5
8CA
  8
1
  6
CONTINUOUS
 62
     7
 10
-219.8911866781804
 20
398.4751100058578
 30
0.0
  0
VERTEX
  5
8CB
  8
1
  6
CONTINUOUS
 62
     7
 10
-219.8972078229892
 20
398.464369423385
 30
0.0
  0
VERTEX
  5
8CC
  8
1
  6
CONTINUOUS
 62
     7
 10
-219.9029883333439
 20
398.4534045815693
 30
0.0
  0
VERTEX
  5
8CD
  8
1
  6
CONTINUOUS
 62
     7
 10
-219.9082467548407
 20
398.4427762763452
 30
0.0
  0
VERTEX
  5
8CE
  8
1
  6
CONTINUOUS
 62
     7
 10
-219.9132622807566
 20
398.431950070057
 30
0.0
  0
VERTEX
  5
8CF
  8
1
  6
CONTINUOUS
 62
     7
 10
-219.9180390205355
 20
398.4208881973454
 30
0.0
  0
VERTEX
  5
8D0
  8
1
  6
CONTINUOUS
 62
     7
 10
-219.9225445029238
 20
398.4096354760862
 30
0.0
  0
VERTEX
  5
8D1
  8
1
  6
CONTINUOUS
 62
     7
 10
-219.9261898134873
 20
398.3998153905626
 30
0.0
  0
VERTEX
  5
8D2
  8
1
  6
CONTINUOUS
 62
     7
 10
-219.9296159405721
 20
398.3898632440376
 30
0.0
  0
VERTEX
  5
8D3
  8
1
  6
CONTINUOUS
 62
     7
 10
-219.9328247462094
 20
398.3797492181214
 30
0.0
  0
VERTEX
  5
8D4
  8
1
  6
CONTINUOUS
 62
     7
 10
-219.9357954717523
 20
398.3695137118141
 30
0.0
  0
VERTEX
  5
8D5
  8
1
  6
CONTINUOUS
 62
     7
 10
-219.9385371800059
 20
398.3590928435672
 30
0.0
  0
VERTEX
  5
8D6
  8
1
  6
CONTINUOUS
 62
     7
 10
-219.9410206816281
 20
398.3485638862094
 30
0.0
  0
VERTEX
  5
8D7
  8
1
  6
CONTINUOUS
 62
     7
 10
-219.9432465990603
 20
398.3378908278192
 30
0.0
  0
VERTEX
  5
8D8
  8
1
  6
CONTINUOUS
 62
     7
 10
-219.9451966988476
 20
398.3271274985127
 30
0.0
  0
VERTEX
  5
8D9
  8
1
  6
CONTINUOUS
 62
     7
 10
-219.9468764929848
 20
398.3161945204642
 30
0.0
  0
VERTEX
  5
8DA
  8
1
  6
CONTINUOUS
 62
     7
 10
-219.9482627379041
 20
398.3051922846904
 30
0.0
  0
VERTEX
  5
8DB
  8
1
  6
CONTINUOUS
 62
     7
 10
-219.9493543584106
 20
398.2940793280029
 30
0.0
  0
VERTEX
  5
8DC
  8
1
  6
CONTINUOUS
 62
     7
 10
-219.9501398123939
 20
398.2829221876385
 30
0.0
  0
SEQEND
  5
9B5
  8
1
  6
CONTINUOUS
 62
     7
  0
LINE
  5
497
  8
1
  6
CONTINUOUS
 62
     7
 10
-219.9501398123939
 20
398.2829221876385
 30
0.0
 11
-219.9508852368293
 21
398.261008324325
 31
0.0
  0
LINE
  5
498
  8
1
  6
CONTINUOUS
 62
     9
 10
-219.9508852368293
 20
398.261008324325
 30
0.0
 11
-222.6360880745353
 21
398.2333142941405
 31
0.0
  0
LINE
  5
499
  8
1
  6
CONTINUOUS
 62
     7
 10
-225.3212909122414
 20
398.261008324325
 30
0.0
 11
-225.2350371960949
 21
392.4333333333335
 31
0.0
  0
LINE
  5
49A
  8
1
  6
CONTINUOUS
 62
     7
 10
-220.0371389529758
 20
392.4333333333335
 30
0.0
 11
-219.9508852368293
 21
398.261008324325
 31
0.0
  0
LINE
  5
49B
  8
1
  6
CONTINUOUS
 62
     7
 10
-221.9198222718544
 20
385.7333333333334
 30
0.0
 11
-223.3523538772162
 21
385.7333333333334
 31
0.0
  0
POLYLINE
  5
49C
  8
1
  6
CONTINUOUS
 62
     7
 66
     1
 10
0.0
 20
0.0
 30
0.0
  0
VERTEX
  5
8DD
  8
1
  6
CONTINUOUS
 62
     7
 10
-223.3523538772162
 20
385.7333333333334
 30
0.0
  0
VERTEX
  5
8DE
  8
1
  6
CONTINUOUS
 62
     7
 10
-223.3761959480736
 20
385.7338417022393
 30
0.0
  0
VERTEX
  5
8DF
  8
1
  6
CONTINUOUS
 62
     7
 10
-223.400095128902
 20
385.7353801262839
 30
0.0
  0
VERTEX
  5
8E0
  8
1
  6
CONTINUOUS
 62
     7
 10
-223.4239497044748
 20
385.7379597406303
 30
0.0
  0
VERTEX
  5
8E1
  8
1
  6
CONTINUOUS
 62
     7
 10
-223.4478510387005
 20
385.7416136118283
 30
0.0
  0
VERTEX
  5
8E2
  8
1
  6
CONTINUOUS
 62
     7
 10
-223.4716126796826
 20
385.7463366288751
 30
0.0
  0
VERTEX
  5
8E3
  8
1
  6
CONTINUOUS
 62
     7
 10
-223.4953212066765
 20
385.7521698313428
 30
0.0
  0
VERTEX
  5
8E4
  8
1
  6
CONTINUOUS
 62
     7
 10
-223.5187874282204
 20
385.7590908284313
 30
0.0
  0
VERTEX
  5
8E5
  8
1
  6
CONTINUOUS
 62
     7
 10
-223.5420142150722
 20
385.7671191923263
 30
0.0
  0
VERTEX
  5
8E6
  8
1
  6
CONTINUOUS
 62
     7
 10
-223.5561141415557
 20
385.7725916677849
 30
0.0
  0
VERTEX
  5
8E7
  8
1
  6
CONTINUOUS
 62
     7
 10
-223.5700512353731
 20
385.778465372264
 30
0.0
  0
VERTEX
  5
8E8
  8
1
  6
CONTINUOUS
 62
     7
 10
-223.5838588104502
 20
385.784758461492
 30
0.0
  0
VERTEX
  5
8E9
  8
1
  6
CONTINUOUS
 62
     7
 10
-223.5974782296668
 20
385.7914479294928
 30
0.0
  0
VERTEX
  5
8EA
  8
1
  6
CONTINUOUS
 62
     7
 10
-223.6109738750112
 20
385.7985713676273
 30
0.0
  0
VERTEX
  5
8EB
  8
1
  6
CONTINUOUS
 62
     7
 10
-223.6242548429771
 20
385.8060863903459
 30
0.0
  0
VERTEX
  5
8EC
  8
1
  6
CONTINUOUS
 62
     7
 10
-223.6373538478908
 20
385.8140159115839
 30
0.0
  0
VERTEX
  5
8ED
  8
1
  6
CONTINUOUS
 62
     7
 10
-223.6502124647141
 20
385.8223285370889
 30
0.0
  0
VERTEX
  5
8EE
  8
1
  6
CONTINUOUS
 62
     7
 10
-223.6629291006044
 20
385.8310967876144
 30
0.0
  0
VERTEX
  5
8EF
  8
1
  6
CONTINUOUS
 62
     7
 10
-223.6753768390577
 20
385.8402417288206
 30
0.0
  0
VERTEX
  5
8F0
  8
1
  6
CONTINUOUS
 62
     7
 10
-223.6875873236128
 20
385.8497914799709
 30
0.0
  0
VERTEX
  5
8F1
  8
1
  6
CONTINUOUS
 62
     7
 10
-223.6995031068112
 20
385.8597055085915
 30
0.0
  0
VERTEX
  5
8F2
  8
1
  6
CONTINUOUS
 62
     7
 10
-223.7103399683052
 20
385.8692726469123
 30
0.0
  0
VERTEX
  5
8F3
  8
1
  6
CONTINUOUS
 62
     7
 10
-223.7209011266162
 20
385.8791424617719
 30
0.0
  0
VERTEX
  5
8F4
  8
1
  6
CONTINUOUS
 62
     7
 10
-223.7312102182708
 20
385.889341159855
 30
0.0
  0
VERTEX
  5
8F5
  8
1
  6
CONTINUOUS
 62
     7
 10
-223.741223734522
 20
385.8998294213812
 30
0.0
  0
VERTEX
  5
8F6
  8
1
  6
CONTINUOUS
 62
     7
 10
-223.7509855084697
 20
385.9106595394902
 30
0.0
  0
VERTEX
  5
8F7
  8
1
  6
CONTINUOUS
 62
     7
 10
-223.7604309340348
 20
385.9217658785563
 30
0.0
  0
VERTEX
  5
8F8
  8
1
  6
CONTINUOUS
 62
     7
 10
-223.7695814326641
 20
385.9331783326822
 30
0.0
  0
VERTEX
  5
8F9
  8
1
  6
CONTINUOUS
 62
     7
 10
-223.7783967266708
 20
385.9448509342392
 30
0.0
  0
VERTEX
  5
8FA
  8
1
  6
CONTINUOUS
 62
     7
 10
-223.7869399056065
 20
385.9568778146856
 30
0.0
  0
VERTEX
  5
8FB
  8
1
  6
CONTINUOUS
 62
     7
 10
-223.7951260566777
 20
385.9691498207308
 30
0.0
  0
VERTEX
  5
8FC
  8
1
  6
CONTINUOUS
 62
     7
 10
-223.8029739350252
 20
385.9817007084122
 30
0.0
  0
VERTEX
  5
8FD
  8
1
  6
CONTINUOUS
 62
     7
 10
-223.8104472348804
 20
385.9944775569716
 30
0.0
  0
VERTEX
  5
8FE
  8
1
  6
CONTINUOUS
 62
     7
 10
-223.8175243547795
 20
386.0074422542382
 30
0.0
  0
VERTEX
  5
8FF
  8
1
  6
CONTINUOUS
 62
     7
 10
-223.824220312029
 20
386.0206218008676
 30
0.0
  0
VERTEX
  5
900
  8
1
  6
CONTINUOUS
 62
     7
 10
-223.8305425389446
 20
386.0340382931446
 30
0.0
  0
VERTEX
  5
901
  8
1
  6
CONTINUOUS
 62
     7
 10
-223.8364622333336
 20
386.0476366893153
 30
0.0
  0
VERTEX
  5
902
  8
1
  6
CONTINUOUS
 62
     7
 10
-223.8419924226639
 20
386.0614547035904
 30
0.0
  0
VERTEX
  5
903
  8
1
  6
CONTINUOUS
 62
     7
 10
-223.8471059897824
 20
386.07543181517
 30
0.0
  0
VERTEX
  5
904
  8
1
  6
CONTINUOUS
 62
     7
 10
-223.8518129023355
 20
386.0896037537828
 30
0.0
  0
VERTEX
  5
905
  8
1
  6
CONTINUOUS
 62
     7
 10
-223.8560941624391
 20
386.1039238107823
 30
0.0
  0
SEQEND
  5
9B6
  8
1
  6
CONTINUOUS
 62
     7
  0
POLYLINE
  5
49D
  8
1
  6
CONTINUOUS
 62
     7
 66
     1
 10
0.0
 20
0.0
 30
0.0
  0
VERTEX
  5
906
  8
1
  6
CONTINUOUS
 62
     7
 10
-221.4160819866316
 20
386.1039238107822
 30
0.0
  0
VERTEX
  5
907
  8
1
  6
CONTINUOUS
 62
     7
 10
-221.4197838087946
 20
386.0914531169893
 30
0.0
  0
VERTEX
  5
908
  8
1
  6
CONTINUOUS
 62
     7
 10
-221.4238118346711
 20
386.0790836516031
 30
0.0
  0
VERTEX
  5
909
  8
1
  6
CONTINUOUS
 62
     7
 10
-221.4281755751803
 20
386.0667901631908
 30
0.0
  0
VERTEX
  5
90A
  8
1
  6
CONTINUOUS
 62
     7
 10
-221.4328609257511
 20
386.0546152863516
 30
0.0
  0
VERTEX
  5
90B
  8
1
  6
CONTINUOUS
 62
     7
 10
-221.4425292820341
 20
386.0320730271388
 30
0.0
  0
VERTEX
  5
90C
  8
1
  6
CONTINUOUS
 62
     7
 10
-221.4533240556748
 20
386.0099800946891
 30
0.0
  0
VERTEX
  5
90D
  8
1
  6
CONTINUOUS
 62
     7
 10
-221.4643036539726
 20
385.9899768734517
 30
0.0
  0
VERTEX
  5
90E
  8
1
  6
CONTINUOUS
 62
     7
 10
-221.4762104106715
 20
385.9704540172662
 30
0.0
  0
VERTEX
  5
90F
  8
1
  6
CONTINUOUS
 62
     7
 10
-221.4885949002336
 20
385.9520599763119
 30
0.0
  0
VERTEX
  5
910
  8
1
  6
CONTINUOUS
 62
     7
 10
-221.4967880218651
 20
385.9407874738661
 30
0.0
  0
VERTEX
  5
911
  8
1
  6
CONTINUOUS
 62
     7
 10
-221.5052901811115
 20
385.9297455478609
 30
0.0
  0
VERTEX
  5
912
  8
1
  6
CONTINUOUS
 62
     7
 10
-221.5141219935558
 20
385.918909564827
 30
0.0
  0
VERTEX
  5
913
  8
1
  6
CONTINUOUS
 62
     7
 10
-221.5232504483349
 20
385.9083215756311
 30
0.0
  0
VERTEX
  5
914
  8
1
  6
CONTINUOUS
 62
     7
 10
-221.5327161007901
 20
385.8979381985304
 30
0.0
  0
VERTEX
  5
915
  8
1
  6
CONTINUOUS
 62
     7
 10
-221.5424660322688
 20
385.8878205367405
 30
0.0
  0
VERTEX
  5
916
  8
1
  6
CONTINUOUS
 62
     7
 10
-221.5525236213714
 20
385.8779460883107
 30
0.0
  0
VERTEX
  5
917
  8
1
  6
CONTINUOUS
 62
     7
 10
-221.5628509551505
 20
385.8683533166146
 30
0.0
  0
VERTEX
  5
918
  8
1
  6
CONTINUOUS
 62
     7
 10
-221.5735251610083
 20
385.8589760897822
 30
0.0
  0
VERTEX
  5
919
  8
1
  6
CONTINUOUS
 62
     7
 10
-221.5844560654824
 20
385.8498985464317
 30
0.0
  0
VERTEX
  5
91A
  8
1
  6
CONTINUOUS
 62
     7
 10
-221.5956697586898
 20
385.841100488461
 30
0.0
  0
VERTEX
  5
91B
  8
1
  6
CONTINUOUS
 62
     7
 10
-221.6071235194115
 20
385.8326164299666
 30
0.0
  0
VERTEX
  5
91C
  8
1
  6
CONTINUOUS
 62
     7
 10
-221.6289363538243
 20
385.8177540361602
 30
0.0
  0
VERTEX
  5
91D
  8
1
  6
CONTINUOUS
 62
     7
 10
-221.651539913886
 20
385.8039876387919
 30
0.0
  0
VERTEX
  5
91E
  8
1
  6
CONTINUOUS
 62
     7
 10
-221.673396279422
 20
385.7921131403833
 30
0.0
  0
VERTEX
  5
91F
  8
1
  6
CONTINUOUS
 62
     7
 10
-221.6958455550421
 20
385.7812676341924
 30
0.0
  0
VERTEX
  5
920
  8
1
  6
CONTINUOUS
 62
     7
 10
-221.7171061147791
 20
385.7721703965013
 30
0.0
  0
VERTEX
  5
921
  8
1
  6
CONTINUOUS
 62
     7
 10
-221.7387874272335
 20
385.7639971253179
 30
0.0
  0
VERTEX
  5
922
  8
1
  6
CONTINUOUS
 62
     7
 10
-221.7601258571596
 20
385.7569839915762
 30
0.0
  0
VERTEX
  5
923
  8
1
  6
CONTINUOUS
 62
     7
 10
-221.7794188760371
 20
385.7514837054031
 30
0.0
  0
VERTEX
  5
924
  8
1
  6
CONTINUOUS
 62
     7
 10
-221.7989319188749
 20
385.7467017114864
 30
0.0
  0
VERTEX
  5
925
  8
1
  6
CONTINUOUS
 62
     7
 10
-221.8187138099379
 20
385.742629771963
 30
0.0
  0
VERTEX
  5
926
  8
1
  6
CONTINUOUS
 62
     7
 10
-221.8386338437335
 20
385.7392961034126
 30
0.0
  0
VERTEX
  5
927
  8
1
  6
CONTINUOUS
 62
     7
 10
-221.858775336651
 20
385.7366891620287
 30
0.0
  0
VERTEX
  5
928
  8
1
  6
CONTINUOUS
 62
     7
 10
-221.8789996609193
 20
385.7348279458381
 30
0.0
  0
VERTEX
  5
929
  8
1
  6
CONTINUOUS
 62
     7
 10
-221.8993834110724
 20
385.7337067379605
 30
0.0
  0
VERTEX
  5
92A
  8
1
  6
CONTINUOUS
 62
     7
 10
-221.9198222718544
 20
385.7333333333334
 30
0.0
  0
SEQEND
  5
9B7
  8
1
  6
CONTINUOUS
 62
     7
  0
ARC
  5
49E
  8
1
  6
CONTINUOUS
 62
     7
 10
-229.6360880745353
 20
402.2071146515754
 30
0.0
 40
1.0
 50
90.5000000000005
 51
180.0
  0
LINE
  5
49F
  8
1
  6
CONTINUOUS
 62
     7
 10
-226.6142692433751
 20
403.2335237433883
 30
0.0
 11
-229.6448146100337
 21
403.2070765746396
 31
0.0
  0
LINE
  5
4A0
  8
1
  6
CONTINUOUS
 62
     7
 10
-230.6360880745353
 20
402.2071146515754
 30
0.0
 11
-230.6360880745353
 21
400.6984258621704
 31
0.0
  0
ARC
  5
4A1
  8
1
  6
CONTINUOUS
 62
     7
 10
-215.6360880745353
 20
402.2071146515754
 30
0.0
 40
1.0
 50
0.0
 51
89.49999999999952
  0
LINE
  5
4A2
  8
1
  6
CONTINUOUS
 62
     7
 10
-215.6273615390369
 20
403.2070765746396
 30
0.0
 11
-218.6360880745345
 21
403.2333333333335
 31
0.0
  0
LINE
  5
4A3
  8
1
  6
CONTINUOUS
 62
     7
 10
-214.6360880745353
 20
402.2071146515754
 30
0.0
 11
-214.6360880745353
 21
400.6984258621704
 31
0.0
  0
LINE
  5
4A4
  8
1
  6
CONTINUOUS
 62
     7
 10
-215.4002798423148
 20
403.1789142593223
 30
0.0
 11
-214.6360880745353
 21
403.1722452587981
 31
0.0
  0
LINE
  5
4A5
  8
1
  6
CONTINUOUS
 62
     7
 10
-214.6360880745353
 20
403.1722452587981
 30
0.0
 11
-214.6360880745353
 21
402.2071146515754
 31
0.0
  0
LINE
  5
4A6
  8
1
  6
CONTINUOUS
 62
     7
 10
-230.6360880745353
 20
403.1722452587981
 30
0.0
 11
-229.8718963067559
 21
403.1789142593223
 31
0.0
  0
LINE
  5
4A7
  8
1
  6
CONTINUOUS
 62
     7
 10
-230.6360880745353
 20
403.1722452587981
 30
0.0
 11
-230.6360880745353
 21
402.2071146515754
 31
0.0
  0
LINE
  5
4A8
  8
1
  6
CONTINUOUS
 62
     9
 10
-214.6360880745353
 20
395.803262506467
 30
0.0
 11
-219.9832960297245
 21
395.7565981295924
 31
0.0
  0
LINE
  5
4A9
  8
1
  6
CONTINUOUS
 62
     7
 10
-214.6360880745353
 20
395.803262506467
 30
0.0
 11
-214.6360880745353
 21
398.8031482756596
 31
0.0
  0
LINE
  5
4AA
  8
1
  6
CONTINUOUS
 62
     9
 10
-225.2888801193462
 20
395.7565981295924
 30
0.0
 11
-230.6360880745353
 21
395.803262506467
 31
0.0
  0
LINE
  5
4AB
  8
1
  6
CONTINUOUS
 62
     7
 10
-230.6360880745353
 20
398.8031482756596
 30
0.0
 11
-230.6360880745353
 21
395.803262506467
 31
0.0
  0
LINE
  5
4AC
  8
1
  6
CONTINUOUS
 62
     9
 10
-218.6639119254647
 20
417.6987067541747
 30
0.0
 11
-219.2840946836262
 21
417.7041190071113
 31
0.0
  0
LINE
  5
4AD
  8
1
  6
CONTINUOUS
 62
     7
 10
-219.7928409258656
 20
418.7085206913706
 30
0.0
 11
-218.6639119254647
 21
418.6986686772389
 31
0.0
  0
LINE
  5
4AE
  8
1
  6
CONTINUOUS
 62
     9
 10
-225.9880814654445
 20
417.7041190071113
 30
0.0
 11
-226.6639119254647
 21
417.6982211240377
 31
0.0
  0
LINE
  5
4AF
  8
1
  6
CONTINUOUS
 62
     7
 10
-226.6639119254647
 20
418.6981830471019
 30
0.0
 11
-225.479335223205
 21
418.7085206913706
 31
0.0
  0
LINE
  5
4B0
  8
1
  6
CONTINUOUS
 62
     7
 10
-230.6360880745353
 20
416.9333333333335
 30
0.0
 11
-230.6360880745353
 21
416.4833333333335
 31
0.0
  0
LINE
  5
4B1
  8
1
  6
CONTINUOUS
 62
     7
 10
-230.6360880745353
 20
406.9833333333335
 30
0.0
 11
-230.6360880745353
 21
403.1722452587981
 31
0.0
  0
LINE
  5
4B2
  8
1
  6
CONTINUOUS
 62
     7
 10
-208.6360880745353
 20
413.8333333333334
 30
0.0
 11
-210.9360880745353
 21
413.8333333333334
 31
0.0
  0
ARC
  5
4B3
  8
1
  6
CONTINUOUS
 62
     7
 10
-208.6360880745353
 20
408.7333333333335
 30
0.0
 40
5.1
 50
42.36979856937604
 51
90.00000000000001
  0
POLYLINE
  5
4B4
  8
1
  6
CONTINUOUS
 62
     7
 66
     1
 10
0.0
 20
0.0
 30
0.0
  0
VERTEX
  5
92B
  8
1
  6
CONTINUOUS
 62
     7
 10
-205.237558980942
 20
411.3333333333334
 30
0.0
  0
VERTEX
  5
92C
  8
1
  6
CONTINUOUS
 62
     7
 10
-205.2135027630458
 20
411.3339123702366
 30
0.0
  0
VERTEX
  5
92D
  8
1
  6
CONTINUOUS
 62
     7
 10
-205.1895022629011
 20
411.3356481398113
 30
0.0
  0
VERTEX
  5
92E
  8
1
  6
CONTINUOUS
 62
     7
 10
-205.1656130692093
 20
411.3385366217589
 30
0.0
  0
VERTEX
  5
92F
  8
1
  6
CONTINUOUS
 62
     7
 10
-205.1418905128691
 20
411.3425711259289
 30
0.0
  0
VERTEX
  5
930
  8
1
  6
CONTINUOUS
 62
     7
 10
-205.1183895388229
 20
411.347742307814
 30
0.0
  0
VERTEX
  5
931
  8
1
  6
CONTINUOUS
 62
     7
 10
-205.0951645787956
 20
411.3540381901937
 30
0.0
  0
VERTEX
  5
932
  8
1
  6
CONTINUOUS
 62
     7
 10
-205.0722694252229
 20
411.361444190875
 30
0.0
  0
VERTEX
  5
933
  8
1
  6
CONTINUOUS
 62
     7
 10
-205.0497571066601
 20
411.3699431564671
 30
0.0
  0
VERTEX
  5
934
  8
1
  6
CONTINUOUS
 62
     7
 10
-205.0276797649601
 20
411.3795154021113
 30
0.0
  0
VERTEX
  5
935
  8
1
  6
CONTINUOUS
 62
     7
 10
-205.0060885345052
 20
411.3901387570734
 30
0.0
  0
VERTEX
  5
936
  8
1
  6
CONTINUOUS
 62
     7
 10
-204.9850334237722
 20
411.4017886160954
 30
0.0
  0
VERTEX
  5
937
  8
1
  6
CONTINUOUS
 62
     7
 10
-204.9645631995057
 20
411.414437996384
 30
0.0
  0
VERTEX
  5
938
  8
1
  6
CONTINUOUS
 62
     7
 10
-204.9447252737667
 20
411.4280576001074
 30
0.0
  0
VERTEX
  5
939
  8
1
  6
CONTINUOUS
 62
     7
 10
-204.9255655941195
 20
411.4426158822528
 30
0.0
  0
VERTEX
  5
93A
  8
1
  6
CONTINUOUS
 62
     7
 10
-204.9071285372103
 20
411.4580791236898
 30
0.0
  0
VERTEX
  5
93B
  8
1
  6
CONTINUOUS
 62
     7
 10
-204.8894568059847
 20
411.4744115092687
 30
0.0
  0
VERTEX
  5
93C
  8
1
  6
CONTINUOUS
 62
     7
 10
-204.8725913307806
 20
411.4915752107736
 30
0.0
  0
VERTEX
  5
93D
  8
1
  6
CONTINUOUS
 62
     7
 10
-204.8565711745282
 20
411.5095304745382
 30
0.0
  0
VERTEX
  5
93E
  8
1
  6
CONTINUOUS
 62
     7
 10
-204.8414334422741
 20
411.5282357135213
 30
0.0
  0
VERTEX
  5
93F
  8
1
  6
CONTINUOUS
 62
     7
 10
-204.8272131952408
 20
411.5476476036281
 30
0.0
  0
VERTEX
  5
940
  8
1
  6
CONTINUOUS
 62
     7
 10
-204.8139433696195
 20
411.5677211840559
 30
0.0
  0
VERTEX
  5
941
  8
1
  6
CONTINUOUS
 62
     7
 10
-204.8016547002851
 20
411.5884099614291
 30
0.0
  0
VERTEX
  5
942
  8
1
  6
CONTINUOUS
 62
     7
 10
-204.7903756496098
 20
411.6096660174856
 30
0.0
  0
VERTEX
  5
943
  8
1
  6
CONTINUOUS
 62
     7
 10
-204.7801323415399
 20
411.6314401200617
 30
0.0
  0
VERTEX
  5
944
  8
1
  6
CONTINUOUS
 62
     7
 10
-204.7709485010888
 20
411.6536818371217
 30
0.0
  0
VERTEX
  5
945
  8
1
  6
CONTINUOUS
 62
     7
 10
-204.7628453993868
 20
411.6763396535658
 30
0.0
  0
VERTEX
  5
946
  8
1
  6
CONTINUOUS
 62
     7
 10
-204.7558418044135
 20
411.6993610905466
 30
0.0
  0
VERTEX
  5
947
  8
1
  6
CONTINUOUS
 62
     7
 10
-204.7499539375287
 20
411.7226928270176
 30
0.0
  0
VERTEX
  5
948
  8
1
  6
CONTINUOUS
 62
     7
 10
-204.7451954359011
 20
411.7462808232333
 30
0.0
  0
VERTEX
  5
949
  8
1
  6
CONTINUOUS
 62
     7
 10
-204.7415773209231
 20
411.7700704459124
 30
0.0
  0
VERTEX
  5
94A
  8
1
  6
CONTINUOUS
 62
     7
 10
-204.7391079726829
 20
411.7940065947772
 30
0.0
  0
VERTEX
  5
94B
  8
1
  6
CONTINUOUS
 62
     7
 10
-204.7377931105557
 20
411.8180338301736
 30
0.0
  0
VERTEX
  5
94C
  8
1
  6
CONTINUOUS
 62
     7
 10
-204.7376357799561
 20
411.8420965014778
 30
0.0
  0
VERTEX
  5
94D
  8
1
  6
CONTINUOUS
 62
     7
 10
-204.738636345285
 20
411.866138875991
 30
0.0
  0
VERTEX
  5
94E
  8
1
  6
CONTINUOUS
 62
     7
 10
-204.7407924890856
 20
411.8901052680248
 30
0.0
  0
VERTEX
  5
94F
  8
1
  6
CONTINUOUS
 62
     7
 10
-204.7440992174103
 20
411.9139401678777
 30
0.0
  0
VERTEX
  5
950
  8
1
  6
CONTINUOUS
 62
     7
 10
-204.7485488713885
 20
411.9375883704031
 30
0.0
  0
VERTEX
  5
951
  8
1
  6
CONTINUOUS
 62
     7
 10
-204.7541311449645
 20
411.9609951028733
 30
0.0
  0
VERTEX
  5
952
  8
1
  6
CONTINUOUS
 62
     7
 10
-204.7608331087688
 20
411.9841061518408
 30
0.0
  0
VERTEX
  5
953
  8
1
  6
CONTINUOUS
 62
     7
 10
-204.7686392400639
 20
412.0068679887045
 30
0.0
  0
VERTEX
  5
954
  8
1
  6
CONTINUOUS
 62
     7
 10
-204.7775314586974
 20
412.0292278936905
 30
0.0
  0
VERTEX
  5
955
  8
1
  6
CONTINUOUS
 62
     7
 10
-204.7874891689785
 20
412.0511340779582
 30
0.0
  0
VERTEX
  5
956
  8
1
  6
CONTINUOUS
 62
     7
 10
-204.7984893073801
 20
412.0725358035511
 30
0.0
  0
VERTEX
  5
957
  8
1
  6
CONTINUOUS
 62
     7
 10
-204.810506395958
 20
412.0933835009136
 30
0.0
  0
VERTEX
  5
958
  8
1
  6
CONTINUOUS
 62
     7
 10
-204.8235126013612
 20
412.1136288837013
 30
0.0
  0
VERTEX
  5
959
  8
1
  6
CONTINUOUS
 62
     7
 10
-204.8374777992981
 20
412.1332250606191
 30
0.0
  0
VERTEX
  5
95A
  8
1
  6
CONTINUOUS
 62
     7
 10
-204.8523696443087
 20
412.1521266440286
 30
0.0
  0
VERTEX
  5
95B
  8
1
  6
CONTINUOUS
 62
     7
 10
-204.8681536446819
 20
412.1702898550726
 30
0.0
  0
SEQEND
  5
9B8
  8
1
  6
CONTINUOUS
 62
     7
  0
LINE
  5
4B5
  8
1
  6
CONTINUOUS
 62
     7
 10
-205.237558980942
 20
411.3333333333334
 30
0.0
 11
-208.2360880745353
 21
411.3333333333334
 31
0.0
  0
ARC
  5
4B6
  8
1
  6
CONTINUOUS
 62
     7
 10
-208.2360880745353
 20
408.7333333333335
 30
0.0
 40
2.6
 50
90.0
 51
270.0
  0
LINE
  5
4B7
  8
1
  6
CONTINUOUS
 62
     7
 10
-208.2360880745353
 20
406.1333333333334
 30
0.0
 11
-205.237558980942
 21
406.1333333333334
 31
0.0
  0
POLYLINE
  5
4B8
  8
1
  6
CONTINUOUS
 62
     7
 66
     1
 10
0.0
 20
0.0
 30
0.0
  0
VERTEX
  5
95C
  8
1
  6
CONTINUOUS
 62
     7
 10
-204.8681536446819
 20
405.2963768115943
 30
0.0
  0
VERTEX
  5
95D
  8
1
  6
CONTINUOUS
 62
     7
 10
-204.8523696443087
 20
405.3145400226383
 30
0.0
  0
VERTEX
  5
95E
  8
1
  6
CONTINUOUS
 62
     7
 10
-204.8374777992981
 20
405.3334416060478
 30
0.0
  0
VERTEX
  5
95F
  8
1
  6
CONTINUOUS
 62
     7
 10
-204.8235126013612
 20
405.3530377829657
 30
0.0
  0
VERTEX
  5
960
  8
1
  6
CONTINUOUS
 62
     7
 10
-204.810506395958
 20
405.3732831657533
 30
0.0
  0
VERTEX
  5
961
  8
1
  6
CONTINUOUS
 62
     7
 10
-204.7984893073801
 20
405.3941308631158
 30
0.0
  0
VERTEX
  5
962
  8
1
  6
CONTINUOUS
 62
     7
 10
-204.7874891689785
 20
405.4155325887087
 30
0.0
  0
VERTEX
  5
963
  8
1
  6
CONTINUOUS
 62
     7
 10
-204.7775314586974
 20
405.4374387729764
 30
0.0
  0
VERTEX
  5
964
  8
1
  6
CONTINUOUS
 62
     7
 10
-204.7686392400639
 20
405.4597986779624
 30
0.0
  0
VERTEX
  5
965
  8
1
  6
CONTINUOUS
 62
     7
 10
-204.7608331087688
 20
405.4825605148262
 30
0.0
  0
VERTEX
  5
966
  8
1
  6
CONTINUOUS
 62
     7
 10
-204.7541311449645
 20
405.5056715637936
 30
0.0
  0
VERTEX
  5
967
  8
1
  6
CONTINUOUS
 62
     7
 10
-204.7485488713885
 20
405.5290782962638
 30
0.0
  0
VERTEX
  5
968
  8
1
  6
CONTINUOUS
 62
     7
 10
-204.7440992174103
 20
405.5527264987892
 30
0.0
  0
VERTEX
  5
969
  8
1
  6
CONTINUOUS
 62
     7
 10
-204.7407924890855
 20
405.5765613986421
 30
0.0
  0
VERTEX
  5
96A
  8
1
  6
CONTINUOUS
 62
     7
 10
-204.738636345285
 20
405.6005277906759
 30
0.0
  0
VERTEX
  5
96B
  8
1
  6
CONTINUOUS
 62
     7
 10
-204.7376357799561
 20
405.6245701651891
 30
0.0
  0
VERTEX
  5
96C
  8
1
  6
CONTINUOUS
 62
     7
 10
-204.7377931105557
 20
405.6486328364933
 30
0.0
  0
VERTEX
  5
96D
  8
1
  6
CONTINUOUS
 62
     7
 10
-204.7391079726829
 20
405.6726600718897
 30
0.0
  0
VERTEX
  5
96E
  8
1
  6
CONTINUOUS
 62
     7
 10
-204.7415773209231
 20
405.6965962207545
 30
0.0
  0
VERTEX
  5
96F
  8
1
  6
CONTINUOUS
 62
     7
 10
-204.7451954359011
 20
405.7203858434336
 30
0.0
  0
VERTEX
  5
970
  8
1
  6
CONTINUOUS
 62
     7
 10
-204.7499539375287
 20
405.7439738396492
 30
0.0
  0
VERTEX
  5
971
  8
1
  6
CONTINUOUS
 62
     7
 10
-204.7558418044135
 20
405.7673055761203
 30
0.0
  0
VERTEX
  5
972
  8
1
  6
CONTINUOUS
 62
     7
 10
-204.7628453993868
 20
405.7903270131011
 30
0.0
  0
VERTEX
  5
973
  8
1
  6
CONTINUOUS
 62
     7
 10
-204.7709485010888
 20
405.8129848295453
 30
0.0
  0
VERTEX
  5
974
  8
1
  6
CONTINUOUS
 62
     7
 10
-204.7801323415399
 20
405.8352265466053
 30
0.0
  0
VERTEX
  5
975
  8
1
  6
CONTINUOUS
 62
     7
 10
-204.7903756496098
 20
405.8570006491813
 30
0.0
  0
VERTEX
  5
976
  8
1
  6
CONTINUOUS
 62
     7
 10
-204.8016547002851
 20
405.8782567052377
 30
0.0
  0
VERTEX
  5
977
  8
1
  6
CONTINUOUS
 62
     7
 10
-204.8139433696195
 20
405.8989454826109
 30
0.0
  0
VERTEX
  5
978
  8
1
  6
CONTINUOUS
 62
     7
 10
-204.8272131952408
 20
405.9190190630387
 30
0.0
  0
VERTEX
  5
979
  8
1
  6
CONTINUOUS
 62
     7
 10
-204.8414334422741
 20
405.9384309531456
 30
0.0
  0
VERTEX
  5
97A
  8
1
  6
CONTINUOUS
 62
     7
 10
-204.8565711745281
 20
405.9571361921286
 30
0.0
  0
VERTEX
  5
97B
  8
1
  6
CONTINUOUS
 62
     7
 10
-204.8725913307806
 20
405.9750914558933
 30
0.0
  0
VERTEX
  5
97C
  8
1
  6
CONTINUOUS
 62
     7
 10
-204.8894568059847
 20
405.9922551573982
 30
0.0
  0
VERTEX
  5
97D
  8
1
  6
CONTINUOUS
 62
     7
 10
-204.9071285372103
 20
406.0085875429771
 30
0.0
  0
VERTEX
  5
97E
  8
1
  6
CONTINUOUS
 62
     7
 10
-204.9255655941194
 20
406.0240507844141
 30
0.0
  0
VERTEX
  5
97F
  8
1
  6
CONTINUOUS
 62
     7
 10
-204.9447252737666
 20
406.0386090665595
 30
0.0
  0
VERTEX
  5
980
  8
1
  6
CONTINUOUS
 62
     7
 10
-204.9645631995057
 20
406.0522286702828
 30
0.0
  0
VERTEX
  5
981
  8
1
  6
CONTINUOUS
 62
     7
 10
-204.9850334237722
 20
406.0648780505715
 30
0.0
  0
VERTEX
  5
982
  8
1
  6
CONTINUOUS
 62
     7
 10
-205.0060885345052
 20
406.0765279095935
 30
0.0
  0
VERTEX
  5
983
  8
1
  6
CONTINUOUS
 62
     7
 10
-205.0276797649601
 20
406.0871512645556
 30
0.0
  0
VERTEX
  5
984
  8
1
  6
CONTINUOUS
 62
     7
 10
-205.0497571066601
 20
406.0967235101998
 30
0.0
  0
VERTEX
  5
985
  8
1
  6
CONTINUOUS
 62
     7
 10
-205.0722694252229
 20
406.1052224757919
 30
0.0
  0
VERTEX
  5
986
  8
1
  6
CONTINUOUS
 62
     7
 10
-205.0951645787956
 20
406.1126284764732
 30
0.0
  0
VERTEX
  5
987
  8
1
  6
CONTINUOUS
 62
     7
 10
-205.1183895388229
 20
406.1189243588529
 30
0.0
  0
VERTEX
  5
988
  8
1
  6
CONTINUOUS
 62
     7
 10
-205.1418905128691
 20
406.124095540738
 30
0.0
  0
VERTEX
  5
989
  8
1
  6
CONTINUOUS
 62
     7
 10
-205.1656130692093
 20
406.1281300449079
 30
0.0
  0
VERTEX
  5
98A
  8
1
  6
CONTINUOUS
 62
     7
 10
-205.1895022629011
 20
406.1310185268555
 30
0.0
  0
VERTEX
  5
98B
  8
1
  6
CONTINUOUS
 62
     7
 10
-205.2135027630458
 20
406.1327542964302
 30
0.0
  0
VERTEX
  5
98C
  8
1
  6
CONTINUOUS
 62
     7
 10
-205.237558980942
 20
406.1333333333334
 30
0.0
  0
SEQEND
  5
9B9
  8
1
  6
CONTINUOUS
 62
     7
  0
ARC
  5
4B9
  8
1
  6
CONTINUOUS
 62
     7
 10
-208.6360880745353
 20
408.7333333333335
 30
0.0
 40
5.1
 50
270.0
 51
317.630201430624
  0
LINE
  5
4BA
  8
1
  6
CONTINUOUS
 62
     7
 10
-214.6360880745353
 20
403.6333333333334
 30
0.0
 11
-208.6360880745353
 21
403.6333333333334
 31
0.0
  0
LINE
  5
4BB
  8
1
  6
CONTINUOUS
 62
     7
 10
-214.6360880745353
 20
403.6333333333334
 30
0.0
 11
-214.6360880745353
 21
403.1722452587981
 31
0.0
  0
ARC
  5
4BC
  8
1
  6
CONTINUOUS
 62
     7
 10
-215.6360880745353
 20
359.7944594862545
 30
0.0
 40
1.0
 50
270.5000000000005
 51
0.0
  0
LINE
  5
4BD
  8
1
  6
CONTINUOUS
 62
     7
 10
-222.6360880745353
 20
358.7333333333335
 30
0.0
 11
-215.6273615390369
 21
358.7944975631903
 31
0.0
  0
LINE
  5
4BE
  8
1
  6
CONTINUOUS
 62
     7
 10
-222.6360880745353
 20
358.7333333333335
 30
0.0
 11
-222.6360880745353
 21
361.4027892960658
 31
0.0
  0
LINE
  5
4BF
  8
1
  6
CONTINUOUS
 62
     7
 10
-222.6360880745353
 20
361.4027892960658
 30
0.0
 11
-220.1273615390369
 21
361.4246826208642
 31
0.0
  0
ARC
  5
4C0
  8
1
  6
CONTINUOUS
 62
     7
 10
-220.1360880745353
 20
362.4246445439284
 30
0.0
 40
1.0
 50
270.5000000000005
 51
0.0
  0
LINE
  5
4C1
  8
1
  6
CONTINUOUS
 62
     7
 10
-219.1360880745353
 20
362.4246445439284
 30
0.0
 11
-219.1360880745353
 21
367.4420221227385
 31
0.0
  0
ARC
  5
4C2
  8
1
  6
CONTINUOUS
 62
     7
 10
-220.1360880745353
 20
367.4420221227385
 30
0.0
 40
1.0
 50
0.0
 51
89.49999999999955
  0
LINE
  5
4C3
  8
1
  6
CONTINUOUS
 62
     7
 10
-222.6360880745353
 20
368.4638773706011
 30
0.0
 11
-222.6360880745353
 21
385.7333333333334
 31
0.0
  0
LINE
  5
4C4
  8
1
  6
CONTINUOUS
 62
     7
 10
-220.1273615390369
 20
368.4419840458027
 30
0.0
 11
-222.6360880745353
 21
368.4638773706011
 31
0.0
  0
LINE
  5
4C5
  8
1
  6
CONTINUOUS
 62
     7
 10
-214.6360880745353
 20
395.803262506467
 30
0.0
 11
-214.6360880745353
 21
359.7944594862545
 31
0.0
  0
LINE
  5
4C6
  8
1
  6
CONTINUOUS
 62
     7
 10
-229.6448146100337
 20
358.7944975631903
 30
0.0
 11
-222.6360880745353
 21
358.7333333333335
 31
0.0
  0
ARC
  5
4C7
  8
1
  6
CONTINUOUS
 62
     7
 10
-229.6360880745353
 20
359.7944594862545
 30
0.0
 40
1.0
 50
180.0
 51
269.4999999999995
  0
ARC
  5
4C8
  8
1
  6
CONTINUOUS
 62
     7
 10
-229.6360880745353
 20
360.3416631431447
 30
0.0
 40
1.0
 50
90.5000000000005
 51
180.0
  0
LINE
  5
4C9
  8
1
  6
CONTINUOUS
 62
     7
 10
-229.6448146100337
 20
361.3416250662089
 30
0.0
 11
-222.6360880745353
 21
361.4027892960658
 31
0.0
  0
LINE
  5
4CA
  8
1
  6
CONTINUOUS
 62
     7
 10
-230.6360880745353
 20
360.3416631431447
 30
0.0
 11
-230.6360880745353
 21
359.7944594862545
 31
0.0
  0
ARC
  5
4CB
  8
1
  6
CONTINUOUS
 62
     7
 10
-229.6360880745353
 20
369.5250035235222
 30
0.0
 40
1.0
 50
180.0
 51
269.4999999999995
  0
LINE
  5
4CC
  8
1
  6
CONTINUOUS
 62
     7
 10
-222.6360880745353
 20
368.4638773706011
 30
0.0
 11
-229.6448146100337
 21
368.5250416004579
 31
0.0
  0
LINE
  5
4CD
  8
1
  6
CONTINUOUS
 62
     7
 10
-230.6360880745353
 20
395.803262506467
 30
0.0
 11
-230.6360880745353
 21
369.5250035235222
 31
0.0
  0
LINE
  5
4CE
  8
1
  6
CONTINUOUS
 62
     7
 10
-222.6360880745353
 20
367.1333333333335
 30
0.0
 11
-219.1360880745354
 21
367.1638773706011
 31
0.0
  0
ARC
  5
4CF
  8
1
  6
CONTINUOUS
 62
     7
 10
-222.6360880745353
 20
364.9333333333335
 30
0.0
 40
2.200000000000001
 50
90.0
 51
270.0
  0
LINE
  5
4D0
  8
1
  6
CONTINUOUS
 62
     7
 10
-222.6360880745353
 20
362.7333333333335
 30
0.0
 11
-219.1360880745354
 21
362.7027892960658
 31
0.0
  0
LINE
  5
4D1
  8
1
  6
CONTINUOUS
 62
     7
 10
-230.6360880745353
 20
360.3416631431447
 30
0.0
 11
-230.6360880745353
 21
369.5250035235222
 31
0.0
  0
ARC
  5
4D2
  8
1
  6
CONTINUOUS
 62
     7
 10
-208.6360880745353
 20
408.7333333333335
 30
0.0
 40
2.19999999999998
 50
270.0000000000001
 51
90.00000000000006
  0
LINE
  5
4D3
  8
1
  6
CONTINUOUS
 62
     7
 10
-208.6360880745353
 20
406.5333333333335
 30
0.0
 11
-209.6081674882934
 21
406.5248501248075
 31
0.0
  0
LINE
  5
4D4
  8
1
  6
CONTINUOUS
 62
     7
 10
-209.6081674882934
 20
410.9418165418595
 30
0.0
 11
-208.6360880745353
 21
410.9333333333334
 31
0.0
  0
ARC
  5
4D5
  8
1
  6
CONTINUOUS
 62
     7
 10
-208.6360880745353
 20
408.7333333333335
 30
0.0
 40
5.099999999999993
 50
317.6302014306243
 51
42.36979856937592
  0
LINE
  5
4D6
  8
1
  6
CONTINUOUS
 62
     7
 10
-225.6360880745353
 20
426.9333333333333
 30
0.0
 11
-225.1360880745353
 21
423.9333333333335
 31
0.0
  0
LINE
  5
4D7
  8
1
  6
CONTINUOUS
 62
     7
 10
-220.1360880745356
 20
423.9333333333335
 30
0.0
 11
-219.6360880745356
 21
426.9333333333333
 31
0.0
  0
LINE
  5
4D8
  8
1
  6
CONTINUOUS
 62
     7
 10
-225.6360880745353
 20
463.9333333333316
 30
0.0
 11
-225.6360880745353
 21
448.7333333333334
 31
0.0
  0
LINE
  5
4D9
  8
1
  6
CONTINUOUS
 62
     7
 10
-225.6360880745353
 20
444.2333333333335
 30
0.0
 11
-225.6360880745353
 21
426.9333333333332
 31
0.0
  0
LINE
  5
4DA
  8
1
  6
CONTINUOUS
 62
     7
 10
-219.6360880745356
 20
426.9333333333332
 30
0.0
 11
-219.6360880745356
 21
444.2333333333335
 31
0.0
  0
LINE
  5
4DB
  8
1
  6
CONTINUOUS
 62
     7
 10
-219.6360880745356
 20
448.7333333333334
 30
0.0
 11
-219.6360880745356
 21
463.9333333333316
 31
0.0
  0
LINE
  5
4DC
  8
1
  6
CONTINUOUS
 62
     7
 10
-216.8625853826392
 20
467.3917209176419
 30
0.0
 11
-217.6360880745355
 21
467.9333333333331
 31
0.0
  0
LINE
  5
4DD
  8
1
  6
CONTINUOUS
 62
     7
 10
-217.6360880745355
 20
463.9333333333331
 30
0.0
 11
-216.8625853826392
 21
464.4749457490244
 31
0.0
  0
LINE
  5
4DE
  8
1
  6
CONTINUOUS
 62
     7
 10
-227.6360880745355
 20
467.9333333333331
 30
0.0
 11
-228.4095907664317
 21
467.3917209176419
 31
0.0
  0
LINE
  5
4DF
  8
1
  6
CONTINUOUS
 62
     7
 10
-228.4095907664317
 20
464.4749457490244
 30
0.0
 11
-227.6360880745355
 21
463.9333333333331
 31
0.0
  0
LINE
  5
4E0
  8
1
  6
CONTINUOUS
 62
     7
 10
-229.7639119254647
 20
416.4833333333335
 30
0.0
 11
-230.9360880745353
 21
416.4833333333335
 31
0.0
  0
LINE
  5
4E1
  8
1
  6
CONTINUOUS
 62
     7
 10
-230.9360880745353
 20
406.9833333333335
 30
0.0
 11
-229.7639119254647
 21
406.9833333333335
 31
0.0
  0
LINE
  5
4E2
  8
1
  6
CONTINUOUS
 62
     7
 10
-230.9360880745353
 20
416.2333333333335
 30
0.0
 11
-232.5473754755786
 21
416.09236395206
 31
0.0
  0
LINE
  5
4E3
  8
1
  6
CONTINUOUS
 62
     7
 10
-232.5473754755786
 20
407.3743027146069
 30
0.0
 11
-230.9360880745353
 21
407.2333333333335
 31
0.0
  0
ARC
  5
4E4
  8
1
  6
CONTINUOUS
 62
     7
 10
-232.4079262871824
 20
414.4984524351132
 30
0.0
 40
1.599999999999974
 50
95.00000000000006
 51
154.4022801097753
  0
ARC
  5
4E5
  8
1
  6
CONTINUOUS
 62
     7
 10
-232.4079262871824
 20
408.9682142315536
 30
0.0
 40
1.599999999999989
 50
205.5977198902246
 51
264.9999999999999
  0
ARC
  5
4E6
  8
1
  6
CONTINUOUS
 62
     7
 10
-226.6360880745353
 20
411.7333333333335
 30
0.0
 40
8.000000000000004
 50
197.833382709813
 51
205.5977198902246
  0
ARC
  5
4E7
  8
1
  6
CONTINUOUS
 62
     7
 10
-226.6360880745353
 20
411.7333333333335
 30
0.0
 40
7.999999999999991
 50
154.4022801097754
 51
162.1666172901869
  0
LINE
  5
4E8
  8
1
  6
CONTINUOUS
 62
     7
 10
-211.3360880745354
 20
409.2333333333335
 30
0.0
 11
-210.9360880745353
 21
409.6333333333334
 31
0.0
  0
LINE
  5
4E9
  8
1
  6
CONTINUOUS
 62
     7
 10
-210.9360880745353
 20
413.8333333333334
 30
0.0
 11
-211.3360880745354
 21
414.2333333333335
 31
0.0
  0
LINE
  5
4EA
  8
1
  6
CONTINUOUS
 62
     7
 10
-211.3360880745354
 20
414.2333333333335
 30
0.0
 11
-212.1360880745353
 21
414.2333333333335
 31
0.0
  0
LINE
  5
4EB
  8
1
  6
CONTINUOUS
 62
     7
 10
-218.6639119254647
 20
414.2333333333335
 30
0.0
 11
-218.7539007897106
 21
414.2333333333335
 31
0.0
  0
LINE
  5
4EC
  8
1
  6
CONTINUOUS
 62
     7
 10
-226.5182753593601
 20
414.2333333333335
 30
0.0
 11
-226.6639119254647
 21
414.2333333333335
 31
0.0
  0
LINE
  5
4ED
  8
1
  6
CONTINUOUS
 62
     7
 10
-226.6639119254647
 20
409.2333333333335
 30
0.0
 11
-226.5619096983139
 21
409.2333333333335
 31
0.0
  0
LINE
  5
4EE
  8
1
  6
CONTINUOUS
 62
     7
 10
-218.7102664507568
 20
409.2333333333335
 30
0.0
 11
-218.6639119254647
 21
409.2333333333335
 31
0.0
  0
LINE
  5
4EF
  8
1
  6
CONTINUOUS
 62
     7
 10
-212.1360880745353
 20
409.2333333333335
 30
0.0
 11
-211.3360880745354
 21
409.2333333333335
 31
0.0
  0
LINE
  5
4F0
  8
1
  6
CONTINUOUS
 62
     7
 10
-225.4794747604933
 20
418.7085094820603
 30
0.0
 11
-226.4967498141436
 21
416.6999165029832
 31
0.0
  0
LINE
  5
4F1
  8
1
  6
CONTINUOUS
 62
     7
 10
-218.775426334927
 20
416.6999165029832
 30
0.0
 11
-219.7927013885774
 21
418.7085094820603
 31
0.0
  0
ARC
  5
4F2
  8
1
  6
CONTINUOUS
 62
     7
 10
-220.8860880745353
 20
391.8649858309208
 30
0.0
 40
0.9999999999999436
 50
344.9999999999998
 51
0.0
  0
ARC
  5
4F3
  8
1
  6
CONTINUOUS
 62
     7
 10
-224.3860880745353
 20
391.8649858309208
 30
0.0
 40
1.000000000000001
 50
180.0
 51
195.0000000000001
  0
LINE
  5
4F4
  8
1
  6
CONTINUOUS
 62
     7
 10
-225.3860880745353
 20
392.4333333333335
 30
0.0
 11
-225.3860880745353
 21
391.8649858309208
 31
0.0
  0
LINE
  5
4F5
  8
1
  6
CONTINUOUS
 62
     7
 10
-219.8860880745353
 20
391.8649858309208
 30
0.0
 11
-219.8860880745353
 21
392.4333333333335
 31
0.0
  0
LINE
  5
4F6
  8
1
  6
CONTINUOUS
 62
     7
 10
-225.3520139008244
 20
391.6061667858183
 30
0.0
 11
-225.0568200267966
 21
390.5044882498635
 31
0.0
  0
LINE
  5
4F7
  8
1
  6
CONTINUOUS
 62
     7
 10
-220.2153714481323
 20
390.5044310529818
 30
0.0
 11
-219.9201622482463
 21
391.6061667858183
 31
0.0
  0
ENDBLK
  8
0
  0
ENDSEC
  0
SECTION
  2
ENTITIES
  0
POINT
  5
70
  8
1
 62
     7
 10
-330.0
 20
423.3333333333333
 30
0.0
  0
POINT
  5
71
  8
1
 62
     7
 10
-280.0
 20
318.3333333333334
 30
0.0
  0
POINT
  5
72
  8
1
 62
     7
 10
-390.0
 20
318.3333333333334
 30
0.0
  0
POINT
  5
73
  8
1
 62
     7
 10
-220.0
 20
473.3333333333333
 30
0.0
  0
POINT
  5
74
  8
1
 62
     7
 10
-335.0
 20
473.3333333333333
 30
0.0
  0
POINT
  5
75
  8
1
 62
     7
 10
-215.0
 20
348.3333333333333
 30
0.0
  0
LINE
  5
76
  8
1
  6
CENTER
 62
     1
 10
-315.1876755448302
 20
449.7333333333334
 30
0.0
 11
-305.8876755448302
 21
449.7333333333334
 31
0.0
  0
LINE
  5
78
  8
1
  6
CENTER
 62
     1
 10
-222.6360880745353
 20
360.7333333333335
 30
0.0
 11
-222.6360880745353
 21
369.1333333333334
 31
0.0
  0
LINE
  5
79
  8
1
  6
CENTER
 62
     1
 10
-341.8376755448302
 20
411.7333333333335
 30
0.0
 11
-332.2376755448302
 21
411.7333333333335
 31
0.0
  0
LINE
  5
7A
  8
1
  6
CENTER
 62
     1
 10
-293.5376755448302
 20
407.0833333333334
 30
0.0
 11
-293.5376755448302
 21
416.3833333333334
 31
0.0
  0
LINE
  5
7B
  8
1
  6
CENTER
 62
     1
 10
-310.5376755448302
 20
445.0833333333334
 30
0.0
 11
-310.5376755448302
 21
454.3833333333334
 31
0.0
  0
LINE
  5
7C
  8
1
  6
CENTER
 62
     1
 10
-226.8360880745353
 20
364.9333333333335
 30
0.0
 11
-218.4360880745353
 21
364.9333333333335
 31
0.0
  0
LINE
  5
7D
  8
1
  6
CENTER
 62
     1
 10
-208.6360880745353
 20
404.5333333333335
 30
0.0
 11
-208.6360880745353
 21
412.9333333333334
 31
0.0
  0
LINE
  5
7E
  8
1
  6
CENTER
 62
     1
 10
-212.8360880745353
 20
408.7333333333335
 30
0.0
 11
-204.4360880745353
 21
408.7333333333335
 31
0.0
  0
LINE
  5
7F
  8
1
  6
CENTER
 62
     1
 10
-298.1876755448302
 20
411.7333333333335
 30
0.0
 11
-288.8876755448302
 21
411.7333333333335
 31
0.0
  0
LINE
  5
80
  8
1
  6
CENTER
 62
     1
 10
-337.0376755448302
 20
406.9333333333334
 30
0.0
 11
-337.0376755448302
 21
416.5333333333335
 31
0.0
  0
INSERT
  5
2F6
  8
1
  6
CONTINUOUS
 62
     7
  2
D_FRAME_VIEW_2746
 10
0.0
 20
0.0
 30
0.0
  0
LINE
  5
2F7
  8
1
  6
CENTER
 62
     1
 10
-310.5376755448302
 20
416.3832571794618
 30
0.0
 11
-310.5376755448302
 21
407.0834094872051
 31
0.0
  0
LINE
  5
2F8
  8
1
  6
CENTER
 62
     1
 10
-315.1876755448303
 20
411.7333333333335
 30
0.0
 11
-305.8876755448302
 21
411.7333333333335
 31
0.0
  0
LINE
  5
2F9
  8
1
  6
CENTER
 62
     1
 10
-310.5376755448302
 20
324.832846591528
 30
0.0
 11
-310.5376755448302
 21
324.9140051328126
 31
0.0
  0
INSERT
  5
3DA
  8
1
  6
CONTINUOUS
 62
     7
  2
D_FRAME_VIEW_4012
 10
0.0
 20
0.0
 30
0.0
  0
INSERT
  5
4F8
  8
1
  6
CONTINUOUS
 62
     7
  2
D_FRAME_VIEW_3785
 10
0.0
 20
0.0
 30
0.0
  0
LINE
  5
4F9
  8
1
  6
CENTER
 62
     1
 10
-222.6639119254647
 20
348.3333333333333
 30
0.0
 11
-222.6639119254647
 21
473.3333333333333
 31
0.0
  0
LINE
  5
4FA
  8
1
  6
CENTER
 62
     1
 10
-390.0
 20
320.9694214078687
 30
0.0
 11
-280.0
 21
320.9694214078687
 31
0.0
  0
LINE
  5
4FB
  8
1
  6
CENTER
 62
     1
 10
-338.8305687636434
 20
473.3333333333333
 30
0.0
 11
-338.8305687636434
 21
423.3333333333333
 31
0.0
  0
TEXT
  5
4FC
  8
1
  6
CONTINUOUS
 62
     7
 10
-224.3189664874328
 20
316.6617533658455
 30
0.0
 40
3.0
  1
SG-6B
  0
LINE
  5
4FD
  8
1
  6
CONTINUOUS
 62
     2
 10
-224.2340909090909
 20
316.1037878787879
 30
0.0
 11
-215.7659090909091
 21
316.1037878787879
 31
0.0
  0
ENDSEC
  0
EOF
