  0
SECTION
  2
HEADER
  9
$ACADVER
  1
AC1006
  9
$DWGCODEPAGE
  3
ansi_932
  9
$INSBASE
 10
0.0
 20
0.0
 30
0.0
  9
$EXTMIN
 10
-293.3333333333333
 20
56.88333333333334
  9
$EXTMAX
 10
-106.8833333333333
 20
275.8333333333334
  9
$LIMMIN
 10
0.0
 20
0.0
  9
$LIMMAX
 10
12.0
 20
9.0
  9
$ORTHOMODE
 70
     0
  9
$REGENMODE
 70
     1
  9
$FILLMODE
 70
     1
  9
$QTEXTMODE
 70
     0
  9
$MIRRTEXT
 70
     1
  9
$DRAGMODE
 70
     2
  9
$LTSCALE
 40
1.0
  9
$OSMODE
 70
    37
  9
$ATTMODE
 70
     1
  9
$TEXTSIZE
 40
0.2
  9
$TRACEWID
 40
0.05
  9
$TEXTSTYLE
  7
STANDARD
  9
$CLAYER
  8
0
  9
$CELTYPE
  6
BYLAYER
  9
$CECOLOR
 62
   256
  9
$DIMSCALE
 40
1.0
  9
$DIMASZ
 40
3.0
  9
$DIMEXO
 40
0.0625
  9
$DIMDLI
 40
0.38
  9
$DIMRND
 40
0.0
  9
$DIMDLE
 40
0.0
  9
$DIMEXE
 40
1.5
  9
$DIMTP
 40
0.0
  9
$DIMTM
 40
0.0
  9
$DIMTXT
 40
3.0
  9
$DIMCEN
 40
0.09
  9
$DIMTSZ
 40
0.0
  9
$DIMTOL
 70
     0
  9
$DIMLIM
 70
     0
  9
$DIMTIH
 70
     1
  9
$DIMTOH
 70
     1
  9
$DIMSE1
 70
     0
  9
$DIMSE2
 70
     0
  9
$DIMTAD
 70
     1
  9
$DIMZIN
 70
     0
  9
$DIMBLK
  1

  9
$DIMASO
 70
     1
  9
$DIMSHO
 70
     1
  9
$DIMPOST
  1

  9
$DIMAPOST
  1

  9
$DIMALT
 70
     0
  9
$DIMALTD
 70
     2
  9
$DIMALTF
 40
25.4
  9
$DIMLFAC
 40
1.0
  9
$DIMTOFL
 70
     0
  9
$DIMTVP
 40
0.0
  9
$DIMTIX
 70
     0
  9
$DIMSOXD
 70
     0
  9
$DIMSAH
 70
     0
  9
$DIMBLK1
  1

  9
$DIMBLK2
  1

  9
$LUNITS
 70
     2
  9
$LUPREC
 70
     4
  9
$SKETCHINC
 40
0.1
  9
$FILLETRAD
 40
0.5
  9
$AUNITS
 70
     0
  9
$AUPREC
 70
     0
  9
$MENU
  1
.
  9
$ELEVATION
 40
0.0
  9
$THICKNESS
 40
0.0
  9
$LIMCHECK
 70
     0
  9
$CHAMFERA
 40
0.0
  9
$CHAMFERB
 40
0.0
  9
$SKPOLY
 70
     0
  9
$TDCREATE
 40
2460710.544765463
  9
$TDUPDATE
 40
2460710.54476581
  9
$TDINDWG
 40
0.0000000116
  9
$TDUSRTIMER
 40
0.0000000116
  9
$USRTIMER
 70
     1
  9
$ANGBASE
 50
0.0
  9
$ANGDIR
 70
     0
  9
$PDMODE
 70
     0
  9
$PDSIZE
 40
0.0
  9
$PLINEWID
 40
0.0
  9
$COORDS
 70
     1
  9
$SPLFRAME
 70
     0
  9
$SPLINETYPE
 70
     6
  9
$SPLINESEGS
 70
     8
  9
$ATTDIA
 70
     0
  9
$ATTREQ
 70
     1
  9
$HANDLING
 70
     1
  9
$HANDSEED
  5
99F
  9
$SURFTAB1
 70
     6
  9
$SURFTAB2
 70
     6
  9
$SURFTYPE
 70
     6
  9
$SURFU
 70
     6
  9
$SURFV
 70
     6
  9
$UCSNAME
  2

  9
$UCSORG
 10
0.0
 20
0.0
 30
0.0
  9
$UCSXDIR
 10
1.0
 20
0.0
 30
0.0
  9
$UCSYDIR
 10
0.0
 20
1.0
 30
0.0
  9
$USERI1
 70
     0
  9
$USERI2
 70
     0
  9
$USERI3
 70
     0
  9
$USERI4
 70
     0
  9
$USERI5
 70
     0
  9
$USERR1
 40
0.0
  9
$USERR2
 40
0.0
  9
$USERR3
 40
0.0
  9
$USERR4
 40
0.0
  9
$USERR5
 40
0.0
  9
$WORLDVIEW
 70
     1
  0
ENDSEC
  0
SECTION
  2
TABLES
  0
TABLE
  2
VPORT
 70
     1
  0
VPORT
  2
*ACTIVE
 70
     0
 10
0.0
 20
0.0
 11
1.0
 21
1.0
 12
-200.1083333333333
 22
166.3583333333333
 13
0.0
 23
0.0
 14
0.5
 24
0.5
 15
0.5
 25
0.5
 16
0.0
 26
0.0
 36
1.0
 17
0.0
 27
0.0
 37
0.0
 40
218.95
 41
1.6
 42
50.0
 43
0.0
 44
0.0
 50
0.0
 51
0.0
 71
     0
 72
   100
 73
     1
 74
     3
 75
     0
 76
     0
 77
     0
 78
     0
  0
ENDTAB
  0
TABLE
  2
LTYPE
 70
     2
  0
LTYPE
  2
CONTINUOUS
 70
     0
  3
Solid line
 72
    65
 73
     0
 40
0.0
  0
LTYPE
  2
CENTER
 70
     0
  3

 72
    65
 73
     0
 40
0.0
  0
ENDTAB
  0
TABLE
  2
LAYER
 70
     2
  0
LAYER
  2
0
 70
     0
 62
     7
  6
CONTINUOUS
  0
LAYER
  2
1
 70
     0
 62
     7
  6
CONTINUOUS
  0
ENDTAB
  0
TABLE
  2
STYLE
 70
     2
  0
STYLE
  2
STANDARD
 70
     0
 40
0.0
 41
1.0
 50
0.0
 71
     0
 42
0.2
  3
txt
  4

  0
STYLE
  2
ＭＳ_ゴシック
 70
     0
 40
0.0
 41
1.0
 50
0.0
 71
     0
 42
0.2
  3
ＭＳ ゴシック.shx
  4

  0
ENDTAB
  0
TABLE
  2
VIEW
 70
     0
  0
ENDTAB
  0
TABLE
  2
UCS
 70
     0
  0
ENDTAB
  0
ENDSEC
  0
SECTION
  2
BLOCKS
  0
BLOCK
  8
0
  2
D_FRAME_VIEW_1492
 70
     0
 10
0.0
 20
0.0
 30
0.0
  0
ARC
  5
79
  8
1
  6
CONTINUOUS
 62
     7
 10
-241.6089979920793
 20
263.4813995096924
 30
0.0
 40
3.75428494034822
 50
92.02784042140318
 51
122.3564070466386
  0
ARC
  5
7A
  8
1
  6
CONTINUOUS
 62
     7
 10
-241.8448705657007
 20
263.5777758690176
 30
0.0
 40
3.657009009960731
 50
57.230127183349
 51
88.38562534860932
  0
LINE
  5
7B
  8
1
  6
CONTINUOUS
 62
     7
 10
-239.8654553786984
 20
266.6527767497326
 30
0.0
 11
-239.8654553786984
 21
262.5138899169341
 31
0.0
  0
ARC
  5
7C
  8
1
  6
CONTINUOUS
 62
     7
 10
-241.8448705657007
 20
265.588890797649
 30
0.0
 40
3.657009009960521
 50
271.6143746513893
 51
302.7698728166515
  0
ARC
  5
7D
  8
1
  6
CONTINUOUS
 62
     7
 10
-241.6089979920794
 20
265.6852671569741
 30
0.0
 40
3.754284940348022
 50
237.6435929533611
 51
267.972159578598
  0
LINE
  5
7E
  8
1
  6
CONTINUOUS
 62
     7
 10
-243.6182321284309
 20
266.6527767497326
 30
0.0
 11
-243.6182321284309
 21
262.5138899169341
 31
0.0
  0
ARC
  5
7F
  8
1
  6
CONTINUOUS
 62
     7
 10
-247.242363546986
 20
253.9823134238893
 30
0.0
 40
13.25164436067145
 50
90.55622910709036
 51
107.0317246669032
  0
ARC
  5
80
  8
1
  6
CONTINUOUS
 62
     7
 10
-247.4742597224582
 20
254.1464659675644
 30
0.0
 40
13.08727466610506
 50
72.86408067409185
 51
89.54796555191456
  0
ARC
  5
81
  8
1
  6
CONTINUOUS
 62
     7
 10
-247.474259722458
 20
275.0202006991014
 30
0.0
 40
13.08727466610415
 50
270.4520344480847
 51
287.1359193259086
  0
ARC
  5
82
  8
1
  6
CONTINUOUS
 62
     7
 10
-247.2423635469861
 20
275.1843532427767
 30
0.0
 40
13.25164436067078
 50
252.9682753330966
 51
269.4437708929103
  0
LINE
  5
83
  8
1
  6
CONTINUOUS
 62
     7
 10
-251.1237856278961
 20
266.6527767497326
 30
0.0
 11
-251.1237856278961
 21
262.5138899169341
 31
0.0
  0
LINE
  5
84
  8
1
  6
CONTINUOUS
 62
     7
 10
-241.7418437535647
 20
261.9333333333333
 30
0.0
 11
-247.3710088781635
 21
261.9333333333333
 31
0.0
  0
LINE
  5
85
  8
1
  6
CONTINUOUS
 62
     7
 10
-247.3710088781635
 20
261.9333333333333
 30
0.0
 11
-253.0001740027623
 21
261.9333333333333
 31
0.0
  0
ARC
  5
86
  8
1
  6
CONTINUOUS
 62
     7
 10
-253.1032008148985
 20
265.5888907976493
 30
0.0
 40
3.657009009960892
 50
271.614374651391
 51
302.7698728166499
  0
LINE
  5
87
  8
1
  6
CONTINUOUS
 62
     7
 10
-241.7418437535647
 20
267.2333333333333
 30
0.0
 11
-247.3710088781635
 21
267.2333333333333
 31
0.0
  0
ARC
  5
88
  8
1
  6
CONTINUOUS
 62
     7
 10
-253.1032008148985
 20
263.5777758690175
 30
0.0
 40
3.65700900996076
 50
57.23012718334917
 51
88.38562534860921
  0
LINE
  5
89
  8
1
  6
CONTINUOUS
 62
     7
 10
-247.3710088781635
 20
267.2333333333333
 30
0.0
 11
-253.0001740027623
 21
267.2333333333333
 31
0.0
  0
ARC
  5
8A
  8
1
  6
CONTINUOUS
 62
     7
 10
-252.8673282412771
 20
263.4813995096924
 30
0.0
 40
3.75428494034817
 50
92.02784042140308
 51
122.3564070466387
  0
ARC
  5
8B
  8
1
  6
CONTINUOUS
 62
     7
 10
-252.8673282412771
 20
265.685267156974
 30
0.0
 40
3.754284940347966
 50
237.6435929533609
 51
267.9721595785982
  0
LINE
  5
8C
  8
1
  6
CONTINUOUS
 62
     7
 10
-254.8765623776287
 20
266.6527767497326
 30
0.0
 11
-254.8765623776287
 21
262.5138899169341
 31
0.0
  0
LINE
  5
8D
  8
1
  6
CONTINUOUS
 62
     7
 10
-243.3710088781635
 20
213.6653841409022
 30
0.0
 11
-251.3710088781635
 21
213.6653841409022
 31
0.0
  0
LINE
  5
8E
  8
1
  6
CONTINUOUS
 62
     7
 10
-244.8710088781635
 20
211.9333333333333
 30
0.0
 11
-249.8710088781635
 21
211.9333333333333
 31
0.0
  0
LINE
  5
8F
  8
1
  6
CONTINUOUS
 62
     7
 10
-240.8710088781635
 20
261.9333333333333
 30
0.0
 11
-241.7418437535647
 21
261.9333333333333
 31
0.0
  0
LINE
  5
90
  8
1
  6
CONTINUOUS
 62
     7
 10
-253.0001740027623
 20
267.2333333333333
 30
0.0
 11
-253.8710088781635
 21
267.2333333333333
 31
0.0
  0
LINE
  5
91
  8
1
  6
CONTINUOUS
 62
     7
 10
-253.0001740027623
 20
261.9333333333333
 30
0.0
 11
-253.8710088781635
 21
261.9333333333333
 31
0.0
  0
LINE
  5
92
  8
1
  6
CONTINUOUS
 62
     7
 10
-240.8710088781635
 20
267.2333333333333
 30
0.0
 11
-241.7418437535647
 21
267.2333333333333
 31
0.0
  0
LINE
  5
93
  8
1
  6
CONTINUOUS
 62
     7
 10
-256.5633970335887
 20
247.3333333333333
 30
0.0
 11
-256.5633970335887
 21
242.1333333333333
 31
0.0
  0
LINE
  5
94
  8
1
  6
CONTINUOUS
 62
     7
 10
-247.3710088781635
 20
247.3333333333333
 30
0.0
 11
-256.5633970335887
 21
247.3333333333333
 31
0.0
  0
LINE
  5
95
  8
1
  6
CONTINUOUS
 62
     7
 10
-247.3710088781635
 20
247.3333333333333
 30
0.0
 11
-247.3710088781635
 21
242.1333333333333
 31
0.0
  0
LINE
  5
96
  8
1
  6
CONTINUOUS
 62
     7
 10
-247.3710088781635
 20
242.1333333333333
 30
0.0
 11
-256.5633970335887
 21
242.1333333333333
 31
0.0
  0
LINE
  5
97
  8
1
  6
CONTINUOUS
 62
     7
 10
-241.4710088781635
 20
247.3333333333333
 30
0.0
 11
-247.3710088781635
 21
247.3333333333333
 31
0.0
  0
LINE
  5
98
  8
1
  6
CONTINUOUS
 62
     7
 10
-241.4710088781635
 20
242.1333333333333
 30
0.0
 11
-247.3710088781635
 21
242.1333333333333
 31
0.0
  0
ARC
  5
99
  8
1
  6
CONTINUOUS
 62
     7
 10
-213.8710088781635
 20
197.4333333333333
 30
0.0
 40
2.45
 50
75.82419648413298
 51
104.175803515867
  0
LINE
  5
9A
  8
1
  6
CONTINUOUS
 62
     7
 10
-214.4710088781635
 20
198.5333333333333
 30
0.0
 11
-214.4710088781635
 21
199.8087280373773
 31
0.0
  0
LINE
  5
9B
  8
1
  6
CONTINUOUS
 62
     7
 10
-217.2749320850647
 20
198.0333333333333
 30
0.0
 11
-214.9710088781635
 21
198.0333333333333
 31
0.0
  0
ARC
  5
9C
  8
1
  6
CONTINUOUS
 62
     9
 10
-213.8710088781635
 20
197.4333333333333
 30
0.0
 40
3.456398877224708
 50
9.996677858381043
 51
170.003322141619
  0
LINE
  5
9D
  8
1
  6
CONTINUOUS
 62
     7
 10
-212.7710088781635
 20
198.0333333333333
 30
0.0
 11
-210.4670856712624
 21
198.0333333333333
 31
0.0
  0
POLYLINE
  5
9E
  8
1
  6
CONTINUOUS
 62
     7
 66
     1
 10
0.0
 20
0.0
 30
0.0
  0
VERTEX
  5
4E7
  8
1
  6
CONTINUOUS
 62
     7
 10
-213.2710088781635
 20
198.5333333333333
 30
0.0
  0
VERTEX
  5
4E8
  8
1
  6
CONTINUOUS
 62
     7
 10
-213.270434654194
 20
198.50962573919
 30
0.0
  0
VERTEX
  5
4E9
  8
1
  6
CONTINUOUS
 62
     7
 10
-213.2687191547035
 20
198.4858830178178
 30
0.0
  0
VERTEX
  5
4EA
  8
1
  6
CONTINUOUS
 62
     7
 10
-213.2658731383189
 20
198.4621862766874
 30
0.0
  0
VERTEX
  5
4EB
  8
1
  6
CONTINUOUS
 62
     7
 10
-213.2619073636674
 20
198.438616623269
 30
0.0
  0
VERTEX
  5
4EC
  8
1
  6
CONTINUOUS
 62
     7
 10
-213.2568325893759
 20
198.4152551650331
 30
0.0
  0
VERTEX
  5
4ED
  8
1
  6
CONTINUOUS
 62
     7
 10
-213.2506595740714
 20
198.3921830094501
 30
0.0
  0
VERTEX
  5
4EE
  8
1
  6
CONTINUOUS
 62
     7
 10
-213.2433990763811
 20
198.3694812639905
 30
0.0
  0
VERTEX
  5
4EF
  8
1
  6
CONTINUOUS
 62
     7
 10
-213.2350306163505
 20
198.3471311290537
 30
0.0
  0
VERTEX
  5
4F0
  8
1
  6
CONTINUOUS
 62
     7
 10
-213.2255600575557
 20
198.3251308924353
 30
0.0
  0
VERTEX
  5
4F1
  8
1
  6
CONTINUOUS
 62
     7
 10
-213.2150266961985
 20
198.3035556436153
 30
0.0
  0
VERTEX
  5
4F2
  8
1
  6
CONTINUOUS
 62
     7
 10
-213.2034698284807
 20
198.2824804720738
 30
0.0
  0
VERTEX
  5
4F3
  8
1
  6
CONTINUOUS
 62
     7
 10
-213.1909287506038
 20
198.2619804672907
 30
0.0
  0
VERTEX
  5
4F4
  8
1
  6
CONTINUOUS
 62
     7
 10
-213.1774427587696
 20
198.2421307187462
 30
0.0
  0
VERTEX
  5
4F5
  8
1
  6
CONTINUOUS
 62
     7
 10
-213.1630511491797
 20
198.2230063159203
 30
0.0
  0
VERTEX
  5
4F6
  8
1
  6
CONTINUOUS
 62
     7
 10
-213.1479011263388
 20
198.2047911148128
 30
0.0
  0
VERTEX
  5
4F7
  8
1
  6
CONTINUOUS
 62
     7
 10
-213.1318483666775
 20
198.187268637879
 30
0.0
  0
VERTEX
  5
4F8
  8
1
  6
CONTINUOUS
 62
     7
 10
-213.1149546225289
 20
198.1704942833468
 30
0.0
  0
VERTEX
  5
4F9
  8
1
  6
CONTINUOUS
 62
     7
 10
-213.097281646226
 20
198.1545234494444
 30
0.0
  0
VERTEX
  5
4FA
  8
1
  6
CONTINUOUS
 62
     7
 10
-213.0788911901018
 20
198.1394115343997
 30
0.0
  0
VERTEX
  5
4FB
  8
1
  6
CONTINUOUS
 62
     7
 10
-213.0598450064891
 20
198.1252139364407
 30
0.0
  0
VERTEX
  5
4FC
  8
1
  6
CONTINUOUS
 62
     7
 10
-213.040204847721
 20
198.1119860537954
 30
0.0
  0
VERTEX
  5
4FD
  8
1
  6
CONTINUOUS
 62
     7
 10
-213.0200517621141
 20
198.0997828732175
 30
0.0
  0
VERTEX
  5
4FE
  8
1
  6
CONTINUOUS
 62
     7
 10
-212.9992922574674
 20
198.0885252017134
 30
0.0
  0
VERTEX
  5
4FF
  8
1
  6
CONTINUOUS
 62
     7
 10
-212.9780010241125
 20
198.0782427030515
 30
0.0
  0
VERTEX
  5
500
  8
1
  6
CONTINUOUS
 62
     7
 10
-212.9562527523805
 20
198.0689650410002
 30
0.0
  0
VERTEX
  5
501
  8
1
  6
CONTINUOUS
 62
     7
 10
-212.934122132603
 20
198.060721879328
 30
0.0
  0
VERTEX
  5
502
  8
1
  6
CONTINUOUS
 62
     7
 10
-212.9116838551111
 20
198.0535428818033
 30
0.0
  0
VERTEX
  5
503
  8
1
  6
CONTINUOUS
 62
     7
 10
-212.8890126102363
 20
198.0474577121947
 30
0.0
  0
VERTEX
  5
504
  8
1
  6
CONTINUOUS
 62
     7
 10
-212.8657205211777
 20
198.0423908834725
 30
0.0
  0
VERTEX
  5
505
  8
1
  6
CONTINUOUS
 62
     7
 10
-212.8421927832529
 20
198.0384383008498
 30
0.0
  0
VERTEX
  5
506
  8
1
  6
CONTINUOUS
 62
     7
 10
-212.8185107166502
 20
198.0356066947021
 30
0.0
  0
VERTEX
  5
507
  8
1
  6
CONTINUOUS
 62
     7
 10
-212.7947556415577
 20
198.0339027954048
 30
0.0
  0
VERTEX
  5
508
  8
1
  6
CONTINUOUS
 62
     7
 10
-212.7710088781635
 20
198.0333333333333
 30
0.0
  0
SEQEND
  5
972
  8
1
  6
CONTINUOUS
 62
     7
  0
LINE
  5
9F
  8
1
  6
CONTINUOUS
 62
     7
 10
-213.2710088781635
 20
199.8087280373773
 30
0.0
 11
-213.2710088781635
 21
198.5333333333333
 31
0.0
  0
POLYLINE
  5
A0
  8
1
  6
CONTINUOUS
 62
     7
 66
     1
 10
0.0
 20
0.0
 30
0.0
  0
VERTEX
  5
509
  8
1
  6
CONTINUOUS
 62
     7
 10
-214.9710088781635
 20
198.0333333333333
 30
0.0
  0
VERTEX
  5
50A
  8
1
  6
CONTINUOUS
 62
     7
 10
-214.9473012840202
 20
198.0339075573029
 30
0.0
  0
VERTEX
  5
50B
  8
1
  6
CONTINUOUS
 62
     7
 10
-214.9235585626481
 20
198.0356230567934
 30
0.0
  0
VERTEX
  5
50C
  8
1
  6
CONTINUOUS
 62
     7
 10
-214.8998618215176
 20
198.038469073178
 30
0.0
  0
VERTEX
  5
50D
  8
1
  6
CONTINUOUS
 62
     7
 10
-214.8762921680992
 20
198.0424348478295
 30
0.0
  0
VERTEX
  5
50E
  8
1
  6
CONTINUOUS
 62
     7
 10
-214.8529307098633
 20
198.047509622121
 30
0.0
  0
VERTEX
  5
50F
  8
1
  6
CONTINUOUS
 62
     7
 10
-214.8298585542803
 20
198.0536826374254
 30
0.0
  0
VERTEX
  5
510
  8
1
  6
CONTINUOUS
 62
     7
 10
-214.8071568088207
 20
198.0609431351157
 30
0.0
  0
VERTEX
  5
511
  8
1
  6
CONTINUOUS
 62
     7
 10
-214.7848066738839
 20
198.0693115951464
 30
0.0
  0
VERTEX
  5
512
  8
1
  6
CONTINUOUS
 62
     7
 10
-214.7628064372655
 20
198.0787821539412
 30
0.0
  0
VERTEX
  5
513
  8
1
  6
CONTINUOUS
 62
     7
 10
-214.7412311884455
 20
198.0893155152984
 30
0.0
  0
VERTEX
  5
514
  8
1
  6
CONTINUOUS
 62
     7
 10
-214.7201560169039
 20
198.1008723830162
 30
0.0
  0
VERTEX
  5
515
  8
1
  6
CONTINUOUS
 62
     7
 10
-214.6996560121209
 20
198.1134134608931
 30
0.0
  0
VERTEX
  5
516
  8
1
  6
CONTINUOUS
 62
     7
 10
-214.6798062635764
 20
198.1268994527273
 30
0.0
  0
VERTEX
  5
517
  8
1
  6
CONTINUOUS
 62
     7
 10
-214.6606818607505
 20
198.1412910623172
 30
0.0
  0
VERTEX
  5
518
  8
1
  6
CONTINUOUS
 62
     7
 10
-214.642466659643
 20
198.1564410851581
 30
0.0
  0
VERTEX
  5
519
  8
1
  6
CONTINUOUS
 62
     7
 10
-214.6249441827092
 20
198.1724938448194
 30
0.0
  0
VERTEX
  5
51A
  8
1
  6
CONTINUOUS
 62
     7
 10
-214.608169828177
 20
198.189387588968
 30
0.0
  0
VERTEX
  5
51B
  8
1
  6
CONTINUOUS
 62
     7
 10
-214.5921989942746
 20
198.2070605652709
 30
0.0
  0
VERTEX
  5
51C
  8
1
  6
CONTINUOUS
 62
     7
 10
-214.5770870792299
 20
198.2254510213951
 30
0.0
  0
VERTEX
  5
51D
  8
1
  6
CONTINUOUS
 62
     7
 10
-214.5628894812709
 20
198.2444972050078
 30
0.0
  0
VERTEX
  5
51E
  8
1
  6
CONTINUOUS
 62
     7
 10
-214.5496615986256
 20
198.2641373637758
 30
0.0
  0
VERTEX
  5
51F
  8
1
  6
CONTINUOUS
 62
     7
 10
-214.5374584180477
 20
198.2842904493828
 30
0.0
  0
VERTEX
  5
520
  8
1
  6
CONTINUOUS
 62
     7
 10
-214.5262007465436
 20
198.3050499540294
 30
0.0
  0
VERTEX
  5
521
  8
1
  6
CONTINUOUS
 62
     7
 10
-214.5159182478817
 20
198.3263411873844
 30
0.0
  0
VERTEX
  5
522
  8
1
  6
CONTINUOUS
 62
     7
 10
-214.5066405858304
 20
198.3480894591163
 30
0.0
  0
VERTEX
  5
523
  8
1
  6
CONTINUOUS
 62
     7
 10
-214.4983974241582
 20
198.3702200788939
 30
0.0
  0
VERTEX
  5
524
  8
1
  6
CONTINUOUS
 62
     7
 10
-214.4912184266335
 20
198.3926583563857
 30
0.0
  0
VERTEX
  5
525
  8
1
  6
CONTINUOUS
 62
     7
 10
-214.4851332570249
 20
198.4153296012606
 30
0.0
  0
VERTEX
  5
526
  8
1
  6
CONTINUOUS
 62
     7
 10
-214.4800664283027
 20
198.4386216903192
 30
0.0
  0
VERTEX
  5
527
  8
1
  6
CONTINUOUS
 62
     7
 10
-214.47611384568
 20
198.462149428244
 30
0.0
  0
VERTEX
  5
528
  8
1
  6
CONTINUOUS
 62
     7
 10
-214.4732822395323
 20
198.4858314948467
 30
0.0
  0
VERTEX
  5
529
  8
1
  6
CONTINUOUS
 62
     7
 10
-214.471578340235
 20
198.5095865699392
 30
0.0
  0
VERTEX
  5
52A
  8
1
  6
CONTINUOUS
 62
     7
 10
-214.4710088781635
 20
198.5333333333333
 30
0.0
  0
SEQEND
  5
973
  8
1
  6
CONTINUOUS
 62
     7
  0
ARC
  5
A1
  8
1
  6
CONTINUOUS
 62
     7
 10
-213.8710088781635
 20
197.4333333333333
 30
0.0
 40
2.449999999999997
 50
255.8241964841329
 51
284.1758035158671
  0
LINE
  5
A2
  8
1
  6
CONTINUOUS
 62
     7
 10
-213.2710088781635
 20
196.3333333333333
 30
0.0
 11
-213.2710088781635
 21
195.0579386292894
 31
0.0
  0
POLYLINE
  5
A3
  8
1
  6
CONTINUOUS
 62
     7
 66
     1
 10
0.0
 20
0.0
 30
0.0
  0
VERTEX
  5
52B
  8
1
  6
CONTINUOUS
 62
     7
 10
-212.7710088781635
 20
196.8333333333333
 30
0.0
  0
VERTEX
  5
52C
  8
1
  6
CONTINUOUS
 62
     7
 10
-212.7947164723069
 20
196.8327591093638
 30
0.0
  0
VERTEX
  5
52D
  8
1
  6
CONTINUOUS
 62
     7
 10
-212.818459193679
 20
196.8310436098733
 30
0.0
  0
VERTEX
  5
52E
  8
1
  6
CONTINUOUS
 62
     7
 10
-212.8421559348095
 20
196.8281975934887
 30
0.0
  0
VERTEX
  5
52F
  8
1
  6
CONTINUOUS
 62
     7
 10
-212.8657255882279
 20
196.8242318188372
 30
0.0
  0
VERTEX
  5
530
  8
1
  6
CONTINUOUS
 62
     7
 10
-212.8890870464638
 20
196.8191570445457
 30
0.0
  0
VERTEX
  5
531
  8
1
  6
CONTINUOUS
 62
     7
 10
-212.9121592020468
 20
196.8129840292413
 30
0.0
  0
VERTEX
  5
532
  8
1
  6
CONTINUOUS
 62
     7
 10
-212.9348609475063
 20
196.805723531551
 30
0.0
  0
VERTEX
  5
533
  8
1
  6
CONTINUOUS
 62
     7
 10
-212.9572110824432
 20
196.7973550715203
 30
0.0
  0
VERTEX
  5
534
  8
1
  6
CONTINUOUS
 62
     7
 10
-212.9792113190616
 20
196.7878845127255
 30
0.0
  0
VERTEX
  5
535
  8
1
  6
CONTINUOUS
 62
     7
 10
-213.0007865678816
 20
196.7773511513684
 30
0.0
  0
VERTEX
  5
536
  8
1
  6
CONTINUOUS
 62
     7
 10
-213.0218617394231
 20
196.7657942836505
 30
0.0
  0
VERTEX
  5
537
  8
1
  6
CONTINUOUS
 62
     7
 10
-213.0423617442061
 20
196.7532532057736
 30
0.0
  0
VERTEX
  5
538
  8
1
  6
CONTINUOUS
 62
     7
 10
-213.0622114927506
 20
196.7397672139394
 30
0.0
  0
VERTEX
  5
539
  8
1
  6
CONTINUOUS
 62
     7
 10
-213.0813358955766
 20
196.7253756043495
 30
0.0
  0
VERTEX
  5
53A
  8
1
  6
CONTINUOUS
 62
     7
 10
-213.0995510966841
 20
196.7102255815085
 30
0.0
  0
VERTEX
  5
53B
  8
1
  6
CONTINUOUS
 62
     7
 10
-213.1170735736179
 20
196.6941728218473
 30
0.0
  0
VERTEX
  5
53C
  8
1
  6
CONTINUOUS
 62
     7
 10
-213.13384792815
 20
196.6772790776987
 30
0.0
  0
VERTEX
  5
53D
  8
1
  6
CONTINUOUS
 62
     7
 10
-213.1498187620525
 20
196.6596061013958
 30
0.0
  0
VERTEX
  5
53E
  8
1
  6
CONTINUOUS
 62
     7
 10
-213.1649306770972
 20
196.6412156452716
 30
0.0
  0
VERTEX
  5
53F
  8
1
  6
CONTINUOUS
 62
     7
 10
-213.1791282750562
 20
196.6221694616589
 30
0.0
  0
VERTEX
  5
540
  8
1
  6
CONTINUOUS
 62
     7
 10
-213.1923561577014
 20
196.6025293028908
 30
0.0
  0
VERTEX
  5
541
  8
1
  6
CONTINUOUS
 62
     7
 10
-213.2045593382793
 20
196.5823762172839
 30
0.0
  0
VERTEX
  5
542
  8
1
  6
CONTINUOUS
 62
     7
 10
-213.2158170097834
 20
196.5616167126372
 30
0.0
  0
VERTEX
  5
543
  8
1
  6
CONTINUOUS
 62
     7
 10
-213.2260995084454
 20
196.5403254792823
 30
0.0
  0
VERTEX
  5
544
  8
1
  6
CONTINUOUS
 62
     7
 10
-213.2353771704967
 20
196.5185772075504
 30
0.0
  0
VERTEX
  5
545
  8
1
  6
CONTINUOUS
 62
     7
 10
-213.2436203321689
 20
196.4964465877728
 30
0.0
  0
VERTEX
  5
546
  8
1
  6
CONTINUOUS
 62
     7
 10
-213.2507993296935
 20
196.4740083102809
 30
0.0
  0
VERTEX
  5
547
  8
1
  6
CONTINUOUS
 62
     7
 10
-213.2568844993022
 20
196.4513370654061
 30
0.0
  0
VERTEX
  5
548
  8
1
  6
CONTINUOUS
 62
     7
 10
-213.2619513280244
 20
196.4280449763475
 30
0.0
  0
VERTEX
  5
549
  8
1
  6
CONTINUOUS
 62
     7
 10
-213.265903910647
 20
196.4045172384227
 30
0.0
  0
VERTEX
  5
54A
  8
1
  6
CONTINUOUS
 62
     7
 10
-213.2687355167947
 20
196.38083517182
 30
0.0
  0
VERTEX
  5
54B
  8
1
  6
CONTINUOUS
 62
     7
 10
-213.2704394160921
 20
196.3570800967275
 30
0.0
  0
VERTEX
  5
54C
  8
1
  6
CONTINUOUS
 62
     7
 10
-213.2710088781635
 20
196.3333333333333
 30
0.0
  0
SEQEND
  5
974
  8
1
  6
CONTINUOUS
 62
     7
  0
LINE
  5
A4
  8
1
  6
CONTINUOUS
 62
     7
 10
-210.4670856712624
 20
196.8333333333333
 30
0.0
 11
-212.7710088781635
 21
196.8333333333333
 31
0.0
  0
ARC
  5
A5
  8
1
  6
CONTINUOUS
 62
     9
 10
-213.8710088781635
 20
197.4333333333333
 30
0.0
 40
3.456398877224712
 50
189.996677858381
 51
350.0033221416189
  0
LINE
  5
A6
  8
1
  6
CONTINUOUS
 62
     7
 10
-214.9710088781635
 20
196.8333333333333
 30
0.0
 11
-217.2749320850647
 21
196.8333333333333
 31
0.0
  0
LINE
  5
A7
  8
1
  6
CONTINUOUS
 62
     7
 10
-214.4710088781635
 20
195.0579386292894
 30
0.0
 11
-214.4710088781635
 21
196.3333333333333
 31
0.0
  0
POLYLINE
  5
A8
  8
1
  6
CONTINUOUS
 62
     7
 66
     1
 10
0.0
 20
0.0
 30
0.0
  0
VERTEX
  5
54D
  8
1
  6
CONTINUOUS
 62
     7
 10
-214.4710088781635
 20
196.3333333333333
 30
0.0
  0
VERTEX
  5
54E
  8
1
  6
CONTINUOUS
 62
     7
 10
-214.4715831021331
 20
196.3570409274767
 30
0.0
  0
VERTEX
  5
54F
  8
1
  6
CONTINUOUS
 62
     7
 10
-214.4732986016236
 20
196.3807836488488
 30
0.0
  0
VERTEX
  5
550
  8
1
  6
CONTINUOUS
 62
     7
 10
-214.4761446180082
 20
196.4044803899793
 30
0.0
  0
VERTEX
  5
551
  8
1
  6
CONTINUOUS
 62
     7
 10
-214.4801103926597
 20
196.4280500433977
 30
0.0
  0
VERTEX
  5
552
  8
1
  6
CONTINUOUS
 62
     7
 10
-214.4851851669512
 20
196.4514115016336
 30
0.0
  0
VERTEX
  5
553
  8
1
  6
CONTINUOUS
 62
     7
 10
-214.4913581822556
 20
196.4744836572165
 30
0.0
  0
VERTEX
  5
554
  8
1
  6
CONTINUOUS
 62
     7
 10
-214.4986186799459
 20
196.4971854026762
 30
0.0
  0
VERTEX
  5
555
  8
1
  6
CONTINUOUS
 62
     7
 10
-214.5069871399766
 20
196.519535537613
 30
0.0
  0
VERTEX
  5
556
  8
1
  6
CONTINUOUS
 62
     7
 10
-214.5164576987714
 20
196.5415357742314
 30
0.0
  0
VERTEX
  5
557
  8
1
  6
CONTINUOUS
 62
     7
 10
-214.5269910601285
 20
196.5631110230514
 30
0.0
  0
VERTEX
  5
558
  8
1
  6
CONTINUOUS
 62
     7
 10
-214.5385479278464
 20
196.5841861945929
 30
0.0
  0
VERTEX
  5
559
  8
1
  6
CONTINUOUS
 62
     7
 10
-214.5510890057233
 20
196.6046861993759
 30
0.0
  0
VERTEX
  5
55A
  8
1
  6
CONTINUOUS
 62
     7
 10
-214.5645749975575
 20
196.6245359479204
 30
0.0
  0
VERTEX
  5
55B
  8
1
  6
CONTINUOUS
 62
     7
 10
-214.5789666071474
 20
196.6436603507464
 30
0.0
  0
VERTEX
  5
55C
  8
1
  6
CONTINUOUS
 62
     7
 10
-214.5941166299883
 20
196.6618755518539
 30
0.0
  0
VERTEX
  5
55D
  8
1
  6
CONTINUOUS
 62
     7
 10
-214.6101693896496
 20
196.6793980287877
 30
0.0
  0
VERTEX
  5
55E
  8
1
  6
CONTINUOUS
 62
     7
 10
-214.6270631337982
 20
196.6961723833198
 30
0.0
  0
VERTEX
  5
55F
  8
1
  6
CONTINUOUS
 62
     7
 10
-214.6447361101011
 20
196.7121432172223
 30
0.0
  0
VERTEX
  5
560
  8
1
  6
CONTINUOUS
 62
     7
 10
-214.6631265662253
 20
196.727255132267
 30
0.0
  0
VERTEX
  5
561
  8
1
  6
CONTINUOUS
 62
     7
 10
-214.682172749838
 20
196.741452730226
 30
0.0
  0
VERTEX
  5
562
  8
1
  6
CONTINUOUS
 62
     7
 10
-214.701812908606
 20
196.7546806128712
 30
0.0
  0
VERTEX
  5
563
  8
1
  6
CONTINUOUS
 62
     7
 10
-214.721965994213
 20
196.7668837934491
 30
0.0
  0
VERTEX
  5
564
  8
1
  6
CONTINUOUS
 62
     7
 10
-214.7427254988596
 20
196.7781414649533
 30
0.0
  0
VERTEX
  5
565
  8
1
  6
CONTINUOUS
 62
     7
 10
-214.7640167322146
 20
196.7884239636152
 30
0.0
  0
VERTEX
  5
566
  8
1
  6
CONTINUOUS
 62
     7
 10
-214.7857650039465
 20
196.7977016256665
 30
0.0
  0
VERTEX
  5
567
  8
1
  6
CONTINUOUS
 62
     7
 10
-214.8078956237241
 20
196.8059447873387
 30
0.0
  0
VERTEX
  5
568
  8
1
  6
CONTINUOUS
 62
     7
 10
-214.8303339012159
 20
196.8131237848633
 30
0.0
  0
VERTEX
  5
569
  8
1
  6
CONTINUOUS
 62
     7
 10
-214.8530051460908
 20
196.819208954472
 30
0.0
  0
VERTEX
  5
56A
  8
1
  6
CONTINUOUS
 62
     7
 10
-214.8762972351494
 20
196.8242757831942
 30
0.0
  0
VERTEX
  5
56B
  8
1
  6
CONTINUOUS
 62
     7
 10
-214.8998249730742
 20
196.8282283658168
 30
0.0
  0
VERTEX
  5
56C
  8
1
  6
CONTINUOUS
 62
     7
 10
-214.9235070396769
 20
196.8310599719645
 30
0.0
  0
VERTEX
  5
56D
  8
1
  6
CONTINUOUS
 62
     7
 10
-214.9472621147694
 20
196.8327638712619
 30
0.0
  0
VERTEX
  5
56E
  8
1
  6
CONTINUOUS
 62
     7
 10
-214.9710088781635
 20
196.8333333333333
 30
0.0
  0
SEQEND
  5
975
  8
1
  6
CONTINUOUS
 62
     7
  0
ARC
  5
A9
  8
1
  6
CONTINUOUS
 62
     7
 10
-213.8710088781635
 20
197.4333333333333
 30
0.0
 40
1.22305552472827
 50
60.55599189447439
 51
119.4440081055256
  0
ARC
  5
AA
  8
1
  6
CONTINUOUS
 62
     7
 10
-213.8710088781635
 20
197.4333333333333
 30
0.0
 40
1.22305552472827
 50
240.5559918944744
 51
299.4440081055255
  0
ARC
  5
AB
  8
1
  6
CONTINUOUS
 62
     9
 10
-213.8710088781635
 20
197.4333333333333
 30
0.0
 40
4.359030618726562
 50
187.9116117028428
 51
352.0883882971589
  0
LINE
  5
AC
  8
1
  6
CONTINUOUS
 62
     7
 10
-217.2749320850647
 20
196.8333333333333
 30
0.0
 11
-218.1885484477559
 21
196.8333333333333
 31
0.0
  0
LINE
  5
AD
  8
1
  6
CONTINUOUS
 62
     7
 10
-209.5534693085703
 20
196.8333333333333
 30
0.0
 11
-210.4670856712624
 21
196.8333333333333
 31
0.0
  0
ARC
  5
AE
  8
1
  6
CONTINUOUS
 62
     9
 10
-213.8710088781635
 20
197.4333333333333
 30
0.0
 40
4.359030618726566
 50
7.911611702842833
 51
172.0883882971572
  0
LINE
  5
AF
  8
1
  6
CONTINUOUS
 62
     7
 10
-218.1885484477559
 20
198.0333333333333
 30
0.0
 11
-217.2749320850647
 21
198.0333333333333
 31
0.0
  0
LINE
  5
B0
  8
1
  6
CONTINUOUS
 62
     7
 10
-210.4670856712624
 20
198.0333333333333
 30
0.0
 11
-209.5534693085712
 21
198.0333333333333
 31
0.0
  0
ARC
  5
B1
  8
1
  6
CONTINUOUS
 62
     7
 10
-213.8710088781635
 20
197.4333333333333
 30
0.0
 40
4.368767004711112
 50
352.1061329340404
 51
7.89386706595957
  0
ARC
  5
B2
  8
1
  6
CONTINUOUS
 62
     7
 10
-213.8710088781635
 20
197.4333333333333
 30
0.0
 40
4.368767004711115
 50
172.1061329340403
 51
187.8938670659596
  0
ARC
  5
B3
  8
1
  6
CONTINUOUS
 62
     7
 10
-213.8710088781635
 20
197.4333333333333
 30
0.0
 40
4.500000000000003
 50
176.8152614632796
 51
183.1847385367204
  0
ARC
  5
B4
  8
1
  6
CONTINUOUS
 62
     7
 10
-213.8710088781635
 20
197.4333333333333
 30
0.0
 40
4.500000000000003
 50
8.882495646278471
 51
176.8152614632796
  0
ARC
  5
B5
  8
1
  6
CONTINUOUS
 62
     7
 10
-213.8710088781635
 20
197.4333333333333
 30
0.0
 40
4.5
 50
8.181359927669746
 51
8.882495646278471
  0
ARC
  5
B6
  8
1
  6
CONTINUOUS
 62
     7
 10
-213.8710088781635
 20
197.4333333333333
 30
0.0
 40
4.5
 50
351.4333392836917
 51
8.181359927669803
  0
ARC
  5
B7
  8
1
  6
CONTINUOUS
 62
     7
 10
-213.8710088781635
 20
197.4333333333333
 30
0.0
 40
4.5
 50
183.1847385367205
 51
351.4333392836917
  0
ARC
  5
B8
  8
1
  6
CONTINUOUS
 62
     7
 10
-213.8710088781635
 20
197.4333333333333
 30
0.0
 40
1.22305552472827
 50
330.5559918944744
 51
29.44400810552565
  0
ARC
  5
B9
  8
1
  6
CONTINUOUS
 62
     7
 10
-213.8710088781635
 20
197.4333333333333
 30
0.0
 40
1.564468336724369
 50
337.4483034321429
 51
22.55169656785711
  0
ARC
  5
BA
  8
1
  6
CONTINUOUS
 62
     7
 10
-213.8710088781635
 20
197.4333333333333
 30
0.0
 40
1.564468336724376
 50
157.4483034321429
 51
202.5516965678571
  0
ARC
  5
BB
  8
1
  6
CONTINUOUS
 62
     7
 10
-213.8710088781635
 20
197.4333333333333
 30
0.0
 40
1.22305552472827
 50
150.5559918944744
 51
209.4440081055256
  0
ARC
  5
BC
  8
1
  6
CONTINUOUS
 62
     7
 10
-213.8710088781635
 20
197.4333333333333
 30
0.0
 40
4.750000000000003
 50
183.016961309816
 51
176.983038690184
  0
LINE
  5
BD
  8
1
  6
CONTINUOUS
 62
     7
 10
-218.3640590670664
 20
197.6833333333333
 30
0.0
 11
-218.6144253684161
 21
197.6833333333333
 31
0.0
  0
LINE
  5
BE
  8
1
  6
CONTINUOUS
 62
     7
 10
-218.6144253684161
 20
197.1833333333333
 30
0.0
 11
-218.3640590670664
 21
197.1833333333333
 31
0.0
  0
CIRCLE
  5
BF
  8
1
  6
CONTINUOUS
 62
     7
 10
-213.8710088781635
 20
197.4333333333333
 30
0.0
 40
4.999999999999997
  0
LINE
  5
C0
  8
1
  6
CONTINUOUS
 62
     9
 10
-231.3710088781635
 20
204.6333333333333
 30
0.0
 11
-231.3710088781635
 21
206.9333333333333
 31
0.0
  0
LINE
  5
C1
  8
1
  6
CONTINUOUS
 62
     7
 10
-230.3710088781635
 20
206.9333333333333
 30
0.0
 11
-230.3710088781635
 21
204.6333333333333
 31
0.0
  0
LINE
  5
C2
  8
1
  6
CONTINUOUS
 62
     7
 10
-230.3710088781635
 20
204.6333333333333
 30
0.0
 11
-231.3710088781635
 21
204.6333333333333
 31
0.0
  0
LINE
  5
C3
  8
1
  6
CONTINUOUS
 62
     7
 10
-231.3710088781635
 20
206.9333333333333
 30
0.0
 11
-230.3710088781635
 21
206.9333333333333
 31
0.0
  0
LINE
  5
C4
  8
1
  6
CONTINUOUS
 62
     7
 10
-255.3710088781635
 20
206.9333333333333
 30
0.0
 11
-255.3710088781635
 21
204.6333333333333
 31
0.0
  0
LINE
  5
C5
  8
1
  6
CONTINUOUS
 62
     7
 10
-255.3710088781635
 20
204.6333333333334
 30
0.0
 11
-231.3710088781636
 21
204.6333333333334
 31
0.0
  0
LINE
  5
C6
  8
1
  6
CONTINUOUS
 62
     7
 10
-231.3710088781635
 20
206.9333333333333
 30
0.0
 11
-255.3710088781635
 21
206.9333333333333
 31
0.0
  0
LINE
  5
C7
  8
1
  6
CONTINUOUS
 62
     9
 10
-242.3710088781635
 20
192.2993587371178
 30
0.0
 11
-213.8710088781635
 21
192.2993587371178
 31
0.0
  0
LINE
  5
C8
  8
1
  6
CONTINUOUS
 62
     9
 10
-213.8710088781635
 20
192.2993587371178
 30
0.0
 11
-213.8710088781635
 21
191.4333333333333
 31
0.0
  0
LINE
  5
C9
  8
1
  6
CONTINUOUS
 62
     7
 10
-213.8710088781635
 20
191.4333333333333
 30
0.0
 11
-242.3710088781635
 21
191.4333333333333
 31
0.0
  0
LINE
  5
CA
  8
1
  6
CONTINUOUS
 62
     9
 10
-242.3710088781635
 20
192.2993587371178
 30
0.0
 11
-242.3710088781635
 21
191.4333333333333
 31
0.0
  0
ARC
  5
CB
  8
1
  6
CONTINUOUS
 62
     9
 10
-213.8710088781635
 20
197.4333333333333
 30
0.0
 40
5.133974596215559
 50
269.9999999999999
 51
0.0
  0
LINE
  5
CC
  8
1
  6
CONTINUOUS
 62
     9
 10
-208.737034281948
 20
197.4333333333333
 30
0.0
 11
-207.8710088781635
 21
197.4333333333333
 31
0.0
  0
ARC
  5
CD
  8
1
  6
CONTINUOUS
 62
     7
 10
-213.8710088781635
 20
197.4333333333333
 30
0.0
 40
5.999999999999998
 50
270.0
 51
0.0
  0
CIRCLE
  5
CE
  8
1
  6
CONTINUOUS
 62
     7
 10
-213.8710088781635
 20
222.9333333333333
 30
0.0
 40
2.749999999999996
  0
CIRCLE
  5
CF
  8
1
  6
CONTINUOUS
 62
     7
 10
-213.8710088781635
 20
250.4333333333333
 30
0.0
 40
2.750000000000002
  0
CIRCLE
  5
D0
  8
1
  6
CONTINUOUS
 62
     7
 10
-242.3710088781635
 20
197.4333333333333
 30
0.0
 40
2.749999999999999
  0
LINE
  5
D1
  8
1
  6
CONTINUOUS
 62
     9
 10
-211.8710088781635
 20
255.5673079295489
 30
0.0
 11
-232.3710088781635
 21
255.5673079295489
 31
0.0
  0
ARC
  5
D2
  8
1
  6
CONTINUOUS
 62
     9
 10
-211.8710088781635
 20
252.4333333333333
 30
0.0
 40
3.133974596215561
 50
359.9999999999996
 51
89.9999999999999
  0
LINE
  5
D3
  8
1
  6
CONTINUOUS
 62
     9
 10
-208.737034281948
 20
197.4333333333333
 30
0.0
 11
-208.737034281948
 21
252.4333333333333
 31
0.0
  0
ARC
  5
D4
  8
1
  6
CONTINUOUS
 62
     9
 10
-242.3710088781635
 20
197.4333333333333
 30
0.0
 40
5.133974596215562
 50
89.99999999999983
 51
270.0
  0
LINE
  5
D5
  8
1
  6
CONTINUOUS
 62
     9
 10
-239.516196235004
 20
202.5673079295489
 30
0.0
 11
-242.3710088781635
 21
202.5673079295489
 31
0.0
  0
LINE
  5
D6
  8
1
  6
CONTINUOUS
 62
     9
 10
-228.6994360029097
 20
202.5673079295489
 30
0.0
 11
-239.516196235004
 21
202.5673079295489
 31
0.0
  0
ARC
  5
D7
  8
1
  6
CONTINUOUS
 62
     9
 10
-228.6994360029097
 20
205.4333333333333
 30
0.0
 40
2.866025403784436
 50
270.0
 51
314.9999999999998
  0
LINE
  5
D8
  8
1
  6
CONTINUOUS
 62
     9
 10
-222.8444228800946
 20
207.2351744600106
 30
0.0
 11
-226.6728500048408
 21
203.4067473352644
 31
0.0
  0
ARC
  5
D9
  8
1
  6
CONTINUOUS
 62
     9
 10
-224.8710088781635
 20
209.2617604580795
 30
0.0
 40
2.866025403784437
 50
315.0
 51
359.9999999999998
  0
LINE
  5
DA
  8
1
  6
CONTINUOUS
 62
     9
 10
-222.0049834743791
 20
237.6049062085872
 30
0.0
 11
-222.0049834743791
 21
209.2617604580795
 31
0.0
  0
ARC
  5
DB
  8
1
  6
CONTINUOUS
 62
     9
 10
-224.8710088781635
 20
237.6049062085872
 30
0.0
 40
2.866025403784438
 50
0.0
 51
45.0
  0
LINE
  5
DC
  8
1
  6
CONTINUOUS
 62
     9
 10
-226.6728500048408
 20
243.4599193314022
 30
0.0
 11
-222.8444228800946
 21
239.631492206656
 31
0.0
  0
ARC
  5
DD
  8
1
  6
CONTINUOUS
 62
     9
 10
-228.6994360029097
 20
241.4333333333333
 30
0.0
 40
2.866025403784437
 50
45.0
 51
89.99999999999966
  0
LINE
  5
DE
  8
1
  6
CONTINUOUS
 62
     9
 10
-232.3710088781635
 20
244.2993587371178
 30
0.0
 11
-228.6994360029097
 21
244.2993587371178
 31
0.0
  0
ARC
  5
DF
  8
1
  6
CONTINUOUS
 62
     9
 10
-232.3710088781635
 20
247.4333333333333
 30
0.0
 40
3.133974596215561
 50
180.0
 51
270.0000000000001
  0
LINE
  5
E0
  8
1
  6
CONTINUOUS
 62
     9
 10
-235.5049834743791
 20
252.4333333333333
 30
0.0
 11
-235.5049834743791
 21
247.4333333333333
 31
0.0
  0
ARC
  5
E1
  8
1
  6
CONTINUOUS
 62
     9
 10
-232.3710088781635
 20
252.4333333333333
 30
0.0
 40
3.133974596215567
 50
90.00000000000026
 51
180.0
  0
ARC
  5
E2
  8
1
  6
CONTINUOUS
 62
     7
 10
-242.3710088781635
 20
197.4333333333333
 30
0.0
 40
6.000000000000002
 50
89.9999999999999
 51
270.0
  0
LINE
  5
E3
  8
1
  6
CONTINUOUS
 62
     9
 10
-242.3710088781635
 20
202.5673079295489
 30
0.0
 11
-242.3710088781635
 21
203.4333333333333
 31
0.0
  0
LINE
  5
E4
  8
1
  6
CONTINUOUS
 62
     9
 10
-208.737034281948
 20
252.4333333333333
 30
0.0
 11
-207.8710088781635
 21
252.4333333333333
 31
0.0
  0
LINE
  5
E5
  8
1
  6
CONTINUOUS
 62
     7
 10
-207.8710088781635
 20
252.4333333333333
 30
0.0
 11
-207.8710088781635
 21
197.4333333333333
 31
0.0
  0
LINE
  5
E6
  8
1
  6
CONTINUOUS
 62
     7
 10
-227.2852224405366
 20
204.0191197709602
 30
0.0
 11
-223.4567953157904
 21
207.8475468957064
 31
0.0
  0
LINE
  5
E7
  8
1
  6
CONTINUOUS
 62
     9
 10
-223.4567953157904
 20
207.8475468957064
 30
0.0
 11
-222.8444228800946
 21
207.2351744600107
 31
0.0
  0
LINE
  5
E8
  8
1
  6
CONTINUOUS
 62
     9
 10
-227.2852224405366
 20
204.0191197709602
 30
0.0
 11
-226.6728500048408
 21
203.4067473352644
 31
0.0
  0
ARC
  5
E9
  8
1
  6
CONTINUOUS
 62
     7
 10
-228.6994360029097
 20
205.4333333333333
 30
0.0
 40
1.999999999999996
 50
270.0
 51
314.9999999999998
  0
LINE
  5
EA
  8
1
  6
CONTINUOUS
 62
     9
 10
-228.6994360029097
 20
203.4333333333333
 30
0.0
 11
-228.6994360029097
 21
202.5673079295489
 31
0.0
  0
LINE
  5
EB
  8
1
  6
CONTINUOUS
 62
     7
 10
-242.3710088781635
 20
203.4333333333333
 30
0.0
 11
-239.516196235004
 21
203.4333333333333
 31
0.0
  0
LINE
  5
EC
  8
1
  6
CONTINUOUS
 62
     9
 10
-239.516196235004
 20
202.5673079295489
 30
0.0
 11
-239.516196235004
 21
203.4333333333333
 31
0.0
  0
LINE
  5
ED
  8
1
  6
CONTINUOUS
 62
     7
 10
-239.516196235004
 20
203.4333333333333
 30
0.0
 11
-228.6994360029097
 21
203.4333333333333
 31
0.0
  0
ARC
  5
EE
  8
1
  6
CONTINUOUS
 62
     7
 10
-224.8710088781635
 20
209.2617604580795
 30
0.0
 40
2.0
 50
315.0
 51
359.9999999999998
  0
LINE
  5
EF
  8
1
  6
CONTINUOUS
 62
     9
 10
-222.8710088781635
 20
209.2617604580795
 30
0.0
 11
-222.0049834743791
 21
209.2617604580795
 31
0.0
  0
LINE
  5
F0
  8
1
  6
CONTINUOUS
 62
     7
 10
-222.8710088781635
 20
209.2617604580795
 30
0.0
 11
-222.8710088781635
 21
237.6049062085872
 31
0.0
  0
LINE
  5
F1
  8
1
  6
CONTINUOUS
 62
     9
 10
-222.8710088781635
 20
237.6049062085872
 30
0.0
 11
-222.0049834743791
 21
237.6049062085872
 31
0.0
  0
LINE
  5
F2
  8
1
  6
CONTINUOUS
 62
     7
 10
-223.4567953157904
 20
239.0191197709602
 30
0.0
 11
-227.2852224405366
 21
242.8475468957064
 31
0.0
  0
LINE
  5
F3
  8
1
  6
CONTINUOUS
 62
     9
 10
-227.2852224405366
 20
242.8475468957064
 30
0.0
 11
-226.6728500048409
 21
243.4599193314022
 31
0.0
  0
LINE
  5
F4
  8
1
  6
CONTINUOUS
 62
     9
 10
-223.4567953157904
 20
239.0191197709603
 30
0.0
 11
-222.8444228800946
 21
239.631492206656
 31
0.0
  0
ARC
  5
F5
  8
1
  6
CONTINUOUS
 62
     7
 10
-224.8710088781635
 20
237.6049062085872
 30
0.0
 40
2.000000000000002
 50
0.0
 51
45.0
  0
ARC
  5
F6
  8
1
  6
CONTINUOUS
 62
     7
 10
-228.6994360029097
 20
241.4333333333333
 30
0.0
 40
2.000000000000001
 50
45.00000000000006
 51
89.99999999999955
  0
LINE
  5
F7
  8
1
  6
CONTINUOUS
 62
     9
 10
-228.6994360029097
 20
243.4333333333334
 30
0.0
 11
-228.6994360029097
 21
244.2993587371178
 31
0.0
  0
LINE
  5
F8
  8
1
  6
CONTINUOUS
 62
     7
 10
-228.6994360029097
 20
243.4333333333333
 30
0.0
 11
-232.3710088781635
 21
243.4333333333333
 31
0.0
  0
LINE
  5
F9
  8
1
  6
CONTINUOUS
 62
     9
 10
-232.3710088781635
 20
243.4333333333334
 30
0.0
 11
-232.3710088781635
 21
244.2993587371178
 31
0.0
  0
ARC
  5
FA
  8
1
  6
CONTINUOUS
 62
     7
 10
-232.3710088781635
 20
247.4333333333333
 30
0.0
 40
4.000000000000004
 50
180.0
 51
270.0000000000001
  0
LINE
  5
FB
  8
1
  6
CONTINUOUS
 62
     9
 10
-236.3710088781635
 20
247.4333333333333
 30
0.0
 11
-235.5049834743791
 21
247.4333333333333
 31
0.0
  0
LINE
  5
FC
  8
1
  6
CONTINUOUS
 62
     7
 10
-236.3710088781635
 20
247.4333333333333
 30
0.0
 11
-236.3710088781635
 21
252.4333333333333
 31
0.0
  0
LINE
  5
FD
  8
1
  6
CONTINUOUS
 62
     9
 10
-235.5049834743791
 20
252.4333333333333
 30
0.0
 11
-236.3710088781635
 21
252.4333333333333
 31
0.0
  0
ARC
  5
FE
  8
1
  6
CONTINUOUS
 62
     7
 10
-232.3710088781635
 20
252.4333333333333
 30
0.0
 40
4.000000000000004
 50
90.00000000000016
 51
180.0
  0
LINE
  5
FF
  8
1
  6
CONTINUOUS
 62
     9
 10
-232.3710088781635
 20
255.5673079295489
 30
0.0
 11
-232.3710088781635
 21
256.4333333333333
 31
0.0
  0
LINE
  5
100
  8
1
  6
CONTINUOUS
 62
     9
 10
-211.8710088781635
 20
255.5673079295489
 30
0.0
 11
-211.8710088781635
 21
256.4333333333333
 31
0.0
  0
ARC
  5
101
  8
1
  6
CONTINUOUS
 62
     7
 10
-211.8710088781635
 20
252.4333333333333
 30
0.0
 40
4.000000000000004
 50
359.9999999999997
 51
89.9999999999999
  0
LINE
  5
102
  8
1
  6
CONTINUOUS
 62
     7
 10
-232.3710088781635
 20
256.4333333333333
 30
0.0
 11
-211.8710088781635
 21
256.4333333333333
 31
0.0
  0
ARC
  5
103
  8
1
  6
CONTINUOUS
 62
     7
 10
-228.3710088781635
 20
209.9333333333333
 30
0.0
 40
2.999999999999999
 50
270.0
 51
0.0
  0
LINE
  5
104
  8
1
  6
CONTINUOUS
 62
     7
 10
-225.3710088781635
 20
236.9333333333333
 30
0.0
 11
-225.3710088781635
 21
209.9333333333333
 31
0.0
  0
ARC
  5
105
  8
1
  6
CONTINUOUS
 62
     7
 10
-228.3710088781635
 20
236.9333333333333
 30
0.0
 40
3.0
 50
0.0
 51
120.0000000000011
  0
LINE
  5
106
  8
1
  6
CONTINUOUS
 62
     7
 10
-233.9069072630258
 20
237.2012825257644
 30
0.0
 11
-229.8710088781636
 21
239.5314095446866
 31
0.0
  0
ARC
  5
107
  8
1
  6
CONTINUOUS
 62
     7
 10
-234.9069072630258
 20
238.9333333333333
 30
0.0
 40
2.000000000000002
 50
270.0
 51
300.0
  0
LINE
  5
108
  8
1
  6
CONTINUOUS
 62
     7
 10
-247.5710088781635
 20
236.9333333333333
 30
0.0
 11
-234.9069072630258
 21
236.9333333333333
 31
0.0
  0
LINE
  5
109
  8
1
  6
CONTINUOUS
 62
     9
 10
-247.5710088781635
 20
241.9333333333333
 30
0.0
 11
-247.5710088781635
 21
236.9333333333333
 31
0.0
  0
LINE
  5
10A
  8
1
  6
CONTINUOUS
 62
     7
 10
-242.0710088781635
 20
241.9333333333333
 30
0.0
 11
-247.5710088781635
 21
241.9333333333333
 31
0.0
  0
ARC
  5
10B
  8
1
  6
CONTINUOUS
 62
     7
 10
-242.0710088781635
 20
242.9333333333333
 30
0.0
 40
1.000000000000001
 50
270.0
 51
359.9999999999989
  0
LINE
  5
10C
  8
1
  6
CONTINUOUS
 62
     7
 10
-241.0710088781635
 20
246.5333333333333
 30
0.0
 11
-241.0710088781635
 21
242.9333333333333
 31
0.0
  0
ARC
  5
10D
  8
1
  6
CONTINUOUS
 62
     7
 10
-242.0710088781635
 20
246.5333333333333
 30
0.0
 40
1.000000000000001
 50
0.0
 51
90.0000000000004
  0
LINE
  5
10E
  8
1
  6
CONTINUOUS
 62
     7
 10
-247.5710088781635
 20
247.5333333333333
 30
0.0
 11
-242.0710088781635
 21
247.5333333333333
 31
0.0
  0
LINE
  5
10F
  8
1
  6
CONTINUOUS
 62
     9
 10
-247.5710088781635
 20
258.9333333333333
 30
0.0
 11
-247.5710088781635
 21
247.5333333333333
 31
0.0
  0
LINE
  5
110
  8
1
  6
CONTINUOUS
 62
     7
 10
-209.3710088781635
 20
258.9333333333333
 30
0.0
 11
-247.5710088781635
 21
258.9333333333333
 31
0.0
  0
ARC
  5
111
  8
1
  6
CONTINUOUS
 62
     7
 10
-209.3710088781635
 20
254.9333333333333
 30
0.0
 40
4.000000000000004
 50
359.9999999999998
 51
89.9999999999999
  0
LINE
  5
112
  8
1
  6
CONTINUOUS
 62
     7
 10
-205.3710088781635
 20
197.4333333333333
 30
0.0
 11
-205.3710088781635
 21
254.9333333333333
 31
0.0
  0
ARC
  5
113
  8
1
  6
CONTINUOUS
 62
     7
 10
-213.8710088781635
 20
197.4333333333333
 30
0.0
 40
8.5
 50
269.9999999999999
 51
0.0
  0
LINE
  5
114
  8
1
  6
CONTINUOUS
 62
     7
 10
-246.3710088781635
 20
188.9333333333333
 30
0.0
 11
-213.8710088781635
 21
188.9333333333333
 31
0.0
  0
LINE
  5
115
  8
1
  6
CONTINUOUS
 62
     7
 10
-255.3710088781635
 20
197.9333333333333
 30
0.0
 11
-246.3710088781635
 21
188.9333333333333
 31
0.0
  0
LINE
  5
116
  8
1
  6
CONTINUOUS
 62
     7
 10
-228.3710088781635
 20
206.9333333333333
 30
0.0
 11
-230.3710088781635
 21
206.9333333333333
 31
0.0
  0
LINE
  5
117
  8
1
  6
CONTINUOUS
 62
     7
 10
-255.3710088781635
 20
204.6333333333334
 30
0.0
 11
-255.3710088781635
 21
197.9333333333333
 31
0.0
  0
LINE
  5
118
  8
1
  6
CONTINUOUS
 62
     7
 10
-253.8710088781635
 20
241.9333333333333
 30
0.0
 11
-247.5710088781635
 21
241.9333333333333
 31
0.0
  0
LINE
  5
119
  8
1
  6
CONTINUOUS
 62
     7
 10
-247.5710088781635
 20
236.9333333333333
 30
0.0
 11
-253.8710088781635
 21
236.9333333333333
 31
0.0
  0
LINE
  5
11A
  8
1
  6
CONTINUOUS
 62
     7
 10
-253.8710088781635
 20
258.9333333333333
 30
0.0
 11
-247.5710088781635
 21
258.9333333333333
 31
0.0
  0
LINE
  5
11B
  8
1
  6
CONTINUOUS
 62
     7
 10
-247.5710088781635
 20
247.5333333333333
 30
0.0
 11
-253.8710088781635
 21
247.5333333333333
 31
0.0
  0
LINE
  5
11C
  8
1
  6
CONTINUOUS
 62
     9
 10
-285.9321731080204
 20
164.4944975631902
 30
0.0
 11
-287.8098446483066
 21
164.4944975631902
 31
0.0
  0
LINE
  5
11D
  8
1
  6
CONTINUOUS
 62
     7
 10
-287.8098446483066
 20
164.4944975631902
 30
0.0
 11
-287.8011939358375
 21
165.4944594862544
 31
0.0
  0
LINE
  5
11E
  8
1
  6
CONTINUOUS
 62
     9
 10
-287.8011939358375
 20
165.4944594862544
 30
0.0
 11
-285.9408238204896
 21
165.4944594862544
 31
0.0
  0
LINE
  5
11F
  8
1
  6
CONTINUOUS
 62
     7
 10
-285.9408238204896
 20
165.4944594862544
 30
0.0
 11
-285.9321731080204
 21
164.4944975631902
 31
0.0
  0
LINE
  5
120
  8
1
  6
CONTINUOUS
 62
     9
 10
-232.1447521194697
 20
188.9070765746395
 30
0.0
 11
-230.5972656368574
 21
188.9070765746395
 31
0.0
  0
LINE
  5
121
  8
1
  6
CONTINUOUS
 62
     7
 10
-230.5972656368574
 20
188.9070765746395
 30
0.0
 11
-230.6059163493265
 21
187.9071146515753
 31
0.0
  0
LINE
  5
122
  8
1
  6
CONTINUOUS
 62
     9
 10
-230.6059163493265
 20
187.9071146515753
 30
0.0
 11
-232.1361014070005
 21
187.9071146515753
 31
0.0
  0
LINE
  5
123
  8
1
  6
CONTINUOUS
 62
     7
 10
-232.1361014070005
 20
187.9071146515753
 30
0.0
 11
-232.1447521194697
 21
188.9070765746395
 31
0.0
  0
LINE
  5
124
  8
1
  6
CONTINUOUS
 62
     9
 10
-278.3653538101585
 20
203.4041190071112
 30
0.0
 11
-278.4059163493266
 21
203.3635564679431
 31
0.0
  0
LINE
  5
125
  8
1
  6
CONTINUOUS
 62
     7
 10
-278.3697928951049
 20
202.3998703097437
 30
0.0
 11
-278.3653538101584
 21
203.4041190071112
 31
0.0
  0
LINE
  5
126
  8
1
  6
CONTINUOUS
 62
     7
 10
-278.3709327170417
 20
187.4333714175194
 30
0.0
 11
-278.3697928951049
 21
202.3998703097437
 31
0.0
  0
LINE
  5
127
  8
1
  6
CONTINUOUS
 62
     9
 10
-278.4059163493266
 20
187.3983877852345
 30
0.0
 11
-278.3709327170417
 21
187.4333714175194
 31
0.0
  0
LINE
  5
128
  8
1
  6
CONTINUOUS
 62
     7
 10
-278.4059163493266
 20
203.3635564679431
 30
0.0
 11
-278.4059163493266
 21
187.3983877852345
 31
0.0
  0
LINE
  5
129
  8
1
  6
CONTINUOUS
 62
     7
 10
-230.5710088781635
 20
186.4333333333333
 30
0.0
 11
-230.6059163493265
 21
186.3984258621703
 31
0.0
  0
LINE
  5
12A
  8
1
  6
CONTINUOUS
 62
     7
 10
-190.9147203940937
 20
186.4333333333333
 30
0.0
 11
-230.5710088781635
 21
186.4333333333333
 31
0.0
  0
LINE
  5
12B
  8
1
  6
CONTINUOUS
 62
     7
 10
-188.8970361389842
 20
186.4422135436757
 30
0.0
 11
-190.9147203940937
 21
186.4333333333333
 31
0.0
  0
LINE
  5
12C
  8
1
  6
CONTINUOUS
 62
     7
 10
-188.9148716830821
 20
186.4243779995779
 30
0.0
 11
-188.8970361389842
 21
186.4422135436757
 31
0.0
  0
LINE
  5
12D
  8
1
  6
CONTINUOUS
 62
     7
 10
-191.9147574522745
 20
186.3984258621703
 30
0.0
 11
-188.914871683082
 21
186.4243779995779
 31
0.0
  0
LINE
  5
12E
  8
1
  6
CONTINUOUS
 62
     7
 10
-191.9147574522745
 20
186.3984258621703
 30
0.0
 11
-230.6059163493266
 21
186.3984258621703
 31
0.0
  0
LINE
  5
12F
  8
1
  6
CONTINUOUS
 62
     7
 10
-281.8710088781635
 20
189.3333333333333
 30
0.0
 11
-281.8099208036282
 21
189.3944214078687
 31
0.0
  0
LINE
  5
130
  8
1
  6
CONTINUOUS
 62
     7
 10
-287.8622820103728
 20
189.3333333333333
 30
0.0
 11
-281.8710088781635
 21
189.3333333333333
 31
0.0
  0
LINE
  5
131
  8
1
  6
CONTINUOUS
 62
     7
 10
-287.8622820103728
 20
189.3333333333333
 30
0.0
 11
-287.8098446483066
 21
189.3857706953995
 31
0.0
  0
LINE
  5
132
  8
1
  6
CONTINUOUS
 62
     7
 10
-286.8098827252425
 20
189.3944214078687
 30
0.0
 11
-287.8098446483066
 21
189.3857706953995
 31
0.0
  0
LINE
  5
133
  8
1
  6
CONTINUOUS
 62
     7
 10
-281.8099208036282
 20
189.3944214078687
 30
0.0
 11
-286.8098827252425
 21
189.3944214078687
 31
0.0
  0
LINE
  5
134
  8
1
  6
CONTINUOUS
 62
     7
 10
-278.3710088781636
 20
144.4333333333333
 30
0.0
 11
-278.3710088781636
 21
147.1027892960657
 31
0.0
  0
LINE
  5
135
  8
1
  6
CONTINUOUS
 62
     7
 10
-278.4321731080204
 20
144.4944975631902
 30
0.0
 11
-278.3710088781636
 21
144.4333333333333
 31
0.0
  0
LINE
  5
136
  8
1
  6
CONTINUOUS
 62
     7
 10
-278.4408238204896
 20
145.4944594862544
 30
0.0
 11
-278.4321731080204
 21
144.4944975631902
 31
0.0
  0
LINE
  5
137
  8
1
  6
CONTINUOUS
 62
     7
 10
-278.4408238204896
 20
146.0416631431446
 30
0.0
 11
-278.4408238204896
 21
145.4944594862544
 31
0.0
  0
LINE
  5
138
  8
1
  6
CONTINUOUS
 62
     7
 10
-278.4321731080204
 20
147.0416250662088
 30
0.0
 11
-278.4408238204896
 21
146.0416631431446
 31
0.0
  0
LINE
  5
139
  8
1
  6
CONTINUOUS
 62
     7
 10
-278.4321731080204
 20
147.0416250662088
 30
0.0
 11
-278.3710088781636
 21
147.1027892960657
 31
0.0
  0
LINE
  5
13A
  8
1
  6
CONTINUOUS
 62
     7
 10
-241.6361014070005
 20
186.3984258621703
 30
0.0
 11
-241.6710088781635
 21
186.4333333333333
 31
0.0
  0
LINE
  5
13B
  8
1
  6
CONTINUOUS
 62
     7
 10
-241.6361014070005
 20
186.3984258621703
 30
0.0
 11
-277.4059544262624
 21
186.3984258621703
 31
0.0
  0
LINE
  5
13C
  8
1
  6
CONTINUOUS
 62
     9
 10
-277.3710469550994
 20
186.4333333333333
 30
0.0
 11
-277.4059544262624
 21
186.3984258621703
 31
0.0
  0
LINE
  5
13D
  8
1
  6
CONTINUOUS
 62
     7
 10
-241.6710088781635
 20
186.4333333333333
 30
0.0
 11
-277.3710469550994
 21
186.4333333333333
 31
0.0
  0
LINE
  5
13E
  8
1
  6
CONTINUOUS
 62
     9
 10
-287.8011939358375
 20
175.3722833357338
 30
0.0
 11
-287.8622820103728
 21
175.4333714102692
 31
0.0
  0
POLYLINE
  5
13F
  8
1
  6
CONTINUOUS
 62
     7
 66
     1
 10
0.0
 20
0.0
 30
0.0
  0
VERTEX
  5
56F
  8
1
  6
CONTINUOUS
 62
     7
 10
-286.8623200873087
 20
176.4333333333333
 30
0.0
  0
VERTEX
  5
570
  8
1
  6
CONTINUOUS
 62
     7
 10
-287.0574070378107
 20
176.4141197391724
 30
0.0
  0
VERTEX
  5
571
  8
1
  6
CONTINUOUS
 62
     7
 10
-287.2449947044525
 20
176.3572172529776
 30
0.0
  0
VERTEX
  5
572
  8
1
  6
CONTINUOUS
 62
     7
 10
-287.4178748951173
 20
176.2648123940429
 30
0.0
  0
VERTEX
  5
573
  8
1
  6
CONTINUOUS
 62
     7
 10
-287.5694045631179
 20
176.1404558860785
 30
0.0
  0
VERTEX
  5
574
  8
1
  6
CONTINUOUS
 62
     7
 10
-287.6937610710823
 20
175.9889262180779
 30
0.0
  0
VERTEX
  5
575
  8
1
  6
CONTINUOUS
 62
     7
 10
-287.786165930017
 20
175.8160460274131
 30
0.0
  0
VERTEX
  5
576
  8
1
  6
CONTINUOUS
 62
     7
 10
-287.8430684162118
 20
175.6284583607713
 30
0.0
  0
VERTEX
  5
577
  8
1
  6
CONTINUOUS
 62
     7
 10
-287.8622820103728
 20
175.4333714102692
 30
0.0
  0
SEQEND
  5
976
  8
1
  6
CONTINUOUS
 62
     7
  0
LINE
  5
140
  8
1
  6
CONTINUOUS
 62
     9
 10
-286.8623200873086
 20
176.4333333333333
 30
0.0
 11
-286.8012320127733
 21
176.372245258798
 31
0.0
  0
POLYLINE
  5
141
  8
1
  6
CONTINUOUS
 62
     7
 66
     1
 10
0.0
 20
0.0
 30
0.0
  0
VERTEX
  5
578
  8
1
  6
CONTINUOUS
 62
     7
 10
-286.8012320127733
 20
176.372245258798
 30
0.0
  0
VERTEX
  5
579
  8
1
  6
CONTINUOUS
 62
     7
 10
-286.9963189632754
 20
176.3530316646371
 30
0.0
  0
VERTEX
  5
57A
  8
1
  6
CONTINUOUS
 62
     7
 10
-287.1839066299172
 20
176.2961291784423
 30
0.0
  0
VERTEX
  5
57B
  8
1
  6
CONTINUOUS
 62
     7
 10
-287.356786820582
 20
176.2037243195076
 30
0.0
  0
VERTEX
  5
57C
  8
1
  6
CONTINUOUS
 62
     7
 10
-287.5083164885826
 20
176.0793678115432
 30
0.0
  0
VERTEX
  5
57D
  8
1
  6
CONTINUOUS
 62
     7
 10
-287.632672996547
 20
175.9278381435426
 30
0.0
  0
VERTEX
  5
57E
  8
1
  6
CONTINUOUS
 62
     7
 10
-287.7250778554817
 20
175.7549579528777
 30
0.0
  0
VERTEX
  5
57F
  8
1
  6
CONTINUOUS
 62
     7
 10
-287.7819803416765
 20
175.567370286236
 30
0.0
  0
VERTEX
  5
580
  8
1
  6
CONTINUOUS
 62
     7
 10
-287.8011939358374
 20
175.3722833357338
 30
0.0
  0
SEQEND
  5
977
  8
1
  6
CONTINUOUS
 62
     7
  0
LINE
  5
142
  8
1
  6
CONTINUOUS
 62
     7
 10
-286.8098827252425
 20
204.3635183910073
 30
0.0
 11
-279.4058782723907
 21
204.3635183910073
 31
0.0
  0
LINE
  5
143
  8
1
  6
CONTINUOUS
 62
     7
 10
-287.8098446483066
 20
204.3721691034765
 30
0.0
 11
-286.8098827252425
 21
204.3635183910073
 31
0.0
  0
LINE
  5
144
  8
1
  6
CONTINUOUS
 62
     7
 10
-287.8098446483066
 20
204.3721691034765
 30
0.0
 11
-287.8710088781635
 21
204.4333333333334
 31
0.0
  0
LINE
  5
145
  8
1
  6
CONTINUOUS
 62
     7
 10
-255.8710088781635
 20
204.4333333333333
 30
0.0
 11
-287.8710088781635
 21
204.4333333333333
 31
0.0
  0
LINE
  5
146
  8
1
  6
CONTINUOUS
 62
     7
 10
-255.883415199145
 20
204.4085206913704
 30
0.0
 11
-255.8710088781635
 21
204.4333333333333
 31
0.0
  0
LINE
  5
147
  8
1
  6
CONTINUOUS
 62
     7
 10
-279.3608759720276
 20
204.4085206913704
 30
0.0
 11
-255.883415199145
 21
204.4085206913704
 31
0.0
  0
LINE
  5
148
  8
1
  6
CONTINUOUS
 62
     9
 10
-279.4058782723907
 20
204.3635183910073
 30
0.0
 11
-279.3608759720275
 21
204.4085206913704
 31
0.0
  0
LINE
  5
149
  8
1
  6
CONTINUOUS
 62
     9
 10
-287.8098446483066
 20
184.4857706953995
 30
0.0
 11
-287.8098446483066
 21
186.3808959712672
 31
0.0
  0
LINE
  5
14A
  8
1
  6
CONTINUOUS
 62
     7
 10
-287.8098446483066
 20
186.3808959712672
 30
0.0
 11
-286.8098827252425
 21
186.372245258798
 31
0.0
  0
LINE
  5
14B
  8
1
  6
CONTINUOUS
 62
     9
 10
-286.8098827252425
 20
186.372245258798
 30
0.0
 11
-286.8098827252425
 21
184.4944214078687
 31
0.0
  0
LINE
  5
14C
  8
1
  6
CONTINUOUS
 62
     7
 10
-286.8098827252425
 20
184.4944214078687
 30
0.0
 11
-287.8098446483066
 21
184.4857706953995
 31
0.0
  0
LINE
  5
14D
  8
1
  6
CONTINUOUS
 62
     7
 10
-281.8099208036282
 20
176.372245258798
 30
0.0
 11
-281.8710088781635
 21
176.4333333333333
 31
0.0
  0
LINE
  5
14E
  8
1
  6
CONTINUOUS
 62
     7
 10
-286.8012320127733
 20
176.372245258798
 30
0.0
 11
-281.8099208036282
 21
176.372245258798
 31
0.0
  0
LINE
  5
14F
  8
1
  6
CONTINUOUS
 62
     7
 10
-286.8623200873086
 20
176.4333333333333
 30
0.0
 11
-281.8710088781635
 21
176.4333333333333
 31
0.0
  0
LINE
  5
150
  8
1
  6
CONTINUOUS
 62
     7
 10
-284.3622820103728
 20
172.8333333333333
 30
0.0
 11
-284.3622820103728
 21
156.8333333333333
 31
0.0
  0
LINE
  5
151
  8
1
  6
CONTINUOUS
 62
     7
 10
-284.3622820103728
 20
156.8333333333333
 30
0.0
 11
-284.3098446483066
 21
156.7808959712672
 31
0.0
  0
LINE
  5
152
  8
1
  6
CONTINUOUS
 62
     7
 10
-284.3011939358375
 20
155.7809340482031
 30
0.0
 11
-284.3098446483066
 21
156.7808959712672
 31
0.0
  0
LINE
  5
153
  8
1
  6
CONTINUOUS
 62
     7
 10
-284.3011939358375
 20
145.4944594862544
 30
0.0
 11
-284.3011939358375
 21
155.7809340482031
 31
0.0
  0
LINE
  5
154
  8
1
  6
CONTINUOUS
 62
     7
 10
-284.3098446483066
 20
144.4944975631902
 30
0.0
 11
-284.3011939358375
 21
145.4944594862544
 31
0.0
  0
LINE
  5
155
  8
1
  6
CONTINUOUS
 62
     7
 10
-284.3098446483066
 20
144.4944975631902
 30
0.0
 11
-284.3710088781635
 21
144.4333333333333
 31
0.0
  0
LINE
  5
156
  8
1
  6
CONTINUOUS
 62
     7
 10
-284.3710088781635
 20
148.4333333333334
 30
0.0
 11
-284.3710088781635
 21
144.4333333333334
 31
0.0
  0
LINE
  5
157
  8
1
  6
CONTINUOUS
 62
     7
 10
-284.3710088781636
 20
148.4333333333333
 30
0.0
 11
-284.3710088781636
 21
152.8333333333333
 31
0.0
  0
LINE
  5
158
  8
1
  6
CONTINUOUS
 62
     7
 10
-284.3710088781635
 20
174.4333333333333
 30
0.0
 11
-284.3710088781635
 21
152.8333333333333
 31
0.0
  0
LINE
  5
159
  8
1
  6
CONTINUOUS
 62
     7
 10
-284.3011939358375
 20
174.5031482756594
 30
0.0
 11
-284.3710088781635
 21
174.4333333333333
 31
0.0
  0
LINE
  5
15A
  8
1
  6
CONTINUOUS
 62
     7
 10
-284.3011939358375
 20
173.8857326184636
 30
0.0
 11
-284.3011939358375
 21
174.5031482756594
 31
0.0
  0
LINE
  5
15B
  8
1
  6
CONTINUOUS
 62
     7
 10
-284.3098446483066
 20
172.8857706953995
 30
0.0
 11
-284.3011939358375
 21
173.8857326184636
 31
0.0
  0
LINE
  5
15C
  8
1
  6
CONTINUOUS
 62
     7
 10
-284.3098446483066
 20
172.8857706953995
 30
0.0
 11
-284.3622820103728
 21
172.8333333333333
 31
0.0
  0
LINE
  5
15D
  8
1
  6
CONTINUOUS
 62
     7
 10
-287.7488327290929
 20
192.2333333333333
 30
0.0
 11
-287.8710088781635
 21
192.1111571842627
 31
0.0
  0
LINE
  5
15E
  8
1
  6
CONTINUOUS
 62
     7
 10
-287.7488327290929
 20
192.2333333333333
 30
0.0
 11
-282.3710088781635
 21
192.2333333333333
 31
0.0
  0
LINE
  5
15F
  8
1
  6
CONTINUOUS
 62
     7
 10
-282.3710088781635
 20
192.2333333333333
 30
0.0
 11
-282.3710088781635
 21
192.2248501248073
 31
0.0
  0
LINE
  5
160
  8
1
  6
CONTINUOUS
 62
     7
 10
-282.3710088781635
 20
192.2248501248073
 30
0.0
 11
-281.8710088781635
 21
192.2248501248073
 31
0.0
  0
LINE
  5
161
  8
1
  6
CONTINUOUS
 62
     7
 10
-281.8710088781635
 20
192.0413422419366
 30
0.0
 11
-286.8098827252425
 21
192.0413422419366
 31
0.0
  0
LINE
  5
162
  8
1
  6
CONTINUOUS
 62
     7
 10
-287.8098446483066
 20
192.0499929544058
 30
0.0
 11
-286.8098827252425
 21
192.0413422419366
 31
0.0
  0
LINE
  5
163
  8
1
  6
CONTINUOUS
 62
     7
 10
-287.8710088781635
 20
192.1111571842627
 30
0.0
 11
-287.8098446483066
 21
192.0499929544058
 31
0.0
  0
LINE
  5
164
  8
1
  6
CONTINUOUS
 62
     7
 10
-241.6361014070005
 20
188.872245258798
 30
0.0
 11
-241.6711972941984
 21
188.9073411459959
 31
0.0
  0
LINE
  5
165
  8
1
  6
CONTINUOUS
 62
     7
 10
-241.6361014070005
 20
186.3984258621703
 30
0.0
 11
-241.6361014070005
 21
188.872245258798
 31
0.0
  0
LINE
  5
166
  8
1
  6
CONTINUOUS
 62
     7
 10
-241.6710088781635
 20
186.4333333333333
 30
0.0
 11
-241.6711972941984
 21
188.9073411459959
 31
0.0
  0
LINE
  5
167
  8
1
  6
CONTINUOUS
 62
     9
 10
-284.3011939358375
 20
173.8857326184636
 30
0.0
 11
-280.3099208036282
 21
173.8857326184636
 31
0.0
  0
LINE
  5
168
  8
1
  6
CONTINUOUS
 62
     7
 10
-280.3099208036282
 20
173.8857326184636
 30
0.0
 11
-280.3185715160974
 21
172.8857706953995
 31
0.0
  0
LINE
  5
169
  8
1
  6
CONTINUOUS
 62
     9
 10
-280.3185715160974
 20
172.8857706953995
 30
0.0
 11
-284.3098446483066
 21
172.8857706953995
 31
0.0
  0
LINE
  5
16A
  8
1
  6
CONTINUOUS
 62
     7
 10
-280.5544361056542
 20
152.8333333333333
 30
0.0
 11
-280.3710088781635
 21
152.863877370601
 31
0.0
  0
LINE
  5
16B
  8
1
  6
CONTINUOUS
 62
     7
 10
-280.5544361056542
 20
148.4333333333333
 30
0.0
 11
-280.5932785336286
 21
148.5619363899307
 31
0.0
  0
ARC
  5
16C
  8
1
  6
CONTINUOUS
 62
     7
 10
-254.7624576737343
 20
150.5524542531467
 30
0.0
 40
25.90740179291879
 50
175.0020234094645
 51
184.4064927909575
  0
LINE
  5
16D
  8
1
  6
CONTINUOUS
 62
     7
 10
-280.5713537059568
 20
152.8095216552558
 30
0.0
 11
-280.5544361056542
 21
152.8333333333333
 31
0.0
  0
LINE
  5
16E
  8
1
  6
CONTINUOUS
 62
     7
 10
-280.5544361056542
 20
148.4333333333334
 30
0.0
 11
-280.3710088781635
 21
148.4027892960657
 31
0.0
  0
LINE
  5
16F
  8
1
  6
CONTINUOUS
 62
     7
 10
-280.3710088781635
 20
148.1246445439283
 30
0.0
 11
-280.3710088781635
 21
148.4027892960657
 31
0.0
  0
LINE
  5
170
  8
1
  6
CONTINUOUS
 62
     7
 10
-280.4229593191002
 20
147.1246826208641
 30
0.0
 11
-280.3710088781635
 21
148.1246445439283
 31
0.0
  0
LINE
  5
171
  8
1
  6
CONTINUOUS
 62
     7
 10
-280.9217478989818
 20
147.0416250662088
 30
0.0
 11
-280.4229593191002
 21
147.1246826208641
 31
0.0
  0
LINE
  5
172
  8
1
  6
CONTINUOUS
 62
     7
 10
-280.9736983399185
 20
146.0416631431447
 30
0.0
 11
-280.9217478989818
 21
147.0416250662088
 31
0.0
  0
LINE
  5
173
  8
1
  6
CONTINUOUS
 62
     7
 10
-280.9736983399185
 20
146.0416631431447
 30
0.0
 11
-280.9736983399185
 21
155.225003523522
 31
0.0
  0
LINE
  5
174
  8
1
  6
CONTINUOUS
 62
     7
 10
-280.9217478989818
 20
154.2250416004579
 30
0.0
 11
-280.9736983399185
 21
155.225003523522
 31
0.0
  0
LINE
  5
175
  8
1
  6
CONTINUOUS
 62
     7
 10
-280.4229593191002
 20
154.1419840458025
 30
0.0
 11
-280.9217478989818
 21
154.2250416004579
 31
0.0
  0
LINE
  5
176
  8
1
  6
CONTINUOUS
 62
     7
 10
-280.3710088781635
 20
153.1420221227384
 30
0.0
 11
-280.4229593191002
 21
154.1419840458025
 31
0.0
  0
LINE
  5
177
  8
1
  6
CONTINUOUS
 62
     7
 10
-280.3710088781636
 20
152.863877370601
 30
0.0
 11
-280.3710088781636
 21
153.1420221227384
 31
0.0
  0
LINE
  5
178
  8
1
  6
CONTINUOUS
 62
     7
 10
-281.8099208036282
 20
199.472245258798
 30
0.0
 11
-281.8710088781635
 21
199.5333333333333
 31
0.0
  0
LINE
  5
179
  8
1
  6
CONTINUOUS
 62
     7
 10
-281.8710088781635
 20
199.5333333333333
 30
0.0
 11
-281.8710088781635
 21
202.4333333333333
 31
0.0
  0
LINE
  5
17A
  8
1
  6
CONTINUOUS
 62
     7
 10
-281.8710088781635
 20
202.4333333333333
 30
0.0
 11
-281.8099208036282
 21
202.4944214078687
 31
0.0
  0
LINE
  5
17B
  8
1
  6
CONTINUOUS
 62
     7
 10
-281.8099208036282
 20
199.472245258798
 30
0.0
 11
-281.8099208036282
 21
202.4944214078687
 31
0.0
  0
LINE
  5
17C
  8
1
  6
CONTINUOUS
 62
     7
 10
-281.8710088781635
 20
196.6418165418593
 30
0.0
 11
-282.3710088781635
 21
196.6418165418593
 31
0.0
  0
LINE
  5
17D
  8
1
  6
CONTINUOUS
 62
     7
 10
-282.3710088781635
 20
196.6418165418593
 30
0.0
 11
-282.3710088781635
 21
196.6333333333334
 31
0.0
  0
LINE
  5
17E
  8
1
  6
CONTINUOUS
 62
     7
 10
-287.7488327290929
 20
196.6333333333333
 30
0.0
 11
-282.3710088781635
 21
196.6333333333333
 31
0.0
  0
LINE
  5
17F
  8
1
  6
CONTINUOUS
 62
     7
 10
-287.8710088781635
 20
196.7555094824039
 30
0.0
 11
-287.7488327290929
 21
196.6333333333333
 31
0.0
  0
LINE
  5
180
  8
1
  6
CONTINUOUS
 62
     7
 10
-287.8098446483066
 20
196.8166737122608
 30
0.0
 11
-287.8710088781635
 21
196.7555094824039
 31
0.0
  0
LINE
  5
181
  8
1
  6
CONTINUOUS
 62
     7
 10
-286.8098827252425
 20
196.82532442473
 30
0.0
 11
-287.8098446483066
 21
196.8166737122608
 31
0.0
  0
LINE
  5
182
  8
1
  6
CONTINUOUS
 62
     7
 10
-286.8098827252425
 20
196.82532442473
 30
0.0
 11
-281.8710088781635
 21
196.82532442473
 31
0.0
  0
LINE
  5
183
  8
1
  6
CONTINUOUS
 62
     7
 10
-240.0708204621287
 20
188.9073411459959
 30
0.0
 11
-236.3450166908261
 21
188.9073411459959
 31
0.0
  0
LINE
  5
184
  8
1
  6
CONTINUOUS
 62
     7
 10
-240.1059163493266
 20
188.872245258798
 30
0.0
 11
-240.0708204621287
 21
188.9073411459959
 31
0.0
  0
LINE
  5
185
  8
1
  6
CONTINUOUS
 62
     7
 10
-241.6361014070005
 20
188.872245258798
 30
0.0
 11
-240.1059163493266
 21
188.872245258798
 31
0.0
  0
LINE
  5
186
  8
1
  6
CONTINUOUS
 62
     7
 10
-245.397001065501
 20
188.9073411459959
 30
0.0
 11
-241.6711972941984
 21
188.9073411459959
 31
0.0
  0
LINE
  5
187
  8
1
  6
CONTINUOUS
 62
     7
 10
-245.3710088781635
 20
188.9333333333333
 30
0.0
 11
-245.397001065501
 21
188.9073411459959
 31
0.0
  0
LINE
  5
188
  8
1
  6
CONTINUOUS
 62
     7
 10
-236.3710088781635
 20
188.9333333333333
 30
0.0
 11
-236.3450166908261
 21
188.9073411459959
 31
0.0
  0
LINE
  5
189
  8
1
  6
CONTINUOUS
 62
     7
 10
-232.1361014070005
 20
186.3984258621703
 30
0.0
 11
-240.1059163493266
 21
186.3984258621703
 31
0.0
  0
LINE
  5
18A
  8
1
  6
CONTINUOUS
 62
     7
 10
-240.1059163493266
 20
186.3984258621703
 30
0.0
 11
-240.0710088781636
 21
186.4333333333333
 31
0.0
  0
LINE
  5
18B
  8
1
  6
CONTINUOUS
 62
     7
 10
-232.1710088781635
 20
186.4333333333333
 30
0.0
 11
-240.0710088781636
 21
186.4333333333333
 31
0.0
  0
LINE
  5
18C
  8
1
  6
CONTINUOUS
 62
     7
 10
-232.1710088781635
 20
186.4333333333333
 30
0.0
 11
-232.1361014070005
 21
186.3984258621703
 31
0.0
  0
LINE
  5
18D
  8
1
  6
CONTINUOUS
 62
     7
 10
-281.8099208036282
 20
186.372245258798
 30
0.0
 11
-281.8710088781635
 21
186.4333333333333
 31
0.0
  0
LINE
  5
18E
  8
1
  6
CONTINUOUS
 62
     7
 10
-281.8710088781635
 20
186.4333333333333
 30
0.0
 11
-281.8710088781635
 21
189.3333333333333
 31
0.0
  0
LINE
  5
18F
  8
1
  6
CONTINUOUS
 62
     7
 10
-281.8099208036282
 20
186.372245258798
 30
0.0
 11
-281.8099208036282
 21
189.3944214078687
 31
0.0
  0
LINE
  5
190
  8
1
  6
CONTINUOUS
 62
     9
 10
-280.9736983399185
 20
155.225003523522
 30
0.0
 11
-278.4408238204896
 21
155.225003523522
 31
0.0
  0
LINE
  5
191
  8
1
  6
CONTINUOUS
 62
     7
 10
-278.4408238204896
 20
155.225003523522
 30
0.0
 11
-278.4321731080204
 21
154.2250416004579
 31
0.0
  0
LINE
  5
192
  8
1
  6
CONTINUOUS
 62
     9
 10
-278.4321731080204
 20
154.2250416004578
 30
0.0
 11
-280.9217478989818
 21
154.2250416004578
 31
0.0
  0
LINE
  5
193
  8
1
  6
CONTINUOUS
 62
     7
 10
-188.8710088781635
 20
184.4333333333333
 30
0.0
 11
-191.6210118071042
 21
184.4333333333333
 31
0.0
  0
LINE
  5
194
  8
1
  6
CONTINUOUS
 62
     9
 10
-194.7782770954394
 20
184.4616460284205
 30
0.0
 11
-191.6210118071042
 21
184.4333333333333
 31
0.0
  0
LINE
  5
195
  8
1
  6
CONTINUOUS
 62
     9
 10
-194.7767932899643
 20
184.4333333333333
 30
0.0
 11
-194.7782770954394
 21
184.4616460284205
 31
0.0
  0
LINE
  5
196
  8
1
  6
CONTINUOUS
 62
     7
 10
-194.7767932899643
 20
184.4333333333333
 30
0.0
 11
-194.9652244663627
 21
184.4333333333333
 31
0.0
  0
LINE
  5
197
  8
1
  6
CONTINUOUS
 62
     9
 10
-194.9637406608877
 20
184.4616460284205
 30
0.0
 11
-194.9652244663627
 21
184.4333333333333
 31
0.0
  0
LINE
  5
198
  8
1
  6
CONTINUOUS
 62
     9
 10
-198.1210059492229
 20
184.4333333333333
 30
0.0
 11
-194.9637406608877
 21
184.4616460284205
 31
0.0
  0
LINE
  5
199
  8
1
  6
CONTINUOUS
 62
     7
 10
-198.1210059492229
 20
184.4333333333333
 30
0.0
 11
-229.6210118071041
 21
184.4333333333333
 31
0.0
  0
LINE
  5
19A
  8
1
  6
CONTINUOUS
 62
     9
 10
-232.7782770954394
 20
184.4616460284205
 30
0.0
 11
-229.6210118071042
 21
184.4333333333333
 31
0.0
  0
LINE
  5
19B
  8
1
  6
CONTINUOUS
 62
     9
 10
-232.7767932899643
 20
184.4333333333333
 30
0.0
 11
-232.7782770954394
 21
184.4616460284205
 31
0.0
  0
LINE
  5
19C
  8
1
  6
CONTINUOUS
 62
     7
 10
-232.7767932899643
 20
184.4333333333333
 30
0.0
 11
-232.9652244663627
 21
184.4333333333333
 31
0.0
  0
LINE
  5
19D
  8
1
  6
CONTINUOUS
 62
     9
 10
-232.9637406608877
 20
184.4616460284205
 30
0.0
 11
-232.9652244663627
 21
184.4333333333333
 31
0.0
  0
LINE
  5
19E
  8
1
  6
CONTINUOUS
 62
     9
 10
-236.1210059492229
 20
184.4333333333333
 30
0.0
 11
-232.9637406608877
 21
184.4616460284205
 31
0.0
  0
LINE
  5
19F
  8
1
  6
CONTINUOUS
 62
     7
 10
-236.1210059492229
 20
184.4333333333333
 30
0.0
 11
-275.3711231089711
 21
184.4333333333333
 31
0.0
  0
LINE
  5
1A0
  8
1
  6
CONTINUOUS
 62
     9
 10
-275.4409380512971
 20
184.5031482756594
 30
0.0
 11
-275.3711231089711
 21
184.4333333333333
 31
0.0
  0
LINE
  5
1A1
  8
1
  6
CONTINUOUS
 62
     7
 10
-275.4409380512971
 20
184.5031482756594
 30
0.0
 11
-191.9147574522745
 21
184.5031482756594
 31
0.0
  0
LINE
  5
1A2
  8
1
  6
CONTINUOUS
 62
     7
 10
-188.914871683082
 20
184.4771961382518
 30
0.0
 11
-191.9147574522745
 21
184.5031482756594
 31
0.0
  0
LINE
  5
1A3
  8
1
  6
CONTINUOUS
 62
     7
 10
-188.914871683082
 20
184.4771961382518
 30
0.0
 11
-188.8710088781635
 21
184.4333333333333
 31
0.0
  0
LINE
  5
1A4
  8
1
  6
CONTINUOUS
 62
     7
 10
-240.1059163493266
 20
188.872245258798
 30
0.0
 11
-240.1059163493266
 21
186.3984258621703
 31
0.0
  0
LINE
  5
1A5
  8
1
  6
CONTINUOUS
 62
     7
 10
-240.0708204621287
 20
188.9073411459959
 30
0.0
 11
-240.0710088781636
 21
186.4333333333333
 31
0.0
  0
LINE
  5
1A6
  8
1
  6
CONTINUOUS
 62
     9
 10
-280.3099208036282
 20
155.7809340482031
 30
0.0
 11
-284.3011939358375
 21
155.7809340482031
 31
0.0
  0
LINE
  5
1A7
  8
1
  6
CONTINUOUS
 62
     9
 10
-284.3098446483066
 20
156.7808959712672
 30
0.0
 11
-280.3185715160974
 21
156.7808959712672
 31
0.0
  0
LINE
  5
1A8
  8
1
  6
CONTINUOUS
 62
     7
 10
-280.3185715160974
 20
156.7808959712672
 30
0.0
 11
-280.3099208036282
 21
155.7809340482031
 31
0.0
  0
LINE
  5
1A9
  8
1
  6
CONTINUOUS
 62
     7
 10
-281.8710088781635
 20
176.4333333333333
 30
0.0
 11
-281.8710088781635
 21
184.4333333333333
 31
0.0
  0
LINE
  5
1AA
  8
1
  6
CONTINUOUS
 62
     7
 10
-281.8710088781635
 20
184.4333333333333
 30
0.0
 11
-281.8099208036282
 21
184.4944214078687
 31
0.0
  0
LINE
  5
1AB
  8
1
  6
CONTINUOUS
 62
     7
 10
-281.8099208036282
 20
176.372245258798
 30
0.0
 11
-281.8099208036282
 21
184.4944214078687
 31
0.0
  0
POLYLINE
  5
1AC
  8
1
  6
CONTINUOUS
 62
     7
 66
     1
 10
0.0
 20
0.0
 30
0.0
  0
VERTEX
  5
581
  8
1
  6
CONTINUOUS
 62
     7
 10
-278.3709327170417
 20
187.4333714175194
 30
0.0
  0
VERTEX
  5
582
  8
1
  6
CONTINUOUS
 62
     7
 10
-278.3517339814875
 20
187.2382696084105
 30
0.0
  0
VERTEX
  5
583
  8
1
  6
CONTINUOUS
 62
     7
 10
-278.2948457827239
 20
187.0506676543375
 30
0.0
  0
VERTEX
  5
584
  8
1
  6
CONTINUOUS
 62
     7
 10
-278.2024540910398
 20
186.8777742964221
 30
0.0
  0
VERTEX
  5
585
  8
1
  6
CONTINUOUS
 62
     7
 10
-278.0781091241844
 20
186.7262330873125
 30
0.0
  0
VERTEX
  5
586
  8
1
  6
CONTINUOUS
 62
     7
 10
-277.9265889276755
 20
186.6018671078563
 30
0.0
  0
VERTEX
  5
587
  8
1
  6
CONTINUOUS
 62
     7
 10
-277.7537157749364
 20
186.5094552109958
 30
0.0
  0
VERTEX
  5
588
  8
1
  6
CONTINUOUS
 62
     7
 10
-277.5661324422169
 20
186.4525483908789
 30
0.0
  0
VERTEX
  5
589
  8
1
  6
CONTINUOUS
 62
     7
 10
-277.3710469550994
 20
186.4333333333333
 30
0.0
  0
SEQEND
  5
978
  8
1
  6
CONTINUOUS
 62
     7
  0
POLYLINE
  5
1AD
  8
1
  6
CONTINUOUS
 62
     7
 66
     1
 10
0.0
 20
0.0
 30
0.0
  0
VERTEX
  5
58A
  8
1
  6
CONTINUOUS
 62
     7
 10
-278.4059163493266
 20
187.3983877852345
 30
0.0
  0
VERTEX
  5
58B
  8
1
  6
CONTINUOUS
 62
     7
 10
-278.3867027551656
 20
187.2033008347324
 30
0.0
  0
VERTEX
  5
58C
  8
1
  6
CONTINUOUS
 62
     7
 10
-278.3298002689708
 20
187.0157131680906
 30
0.0
  0
VERTEX
  5
58D
  8
1
  6
CONTINUOUS
 62
     7
 10
-278.2373954100361
 20
186.8428329774258
 30
0.0
  0
VERTEX
  5
58E
  8
1
  6
CONTINUOUS
 62
     7
 10
-278.1130389020717
 20
186.6913033094252
 30
0.0
  0
VERTEX
  5
58F
  8
1
  6
CONTINUOUS
 62
     7
 10
-277.9615092340711
 20
186.5669468014607
 30
0.0
  0
VERTEX
  5
590
  8
1
  6
CONTINUOUS
 62
     7
 10
-277.7886290434063
 20
186.474541942526
 30
0.0
  0
VERTEX
  5
591
  8
1
  6
CONTINUOUS
 62
     7
 10
-277.6010413767646
 20
186.4176394563312
 30
0.0
  0
VERTEX
  5
592
  8
1
  6
CONTINUOUS
 62
     7
 10
-277.4059544262624
 20
186.3984258621703
 30
0.0
  0
SEQEND
  5
979
  8
1
  6
CONTINUOUS
 62
     7
  0
LINE
  5
1AE
  8
1
  6
CONTINUOUS
 62
     7
 10
-287.8622820103728
 20
186.4333333333333
 30
0.0
 11
-281.8710088781635
 21
186.4333333333333
 31
0.0
  0
LINE
  5
1AF
  8
1
  6
CONTINUOUS
 62
     7
 10
-286.8098827252425
 20
186.372245258798
 30
0.0
 11
-281.8099208036282
 21
186.372245258798
 31
0.0
  0
LINE
  5
1B0
  8
1
  6
CONTINUOUS
 62
     7
 10
-287.8098446483066
 20
186.3808959712672
 30
0.0
 11
-287.8622820103728
 21
186.4333333333333
 31
0.0
  0
LINE
  5
1B1
  8
1
  6
CONTINUOUS
 62
     7
 10
-284.3011939358375
 20
174.5031482756594
 30
0.0
 11
-285.9408238204896
 21
174.5031482756594
 31
0.0
  0
LINE
  5
1B2
  8
1
  6
CONTINUOUS
 62
     7
 10
-285.8710088781635
 20
174.4333333333333
 30
0.0
 11
-284.3710088781635
 21
174.4333333333333
 31
0.0
  0
LINE
  5
1B3
  8
1
  6
CONTINUOUS
 62
     7
 10
-285.9408238204896
 20
174.5031482756594
 30
0.0
 11
-285.8710088781635
 21
174.4333333333333
 31
0.0
  0
POLYLINE
  5
1B4
  8
1
  6
CONTINUOUS
 62
     7
 66
     1
 10
0.0
 20
0.0
 30
0.0
  0
VERTEX
  5
593
  8
1
  6
CONTINUOUS
 62
     7
 10
-278.3653538101585
 20
203.4041190071112
 30
0.0
  0
VERTEX
  5
594
  8
1
  6
CONTINUOUS
 62
     7
 10
-278.3837012318657
 20
203.600072130067
 30
0.0
  0
VERTEX
  5
595
  8
1
  6
CONTINUOUS
 62
     7
 10
-278.4397708419041
 20
203.7884926728652
 30
0.0
  0
VERTEX
  5
596
  8
1
  6
CONTINUOUS
 62
     7
 10
-278.5314081248499
 20
203.9621404395188
 30
0.0
  0
VERTEX
  5
597
  8
1
  6
CONTINUOUS
 62
     7
 10
-278.655091851657
 20
204.1143428886768
 30
0.0
  0
VERTEX
  5
598
  8
1
  6
CONTINUOUS
 62
     7
 10
-278.8060693854356
 20
204.2392515308632
 30
0.0
  0
VERTEX
  5
599
  8
1
  6
CONTINUOUS
 62
     7
 10
-278.9785393049717
 20
204.3320666609267
 30
0.0
  0
VERTEX
  5
59A
  8
1
  6
CONTINUOUS
 62
     7
 10
-279.1658743285435
 20
204.3892217901915
 30
0.0
  0
VERTEX
  5
59B
  8
1
  6
CONTINUOUS
 62
     7
 10
-279.3608759720275
 20
204.4085206913704
 30
0.0
  0
SEQEND
  5
97A
  8
1
  6
CONTINUOUS
 62
     7
  0
POLYLINE
  5
1B5
  8
1
  6
CONTINUOUS
 62
     7
 66
     1
 10
0.0
 20
0.0
 30
0.0
  0
VERTEX
  5
59C
  8
1
  6
CONTINUOUS
 62
     7
 10
-278.4059163493266
 20
203.3635564679431
 30
0.0
  0
VERTEX
  5
59D
  8
1
  6
CONTINUOUS
 62
     7
 10
-278.4251299434875
 20
203.5586434184452
 30
0.0
  0
VERTEX
  5
59E
  8
1
  6
CONTINUOUS
 62
     7
 10
-278.4820324296823
 20
203.746231085087
 30
0.0
  0
VERTEX
  5
59F
  8
1
  6
CONTINUOUS
 62
     7
 10
-278.574437288617
 20
203.9191112757518
 30
0.0
  0
VERTEX
  5
5A0
  8
1
  6
CONTINUOUS
 62
     7
 10
-278.6987937965814
 20
204.0706409437524
 30
0.0
  0
VERTEX
  5
5A1
  8
1
  6
CONTINUOUS
 62
     7
 10
-278.850323464582
 20
204.1949974517168
 30
0.0
  0
VERTEX
  5
5A2
  8
1
  6
CONTINUOUS
 62
     7
 10
-279.0232036552468
 20
204.2874023106516
 30
0.0
  0
VERTEX
  5
5A3
  8
1
  6
CONTINUOUS
 62
     7
 10
-279.2107913218886
 20
204.3443047968463
 30
0.0
  0
VERTEX
  5
5A4
  8
1
  6
CONTINUOUS
 62
     7
 10
-279.4058782723907
 20
204.3635183910073
 30
0.0
  0
SEQEND
  5
97B
  8
1
  6
CONTINUOUS
 62
     7
  0
LINE
  5
1B6
  8
1
  6
CONTINUOUS
 62
     9
 10
-278.4321731080204
 20
144.4944975631902
 30
0.0
 11
-284.3098446483066
 21
144.4944975631902
 31
0.0
  0
LINE
  5
1B7
  8
1
  6
CONTINUOUS
 62
     9
 10
-284.3011939358375
 20
145.4944594862544
 30
0.0
 11
-278.4408238204896
 21
145.4944594862544
 31
0.0
  0
LINE
  5
1B8
  8
1
  6
CONTINUOUS
 62
     7
 10
-287.8622820103728
 20
199.5333333333333
 30
0.0
 11
-281.8710088781635
 21
199.5333333333333
 31
0.0
  0
LINE
  5
1B9
  8
1
  6
CONTINUOUS
 62
     7
 10
-286.8098827252425
 20
199.472245258798
 30
0.0
 11
-281.8099208036282
 21
199.472245258798
 31
0.0
  0
LINE
  5
1BA
  8
1
  6
CONTINUOUS
 62
     7
 10
-287.8098446483066
 20
199.4808959712672
 30
0.0
 11
-286.8098827252425
 21
199.472245258798
 31
0.0
  0
LINE
  5
1BB
  8
1
  6
CONTINUOUS
 62
     7
 10
-287.8098446483066
 20
199.4808959712672
 30
0.0
 11
-287.8622820103728
 21
199.5333333333333
 31
0.0
  0
LINE
  5
1BC
  8
1
  6
CONTINUOUS
 62
     7
 10
-287.8710088781635
 20
192.1111571842627
 30
0.0
 11
-287.8710088781635
 21
164.4333333333333
 31
0.0
  0
LINE
  5
1BD
  8
1
  6
CONTINUOUS
 62
     9
 10
-287.8098446483066
 20
189.3857706953995
 30
0.0
 11
-287.8098446483066
 21
192.0499929544058
 31
0.0
  0
LINE
  5
1BE
  8
1
  6
CONTINUOUS
 62
     7
 10
-287.8622820103728
 20
186.4333333333333
 30
0.0
 11
-287.8622820103728
 21
189.3333333333333
 31
0.0
  0
LINE
  5
1BF
  8
1
  6
CONTINUOUS
 62
     7
 10
-287.8622820103728
 20
184.4333333333333
 30
0.0
 11
-287.8098446483066
 21
184.4857706953995
 31
0.0
  0
LINE
  5
1C0
  8
1
  6
CONTINUOUS
 62
     7
 10
-287.8622820103728
 20
175.4333714102692
 30
0.0
 11
-287.8622820103728
 21
184.4333333333333
 31
0.0
  0
LINE
  5
1C1
  8
1
  6
CONTINUOUS
 62
     7
 10
-287.8011939358375
 20
165.4944594862544
 30
0.0
 11
-287.8011939358375
 21
175.3722833357338
 31
0.0
  0
LINE
  5
1C2
  8
1
  6
CONTINUOUS
 62
     7
 10
-287.8098446483066
 20
164.4944975631902
 30
0.0
 11
-287.8710088781635
 21
164.4333333333333
 31
0.0
  0
LINE
  5
1C3
  8
1
  6
CONTINUOUS
 62
     7
 10
-287.8622820103728
 20
202.4333333333333
 30
0.0
 11
-281.8710088781635
 21
202.4333333333333
 31
0.0
  0
LINE
  5
1C4
  8
1
  6
CONTINUOUS
 62
     7
 10
-287.8622820103728
 20
202.4333333333333
 30
0.0
 11
-287.8098446483066
 21
202.4857706953995
 31
0.0
  0
LINE
  5
1C5
  8
1
  6
CONTINUOUS
 62
     7
 10
-286.8098827252425
 20
202.4944214078687
 30
0.0
 11
-287.8098446483066
 21
202.4857706953995
 31
0.0
  0
LINE
  5
1C6
  8
1
  6
CONTINUOUS
 62
     7
 10
-281.8099208036282
 20
202.4944214078687
 30
0.0
 11
-286.8098827252425
 21
202.4944214078687
 31
0.0
  0
LINE
  5
1C7
  8
1
  6
CONTINUOUS
 62
     7
 10
-285.8710088781635
 20
164.4333333333333
 30
0.0
 11
-285.8710088781635
 21
174.4333333333333
 31
0.0
  0
LINE
  5
1C8
  8
1
  6
CONTINUOUS
 62
     7
 10
-285.9321731080204
 20
164.4944975631902
 30
0.0
 11
-285.8710088781636
 21
164.4333333333333
 31
0.0
  0
LINE
  5
1C9
  8
1
  6
CONTINUOUS
 62
     7
 10
-285.9408238204896
 20
174.5031482756594
 30
0.0
 11
-285.9408238204896
 21
165.4944594862544
 31
0.0
  0
LINE
  5
1CA
  8
1
  6
CONTINUOUS
 62
     7
 10
-232.1711992737171
 20
188.9333333333333
 30
0.0
 11
-232.1710088781635
 21
186.4333333333333
 31
0.0
  0
LINE
  5
1CB
  8
1
  6
CONTINUOUS
 62
     7
 10
-232.1710088781635
 20
188.9333333333333
 30
0.0
 11
-232.1447521194697
 21
188.9070765746395
 31
0.0
  0
LINE
  5
1CC
  8
1
  6
CONTINUOUS
 62
     7
 10
-232.1361014070005
 20
186.3984258621703
 30
0.0
 11
-232.1361014070005
 21
187.9071146515753
 31
0.0
  0
LINE
  5
1CD
  8
1
  6
CONTINUOUS
 62
     7
 10
-287.8622820103728
 20
184.4333333333333
 30
0.0
 11
-281.8710088781635
 21
184.4333333333333
 31
0.0
  0
LINE
  5
1CE
  8
1
  6
CONTINUOUS
 62
     7
 10
-281.8099208036282
 20
184.4944214078687
 30
0.0
 11
-286.8098827252425
 21
184.4944214078687
 31
0.0
  0
LINE
  5
1CF
  8
1
  6
CONTINUOUS
 62
     9
 10
-286.8098827252425
 20
192.0413422419366
 30
0.0
 11
-286.8098827252425
 21
189.3944214078687
 31
0.0
  0
LINE
  5
1D0
  8
1
  6
CONTINUOUS
 62
     7
 10
-230.5710088781635
 20
186.4333333333333
 30
0.0
 11
-230.5708184826099
 21
188.9333333333333
 31
0.0
  0
LINE
  5
1D1
  8
1
  6
CONTINUOUS
 62
     7
 10
-230.6059163493265
 20
187.9071146515753
 30
0.0
 11
-230.6059163493265
 21
186.3984258621703
 31
0.0
  0
LINE
  5
1D2
  8
1
  6
CONTINUOUS
 62
     7
 10
-230.5710088781635
 20
188.9333333333333
 30
0.0
 11
-230.5972656368574
 21
188.9070765746395
 31
0.0
  0
LINE
  5
1D3
  8
1
  6
CONTINUOUS
 62
     7
 10
-278.3710088781635
 20
154.163877370601
 30
0.0
 11
-278.4321731080204
 21
154.2250416004578
 31
0.0
  0
LINE
  5
1D4
  8
1
  6
CONTINUOUS
 62
     7
 10
-278.4408238204896
 20
181.5032625064669
 30
0.0
 11
-278.4408238204896
 21
155.225003523522
 31
0.0
  0
LINE
  5
1D5
  8
1
  6
CONTINUOUS
 62
     9
 10
-278.3710088781635
 20
181.4334475641408
 30
0.0
 11
-278.4408238204896
 21
181.5032625064669
 31
0.0
  0
LINE
  5
1D6
  8
1
  6
CONTINUOUS
 62
     7
 10
-278.3710088781635
 20
154.163877370601
 30
0.0
 11
-278.3710088781635
 21
181.4334475641408
 31
0.0
  0
LINE
  5
1D7
  8
1
  6
CONTINUOUS
 62
     7
 10
-280.3710088781635
 20
156.8333333333333
 30
0.0
 11
-280.3185715160974
 21
156.7808959712672
 31
0.0
  0
LINE
  5
1D8
  8
1
  6
CONTINUOUS
 62
     7
 10
-280.3710088781635
 20
172.8333333333333
 30
0.0
 11
-280.3710088781635
 21
156.8333333333333
 31
0.0
  0
LINE
  5
1D9
  8
1
  6
CONTINUOUS
 62
     7
 10
-280.3185715160974
 20
172.8857706953995
 30
0.0
 11
-280.3710088781635
 21
172.8333333333333
 31
0.0
  0
LINE
  5
1DA
  8
1
  6
CONTINUOUS
 62
     7
 10
-280.3099208036282
 20
173.8857326184636
 30
0.0
 11
-280.3099208036282
 21
155.780934048203
 31
0.0
  0
POLYLINE
  5
1DB
  8
1
  6
CONTINUOUS
 62
     7
 66
     1
 10
0.0
 20
0.0
 30
0.0
  0
VERTEX
  5
5A5
  8
1
  6
CONTINUOUS
 62
     7
 10
-275.3711231089711
 20
184.4333333333333
 30
0.0
  0
VERTEX
  5
5A6
  8
1
  6
CONTINUOUS
 62
     7
 10
-275.9563839604774
 20
184.3756925508505
 30
0.0
  0
VERTEX
  5
5A7
  8
1
  6
CONTINUOUS
 62
     7
 10
-276.5191469604027
 20
184.2049850922662
 30
0.0
  0
VERTEX
  5
5A8
  8
1
  6
CONTINUOUS
 62
     7
 10
-277.0377875323972
 20
183.927770515462
 30
0.0
  0
VERTEX
  5
5A9
  8
1
  6
CONTINUOUS
 62
     7
 10
-277.492376536399
 20
183.5547009915688
 30
0.0
  0
VERTEX
  5
5AA
  8
1
  6
CONTINUOUS
 62
     7
 10
-277.8654460602922
 20
183.1001119875669
 30
0.0
  0
VERTEX
  5
5AB
  8
1
  6
CONTINUOUS
 62
     7
 10
-278.1426606370964
 20
182.5814714155724
 30
0.0
  0
VERTEX
  5
5AC
  8
1
  6
CONTINUOUS
 62
     7
 10
-278.3133680956807
 20
182.0187084156471
 30
0.0
  0
VERTEX
  5
5AD
  8
1
  6
CONTINUOUS
 62
     7
 10
-278.3710088781635
 20
181.4334475641408
 30
0.0
  0
SEQEND
  5
97C
  8
1
  6
CONTINUOUS
 62
     7
  0
POLYLINE
  5
1DC
  8
1
  6
CONTINUOUS
 62
     7
 66
     1
 10
0.0
 20
0.0
 30
0.0
  0
VERTEX
  5
5AE
  8
1
  6
CONTINUOUS
 62
     7
 10
-275.4409380512971
 20
184.5031482756594
 30
0.0
  0
VERTEX
  5
5AF
  8
1
  6
CONTINUOUS
 62
     7
 10
-276.0261989028035
 20
184.4455074931766
 30
0.0
  0
VERTEX
  5
5B0
  8
1
  6
CONTINUOUS
 62
     7
 10
-276.5889619027287
 20
184.2748000345923
 30
0.0
  0
VERTEX
  5
5B1
  8
1
  6
CONTINUOUS
 62
     7
 10
-277.1076024747233
 20
183.9975854577881
 30
0.0
  0
VERTEX
  5
5B2
  8
1
  6
CONTINUOUS
 62
     7
 10
-277.5621914787251
 20
183.6245159338949
 30
0.0
  0
VERTEX
  5
5B3
  8
1
  6
CONTINUOUS
 62
     7
 10
-277.9352610026182
 20
183.169926929893
 30
0.0
  0
VERTEX
  5
5B4
  8
1
  6
CONTINUOUS
 62
     7
 10
-278.2124755794225
 20
182.6512863578985
 30
0.0
  0
VERTEX
  5
5B5
  8
1
  6
CONTINUOUS
 62
     7
 10
-278.3831830380068
 20
182.0885233579732
 30
0.0
  0
VERTEX
  5
5B6
  8
1
  6
CONTINUOUS
 62
     7
 10
-278.4408238204896
 20
181.5032625064669
 30
0.0
  0
SEQEND
  5
97D
  8
1
  6
CONTINUOUS
 62
     7
  0
LINE
  5
1DD
  8
1
  6
CONTINUOUS
 62
     9
 10
-278.4408238204896
 20
146.0416631431446
 30
0.0
 11
-280.9736983399185
 21
146.0416631431447
 31
0.0
  0
LINE
  5
1DE
  8
1
  6
CONTINUOUS
 62
     9
 10
-280.9217478989818
 20
147.0416250662088
 30
0.0
 11
-278.4321731080204
 21
147.0416250662088
 31
0.0
  0
LINE
  5
1DF
  8
1
  6
CONTINUOUS
 62
     9
 10
-287.8098446483066
 20
202.4857706953995
 30
0.0
 11
-287.8098446483066
 21
204.3721691034765
 31
0.0
  0
LINE
  5
1E0
  8
1
  6
CONTINUOUS
 62
     9
 10
-286.8098827252425
 20
204.3635183910073
 30
0.0
 11
-286.8098827252425
 21
202.4944214078687
 31
0.0
  0
LINE
  5
1E1
  8
1
  6
CONTINUOUS
 62
     9
 10
-287.8098446483066
 20
196.8166737122608
 30
0.0
 11
-287.8098446483066
 21
199.4808959712672
 31
0.0
  0
LINE
  5
1E2
  8
1
  6
CONTINUOUS
 62
     9
 10
-286.8098827252425
 20
199.472245258798
 30
0.0
 11
-286.8098827252425
 21
196.82532442473
 31
0.0
  0
LINE
  5
1E3
  8
1
  6
CONTINUOUS
 62
     9
 10
-191.9147574522745
 20
184.5031482756594
 30
0.0
 11
-191.9147574522745
 21
186.3984258621703
 31
0.0
  0
LINE
  5
1E4
  8
1
  6
CONTINUOUS
 62
     7
 10
-281.8710088781635
 20
196.82532442473
 30
0.0
 11
-281.8710088781635
 21
192.0413422419366
 31
0.0
  0
LINE
  5
1E5
  8
1
  6
CONTINUOUS
 62
     9
 10
-188.9148716830821
 20
186.4243779995779
 30
0.0
 11
-188.9148716830821
 21
184.4771961382518
 31
0.0
  0
LINE
  5
1E6
  8
1
  6
CONTINUOUS
 62
     9
 10
-278.392902202962
 20
147.1246826208641
 30
0.0
 11
-280.4229593191002
 21
147.1246826208641
 31
0.0
  0
LINE
  5
1E7
  8
1
  6
CONTINUOUS
 62
     7
 10
-278.3710088781635
 20
147.1027892960657
 30
0.0
 11
-278.392902202962
 21
147.1246826208641
 31
0.0
  0
LINE
  5
1E8
  8
1
  6
CONTINUOUS
 62
     7
 10
-278.392902202962
 20
154.1419840458025
 30
0.0
 11
-278.3710088781635
 21
154.163877370601
 31
0.0
  0
LINE
  5
1E9
  8
1
  6
CONTINUOUS
 62
     9
 10
-280.4229593191002
 20
154.1419840458025
 30
0.0
 11
-278.392902202962
 21
154.1419840458025
 31
0.0
  0
LINE
  5
1EA
  8
1
  6
CONTINUOUS
 62
     7
 10
-287.8710088781635
 20
164.4333333333333
 30
0.0
 11
-285.8710088781635
 21
164.4333333333333
 31
0.0
  0
LINE
  5
1EB
  8
1
  6
CONTINUOUS
 62
     7
 10
-284.3622820103728
 20
156.8333333333333
 30
0.0
 11
-280.3710088781635
 21
156.8333333333333
 31
0.0
  0
LINE
  5
1EC
  8
1
  6
CONTINUOUS
 62
     7
 10
-284.3622820103728
 20
172.8333333333333
 30
0.0
 11
-280.3710088781635
 21
172.8333333333333
 31
0.0
  0
LINE
  5
1ED
  8
1
  6
CONTINUOUS
 62
     7
 10
-284.3710088781635
 20
144.4333333333333
 30
0.0
 11
-278.3710088781635
 21
144.4333333333333
 31
0.0
  0
LINE
  5
1EE
  8
1
  6
CONTINUOUS
 62
     7
 10
-287.8710088781635
 20
204.4333333333333
 30
0.0
 11
-287.8710088781635
 21
196.7555094824039
 31
0.0
  0
LINE
  5
1EF
  8
1
  6
CONTINUOUS
 62
     7
 10
-287.8622820103728
 20
199.5333333333333
 30
0.0
 11
-287.8622820103728
 21
202.4333333333333
 31
0.0
  0
LINE
  5
1F0
  8
1
  6
CONTINUOUS
 62
     7
 10
-188.8710088781635
 20
184.4333333333333
 30
0.0
 11
-188.8710088781635
 21
196.4336379488199
 31
0.0
  0
LINE
  5
1F1
  8
1
  6
CONTINUOUS
 62
     7
 10
-188.8962771342573
 20
196.4083696927262
 30
0.0
 11
-188.8970361389842
 21
186.4422135436757
 31
0.0
  0
LINE
  5
1F2
  8
1
  6
CONTINUOUS
 62
     9
 10
-188.8710088781635
 20
196.4336379488199
 30
0.0
 11
-188.8962771342573
 21
196.4083696927262
 31
0.0
  0
LINE
  5
1F3
  8
1
  6
CONTINUOUS
 62
     7
 10
-236.3450166908261
 20
188.9073411459959
 30
0.0
 11
-236.3450186703448
 21
188.9333333333333
 31
0.0
  0
LINE
  5
1F4
  8
1
  6
CONTINUOUS
 62
     7
 10
-232.3450166908261
 20
188.9073411459959
 30
0.0
 11
-235.4180503628241
 21
188.9073411459959
 31
0.0
  0
LINE
  5
1F5
  8
1
  6
CONTINUOUS
 62
     7
 10
-232.3450186703448
 20
188.9333333333333
 30
0.0
 11
-232.3450166908261
 21
188.9073411459959
 31
0.0
  0
LINE
  5
1F6
  8
1
  6
CONTINUOUS
 62
     7
 10
-230.397001065501
 20
188.9073411459959
 30
0.0
 11
-230.3969990859822
 21
188.9333333333333
 31
0.0
  0
LINE
  5
1F7
  8
1
  6
CONTINUOUS
 62
     7
 10
-225.8362898230353
 20
188.9073411459959
 30
0.0
 11
-230.3970010655009
 21
188.9073411459959
 31
0.0
  0
LINE
  5
1F8
  8
1
  6
CONTINUOUS
 62
     7
 10
-225.8362898230353
 20
188.9073411459959
 30
0.0
 11
-225.8362918025541
 21
188.9333333333333
 31
0.0
  0
LINE
  5
1F9
  8
1
  6
CONTINUOUS
 62
     7
 10
-196.8955169046398
 20
202.3998703097437
 30
0.0
 11
-205.3710088781635
 21
202.3998703097437
 31
0.0
  0
ARC
  5
1FA
  8
1
  6
CONTINUOUS
 62
     7
 10
-196.8955560248502
 20
196.4182742466206
 30
0.0
 40
5.981596063251083
 50
359.9916469658781
 51
89.99962528012121
  0
LINE
  5
1FB
  8
1
  6
CONTINUOUS
 62
     7
 10
-190.9147203940937
 20
186.4333333333333
 30
0.0
 11
-190.9139600251659
 21
196.4174022020081
 31
0.0
  0
CIRCLE
  5
1FC
  8
1
  6
CONTINUOUS
 62
     7
 10
-196.8710088781636
 20
197.4333333333333
 30
0.0
 40
2.649999999999999
  0
LINE
  5
1FD
  8
1
  6
CONTINUOUS
 62
     7
 10
-213.8141148127688
 20
188.9335237433882
 30
0.0
 11
-191.7211802497505
 21
188.9335237433882
 31
0.0
  0
POLYLINE
  5
1FE
  8
1
  6
CONTINUOUS
 62
     7
 66
     1
 10
0.0
 20
0.0
 30
0.0
  0
VERTEX
  5
5B7
  8
1
  6
CONTINUOUS
 62
     7
 10
-191.2212373687794
 20
189.4335427854813
 30
0.0
  0
VERTEX
  5
5B8
  8
1
  6
CONTINUOUS
 62
     7
 10
-191.2218377366519
 20
189.4090073799623
 30
0.0
  0
VERTEX
  5
5B9
  8
1
  6
CONTINUOUS
 62
     7
 10
-191.2236411312238
 20
189.384531168385
 30
0.0
  0
VERTEX
  5
5BA
  8
1
  6
CONTINUOUS
 62
     7
 10
-191.2266432083805
 20
189.3601731103709
 30
0.0
  0
VERTEX
  5
5BB
  8
1
  6
CONTINUOUS
 62
     7
 10
-191.2308367365564
 20
189.3359918809268
 30
0.0
  0
VERTEX
  5
5BC
  8
1
  6
CONTINUOUS
 62
     7
 10
-191.2362116141542
 20
189.3120457291053
 30
0.0
  0
VERTEX
  5
5BD
  8
1
  6
CONTINUOUS
 62
     7
 10
-191.242754893878
 20
189.2883923376915
 30
0.0
  0
VERTEX
  5
5BE
  8
1
  6
CONTINUOUS
 62
     7
 10
-191.2504508139221
 20
189.2650886842531
 30
0.0
  0
VERTEX
  5
5BF
  8
1
  6
CONTINUOUS
 62
     7
 10
-191.2592808359382
 20
189.2421909038903
 30
0.0
  0
VERTEX
  5
5C0
  8
1
  6
CONTINUOUS
 62
     7
 10
-191.269223689692
 20
189.2197541540142
 30
0.0
  0
VERTEX
  5
5C1
  8
1
  6
CONTINUOUS
 62
     7
 10
-191.2802554242998
 20
189.1978324814808
 30
0.0
  0
VERTEX
  5
5C2
  8
1
  6
CONTINUOUS
 62
     7
 10
-191.2923494659229
 20
189.1764786923997
 30
0.0
  0
VERTEX
  5
5C3
  8
1
  6
CONTINUOUS
 62
     7
 10
-191.3054766817803
 20
189.1557442249326
 30
0.0
  0
VERTEX
  5
5C4
  8
1
  6
CONTINUOUS
 62
     7
 10
-191.3196054503246
 20
189.1356790253854
 30
0.0
  0
VERTEX
  5
5C5
  8
1
  6
CONTINUOUS
 62
     7
 10
-191.3347017374146
 20
189.1163314278955
 30
0.0
  0
VERTEX
  5
5C6
  8
1
  6
CONTINUOUS
 62
     7
 10
-191.3507291782977
 20
189.0977480380016
 30
0.0
  0
VERTEX
  5
5C7
  8
1
  6
CONTINUOUS
 62
     7
 10
-191.367649165208
 20
189.0799736203778
 30
0.0
  0
VERTEX
  5
5C8
  8
1
  6
CONTINUOUS
 62
     7
 10
-191.3854209403664
 20
189.0630509910021
 30
0.0
  0
VERTEX
  5
5C9
  8
1
  6
CONTINUOUS
 62
     7
 10
-191.4040016941603
 20
189.0470209140189
 30
0.0
  0
VERTEX
  5
5CA
  8
1
  6
CONTINUOUS
 62
     7
 10
-191.4233466682654
 20
189.0319220035442
 30
0.0
  0
VERTEX
  5
5CB
  8
1
  6
CONTINUOUS
 62
     7
 10
-191.4434092634624
 20
189.0177906306497
 30
0.0
  0
VERTEX
  5
5CC
  8
1
  6
CONTINUOUS
 62
     7
 10
-191.4641411518875
 20
189.0046608357503
 30
0.0
  0
VERTEX
  5
5CD
  8
1
  6
CONTINUOUS
 62
     7
 10
-191.4854923934473
 20
188.9925642466059
 30
0.0
  0
VERTEX
  5
5CE
  8
1
  6
CONTINUOUS
 62
     7
 10
-191.5074115561167
 20
188.981530002134
 30
0.0
  0
VERTEX
  5
5CF
  8
1
  6
CONTINUOUS
 62
     7
 10
-191.529845839832
 20
188.9715846822195
 30
0.0
  0
VERTEX
  5
5D0
  8
1
  6
CONTINUOUS
 62
     7
 10
-191.5527412036777
 20
188.9627522436864
 30
0.0
  0
VERTEX
  5
5D1
  8
1
  6
CONTINUOUS
 62
     7
 10
-191.5760424960639
 20
188.9550539625901
 30
0.0
  0
VERTEX
  5
5D2
  8
1
  6
CONTINUOUS
 62
     7
 10
-191.5996935875778
 20
188.9485083829663
 30
0.0
  0
VERTEX
  5
5D3
  8
1
  6
CONTINUOUS
 62
     7
 10
-191.6236375061918
 20
188.943131272161
 30
0.0
  0
VERTEX
  5
5D4
  8
1
  6
CONTINUOUS
 62
     7
 10
-191.6478165745002
 20
188.9389355828494
 30
0.0
  0
VERTEX
  5
5D5
  8
1
  6
CONTINUOUS
 62
     7
 10
-191.6721725486564
 20
188.9359314218347
 30
0.0
  0
VERTEX
  5
5D6
  8
1
  6
CONTINUOUS
 62
     7
 10
-191.6966467586732
 20
188.9341260257024
 30
0.0
  0
VERTEX
  5
5D7
  8
1
  6
CONTINUOUS
 62
     7
 10
-191.7211802497505
 20
188.9335237433882
 30
0.0
  0
SEQEND
  5
97E
  8
1
  6
CONTINUOUS
 62
     7
  0
LINE
  5
1FF
  8
1
  6
CONTINUOUS
 62
     7
 10
-191.2212373687794
 20
189.4335427854813
 30
0.0
 11
-191.2215904651613
 21
194.0698955686684
 31
0.0
  0
POLYLINE
  5
200
  8
1
  6
CONTINUOUS
 62
     7
 66
     1
 10
0.0
 20
0.0
 30
0.0
  0
VERTEX
  5
5D8
  8
1
  6
CONTINUOUS
 62
     7
 10
-192.1401883558861
 20
194.3432451916547
 30
0.0
  0
VERTEX
  5
5D9
  8
1
  6
CONTINUOUS
 62
     7
 10
-192.1284633371696
 20
194.3604010548941
 30
0.0
  0
VERTEX
  5
5DA
  8
1
  6
CONTINUOUS
 62
     7
 10
-192.1160251342904
 20
194.3770695645664
 30
0.0
  0
VERTEX
  5
5DB
  8
1
  6
CONTINUOUS
 62
     7
 10
-192.1029067864438
 20
194.3932082862245
 30
0.0
  0
VERTEX
  5
5DC
  8
1
  6
CONTINUOUS
 62
     7
 10
-192.0891413328255
 20
194.408774785421
 30
0.0
  0
VERTEX
  5
5DD
  8
1
  6
CONTINUOUS
 62
     7
 10
-192.0743111818965
 20
194.4241796758263
 30
0.0
  0
VERTEX
  5
5DE
  8
1
  6
CONTINUOUS
 62
     7
 10
-192.0588219631489
 20
194.4389501738629
 30
0.0
  0
VERTEX
  5
5DF
  8
1
  6
CONTINUOUS
 62
     7
 10
-192.0427169311553
 20
194.4530467288197
 30
0.0
  0
VERTEX
  5
5E0
  8
1
  6
CONTINUOUS
 62
     7
 10
-192.0260393404884
 20
194.4664297899854
 30
0.0
  0
VERTEX
  5
5E1
  8
1
  6
CONTINUOUS
 62
     7
 10
-192.0092965277107
 20
194.4787379220727
 30
0.0
  0
VERTEX
  5
5E2
  8
1
  6
CONTINUOUS
 62
     7
 10
-191.9920419557074
 20
194.4903499989355
 30
0.0
  0
VERTEX
  5
5E3
  8
1
  6
CONTINUOUS
 62
     7
 10
-191.9743208585582
 20
194.501236893051
 30
0.0
  0
VERTEX
  5
5E4
  8
1
  6
CONTINUOUS
 62
     7
 10
-191.9561784703429
 20
194.5113694768967
 30
0.0
  0
VERTEX
  5
5E5
  8
1
  6
CONTINUOUS
 62
     7
 10
-191.9370845775073
 20
194.5209970832866
 30
0.0
  0
VERTEX
  5
5E6
  8
1
  6
CONTINUOUS
 62
     7
 10
-191.9175786764558
 20
194.5298077004439
 30
0.0
  0
VERTEX
  5
5E7
  8
1
  6
CONTINUOUS
 62
     7
 10
-191.8977147004609
 20
194.5377783079391
 30
0.0
  0
VERTEX
  5
5E8
  8
1
  6
CONTINUOUS
 62
     7
 10
-191.8775465827949
 20
194.5448858853424
 30
0.0
  0
VERTEX
  5
5E9
  8
1
  6
CONTINUOUS
 62
     7
 10
-191.8576761186146
 20
194.5509563643541
 30
0.0
  0
VERTEX
  5
5EA
  8
1
  6
CONTINUOUS
 62
     7
 10
-191.8375532140625
 20
194.5562006765664
 30
0.0
  0
VERTEX
  5
5EB
  8
1
  6
CONTINUOUS
 62
     7
 10
-191.8172301970676
 20
194.5606063108799
 30
0.0
  0
VERTEX
  5
5EC
  8
1
  6
CONTINUOUS
 62
     7
 10
-191.796759395559
 20
194.5641607561949
 30
0.0
  0
VERTEX
  5
5ED
  8
1
  6
CONTINUOUS
 62
     7
 10
-191.7755579293471
 20
194.5669237518067
 30
0.0
  0
VERTEX
  5
5EE
  8
1
  6
CONTINUOUS
 62
     7
 10
-191.7542381912154
 20
194.5687794858474
 30
0.0
  0
VERTEX
  5
5EF
  8
1
  6
CONTINUOUS
 62
     7
 10
-191.7328586961868
 20
194.5697240972908
 30
0.0
  0
VERTEX
  5
5F0
  8
1
  6
CONTINUOUS
 62
     7
 10
-191.7114779592838
 20
194.569753725111
 30
0.0
  0
VERTEX
  5
5F1
  8
1
  6
CONTINUOUS
 62
     7
 10
-191.6907232692473
 20
194.5689034765664
 30
0.0
  0
VERTEX
  5
5F2
  8
1
  6
CONTINUOUS
 62
     7
 10
-191.670003908814
 20
194.5671903157815
 30
0.0
  0
VERTEX
  5
5F3
  8
1
  6
CONTINUOUS
 62
     7
 10
-191.6493733784142
 20
194.5646197701609
 30
0.0
  0
VERTEX
  5
5F4
  8
1
  6
CONTINUOUS
 62
     7
 10
-191.628885178478
 20
194.5611973671093
 30
0.0
  0
VERTEX
  5
5F5
  8
1
  6
CONTINUOUS
 62
     7
 10
-191.6079697354349
 20
194.5567865701792
 30
0.0
  0
VERTEX
  5
5F6
  8
1
  6
CONTINUOUS
 62
     7
 10
-191.5872430127282
 20
194.5514808225078
 30
0.0
  0
VERTEX
  5
5F7
  8
1
  6
CONTINUOUS
 62
     7
 10
-191.5667614735393
 20
194.5452958608587
 30
0.0
  0
VERTEX
  5
5F8
  8
1
  6
CONTINUOUS
 62
     7
 10
-191.5465815810491
 20
194.538247421996
 30
0.0
  0
VERTEX
  5
5F9
  8
1
  6
CONTINUOUS
 62
     7
 10
-191.5272820187741
 20
194.5305756343215
 30
0.0
  0
VERTEX
  5
5FA
  8
1
  6
CONTINUOUS
 62
     7
 10
-191.5083013991621
 20
194.5221014957734
 30
0.0
  0
VERTEX
  5
5FB
  8
1
  6
CONTINUOUS
 62
     7
 10
-191.4896883500128
 20
194.5128479396568
 30
0.0
  0
VERTEX
  5
5FC
  8
1
  6
CONTINUOUS
 62
     7
 10
-191.4714914991262
 20
194.502837899277
 30
0.0
  0
VERTEX
  5
5FD
  8
1
  6
CONTINUOUS
 62
     7
 10
-191.4532188040996
 20
194.4917541543346
 30
0.0
  0
VERTEX
  5
5FE
  8
1
  6
CONTINUOUS
 62
     7
 10
-191.4354202983035
 20
194.479888668191
 30
0.0
  0
VERTEX
  5
5FF
  8
1
  6
CONTINUOUS
 62
     7
 10
-191.4181440135272
 20
194.4672749772539
 30
0.0
  0
VERTEX
  5
600
  8
1
  6
CONTINUOUS
 62
     7
 10
-191.4014379815598
 20
194.4539466179306
 30
0.0
  0
VERTEX
  5
601
  8
1
  6
CONTINUOUS
 62
     7
 10
-191.3857662963017
 20
194.4403194996355
 30
0.0
  0
VERTEX
  5
602
  8
1
  6
CONTINUOUS
 62
     7
 10
-191.3706610993776
 20
194.4260409140572
 30
0.0
  0
VERTEX
  5
603
  8
1
  6
CONTINUOUS
 62
     7
 10
-191.3561606644624
 20
194.4111485985199
 30
0.0
  0
VERTEX
  5
604
  8
1
  6
CONTINUOUS
 62
     7
 10
-191.3423032652307
 20
194.3956802903477
 30
0.0
  0
VERTEX
  5
605
  8
1
  6
CONTINUOUS
 62
     7
 10
-191.3287297012073
 20
194.3791739626667
 30
0.0
  0
VERTEX
  5
606
  8
1
  6
CONTINUOUS
 62
     7
 10
-191.3158622036183
 20
194.3620870295371
 30
0.0
  0
VERTEX
  5
607
  8
1
  6
CONTINUOUS
 62
     7
 10
-191.303734970657
 20
194.3444670216948
 30
0.0
  0
VERTEX
  5
608
  8
1
  6
CONTINUOUS
 62
     7
 10
-191.2923822005164
 20
194.3263614698757
 30
0.0
  0
VERTEX
  5
609
  8
1
  6
CONTINUOUS
 62
     7
 10
-191.2821025190223
 20
194.308313396736
 30
0.0
  0
VERTEX
  5
60A
  8
1
  6
CONTINUOUS
 62
     7
 10
-191.2725730623809
 20
194.2898380230544
 30
0.0
  0
VERTEX
  5
60B
  8
1
  6
CONTINUOUS
 62
     7
 10
-191.2638174493883
 20
194.2709836277044
 30
0.0
  0
VERTEX
  5
60C
  8
1
  6
CONTINUOUS
 62
     7
 10
-191.2558592988406
 20
194.2517984895594
 30
0.0
  0
VERTEX
  5
60D
  8
1
  6
CONTINUOUS
 62
     7
 10
-191.2485125669319
 20
194.2317277868366
 30
0.0
  0
VERTEX
  5
60E
  8
1
  6
CONTINUOUS
 62
     7
 10
-191.2420242831018
 20
194.2113428518925
 30
0.0
  0
VERTEX
  5
60F
  8
1
  6
CONTINUOUS
 62
     7
 10
-191.2364109838677
 20
194.1906998491813
 30
0.0
  0
VERTEX
  5
610
  8
1
  6
CONTINUOUS
 62
     7
 10
-191.2316892057477
 20
194.1698549431573
 30
0.0
  0
VERTEX
  5
611
  8
1
  6
CONTINUOUS
 62
     7
 10
-191.2272867446621
 20
194.1451026699515
 30
0.0
  0
VERTEX
  5
612
  8
1
  6
CONTINUOUS
 62
     7
 10
-191.224129777194
 20
194.1201288292844
 30
0.0
  0
VERTEX
  5
613
  8
1
  6
CONTINUOUS
 62
     7
 10
-191.2222278388562
 20
194.0950282019315
 30
0.0
  0
VERTEX
  5
614
  8
1
  6
CONTINUOUS
 62
     7
 10
-191.2215904651613
 20
194.0698955686684
 30
0.0
  0
SEQEND
  5
97F
  8
1
  6
CONTINUOUS
 62
     7
  0
ARC
  5
201
  8
1
  6
CONTINUOUS
 62
     7
 10
-196.8710088781636
 20
197.4337636910878
 30
0.0
 40
5.650837773211095
 50
180.0043635446805
 51
326.8444888491164
  0
LINE
  5
202
  8
1
  6
CONTINUOUS
 62
     7
 10
-202.5218466185993
 20
197.4333333333333
 30
0.0
 11
-202.5221511659404
 21
201.4322100840244
 31
0.0
  0
POLYLINE
  5
203
  8
1
  6
CONTINUOUS
 62
     7
 66
     1
 10
0.0
 20
0.0
 30
0.0
  0
VERTEX
  5
615
  8
1
  6
CONTINUOUS
 62
     7
 10
-203.0221702022336
 20
201.9321529707954
 30
0.0
  0
VERTEX
  5
616
  8
1
  6
CONTINUOUS
 62
     7
 10
-202.9976366194258
 20
201.9315507802117
 30
0.0
  0
VERTEX
  5
617
  8
1
  6
CONTINUOUS
 62
     7
 10
-202.9731621344384
 20
201.92974565905
 30
0.0
  0
VERTEX
  5
618
  8
1
  6
CONTINUOUS
 62
     7
 10
-202.9488057027339
 20
201.9267419555835
 30
0.0
  0
VERTEX
  5
619
  8
1
  6
CONTINUOUS
 62
     7
 10
-202.9246259954017
 20
201.9225469052957
 30
0.0
  0
VERTEX
  5
61A
  8
1
  6
CONTINUOUS
 62
     7
 10
-202.9006812578277
 20
201.9171706134505
 30
0.0
  0
VERTEX
  5
61B
  8
1
  6
CONTINUOUS
 62
     7
 10
-202.8770291693903
 20
201.9106260307502
 30
0.0
  0
VERTEX
  5
61C
  8
1
  6
CONTINUOUS
 62
     7
 10
-202.8537267045187
 20
201.9029289221394
 30
0.0
  0
VERTEX
  5
61D
  8
1
  6
CONTINUOUS
 62
     7
 10
-202.8308299954497
 20
201.8940978288294
 30
0.0
  0
VERTEX
  5
61E
  8
1
  6
CONTINUOUS
 62
     7
 10
-202.8083941970141
 20
201.8841540236353
 30
0.0
  0
VERTEX
  5
61F
  8
1
  6
CONTINUOUS
 62
     7
 10
-202.7864733537758
 20
201.8731214597323
 30
0.0
  0
VERTEX
  5
620
  8
1
  6
CONTINUOUS
 62
     7
 10
-202.7651202698469
 20
201.8610267129569
 30
0.0
  0
VERTEX
  5
621
  8
1
  6
CONTINUOUS
 62
     7
 10
-202.7443863816904
 20
201.847898917789
 30
0.0
  0
VERTEX
  5
622
  8
1
  6
CONTINUOUS
 62
     7
 10
-202.7243216342168
 20
201.833769697171
 30
0.0
  0
VERTEX
  5
623
  8
1
  6
CONTINUOUS
 62
     7
 10
-202.7049743604745
 20
201.8186730863335
 30
0.0
  0
VERTEX
  5
624
  8
1
  6
CONTINUOUS
 62
     7
 10
-202.6863911652223
 20
201.8026454508087
 30
0.0
  0
VERTEX
  5
625
  8
1
  6
CONTINUOUS
 62
     7
 10
-202.6686168126655
 20
201.7857253988314
 30
0.0
  0
VERTEX
  5
626
  8
1
  6
CONTINUOUS
 62
     7
 10
-202.6516941186253
 20
201.7679536883375
 30
0.0
  0
VERTEX
  5
627
  8
1
  6
CONTINUOUS
 62
     7
 10
-202.6356638474019
 20
201.7493731287838
 30
0.0
  0
VERTEX
  5
628
  8
1
  6
CONTINUOUS
 62
     7
 10
-202.6205646135791
 20
201.7300284780268
 30
0.0
  0
VERTEX
  5
629
  8
1
  6
CONTINUOUS
 62
     7
 10
-202.6064327890077
 20
201.7099663345067
 30
0.0
  0
VERTEX
  5
62A
  8
1
  6
CONTINUOUS
 62
     7
 10
-202.5933024151905
 20
201.6892350249994
 30
0.0
  0
VERTEX
  5
62B
  8
1
  6
CONTINUOUS
 62
     7
 10
-202.5812051212818
 20
201.6678844882039
 30
0.0
  0
VERTEX
  5
62C
  8
1
  6
CONTINUOUS
 62
     7
 10
-202.5701700478971
 20
201.6459661544473
 30
0.0
  0
VERTEX
  5
62D
  8
1
  6
CONTINUOUS
 62
     7
 10
-202.5602237769177
 20
201.6235328217969
 30
0.0
  0
VERTEX
  5
62E
  8
1
  6
CONTINUOUS
 62
     7
 10
-202.5513902674588
 20
201.6006385288769
 30
0.0
  0
VERTEX
  5
62F
  8
1
  6
CONTINUOUS
 62
     7
 10
-202.5436907981554
 20
201.5773384246978
 30
0.0
  0
VERTEX
  5
630
  8
1
  6
CONTINUOUS
 62
     7
 10
-202.5371439159054
 20
201.5536886358101
 30
0.0
  0
VERTEX
  5
631
  8
1
  6
CONTINUOUS
 62
     7
 10
-202.5317653911928
 20
201.5297461311035
 30
0.0
  0
VERTEX
  5
632
  8
1
  6
CONTINUOUS
 62
     7
 10
-202.5275681800985
 20
201.5055685845778
 30
0.0
  0
VERTEX
  5
633
  8
1
  6
CONTINUOUS
 62
     7
 10
-202.5245623930915
 20
201.4812142364139
 30
0.0
  0
VERTEX
  5
634
  8
1
  6
CONTINUOUS
 62
     7
 10
-202.5227552706741
 20
201.4567417526821
 30
0.0
  0
VERTEX
  5
635
  8
1
  6
CONTINUOUS
 62
     7
 10
-202.5221511659404
 20
201.4322100840243
 30
0.0
  0
SEQEND
  5
980
  8
1
  6
CONTINUOUS
 62
     7
  0
LINE
  5
204
  8
1
  6
CONTINUOUS
 62
     7
 10
-203.0221702022336
 20
201.9321529707954
 30
0.0
 11
-205.3710088781635
 21
201.9321529707954
 31
0.0
  0
ARC
  5
205
  8
1
  6
CONTINUOUS
 62
     7
 10
-196.8957863400759
 20
196.4090114643458
 30
0.0
 40
7.99950923156212
 50
359.9954033673578
 51
89.99807019244567
  0
LINE
  5
206
  8
1
  6
CONTINUOUS
 62
     7
 10
-188.8962771342573
 20
196.4083696927262
 30
0.0
 11
-190.9139600251659
 21
196.4174022020081
 31
0.0
  0
LINE
  5
207
  8
1
  6
CONTINUOUS
 62
     7
 10
-196.8955169046398
 20
204.4085206913704
 30
0.0
 11
-196.8955169046398
 21
202.3998703097437
 31
0.0
  0
LINE
  5
208
  8
1
  6
CONTINUOUS
 62
     7
 10
-255.3710088781635
 20
201.4670958598808
 30
0.0
 11
-255.904771404711
 21
201.4670958598808
 31
0.0
  0
LINE
  5
209
  8
1
  6
CONTINUOUS
 62
     7
 10
-255.904771404711
 20
201.4670958598808
 30
0.0
 11
-255.9057279332917
 21
188.9073411459959
 31
0.0
  0
LINE
  5
20A
  8
1
  6
CONTINUOUS
 62
     7
 10
-251.3450166908261
 20
188.9073411459959
 30
0.0
 11
-255.9057279332917
 21
188.9073411459959
 31
0.0
  0
LINE
  5
20B
  8
1
  6
CONTINUOUS
 62
     7
 10
-251.3451696805925
 20
190.9161822605826
 30
0.0
 11
-251.3450166908261
 21
188.9073411459959
 31
0.0
  0
LINE
  5
20C
  8
1
  6
CONTINUOUS
 62
     9
 10
-249.3968480757345
 20
190.9161822605826
 30
0.0
 11
-251.3451696805925
 21
190.9161822605826
 31
0.0
  0
LINE
  5
20D
  8
1
  6
CONTINUOUS
 62
     7
 10
-249.397001065501
 20
188.9073411459959
 30
0.0
 11
-249.3968480757345
 21
190.9161822605826
 31
0.0
  0
LINE
  5
20E
  8
1
  6
CONTINUOUS
 62
     7
 10
-246.323967393503
 20
188.9073411459959
 30
0.0
 11
-249.397001065501
 21
188.9073411459959
 31
0.0
  0
LINE
  5
20F
  8
1
  6
CONTINUOUS
 62
     7
 10
-245.3969990859822
 20
188.9333333333333
 30
0.0
 11
-245.397001065501
 21
188.9073411459959
 31
0.0
  0
LINE
  5
210
  8
1
  6
CONTINUOUS
 62
     7
 10
-255.3710088781635
 20
202.3998703097437
 30
0.0
 11
-278.3697928951049
 21
202.3998703097437
 31
0.0
  0
POLYLINE
  5
211
  8
1
  6
CONTINUOUS
 62
     7
 66
     1
 10
0.0
 20
0.0
 30
0.0
  0
VERTEX
  5
636
  8
1
  6
CONTINUOUS
 62
     7
 10
-258.8721702022336
 20
201.9321529707954
 30
0.0
  0
VERTEX
  5
637
  8
1
  6
CONTINUOUS
 62
     7
 10
-258.8476366194258
 20
201.9315507802117
 30
0.0
  0
VERTEX
  5
638
  8
1
  6
CONTINUOUS
 62
     7
 10
-258.8231621344384
 20
201.92974565905
 30
0.0
  0
VERTEX
  5
639
  8
1
  6
CONTINUOUS
 62
     7
 10
-258.7988057027339
 20
201.9267419555835
 30
0.0
  0
VERTEX
  5
63A
  8
1
  6
CONTINUOUS
 62
     7
 10
-258.7746259954017
 20
201.9225469052957
 30
0.0
  0
VERTEX
  5
63B
  8
1
  6
CONTINUOUS
 62
     7
 10
-258.7506812578278
 20
201.9171706134505
 30
0.0
  0
VERTEX
  5
63C
  8
1
  6
CONTINUOUS
 62
     7
 10
-258.7270291693903
 20
201.9106260307502
 30
0.0
  0
VERTEX
  5
63D
  8
1
  6
CONTINUOUS
 62
     7
 10
-258.7037267045186
 20
201.9029289221394
 30
0.0
  0
VERTEX
  5
63E
  8
1
  6
CONTINUOUS
 62
     7
 10
-258.6808299954497
 20
201.8940978288294
 30
0.0
  0
VERTEX
  5
63F
  8
1
  6
CONTINUOUS
 62
     7
 10
-258.6583941970141
 20
201.8841540236353
 30
0.0
  0
VERTEX
  5
640
  8
1
  6
CONTINUOUS
 62
     7
 10
-258.6364733537757
 20
201.8731214597323
 30
0.0
  0
VERTEX
  5
641
  8
1
  6
CONTINUOUS
 62
     7
 10
-258.6151202698469
 20
201.8610267129569
 30
0.0
  0
VERTEX
  5
642
  8
1
  6
CONTINUOUS
 62
     7
 10
-258.5943863816904
 20
201.847898917789
 30
0.0
  0
VERTEX
  5
643
  8
1
  6
CONTINUOUS
 62
     7
 10
-258.5743216342169
 20
201.833769697171
 30
0.0
  0
VERTEX
  5
644
  8
1
  6
CONTINUOUS
 62
     7
 10
-258.5549743604745
 20
201.8186730863335
 30
0.0
  0
VERTEX
  5
645
  8
1
  6
CONTINUOUS
 62
     7
 10
-258.5363911652223
 20
201.8026454508087
 30
0.0
  0
VERTEX
  5
646
  8
1
  6
CONTINUOUS
 62
     7
 10
-258.5186168126655
 20
201.7857253988314
 30
0.0
  0
VERTEX
  5
647
  8
1
  6
CONTINUOUS
 62
     7
 10
-258.5016941186253
 20
201.7679536883375
 30
0.0
  0
VERTEX
  5
648
  8
1
  6
CONTINUOUS
 62
     7
 10
-258.4856638474018
 20
201.7493731287838
 30
0.0
  0
VERTEX
  5
649
  8
1
  6
CONTINUOUS
 62
     7
 10
-258.4705646135791
 20
201.7300284780268
 30
0.0
  0
VERTEX
  5
64A
  8
1
  6
CONTINUOUS
 62
     7
 10
-258.4564327890077
 20
201.7099663345067
 30
0.0
  0
VERTEX
  5
64B
  8
1
  6
CONTINUOUS
 62
     7
 10
-258.4433024151905
 20
201.6892350249994
 30
0.0
  0
VERTEX
  5
64C
  8
1
  6
CONTINUOUS
 62
     7
 10
-258.4312051212818
 20
201.6678844882039
 30
0.0
  0
VERTEX
  5
64D
  8
1
  6
CONTINUOUS
 62
     7
 10
-258.4201700478971
 20
201.6459661544473
 30
0.0
  0
VERTEX
  5
64E
  8
1
  6
CONTINUOUS
 62
     7
 10
-258.4102237769177
 20
201.6235328217969
 30
0.0
  0
VERTEX
  5
64F
  8
1
  6
CONTINUOUS
 62
     7
 10
-258.4013902674588
 20
201.6006385288769
 30
0.0
  0
VERTEX
  5
650
  8
1
  6
CONTINUOUS
 62
     7
 10
-258.3936907981554
 20
201.5773384246978
 30
0.0
  0
VERTEX
  5
651
  8
1
  6
CONTINUOUS
 62
     7
 10
-258.3871439159054
 20
201.5536886358101
 30
0.0
  0
VERTEX
  5
652
  8
1
  6
CONTINUOUS
 62
     7
 10
-258.3817653911928
 20
201.5297461311035
 30
0.0
  0
VERTEX
  5
653
  8
1
  6
CONTINUOUS
 62
     7
 10
-258.3775681800985
 20
201.5055685845778
 30
0.0
  0
VERTEX
  5
654
  8
1
  6
CONTINUOUS
 62
     7
 10
-258.3745623930915
 20
201.4812142364139
 30
0.0
  0
VERTEX
  5
655
  8
1
  6
CONTINUOUS
 62
     7
 10
-258.3727552706741
 20
201.4567417526822
 30
0.0
  0
VERTEX
  5
656
  8
1
  6
CONTINUOUS
 62
     7
 10
-258.3721511659404
 20
201.4322100840244
 30
0.0
  0
SEQEND
  5
981
  8
1
  6
CONTINUOUS
 62
     7
  0
LINE
  5
212
  8
1
  6
CONTINUOUS
 62
     7
 10
-275.3698475540935
 20
201.9321529707954
 30
0.0
 11
-258.8721702022336
 21
201.9321529707954
 31
0.0
  0
POLYLINE
  5
213
  8
1
  6
CONTINUOUS
 62
     7
 66
     1
 10
0.0
 20
0.0
 30
0.0
  0
VERTEX
  5
657
  8
1
  6
CONTINUOUS
 62
     7
 10
-275.8698665903867
 20
201.4322100840244
 30
0.0
  0
VERTEX
  5
658
  8
1
  6
CONTINUOUS
 62
     7
 10
-275.8692624856529
 20
201.4567417526822
 30
0.0
  0
VERTEX
  5
659
  8
1
  6
CONTINUOUS
 62
     7
 10
-275.8674553632355
 20
201.4812142364139
 30
0.0
  0
VERTEX
  5
65A
  8
1
  6
CONTINUOUS
 62
     7
 10
-275.8644495762286
 20
201.5055685845778
 30
0.0
  0
VERTEX
  5
65B
  8
1
  6
CONTINUOUS
 62
     7
 10
-275.8602523651343
 20
201.5297461311035
 30
0.0
  0
VERTEX
  5
65C
  8
1
  6
CONTINUOUS
 62
     7
 10
-275.8548738404216
 20
201.5536886358101
 30
0.0
  0
VERTEX
  5
65D
  8
1
  6
CONTINUOUS
 62
     7
 10
-275.8483269581717
 20
201.5773384246978
 30
0.0
  0
VERTEX
  5
65E
  8
1
  6
CONTINUOUS
 62
     7
 10
-275.8406274888683
 20
201.6006385288769
 30
0.0
  0
VERTEX
  5
65F
  8
1
  6
CONTINUOUS
 62
     7
 10
-275.8317939794094
 20
201.6235328217969
 30
0.0
  0
VERTEX
  5
660
  8
1
  6
CONTINUOUS
 62
     7
 10
-275.8218477084299
 20
201.6459661544473
 30
0.0
  0
VERTEX
  5
661
  8
1
  6
CONTINUOUS
 62
     7
 10
-275.8108126350452
 20
201.6678844882039
 30
0.0
  0
VERTEX
  5
662
  8
1
  6
CONTINUOUS
 62
     7
 10
-275.7987153411365
 20
201.6892350249994
 30
0.0
  0
VERTEX
  5
663
  8
1
  6
CONTINUOUS
 62
     7
 10
-275.7855849673194
 20
201.7099663345067
 30
0.0
  0
VERTEX
  5
664
  8
1
  6
CONTINUOUS
 62
     7
 10
-275.771453142748
 20
201.7300284780268
 30
0.0
  0
VERTEX
  5
665
  8
1
  6
CONTINUOUS
 62
     7
 10
-275.7563539089252
 20
201.7493731287838
 30
0.0
  0
VERTEX
  5
666
  8
1
  6
CONTINUOUS
 62
     7
 10
-275.7403236377018
 20
201.7679536883375
 30
0.0
  0
VERTEX
  5
667
  8
1
  6
CONTINUOUS
 62
     7
 10
-275.7234009436616
 20
201.7857253988314
 30
0.0
  0
VERTEX
  5
668
  8
1
  6
CONTINUOUS
 62
     7
 10
-275.7056265911048
 20
201.8026454508087
 30
0.0
  0
VERTEX
  5
669
  8
1
  6
CONTINUOUS
 62
     7
 10
-275.6870433958525
 20
201.8186730863335
 30
0.0
  0
VERTEX
  5
66A
  8
1
  6
CONTINUOUS
 62
     7
 10
-275.6676961221102
 20
201.833769697171
 30
0.0
  0
VERTEX
  5
66B
  8
1
  6
CONTINUOUS
 62
     7
 10
-275.6476313746367
 20
201.847898917789
 30
0.0
  0
VERTEX
  5
66C
  8
1
  6
CONTINUOUS
 62
     7
 10
-275.6268974864802
 20
201.8610267129569
 30
0.0
  0
VERTEX
  5
66D
  8
1
  6
CONTINUOUS
 62
     7
 10
-275.6055444025513
 20
201.8731214597323
 30
0.0
  0
VERTEX
  5
66E
  8
1
  6
CONTINUOUS
 62
     7
 10
-275.583623559313
 20
201.8841540236353
 30
0.0
  0
VERTEX
  5
66F
  8
1
  6
CONTINUOUS
 62
     7
 10
-275.5611877608773
 20
201.8940978288294
 30
0.0
  0
VERTEX
  5
670
  8
1
  6
CONTINUOUS
 62
     7
 10
-275.5382910518084
 20
201.9029289221394
 30
0.0
  0
VERTEX
  5
671
  8
1
  6
CONTINUOUS
 62
     7
 10
-275.5149885869367
 20
201.9106260307502
 30
0.0
  0
VERTEX
  5
672
  8
1
  6
CONTINUOUS
 62
     7
 10
-275.4913364984993
 20
201.9171706134505
 30
0.0
  0
VERTEX
  5
673
  8
1
  6
CONTINUOUS
 62
     7
 10
-275.4673917609254
 20
201.9225469052957
 30
0.0
  0
VERTEX
  5
674
  8
1
  6
CONTINUOUS
 62
     7
 10
-275.4432120535932
 20
201.9267419555835
 30
0.0
  0
VERTEX
  5
675
  8
1
  6
CONTINUOUS
 62
     7
 10
-275.4188556218887
 20
201.92974565905
 30
0.0
  0
VERTEX
  5
676
  8
1
  6
CONTINUOUS
 62
     7
 10
-275.3943811369014
 20
201.9315507802117
 30
0.0
  0
VERTEX
  5
677
  8
1
  6
CONTINUOUS
 62
     7
 10
-275.3698475540935
 20
201.9321529707954
 30
0.0
  0
SEQEND
  5
982
  8
1
  6
CONTINUOUS
 62
     7
  0
LINE
  5
214
  8
1
  6
CONTINUOUS
 62
     7
 10
-275.8707803875478
 20
189.4335427854813
 30
0.0
 11
-275.8698665903867
 21
201.4322100840244
 31
0.0
  0
POLYLINE
  5
215
  8
1
  6
CONTINUOUS
 62
     7
 66
     1
 10
0.0
 20
0.0
 30
0.0
  0
VERTEX
  5
678
  8
1
  6
CONTINUOUS
 62
     7
 10
-275.3708375065765
 20
188.9335237433882
 30
0.0
  0
VERTEX
  5
679
  8
1
  6
CONTINUOUS
 62
     7
 10
-275.3953709976539
 20
188.9341260257024
 30
0.0
  0
VERTEX
  5
67A
  8
1
  6
CONTINUOUS
 62
     7
 10
-275.4198452076707
 20
188.9359314218347
 30
0.0
  0
VERTEX
  5
67B
  8
1
  6
CONTINUOUS
 62
     7
 10
-275.4442011818269
 20
188.9389355828494
 30
0.0
  0
VERTEX
  5
67C
  8
1
  6
CONTINUOUS
 62
     7
 10
-275.4683802501353
 20
188.943131272161
 30
0.0
  0
VERTEX
  5
67D
  8
1
  6
CONTINUOUS
 62
     7
 10
-275.4923241687492
 20
188.9485083829663
 30
0.0
  0
VERTEX
  5
67E
  8
1
  6
CONTINUOUS
 62
     7
 10
-275.5159752602632
 20
188.9550539625901
 30
0.0
  0
VERTEX
  5
67F
  8
1
  6
CONTINUOUS
 62
     7
 10
-275.5392765526493
 20
188.9627522436864
 30
0.0
  0
VERTEX
  5
680
  8
1
  6
CONTINUOUS
 62
     7
 10
-275.5621719164951
 20
188.9715846822195
 30
0.0
  0
VERTEX
  5
681
  8
1
  6
CONTINUOUS
 62
     7
 10
-275.5846062002104
 20
188.981530002134
 30
0.0
  0
VERTEX
  5
682
  8
1
  6
CONTINUOUS
 62
     7
 10
-275.6065253628798
 20
188.9925642466059
 30
0.0
  0
VERTEX
  5
683
  8
1
  6
CONTINUOUS
 62
     7
 10
-275.6278766044396
 20
189.0046608357503
 30
0.0
  0
VERTEX
  5
684
  8
1
  6
CONTINUOUS
 62
     7
 10
-275.6486084928646
 20
189.0177906306497
 30
0.0
  0
VERTEX
  5
685
  8
1
  6
CONTINUOUS
 62
     7
 10
-275.6686710880617
 20
189.0319220035442
 30
0.0
  0
VERTEX
  5
686
  8
1
  6
CONTINUOUS
 62
     7
 10
-275.6880160621668
 20
189.0470209140189
 30
0.0
  0
VERTEX
  5
687
  8
1
  6
CONTINUOUS
 62
     7
 10
-275.7065968159607
 20
189.0630509910021
 30
0.0
  0
VERTEX
  5
688
  8
1
  6
CONTINUOUS
 62
     7
 10
-275.7243685911191
 20
189.0799736203778
 30
0.0
  0
VERTEX
  5
689
  8
1
  6
CONTINUOUS
 62
     7
 10
-275.7412885780294
 20
189.0977480380016
 30
0.0
  0
VERTEX
  5
68A
  8
1
  6
CONTINUOUS
 62
     7
 10
-275.7573160189125
 20
189.1163314278955
 30
0.0
  0
VERTEX
  5
68B
  8
1
  6
CONTINUOUS
 62
     7
 10
-275.7724123060024
 20
189.1356790253854
 30
0.0
  0
VERTEX
  5
68C
  8
1
  6
CONTINUOUS
 62
     7
 10
-275.7865410745468
 20
189.1557442249326
 30
0.0
  0
VERTEX
  5
68D
  8
1
  6
CONTINUOUS
 62
     7
 10
-275.7996682904042
 20
189.1764786923997
 30
0.0
  0
VERTEX
  5
68E
  8
1
  6
CONTINUOUS
 62
     7
 10
-275.8117623320273
 20
189.1978324814808
 30
0.0
  0
VERTEX
  5
68F
  8
1
  6
CONTINUOUS
 62
     7
 10
-275.8227940666351
 20
189.2197541540142
 30
0.0
  0
VERTEX
  5
690
  8
1
  6
CONTINUOUS
 62
     7
 10
-275.8327369203888
 20
189.2421909038903
 30
0.0
  0
VERTEX
  5
691
  8
1
  6
CONTINUOUS
 62
     7
 10
-275.8415669424049
 20
189.2650886842531
 30
0.0
  0
VERTEX
  5
692
  8
1
  6
CONTINUOUS
 62
     7
 10
-275.8492628624491
 20
189.2883923376915
 30
0.0
  0
VERTEX
  5
693
  8
1
  6
CONTINUOUS
 62
     7
 10
-275.8558061421729
 20
189.3120457291053
 30
0.0
  0
VERTEX
  5
694
  8
1
  6
CONTINUOUS
 62
     7
 10
-275.8611810197706
 20
189.3359918809268
 30
0.0
  0
VERTEX
  5
695
  8
1
  6
CONTINUOUS
 62
     7
 10
-275.8653745479465
 20
189.3601731103709
 30
0.0
  0
VERTEX
  5
696
  8
1
  6
CONTINUOUS
 62
     7
 10
-275.8683766251033
 20
189.384531168385
 30
0.0
  0
VERTEX
  5
697
  8
1
  6
CONTINUOUS
 62
     7
 10
-275.8701800196752
 20
189.4090073799623
 30
0.0
  0
VERTEX
  5
698
  8
1
  6
CONTINUOUS
 62
     7
 10
-275.8707803875477
 20
189.4335427854813
 30
0.0
  0
SEQEND
  5
983
  8
1
  6
CONTINUOUS
 62
     7
  0
LINE
  5
216
  8
1
  6
CONTINUOUS
 62
     7
 10
-258.8711802497505
 20
188.9335237433882
 30
0.0
 11
-275.3708375065766
 21
188.9335237433882
 31
0.0
  0
POLYLINE
  5
217
  8
1
  6
CONTINUOUS
 62
     7
 66
     1
 10
0.0
 20
0.0
 30
0.0
  0
VERTEX
  5
699
  8
1
  6
CONTINUOUS
 62
     7
 10
-258.3712373687794
 20
189.4335427854813
 30
0.0
  0
VERTEX
  5
69A
  8
1
  6
CONTINUOUS
 62
     7
 10
-258.371837736652
 20
189.4090073799623
 30
0.0
  0
VERTEX
  5
69B
  8
1
  6
CONTINUOUS
 62
     7
 10
-258.3736411312237
 20
189.384531168385
 30
0.0
  0
VERTEX
  5
69C
  8
1
  6
CONTINUOUS
 62
     7
 10
-258.3766432083805
 20
189.3601731103709
 30
0.0
  0
VERTEX
  5
69D
  8
1
  6
CONTINUOUS
 62
     7
 10
-258.3808367365564
 20
189.3359918809268
 30
0.0
  0
VERTEX
  5
69E
  8
1
  6
CONTINUOUS
 62
     7
 10
-258.3862116141542
 20
189.3120457291053
 30
0.0
  0
VERTEX
  5
69F
  8
1
  6
CONTINUOUS
 62
     7
 10
-258.3927548938781
 20
189.2883923376915
 30
0.0
  0
VERTEX
  5
6A0
  8
1
  6
CONTINUOUS
 62
     7
 10
-258.4004508139221
 20
189.2650886842531
 30
0.0
  0
VERTEX
  5
6A1
  8
1
  6
CONTINUOUS
 62
     7
 10
-258.4092808359382
 20
189.2421909038903
 30
0.0
  0
VERTEX
  5
6A2
  8
1
  6
CONTINUOUS
 62
     7
 10
-258.419223689692
 20
189.2197541540142
 30
0.0
  0
VERTEX
  5
6A3
  8
1
  6
CONTINUOUS
 62
     7
 10
-258.4302554242997
 20
189.1978324814808
 30
0.0
  0
VERTEX
  5
6A4
  8
1
  6
CONTINUOUS
 62
     7
 10
-258.4423494659229
 20
189.1764786923997
 30
0.0
  0
VERTEX
  5
6A5
  8
1
  6
CONTINUOUS
 62
     7
 10
-258.4554766817803
 20
189.1557442249326
 30
0.0
  0
VERTEX
  5
6A6
  8
1
  6
CONTINUOUS
 62
     7
 10
-258.4696054503247
 20
189.1356790253854
 30
0.0
  0
VERTEX
  5
6A7
  8
1
  6
CONTINUOUS
 62
     7
 10
-258.4847017374145
 20
189.1163314278955
 30
0.0
  0
VERTEX
  5
6A8
  8
1
  6
CONTINUOUS
 62
     7
 10
-258.5007291782977
 20
189.0977480380016
 30
0.0
  0
VERTEX
  5
6A9
  8
1
  6
CONTINUOUS
 62
     7
 10
-258.517649165208
 20
189.0799736203778
 30
0.0
  0
VERTEX
  5
6AA
  8
1
  6
CONTINUOUS
 62
     7
 10
-258.5354209403664
 20
189.0630509910021
 30
0.0
  0
VERTEX
  5
6AB
  8
1
  6
CONTINUOUS
 62
     7
 10
-258.5540016941603
 20
189.0470209140189
 30
0.0
  0
VERTEX
  5
6AC
  8
1
  6
CONTINUOUS
 62
     7
 10
-258.5733466682653
 20
189.0319220035442
 30
0.0
  0
VERTEX
  5
6AD
  8
1
  6
CONTINUOUS
 62
     7
 10
-258.5934092634624
 20
189.0177906306497
 30
0.0
  0
VERTEX
  5
6AE
  8
1
  6
CONTINUOUS
 62
     7
 10
-258.6141411518876
 20
189.0046608357504
 30
0.0
  0
VERTEX
  5
6AF
  8
1
  6
CONTINUOUS
 62
     7
 10
-258.6354923934473
 20
188.9925642466059
 30
0.0
  0
VERTEX
  5
6B0
  8
1
  6
CONTINUOUS
 62
     7
 10
-258.6574115561167
 20
188.9815300021341
 30
0.0
  0
VERTEX
  5
6B1
  8
1
  6
CONTINUOUS
 62
     7
 10
-258.679845839832
 20
188.9715846822195
 30
0.0
  0
VERTEX
  5
6B2
  8
1
  6
CONTINUOUS
 62
     7
 10
-258.7027412036778
 20
188.9627522436864
 30
0.0
  0
VERTEX
  5
6B3
  8
1
  6
CONTINUOUS
 62
     7
 10
-258.7260424960639
 20
188.9550539625901
 30
0.0
  0
VERTEX
  5
6B4
  8
1
  6
CONTINUOUS
 62
     7
 10
-258.7496935875778
 20
188.9485083829663
 30
0.0
  0
VERTEX
  5
6B5
  8
1
  6
CONTINUOUS
 62
     7
 10
-258.7736375061917
 20
188.943131272161
 30
0.0
  0
VERTEX
  5
6B6
  8
1
  6
CONTINUOUS
 62
     7
 10
-258.7978165745002
 20
188.9389355828494
 30
0.0
  0
VERTEX
  5
6B7
  8
1
  6
CONTINUOUS
 62
     7
 10
-258.8221725486564
 20
188.9359314218347
 30
0.0
  0
VERTEX
  5
6B8
  8
1
  6
CONTINUOUS
 62
     7
 10
-258.8466467586732
 20
188.9341260257024
 30
0.0
  0
VERTEX
  5
6B9
  8
1
  6
CONTINUOUS
 62
     7
 10
-258.8711802497505
 20
188.9335237433882
 30
0.0
  0
SEQEND
  5
984
  8
1
  6
CONTINUOUS
 62
     7
  0
LINE
  5
218
  8
1
  6
CONTINUOUS
 62
     7
 10
-258.3721511659404
 20
201.4322100840244
 30
0.0
 11
-258.3712373687794
 21
189.4335427854813
 31
0.0
  0
LINE
  5
219
  8
1
  6
CONTINUOUS
 62
     7
 10
-232.3450166908261
 20
188.9073411459959
 30
0.0
 11
-232.3710088781636
 21
188.9333333333333
 31
0.0
  0
LINE
  5
21A
  8
1
  6
CONTINUOUS
 62
     7
 10
-234.1954939167542
 20
188.9333333333333
 30
0.0
 11
-235.4180503628241
 21
188.9073411459959
 31
0.0
  0
LINE
  5
21B
  8
1
  6
CONTINUOUS
 62
     7
 10
-251.3450166908261
 20
188.9073411459959
 30
0.0
 11
-251.3710088781635
 21
188.9333333333333
 31
0.0
  0
LINE
  5
21C
  8
1
  6
CONTINUOUS
 62
     7
 10
-255.9057279332917
 20
188.9073411459959
 30
0.0
 11
-255.8797357459542
 21
188.9333333333333
 31
0.0
  0
LINE
  5
21D
  8
1
  6
CONTINUOUS
 62
     7
 10
-251.3710088781635
 20
188.9333333333333
 30
0.0
 11
-255.8797357459543
 21
188.9333333333333
 31
0.0
  0
LINE
  5
21E
  8
1
  6
CONTINUOUS
 62
     7
 10
-249.397001065501
 20
188.9073411459959
 30
0.0
 11
-249.3710088781635
 21
188.9333333333333
 31
0.0
  0
LINE
  5
21F
  8
1
  6
CONTINUOUS
 62
     7
 10
-247.5465238395729
 20
188.9333333333333
 30
0.0
 11
-249.3710088781635
 21
188.9333333333333
 31
0.0
  0
LINE
  5
220
  8
1
  6
CONTINUOUS
 62
     7
 10
-246.323967393503
 20
188.9073411459959
 30
0.0
 11
-247.5465238395729
 21
188.9333333333333
 31
0.0
  0
LINE
  5
221
  8
1
  6
CONTINUOUS
 62
     7
 10
-251.3710088781635
 20
191.9246064655426
 30
0.0
 11
-251.3710088781635
 21
188.9333333333333
 31
0.0
  0
LINE
  5
222
  8
1
  6
CONTINUOUS
 62
     7
 10
-251.3538200607693
 20
191.9074176481484
 30
0.0
 11
-251.3710088781635
 21
191.9246064655426
 31
0.0
  0
LINE
  5
223
  8
1
  6
CONTINUOUS
 62
     7
 10
-251.3451696805925
 20
190.9161822605826
 30
0.0
 11
-251.3538200607693
 21
191.9074176481484
 31
0.0
  0
LINE
  5
224
  8
1
  6
CONTINUOUS
 62
     7
 10
-230.397001065501
 20
188.9073411459959
 30
0.0
 11
-230.3710088781635
 21
188.9333333333333
 31
0.0
  0
LINE
  5
225
  8
1
  6
CONTINUOUS
 62
     7
 10
-225.8362898230353
 20
188.9073411459959
 30
0.0
 11
-225.8622820103728
 21
188.9333333333333
 31
0.0
  0
LINE
  5
226
  8
1
  6
CONTINUOUS
 62
     7
 10
-247.5465238395729
 20
188.9333333333333
 30
0.0
 11
-247.5465238395729
 21
190.1088482947427
 31
0.0
  0
LINE
  5
227
  8
1
  6
CONTINUOUS
 62
     7
 10
-249.3710088781635
 20
188.9333333333333
 30
0.0
 11
-249.3710088781635
 21
191.9246064655426
 31
0.0
  0
LINE
  5
228
  8
1
  6
CONTINUOUS
 62
     7
 10
-249.3881976955577
 20
191.9074176481484
 30
0.0
 11
-249.3968480757345
 21
190.9161822605826
 31
0.0
  0
LINE
  5
229
  8
1
  6
CONTINUOUS
 62
     7
 10
-249.3881976955577
 20
191.9074176481484
 30
0.0
 11
-249.3710088781635
 21
191.9246064655426
 31
0.0
  0
LINE
  5
22A
  8
1
  6
CONTINUOUS
 62
     7
 10
-255.8797357459543
 20
188.9333333333333
 30
0.0
 11
-255.8797357459543
 21
191.9246064655426
 31
0.0
  0
LINE
  5
22B
  8
1
  6
CONTINUOUS
 62
     7
 10
-255.8710088781635
 20
201.4333333333333
 30
0.0
 11
-255.904771404711
 21
201.4670958598808
 31
0.0
  0
LINE
  5
22C
  8
1
  6
CONTINUOUS
 62
     7
 10
-255.8710088781635
 20
191.9333333333333
 30
0.0
 11
-255.8710088781635
 21
201.4333333333333
 31
0.0
  0
LINE
  5
22D
  8
1
  6
CONTINUOUS
 62
     7
 10
-255.8710088781635
 20
191.9333333333333
 30
0.0
 11
-255.8797357459542
 21
191.9246064655426
 31
0.0
  0
LINE
  5
22E
  8
1
  6
CONTINUOUS
 62
     9
 10
-258.8711802497505
 20
188.9335237433882
 30
0.0
 11
-258.8971704430679
 21
188.9595139367056
 31
0.0
  0
POLYLINE
  5
22F
  8
1
  6
CONTINUOUS
 62
     7
 66
     1
 10
0.0
 20
0.0
 30
0.0
  0
VERTEX
  5
6BA
  8
1
  6
CONTINUOUS
 62
     7
 10
-258.8971704430679
 20
188.9595139367056
 30
0.0
  0
VERTEX
  5
6BB
  8
1
  6
CONTINUOUS
 62
     7
 10
-258.7996269678168
 20
188.9691207337861
 30
0.0
  0
VERTEX
  5
6BC
  8
1
  6
CONTINUOUS
 62
     7
 10
-258.7058331344959
 20
188.9975719768834
 30
0.0
  0
VERTEX
  5
6BD
  8
1
  6
CONTINUOUS
 62
     7
 10
-258.6193930391635
 20
189.0437744063508
 30
0.0
  0
VERTEX
  5
6BE
  8
1
  6
CONTINUOUS
 62
     7
 10
-258.5436282051632
 20
189.105952660333
 30
0.0
  0
VERTEX
  5
6BF
  8
1
  6
CONTINUOUS
 62
     7
 10
-258.481449951181
 20
189.1817174943334
 30
0.0
  0
VERTEX
  5
6C0
  8
1
  6
CONTINUOUS
 62
     7
 10
-258.4352475217137
 20
189.2681575896657
 30
0.0
  0
VERTEX
  5
6C1
  8
1
  6
CONTINUOUS
 62
     7
 10
-258.4067962786163
 20
189.3619514229866
 30
0.0
  0
VERTEX
  5
6C2
  8
1
  6
CONTINUOUS
 62
     7
 10
-258.3971894815358
 20
189.4594948982377
 30
0.0
  0
SEQEND
  5
985
  8
1
  6
CONTINUOUS
 62
     7
  0
LINE
  5
230
  8
1
  6
CONTINUOUS
 62
     9
 10
-258.3971894815359
 20
189.4594948982377
 30
0.0
 11
-258.3712373687794
 21
189.4335427854813
 31
0.0
  0
LINE
  5
231
  8
1
  6
CONTINUOUS
 62
     9
 10
-275.8707803875478
 20
189.4335427854813
 30
0.0
 11
-275.8448282747913
 21
189.4594948982377
 31
0.0
  0
POLYLINE
  5
232
  8
1
  6
CONTINUOUS
 62
     7
 66
     1
 10
0.0
 20
0.0
 30
0.0
  0
VERTEX
  5
6C3
  8
1
  6
CONTINUOUS
 62
     7
 10
-275.8448282747913
 20
189.4594948982377
 30
0.0
  0
VERTEX
  5
6C4
  8
1
  6
CONTINUOUS
 62
     7
 10
-275.8352214777108
 20
189.3619514229866
 30
0.0
  0
VERTEX
  5
6C5
  8
1
  6
CONTINUOUS
 62
     7
 10
-275.8067702346134
 20
189.2681575896657
 30
0.0
  0
VERTEX
  5
6C6
  8
1
  6
CONTINUOUS
 62
     7
 10
-275.7605678051461
 20
189.1817174943333
 30
0.0
  0
VERTEX
  5
6C7
  8
1
  6
CONTINUOUS
 62
     7
 10
-275.6983895511639
 20
189.105952660333
 30
0.0
  0
VERTEX
  5
6C8
  8
1
  6
CONTINUOUS
 62
     7
 10
-275.6226247171635
 20
189.0437744063508
 30
0.0
  0
VERTEX
  5
6C9
  8
1
  6
CONTINUOUS
 62
     7
 10
-275.5361846218311
 20
188.9975719768835
 30
0.0
  0
VERTEX
  5
6CA
  8
1
  6
CONTINUOUS
 62
     7
 10
-275.4423907885102
 20
188.9691207337861
 30
0.0
  0
VERTEX
  5
6CB
  8
1
  6
CONTINUOUS
 62
     7
 10
-275.3448473132592
 20
188.9595139367056
 30
0.0
  0
SEQEND
  5
986
  8
1
  6
CONTINUOUS
 62
     7
  0
LINE
  5
233
  8
1
  6
CONTINUOUS
 62
     9
 10
-275.3448473132592
 20
188.9595139367056
 30
0.0
 11
-275.3708375065765
 21
188.9335237433882
 31
0.0
  0
LINE
  5
234
  8
1
  6
CONTINUOUS
 62
     9
 10
-191.7211802497505
 20
188.9335237433882
 30
0.0
 11
-191.7471704430679
 21
188.9595139367056
 31
0.0
  0
POLYLINE
  5
235
  8
1
  6
CONTINUOUS
 62
     7
 66
     1
 10
0.0
 20
0.0
 30
0.0
  0
VERTEX
  5
6CC
  8
1
  6
CONTINUOUS
 62
     7
 10
-191.7471704430679
 20
188.9595139367056
 30
0.0
  0
VERTEX
  5
6CD
  8
1
  6
CONTINUOUS
 62
     7
 10
-191.6496269678168
 20
188.9691207337861
 30
0.0
  0
VERTEX
  5
6CE
  8
1
  6
CONTINUOUS
 62
     7
 10
-191.555833134496
 20
188.9975719768835
 30
0.0
  0
VERTEX
  5
6CF
  8
1
  6
CONTINUOUS
 62
     7
 10
-191.4693930391635
 20
189.0437744063508
 30
0.0
  0
VERTEX
  5
6D0
  8
1
  6
CONTINUOUS
 62
     7
 10
-191.3936282051633
 20
189.105952660333
 30
0.0
  0
VERTEX
  5
6D1
  8
1
  6
CONTINUOUS
 62
     7
 10
-191.331449951181
 20
189.1817174943334
 30
0.0
  0
VERTEX
  5
6D2
  8
1
  6
CONTINUOUS
 62
     7
 10
-191.2852475217137
 20
189.2681575896657
 30
0.0
  0
VERTEX
  5
6D3
  8
1
  6
CONTINUOUS
 62
     7
 10
-191.2567962786163
 20
189.3619514229866
 30
0.0
  0
VERTEX
  5
6D4
  8
1
  6
CONTINUOUS
 62
     7
 10
-191.2471894815358
 20
189.4594948982377
 30
0.0
  0
SEQEND
  5
987
  8
1
  6
CONTINUOUS
 62
     7
  0
LINE
  5
236
  8
1
  6
CONTINUOUS
 62
     9
 10
-191.2471894815358
 20
189.4594948982377
 30
0.0
 11
-191.2212373687794
 21
189.4335427854813
 31
0.0
  0
LINE
  5
237
  8
1
  6
CONTINUOUS
 62
     7
 10
-213.2043869213276
 20
188.9595139367056
 30
0.0
 11
-191.7471704430679
 21
188.9595139367056
 31
0.0
  0
LINE
  5
238
  8
1
  6
CONTINUOUS
 62
     7
 10
-258.8971704430679
 20
188.9595139367056
 30
0.0
 11
-275.3448473132592
 21
188.9595139367056
 31
0.0
  0
LINE
  5
239
  8
1
  6
CONTINUOUS
 62
     7
 10
-191.2471894815358
 20
189.4594948982377
 30
0.0
 11
-191.2471894815358
 21
193.9849639553753
 31
0.0
  0
LINE
  5
23A
  8
1
  6
CONTINUOUS
 62
     9
 10
-191.2215904651613
 20
194.0698955686684
 30
0.0
 11
-191.2471894815358
 21
193.9849639553753
 31
0.0
  0
LINE
  5
23B
  8
1
  6
CONTINUOUS
 62
     9
 10
-275.8448282747913
 20
201.407171768429
 30
0.0
 11
-275.8698665903867
 21
201.4322100840244
 31
0.0
  0
LINE
  5
23C
  8
1
  6
CONTINUOUS
 62
     7
 10
-275.8448282747913
 20
189.4594948982377
 30
0.0
 11
-275.8448282747913
 21
201.407171768429
 31
0.0
  0
LINE
  5
23D
  8
1
  6
CONTINUOUS
 62
     9
 10
-258.3721511659404
 20
201.4322100840244
 30
0.0
 11
-258.3971894815358
 21
201.407171768429
 31
0.0
  0
LINE
  5
23E
  8
1
  6
CONTINUOUS
 62
     7
 10
-258.3971894815359
 20
201.407171768429
 30
0.0
 11
-258.3971894815359
 21
189.4594948982377
 31
0.0
  0
POLYLINE
  5
23F
  8
1
  6
CONTINUOUS
 62
     7
 66
     1
 10
0.0
 20
0.0
 30
0.0
  0
VERTEX
  5
6D5
  8
1
  6
CONTINUOUS
 62
     7
 10
-191.2471894815358
 20
193.9849639553753
 30
0.0
  0
VERTEX
  5
6D6
  8
1
  6
CONTINUOUS
 62
     7
 10
-191.2474309136936
 20
194.0005042886238
 30
0.0
  0
VERTEX
  5
6D7
  8
1
  6
CONTINUOUS
 62
     7
 10
-191.2481547526739
 20
194.0160296324253
 30
0.0
  0
VERTEX
  5
6D8
  8
1
  6
CONTINUOUS
 62
     7
 10
-191.250458711272
 20
194.042064951806
 30
0.0
  0
VERTEX
  5
6D9
  8
1
  6
CONTINUOUS
 62
     7
 10
-191.2541181902703
 20
194.0679445621267
 30
0.0
  0
VERTEX
  5
6DA
  8
1
  6
CONTINUOUS
 62
     7
 10
-191.2580854156314
 20
194.0888140953047
 30
0.0
  0
VERTEX
  5
6DB
  8
1
  6
CONTINUOUS
 62
     7
 10
-191.2629346297856
 20
194.1094964884955
 30
0.0
  0
VERTEX
  5
6DC
  8
1
  6
CONTINUOUS
 62
     7
 10
-191.2687195080833
 20
194.1301574636703
 30
0.0
  0
VERTEX
  5
6DD
  8
1
  6
CONTINUOUS
 62
     7
 10
-191.2753846213997
 20
194.1505515056087
 30
0.0
  0
VERTEX
  5
6DE
  8
1
  6
CONTINUOUS
 62
     7
 10
-191.2807559237916
 20
194.1651360795532
 30
0.0
  0
VERTEX
  5
6DF
  8
1
  6
CONTINUOUS
 62
     7
 10
-191.2865776499027
 20
194.1795467764599
 30
0.0
  0
VERTEX
  5
6E0
  8
1
  6
CONTINUOUS
 62
     7
 10
-191.2973695692616
 20
194.203352065755
 30
0.0
  0
VERTEX
  5
6E1
  8
1
  6
CONTINUOUS
 62
     7
 10
-191.3093895694103
 20
194.226561478319
 30
0.0
  0
VERTEX
  5
6E2
  8
1
  6
CONTINUOUS
 62
     7
 10
-191.3200420324007
 20
194.2449413870653
 30
0.0
  0
VERTEX
  5
6E3
  8
1
  6
CONTINUOUS
 62
     7
 10
-191.3314651647597
 20
194.2628525017631
 30
0.0
  0
VERTEX
  5
6E4
  8
1
  6
CONTINUOUS
 62
     7
 10
-191.3437645870782
 20
194.2804335494936
 30
0.0
  0
VERTEX
  5
6E5
  8
1
  6
CONTINUOUS
 62
     7
 10
-191.3568065942713
 20
194.297471009571
 30
0.0
  0
VERTEX
  5
6E6
  8
1
  6
CONTINUOUS
 62
     7
 10
-191.3667009567039
 20
194.3094507149595
 30
0.0
  0
VERTEX
  5
6E7
  8
1
  6
CONTINUOUS
 62
     7
 10
-191.3769626980249
 20
194.3211172657922
 30
0.0
  0
VERTEX
  5
6E8
  8
1
  6
CONTINUOUS
 62
     7
 10
-191.395022683738
 20
194.3400004870882
 30
0.0
  0
VERTEX
  5
6E9
  8
1
  6
CONTINUOUS
 62
     7
 10
-191.4140439866756
 20
194.3579149810322
 30
0.0
  0
VERTEX
  5
6EA
  8
1
  6
CONTINUOUS
 62
     7
 10
-191.4301767455338
 20
194.3717264642655
 30
0.0
  0
VERTEX
  5
6EB
  8
1
  6
CONTINUOUS
 62
     7
 10
-191.4468813456095
 20
194.3848405518073
 30
0.0
  0
VERTEX
  5
6EC
  8
1
  6
CONTINUOUS
 62
     7
 10
-191.4643033613262
 20
194.397353171013
 30
0.0
  0
VERTEX
  5
6ED
  8
1
  6
CONTINUOUS
 62
     7
 10
-191.4822459390603
 20
194.4091071557275
 30
0.0
  0
VERTEX
  5
6EE
  8
1
  6
CONTINUOUS
 62
     7
 10
-191.5000947336637
 20
194.4197499592895
 30
0.0
  0
VERTEX
  5
6EF
  8
1
  6
CONTINUOUS
 62
     7
 10
-191.5183703315537
 20
194.4296419381804
 30
0.0
  0
VERTEX
  5
6F0
  8
1
  6
CONTINUOUS
 62
     7
 10
-191.5404668267758
 20
194.4403346927596
 30
0.0
  0
VERTEX
  5
6F1
  8
1
  6
CONTINUOUS
 62
     7
 10
-191.5630749305279
 20
194.4499363823969
 30
0.0
  0
VERTEX
  5
6F2
  8
1
  6
CONTINUOUS
 62
     7
 10
-191.5861129243683
 20
194.4584122832222
 30
0.0
  0
VERTEX
  5
6F3
  8
1
  6
CONTINUOUS
 62
     7
 10
-191.6030680414595
 20
194.4638450421268
 30
0.0
  0
VERTEX
  5
6F4
  8
1
  6
CONTINUOUS
 62
     7
 10
-191.620211269768
 20
194.468672257254
 30
0.0
  0
VERTEX
  5
6F5
  8
1
  6
CONTINUOUS
 62
     7
 10
-191.6375099924984
 20
194.472884745679
 30
0.0
  0
VERTEX
  5
6F6
  8
1
  6
CONTINUOUS
 62
     7
 10
-191.6578712478476
 20
194.4770171317033
 30
0.0
  0
VERTEX
  5
6F7
  8
1
  6
CONTINUOUS
 62
     7
 10
-191.6783865995126
 20
194.480300070343
 30
0.0
  0
VERTEX
  5
6F8
  8
1
  6
CONTINUOUS
 62
     7
 10
-191.6993064847721
 20
194.4827530937511
 30
0.0
  0
VERTEX
  5
6F9
  8
1
  6
CONTINUOUS
 62
     7
 10
-191.7203298413412
 20
194.4843239008696
 30
0.0
  0
VERTEX
  5
6FA
  8
1
  6
CONTINUOUS
 62
     7
 10
-191.7414006498105
 20
194.4850095120854
 30
0.0
  0
VERTEX
  5
6FB
  8
1
  6
CONTINUOUS
 62
     7
 10
-191.7624628907701
 20
194.4848069477852
 30
0.0
  0
VERTEX
  5
6FC
  8
1
  6
CONTINUOUS
 62
     7
 10
-191.78381238785
 20
194.4836921480643
 30
0.0
  0
VERTEX
  5
6FD
  8
1
  6
CONTINUOUS
 62
     7
 10
-191.8050947314294
 20
194.4816659009774
 30
0.0
  0
VERTEX
  5
6FE
  8
1
  6
CONTINUOUS
 62
     7
 10
-191.8256773808577
 20
194.4788260027131
 30
0.0
  0
VERTEX
  5
6FF
  8
1
  6
CONTINUOUS
 62
     7
 10
-191.8461243092938
 20
194.4751336296307
 30
0.0
  0
VERTEX
  5
700
  8
1
  6
CONTINUOUS
 62
     7
 10
-191.8700543146775
 20
194.4696803712495
 30
0.0
  0
VERTEX
  5
701
  8
1
  6
CONTINUOUS
 62
     7
 10
-191.8937024236363
 20
194.4630563314232
 30
0.0
  0
VERTEX
  5
702
  8
1
  6
CONTINUOUS
 62
     7
 10
-191.9169832641124
 20
194.4552854979331
 30
0.0
  0
VERTEX
  5
703
  8
1
  6
CONTINUOUS
 62
     7
 10
-191.9336140989371
 20
194.4489383637721
 30
0.0
  0
VERTEX
  5
704
  8
1
  6
CONTINUOUS
 62
     7
 10
-191.9500137987327
 20
194.442001383856
 30
0.0
  0
VERTEX
  5
705
  8
1
  6
CONTINUOUS
 62
     7
 10
-191.966151219309
 20
194.4344877642155
 30
0.0
  0
VERTEX
  5
706
  8
1
  6
CONTINUOUS
 62
     7
 10
-191.9846405291414
 20
194.424994069675
 30
0.0
  0
VERTEX
  5
707
  8
1
  6
CONTINUOUS
 62
     7
 10
-192.0027195944996
 20
194.4147406684072
 30
0.0
  0
VERTEX
  5
708
  8
1
  6
CONTINUOUS
 62
     7
 10
-192.0235037286332
 20
194.4016722993168
 30
0.0
  0
VERTEX
  5
709
  8
1
  6
CONTINUOUS
 62
     7
 10
-192.0436343229217
 20
194.3875921808961
 30
0.0
  0
VERTEX
  5
70A
  8
1
  6
CONTINUOUS
 62
     7
 10
-192.0630387495053
 20
194.3725512052917
 30
0.0
  0
VERTEX
  5
70B
  8
1
  6
CONTINUOUS
 62
     7
 10
-192.0766369962639
 20
194.3610553112374
 30
0.0
  0
VERTEX
  5
70C
  8
1
  6
CONTINUOUS
 62
     7
 10
-192.0898218880067
 20
194.3490791824237
 30
0.0
  0
VERTEX
  5
70D
  8
1
  6
CONTINUOUS
 62
     7
 10
-192.1025684005422
 20
194.3366455846956
 30
0.0
  0
VERTEX
  5
70E
  8
1
  6
CONTINUOUS
 62
     7
 10
-192.1186248149844
 20
194.3196371903338
 30
0.0
  0
VERTEX
  5
70F
  8
1
  6
CONTINUOUS
 62
     7
 10
-192.1338692193477
 20
194.3018973454251
 30
0.0
  0
VERTEX
  5
710
  8
1
  6
CONTINUOUS
 62
     7
 10
-192.1483600440061
 20
194.2833395673672
 30
0.0
  0
VERTEX
  5
711
  8
1
  6
CONTINUOUS
 62
     7
 10
-192.1619623232013
 20
194.2641210044892
 30
0.0
  0
SEQEND
  5
988
  8
1
  6
CONTINUOUS
 62
     7
  0
LINE
  5
240
  8
1
  6
CONTINUOUS
 62
     9
 10
-192.1619623232013
 20
194.2641210044892
 30
0.0
 11
-192.140188355886
 21
194.3432451916547
 31
0.0
  0
LINE
  5
241
  8
1
  6
CONTINUOUS
 62
     9
 10
-251.3538200607693
 20
191.9074176481484
 30
0.0
 11
-249.3881976955577
 21
191.9074176481484
 31
0.0
  0
LINE
  5
242
  8
1
  6
CONTINUOUS
 62
     7
 10
-205.3710088781635
 20
204.4085206913704
 30
0.0
 11
-196.8955169046398
 21
204.4085206913704
 31
0.0
  0
LINE
  5
243
  8
1
  6
CONTINUOUS
 62
     9
 10
-202.5218466185993
 20
197.4333333333333
 30
0.0
 11
-202.5471894815358
 21
197.4333333333333
 31
0.0
  0
ARC
  5
244
  8
1
  6
CONTINUOUS
 62
     7
 10
-196.8710088781636
 20
197.4333333333333
 30
0.0
 40
5.67618060337228
 50
180.0
 51
326.0592453494596
  0
LINE
  5
245
  8
1
  6
CONTINUOUS
 62
     7
 10
-240.0718257105133
 20
195.9246064655426
 30
0.0
 11
-244.6701920458138
 21
195.9246064655426
 31
0.0
  0
LINE
  5
246
  8
1
  6
CONTINUOUS
 62
     7
 10
-240.0661227638403
 20
195.9333333333333
 30
0.0
 11
-244.6758949924867
 21
195.9333333333333
 31
0.0
  0
LINE
  5
247
  8
1
  6
CONTINUOUS
 62
     7
 10
-202.5471894815358
 20
197.4333333333333
 30
0.0
 11
-202.5471894815358
 21
201.407171768429
 31
0.0
  0
LINE
  5
248
  8
1
  6
CONTINUOUS
 62
     9
 10
-202.5221511659404
 20
201.4322100840244
 30
0.0
 11
-202.5471894815358
 21
201.407171768429
 31
0.0
  0
LINE
  5
249
  8
1
  6
CONTINUOUS
 62
     9
 10
-275.3698475540935
 20
201.9321529707954
 30
0.0
 11
-275.3448473132592
 21
201.9071527299611
 31
0.0
  0
POLYLINE
  5
24A
  8
1
  6
CONTINUOUS
 62
     7
 66
     1
 10
0.0
 20
0.0
 30
0.0
  0
VERTEX
  5
712
  8
1
  6
CONTINUOUS
 62
     7
 10
-275.3448473132592
 20
201.907152729961
 30
0.0
  0
VERTEX
  5
713
  8
1
  6
CONTINUOUS
 62
     7
 10
-275.4423907885102
 20
201.8975459328806
 30
0.0
  0
VERTEX
  5
714
  8
1
  6
CONTINUOUS
 62
     7
 10
-275.5361846218311
 20
201.8690946897832
 30
0.0
  0
VERTEX
  5
715
  8
1
  6
CONTINUOUS
 62
     7
 10
-275.6226247171635
 20
201.8228922603158
 30
0.0
  0
VERTEX
  5
716
  8
1
  6
CONTINUOUS
 62
     7
 10
-275.6983895511639
 20
201.7607140063336
 30
0.0
  0
VERTEX
  5
717
  8
1
  6
CONTINUOUS
 62
     7
 10
-275.7605678051461
 20
201.6849491723333
 30
0.0
  0
VERTEX
  5
718
  8
1
  6
CONTINUOUS
 62
     7
 10
-275.8067702346134
 20
201.5985090770009
 30
0.0
  0
VERTEX
  5
719
  8
1
  6
CONTINUOUS
 62
     7
 10
-275.8352214777108
 20
201.50471524368
 30
0.0
  0
VERTEX
  5
71A
  8
1
  6
CONTINUOUS
 62
     7
 10
-275.8448282747913
 20
201.407171768429
 30
0.0
  0
SEQEND
  5
989
  8
1
  6
CONTINUOUS
 62
     7
  0
POLYLINE
  5
24B
  8
1
  6
CONTINUOUS
 62
     7
 66
     1
 10
0.0
 20
0.0
 30
0.0
  0
VERTEX
  5
71B
  8
1
  6
CONTINUOUS
 62
     7
 10
-202.5471894815358
 20
201.407171768429
 30
0.0
  0
VERTEX
  5
71C
  8
1
  6
CONTINUOUS
 62
     7
 10
-202.5567962786163
 20
201.50471524368
 30
0.0
  0
VERTEX
  5
71D
  8
1
  6
CONTINUOUS
 62
     7
 10
-202.5852475217137
 20
201.5985090770009
 30
0.0
  0
VERTEX
  5
71E
  8
1
  6
CONTINUOUS
 62
     7
 10
-202.6314499511811
 20
201.6849491723333
 30
0.0
  0
VERTEX
  5
71F
  8
1
  6
CONTINUOUS
 62
     7
 10
-202.6936282051632
 20
201.7607140063336
 30
0.0
  0
VERTEX
  5
720
  8
1
  6
CONTINUOUS
 62
     7
 10
-202.7693930391635
 20
201.8228922603158
 30
0.0
  0
VERTEX
  5
721
  8
1
  6
CONTINUOUS
 62
     7
 10
-202.855833134496
 20
201.8690946897832
 30
0.0
  0
VERTEX
  5
722
  8
1
  6
CONTINUOUS
 62
     7
 10
-202.9496269678168
 20
201.8975459328806
 30
0.0
  0
VERTEX
  5
723
  8
1
  6
CONTINUOUS
 62
     7
 10
-203.0471704430679
 20
201.907152729961
 30
0.0
  0
SEQEND
  5
98A
  8
1
  6
CONTINUOUS
 62
     7
  0
LINE
  5
24C
  8
1
  6
CONTINUOUS
 62
     9
 10
-203.0471704430679
 20
201.9071527299611
 30
0.0
 11
-203.0221702022336
 21
201.9321529707954
 31
0.0
  0
POLYLINE
  5
24D
  8
1
  6
CONTINUOUS
 62
     7
 66
     1
 10
0.0
 20
0.0
 30
0.0
  0
VERTEX
  5
724
  8
1
  6
CONTINUOUS
 62
     7
 10
-258.3971894815358
 20
201.407171768429
 30
0.0
  0
VERTEX
  5
725
  8
1
  6
CONTINUOUS
 62
     7
 10
-258.4067962786163
 20
201.50471524368
 30
0.0
  0
VERTEX
  5
726
  8
1
  6
CONTINUOUS
 62
     7
 10
-258.4352475217137
 20
201.5985090770009
 30
0.0
  0
VERTEX
  5
727
  8
1
  6
CONTINUOUS
 62
     7
 10
-258.481449951181
 20
201.6849491723333
 30
0.0
  0
VERTEX
  5
728
  8
1
  6
CONTINUOUS
 62
     7
 10
-258.5436282051632
 20
201.7607140063336
 30
0.0
  0
VERTEX
  5
729
  8
1
  6
CONTINUOUS
 62
     7
 10
-258.6193930391635
 20
201.8228922603158
 30
0.0
  0
VERTEX
  5
72A
  8
1
  6
CONTINUOUS
 62
     7
 10
-258.7058331344959
 20
201.8690946897832
 30
0.0
  0
VERTEX
  5
72B
  8
1
  6
CONTINUOUS
 62
     7
 10
-258.7996269678168
 20
201.8975459328806
 30
0.0
  0
VERTEX
  5
72C
  8
1
  6
CONTINUOUS
 62
     7
 10
-258.8971704430679
 20
201.907152729961
 30
0.0
  0
SEQEND
  5
98B
  8
1
  6
CONTINUOUS
 62
     7
  0
LINE
  5
24E
  8
1
  6
CONTINUOUS
 62
     9
 10
-258.8971704430679
 20
201.9071527299611
 30
0.0
 11
-258.8721702022336
 21
201.9321529707954
 31
0.0
  0
LINE
  5
24F
  8
1
  6
CONTINUOUS
 62
     7
 10
-255.8710088781635
 20
201.4333333333333
 30
0.0
 11
-255.3710088781635
 21
201.4333333333333
 31
0.0
  0
LINE
  5
250
  8
1
  6
CONTINUOUS
 62
     7
 10
-275.3448473132592
 20
201.9071527299611
 30
0.0
 11
-258.8971704430679
 21
201.9071527299611
 31
0.0
  0
LINE
  5
251
  8
1
  6
CONTINUOUS
 62
     7
 10
-203.0471704430679
 20
201.9071527299611
 30
0.0
 11
-205.3710088781635
 21
201.9071527299611
 31
0.0
  0
LINE
  5
252
  8
1
  6
CONTINUOUS
 62
     7
 10
-255.883415199145
 20
204.4085206913704
 30
0.0
 11
-255.3710088781635
 21
203.7202415914935
 31
0.0
  0
LINE
  5
253
  8
1
  6
CONTINUOUS
 62
     7
 10
-255.3710088781635
 20
203.7666666666667
 30
0.0
 11
-255.8710088781635
 21
204.4333333333334
 31
0.0
  0
POLYLINE
  5
254
  8
1
  6
CONTINUOUS
 62
     7
 66
     1
 10
0.0
 20
0.0
 30
0.0
  0
VERTEX
  5
72D
  8
1
  6
CONTINUOUS
 62
     7
 10
-232.9637406608877
 20
184.4616460284205
 30
0.0
  0
VERTEX
  5
72E
  8
1
  6
CONTINUOUS
 62
     7
 10
-232.9668580926894
 20
184.4616083264146
 30
0.0
  0
VERTEX
  5
72F
  8
1
  6
CONTINUOUS
 62
     7
 10
-232.9965133207114
 20
184.4602762037676
 30
0.0
  0
VERTEX
  5
730
  8
1
  6
CONTINUOUS
 62
     7
 10
-233.0260169905097
 20
184.4571918305638
 30
0.0
  0
VERTEX
  5
731
  8
1
  6
CONTINUOUS
 62
     7
 10
-233.0553671233005
 20
184.4523527562566
 30
0.0
  0
VERTEX
  5
732
  8
1
  6
CONTINUOUS
 62
     7
 10
-233.0844621612853
 20
184.4457634687155
 30
0.0
  0
VERTEX
  5
733
  8
1
  6
CONTINUOUS
 62
     7
 10
-233.1101107223357
 20
184.4384188378301
 30
0.0
  0
VERTEX
  5
734
  8
1
  6
CONTINUOUS
 62
     7
 10
-233.1354759635367
 20
184.429673583676
 30
0.0
  0
VERTEX
  5
735
  8
1
  6
CONTINUOUS
 62
     7
 10
-233.1606568269095
 20
184.4194535333714
 30
0.0
  0
VERTEX
  5
736
  8
1
  6
CONTINUOUS
 62
     7
 10
-233.1854729680557
 20
184.4077821595421
 30
0.0
  0
VERTEX
  5
737
  8
1
  6
CONTINUOUS
 62
     7
 10
-233.2101168890605
 20
184.3944966688473
 30
0.0
  0
VERTEX
  5
738
  8
1
  6
CONTINUOUS
 62
     7
 10
-233.2342962237905
 20
184.3796680208183
 30
0.0
  0
VERTEX
  5
739
  8
1
  6
CONTINUOUS
 62
     7
 10
-233.2580941871486
 20
184.3631509016428
 30
0.0
  0
VERTEX
  5
73A
  8
1
  6
CONTINUOUS
 62
     7
 10
-233.2813039080475
 20
184.3449740927111
 30
0.0
  0
VERTEX
  5
73B
  8
1
  6
CONTINUOUS
 62
     7
 10
-233.303772993951
 20
184.3251478123639
 30
0.0
  0
VERTEX
  5
73C
  8
1
  6
CONTINUOUS
 62
     7
 10
-233.3219933519161
 20
184.3072047475285
 30
0.0
  0
VERTEX
  5
73D
  8
1
  6
CONTINUOUS
 62
     7
 10
-233.3396298597363
 20
184.2879729513281
 30
0.0
  0
VERTEX
  5
73E
  8
1
  6
CONTINUOUS
 62
     7
 10
-233.3567749552999
 20
184.2671951423493
 30
0.0
  0
VERTEX
  5
73F
  8
1
  6
CONTINUOUS
 62
     7
 10
-233.3650788948624
 20
184.256267858717
 30
0.0
  0
VERTEX
  5
740
  8
1
  6
CONTINUOUS
 62
     7
 10
-233.3731722110133
 20
184.2449937496025
 30
0.0
  0
VERTEX
  5
741
  8
1
  6
CONTINUOUS
 62
     7
 10
-233.3826540855565
 20
184.2308990789942
 30
0.0
  0
VERTEX
  5
742
  8
1
  6
CONTINUOUS
 62
     7
 10
-233.3917966121582
 20
184.2162650740402
 30
0.0
  0
VERTEX
  5
743
  8
1
  6
CONTINUOUS
 62
     7
 10
-233.3988017094235
 20
184.2042450368442
 30
0.0
  0
VERTEX
  5
744
  8
1
  6
CONTINUOUS
 62
     7
 10
-233.4055522526773
 20
184.1918894040679
 30
0.0
  0
VERTEX
  5
745
  8
1
  6
CONTINUOUS
 62
     7
 10
-233.4120592909292
 20
184.1791426589989
 30
0.0
  0
VERTEX
  5
746
  8
1
  6
CONTINUOUS
 62
     7
 10
-233.4182766871103
 20
184.1660569635913
 30
0.0
  0
VERTEX
  5
747
  8
1
  6
CONTINUOUS
 62
     7
 10
-233.4227792873011
 20
184.1559274447633
 30
0.0
  0
VERTEX
  5
748
  8
1
  6
CONTINUOUS
 62
     7
 10
-233.4270974051118
 20
184.1456063910135
 30
0.0
  0
VERTEX
  5
749
  8
1
  6
CONTINUOUS
 62
     7
 10
-233.4312356455833
 20
184.1350613870289
 30
0.0
  0
VERTEX
  5
74A
  8
1
  6
CONTINUOUS
 62
     7
 10
-233.4351707819188
 20
184.1243291614009
 30
0.0
  0
VERTEX
  5
74B
  8
1
  6
CONTINUOUS
 62
     7
 10
-233.440117884353
 20
184.1096354760861
 30
0.0
  0
VERTEX
  5
74C
  8
1
  6
CONTINUOUS
 62
     7
 10
-233.4434807567796
 20
184.0986883984056
 30
0.0
  0
VERTEX
  5
74D
  8
1
  6
CONTINUOUS
 62
     7
 10
-233.4466214269455
 20
184.0875666048669
 30
0.0
  0
VERTEX
  5
74E
  8
1
  6
CONTINUOUS
 62
     7
 10
-233.4490801517179
 20
184.0780972803229
 30
0.0
  0
VERTEX
  5
74F
  8
1
  6
CONTINUOUS
 62
     7
 10
-233.4513679972686
 20
184.0685228980133
 30
0.0
  0
VERTEX
  5
750
  8
1
  6
CONTINUOUS
 62
     7
 10
-233.4534865722572
 20
184.0588166961746
 30
0.0
  0
VERTEX
  5
751
  8
1
  6
CONTINUOUS
 62
     7
 10
-233.4554231050518
 20
184.049017019351
 30
0.0
  0
VERTEX
  5
752
  8
1
  6
CONTINUOUS
 62
     7
 10
-233.4572037983015
 20
184.0389445435497
 30
0.0
  0
VERTEX
  5
753
  8
1
  6
CONTINUOUS
 62
     7
 10
-233.4587859765511
 20
184.028790660402
 30
0.0
  0
VERTEX
  5
754
  8
1
  6
CONTINUOUS
 62
     7
 10
-233.4601702969834
 20
184.0185229578468
 30
0.0
  0
VERTEX
  5
755
  8
1
  6
CONTINUOUS
 62
     7
 10
-233.4613462093149
 20
184.0081917481077
 30
0.0
  0
VERTEX
  5
756
  8
1
  6
CONTINUOUS
 62
     7
 10
-233.4624872183855
 20
183.9955967467444
 30
0.0
  0
VERTEX
  5
757
  8
1
  6
CONTINUOUS
 62
     7
 10
-233.4633127953942
 20
183.9829221876385
 30
0.0
  0
SEQEND
  5
98C
  8
1
  6
CONTINUOUS
 62
     7
  0
POLYLINE
  5
255
  8
1
  6
CONTINUOUS
 62
     7
 66
     1
 10
0.0
 20
0.0
 30
0.0
  0
VERTEX
  5
758
  8
1
  6
CONTINUOUS
 62
     7
 10
-232.9652244663627
 20
184.4333333333333
 30
0.0
  0
VERTEX
  5
759
  8
1
  6
CONTINUOUS
 62
     7
 10
-233.0595581168902
 20
184.4243535317145
 30
0.0
  0
VERTEX
  5
75A
  8
1
  6
CONTINUOUS
 62
     7
 10
-233.1505035782427
 20
184.3977366619249
 30
0.0
  0
VERTEX
  5
75B
  8
1
  6
CONTINUOUS
 62
     7
 10
-233.2347942860014
 20
184.3544387444024
 30
0.0
  0
VERTEX
  5
75C
  8
1
  6
CONTINUOUS
 62
     7
 10
-233.3094027001142
 20
184.2960149467683
 30
0.0
  0
VERTEX
  5
75D
  8
1
  6
CONTINUOUS
 62
     7
 10
-233.3716490475913
 20
184.224563725567
 30
0.0
  0
VERTEX
  5
75E
  8
1
  6
CONTINUOUS
 62
     7
 10
-233.4192975741592
 20
184.1426514542423
 30
0.0
  0
VERTEX
  5
75F
  8
1
  6
CONTINUOUS
 62
     7
 10
-233.4506368477225
 20
184.05322024455
 30
0.0
  0
VERTEX
  5
760
  8
1
  6
CONTINUOUS
 62
     7
 10
-233.4645412293057
 20
183.9594822722619
 30
0.0
  0
SEQEND
  5
98D
  8
1
  6
CONTINUOUS
 62
     7
  0
LINE
  5
256
  8
1
  6
CONTINUOUS
 62
     7
 10
-235.6539767886324
 20
184.1118748239694
 30
0.0
 11
-235.6210088781635
 21
183.9333142941405
 31
0.0
  0
LINE
  5
257
  8
1
  6
CONTINUOUS
 62
     7
 10
-233.4633127953942
 20
183.9829221876385
 30
0.0
 11
-233.464461252306
 21
183.9610083243249
 31
0.0
  0
LINE
  5
258
  8
1
  6
CONTINUOUS
 62
     9
 10
-233.464461252306
 20
183.9610083243248
 30
0.0
 11
-235.6210088781635
 21
183.9333142941404
 31
0.0
  0
POLYLINE
  5
259
  8
1
  6
CONTINUOUS
 62
     7
 66
     1
 10
0.0
 20
0.0
 30
0.0
  0
VERTEX
  5
761
  8
1
  6
CONTINUOUS
 62
     7
 10
-236.1210059492229
 20
184.4333333333333
 30
0.0
  0
VERTEX
  5
762
  8
1
  6
CONTINUOUS
 62
     7
 10
-236.1003008755791
 20
184.4329044335548
 30
0.0
  0
VERTEX
  5
763
  8
1
  6
CONTINUOUS
 62
     7
 10
-236.0795309134013
 20
184.4316101213358
 30
0.0
  0
VERTEX
  5
764
  8
1
  6
CONTINUOUS
 62
     7
 10
-236.0587969141598
 20
184.4294481290501
 30
0.0
  0
VERTEX
  5
765
  8
1
  6
CONTINUOUS
 62
     7
 10
-236.0379587118174
 20
184.4263879900994
 30
0.0
  0
VERTEX
  5
766
  8
1
  6
CONTINUOUS
 62
     7
 10
-236.0172311953371
 20
184.4224451691084
 30
0.0
  0
VERTEX
  5
767
  8
1
  6
CONTINUOUS
 62
     7
 10
-235.9964763064922
 20
184.4175768351361
 30
0.0
  0
VERTEX
  5
768
  8
1
  6
CONTINUOUS
 62
     7
 10
-235.9759105967899
 20
184.4118168957197
 30
0.0
  0
VERTEX
  5
769
  8
1
  6
CONTINUOUS
 62
     7
 10
-235.9555089328746
 20
184.4051486202708
 30
0.0
  0
VERTEX
  5
76A
  8
1
  6
CONTINUOUS
 62
     7
 10
-235.9372225011161
 20
184.3983302902649
 30
0.0
  0
VERTEX
  5
76B
  8
1
  6
CONTINUOUS
 62
     7
 10
-235.9192159826157
 20
184.3908037702941
 30
0.0
  0
VERTEX
  5
76C
  8
1
  6
CONTINUOUS
 62
     7
 10
-235.9014089994022
 20
184.3825271890962
 30
0.0
  0
VERTEX
  5
76D
  8
1
  6
CONTINUOUS
 62
     7
 10
-235.8839406053371
 20
184.3735580387766
 30
0.0
  0
VERTEX
  5
76E
  8
1
  6
CONTINUOUS
 62
     7
 10
-235.870088325024
 20
184.3658119806976
 30
0.0
  0
VERTEX
  5
76F
  8
1
  6
CONTINUOUS
 62
     7
 10
-235.8564888070019
 20
184.3576302818705
 30
0.0
  0
VERTEX
  5
770
  8
1
  6
CONTINUOUS
 62
     7
 10
-235.843102322648
 20
184.3489851614336
 30
0.0
  0
VERTEX
  5
771
  8
1
  6
CONTINUOUS
 62
     7
 10
-235.8299980594067
 20
184.3399179481786
 30
0.0
  0
VERTEX
  5
772
  8
1
  6
CONTINUOUS
 62
     7
 10
-235.8192300837511
 20
184.3319907318321
 30
0.0
  0
VERTEX
  5
773
  8
1
  6
CONTINUOUS
 62
     7
 10
-235.8086704575262
 20
184.3237724292826
 30
0.0
  0
VERTEX
  5
774
  8
1
  6
CONTINUOUS
 62
     7
 10
-235.7936715198408
 20
184.3112854655786
 30
0.0
  0
VERTEX
  5
775
  8
1
  6
CONTINUOUS
 62
     7
 10
-235.7791711242298
 20
184.298222888371
 30
0.0
  0
VERTEX
  5
776
  8
1
  6
CONTINUOUS
 62
     7
 10
-235.7651072835356
 20
184.2845185854517
 30
0.0
  0
VERTEX
  5
777
  8
1
  6
CONTINUOUS
 62
     7
 10
-235.7515921781491
 20
184.2702728330275
 30
0.0
  0
VERTEX
  5
778
  8
1
  6
CONTINUOUS
 62
     7
 10
-235.7410845382791
 20
184.2583782022746
 30
0.0
  0
VERTEX
  5
779
  8
1
  6
CONTINUOUS
 62
     7
 10
-235.7309596014388
 20
184.2461561569818
 30
0.0
  0
VERTEX
  5
77A
  8
1
  6
CONTINUOUS
 62
     7
 10
-235.7211890746092
 20
184.2335673348564
 30
0.0
  0
VERTEX
  5
77B
  8
1
  6
CONTINUOUS
 62
     7
 10
-235.7118245623004
 20
184.2206736330199
 30
0.0
  0
VERTEX
  5
77C
  8
1
  6
CONTINUOUS
 62
     7
 10
-235.706345501409
 20
184.2127084562531
 30
0.0
  0
SEQEND
  5
98E
  8
1
  6
CONTINUOUS
 62
     7
  0
POLYLINE
  5
25A
  8
1
  6
CONTINUOUS
 62
     7
 66
     1
 10
0.0
 20
0.0
 30
0.0
  0
VERTEX
  5
77D
  8
1
  6
CONTINUOUS
 62
     7
 10
-232.2787049609329
 20
183.9829221876385
 30
0.0
  0
VERTEX
  5
77E
  8
1
  6
CONTINUOUS
 62
     7
 10
-232.2794830681252
 20
183.9949823628518
 30
0.0
  0
VERTEX
  5
77F
  8
1
  6
CONTINUOUS
 62
     7
 10
-232.2805505585788
 20
184.0070070620697
 30
0.0
  0
VERTEX
  5
780
  8
1
  6
CONTINUOUS
 62
     7
 10
-232.2816699213704
 20
184.0170779062487
 30
0.0
  0
VERTEX
  5
781
  8
1
  6
CONTINUOUS
 62
     7
 10
-232.2829875308914
 20
184.0270898086571
 30
0.0
  0
VERTEX
  5
782
  8
1
  6
CONTINUOUS
 62
     7
 10
-232.2845062272362
 20
184.0370724044383
 30
0.0
  0
VERTEX
  5
783
  8
1
  6
CONTINUOUS
 62
     7
 10
-232.2862170925456
 20
184.0469780548594
 30
0.0
  0
VERTEX
  5
784
  8
1
  6
CONTINUOUS
 62
     7
 10
-232.2881557974116
 20
184.0569946052419
 30
0.0
  0
VERTEX
  5
785
  8
1
  6
CONTINUOUS
 62
     7
 10
-232.2902849431417
 20
184.0669151849359
 30
0.0
  0
VERTEX
  5
786
  8
1
  6
CONTINUOUS
 62
     7
 10
-232.2926080400412
 20
184.0767676686363
 30
0.0
  0
VERTEX
  5
787
  8
1
  6
CONTINUOUS
 62
     7
 10
-232.295112249067
 20
184.0865100808781
 30
0.0
  0
VERTEX
  5
788
  8
1
  6
CONTINUOUS
 62
     7
 10
-232.2983802372936
 20
184.0981555738666
 30
0.0
  0
VERTEX
  5
789
  8
1
  6
CONTINUOUS
 62
     7
 10
-232.3018998719741
 20
184.1096354760861
 30
0.0
  0
VERTEX
  5
78A
  8
1
  6
CONTINUOUS
 62
     7
 10
-232.3067205842409
 20
184.1239713197792
 30
0.0
  0
VERTEX
  5
78B
  8
1
  6
CONTINUOUS
 62
     7
 10
-232.311905551701
 20
184.1379938269355
 30
0.0
  0
VERTEX
  5
78C
  8
1
  6
CONTINUOUS
 62
     7
 10
-232.317469406934
 20
184.1517761619006
 30
0.0
  0
VERTEX
  5
78D
  8
1
  6
CONTINUOUS
 62
     7
 10
-232.3233614808405
 20
184.1652256296613
 30
0.0
  0
VERTEX
  5
78E
  8
1
  6
CONTINUOUS
 62
     7
 10
-232.3280312651058
 20
184.1751887068854
 30
0.0
  0
VERTEX
  5
78F
  8
1
  6
CONTINUOUS
 62
     7
 10
-232.3328704369829
 20
184.1849573157604
 30
0.0
  0
VERTEX
  5
790
  8
1
  6
CONTINUOUS
 62
     7
 10
-232.3430544262893
 20
184.2039585626314
 30
0.0
  0
VERTEX
  5
791
  8
1
  6
CONTINUOUS
 62
     7
 10
-232.3502211441689
 20
184.2162650740402
 30
0.0
  0
VERTEX
  5
792
  8
1
  6
CONTINUOUS
 62
     7
 10
-232.3590485396595
 20
184.2304126550083
 30
0.0
  0
VERTEX
  5
793
  8
1
  6
CONTINUOUS
 62
     7
 10
-232.3682166301759
 20
184.2440897776852
 30
0.0
  0
VERTEX
  5
794
  8
1
  6
CONTINUOUS
 62
     7
 10
-232.376153777346
 20
184.2552023113974
 30
0.0
  0
VERTEX
  5
795
  8
1
  6
CONTINUOUS
 62
     7
 10
-232.3842955891169
 20
184.265979276822
 30
0.0
  0
VERTEX
  5
796
  8
1
  6
CONTINUOUS
 62
     7
 10
-232.4011964899484
 20
184.2865998094927
 30
0.0
  0
VERTEX
  5
797
  8
1
  6
CONTINUOUS
 62
     7
 10
-232.4190394708757
 20
184.306181800058
 30
0.0
  0
VERTEX
  5
798
  8
1
  6
CONTINUOUS
 62
     7
 10
-232.4375669229963
 20
184.3245119619465
 30
0.0
  0
VERTEX
  5
799
  8
1
  6
CONTINUOUS
 62
     7
 10
-232.4607138482795
 20
184.3449740927111
 30
0.0
  0
VERTEX
  5
79A
  8
1
  6
CONTINUOUS
 62
     7
 10
-232.4831264466306
 20
184.3625619973618
 30
0.0
  0
VERTEX
  5
79B
  8
1
  6
CONTINUOUS
 62
     7
 10
-232.5061837257538
 20
184.378660609007
 30
0.0
  0
VERTEX
  5
79C
  8
1
  6
CONTINUOUS
 62
     7
 10
-232.5299775366364
 20
184.3933844281848
 30
0.0
  0
VERTEX
  5
79D
  8
1
  6
CONTINUOUS
 62
     7
 10
-232.5543107991321
 20
184.4066495335904
 30
0.0
  0
VERTEX
  5
79E
  8
1
  6
CONTINUOUS
 62
     7
 10
-232.5793994801344
 20
184.4185902898802
 30
0.0
  0
VERTEX
  5
79F
  8
1
  6
CONTINUOUS
 62
     7
 10
-232.6049450533297
 20
184.4290719955715
 30
0.0
  0
VERTEX
  5
7A0
  8
1
  6
CONTINUOUS
 62
     7
 10
-232.6310605074542
 20
184.4381511496559
 30
0.0
  0
VERTEX
  5
7A1
  8
1
  6
CONTINUOUS
 62
     7
 10
-232.6575555950418
 20
184.4457634687155
 30
0.0
  0
VERTEX
  5
7A2
  8
1
  6
CONTINUOUS
 62
     7
 10
-232.6864529479616
 20
184.4523140740818
 30
0.0
  0
VERTEX
  5
7A3
  8
1
  6
CONTINUOUS
 62
     7
 10
-232.7157009640185
 20
184.4571513965419
 30
0.0
  0
VERTEX
  5
7A4
  8
1
  6
CONTINUOUS
 62
     7
 10
-232.7453026220991
 20
184.4602610890241
 30
0.0
  0
VERTEX
  5
7A5
  8
1
  6
CONTINUOUS
 62
     7
 10
-232.7751596636376
 20
184.4616083264146
 30
0.0
  0
VERTEX
  5
7A6
  8
1
  6
CONTINUOUS
 62
     7
 10
-232.7782770954394
 20
184.4616460284205
 30
0.0
  0
SEQEND
  5
98F
  8
1
  6
CONTINUOUS
 62
     7
  0
POLYLINE
  5
25B
  8
1
  6
CONTINUOUS
 62
     7
 66
     1
 10
0.0
 20
0.0
 30
0.0
  0
VERTEX
  5
7A7
  8
1
  6
CONTINUOUS
 62
     7
 10
-232.2774765270214
 20
183.9594822722619
 30
0.0
  0
VERTEX
  5
7A8
  8
1
  6
CONTINUOUS
 62
     7
 10
-232.2913809086046
 20
184.05322024455
 30
0.0
  0
VERTEX
  5
7A9
  8
1
  6
CONTINUOUS
 62
     7
 10
-232.3227201821679
 20
184.1426514542423
 30
0.0
  0
VERTEX
  5
7AA
  8
1
  6
CONTINUOUS
 62
     7
 10
-232.3703687087358
 20
184.224563725567
 30
0.0
  0
VERTEX
  5
7AB
  8
1
  6
CONTINUOUS
 62
     7
 10
-232.4326150562129
 20
184.2960149467683
 30
0.0
  0
VERTEX
  5
7AC
  8
1
  6
CONTINUOUS
 62
     7
 10
-232.5072234703257
 20
184.3544387444024
 30
0.0
  0
VERTEX
  5
7AD
  8
1
  6
CONTINUOUS
 62
     7
 10
-232.5915141780844
 20
184.3977366619249
 30
0.0
  0
VERTEX
  5
7AE
  8
1
  6
CONTINUOUS
 62
     7
 10
-232.6824596394369
 20
184.4243535317145
 30
0.0
  0
VERTEX
  5
7AF
  8
1
  6
CONTINUOUS
 62
     7
 10
-232.7767932899644
 20
184.4333333333333
 30
0.0
  0
SEQEND
  5
990
  8
1
  6
CONTINUOUS
 62
     7
  0
LINE
  5
25C
  8
1
  6
CONTINUOUS
 62
     9
 10
-230.1219905633128
 20
183.9340720647507
 30
0.0
 11
-232.2775565040211
 21
183.9610083243248
 31
0.0
  0
POLYLINE
  5
25D
  8
1
  6
CONTINUOUS
 62
     7
 66
     1
 10
0.0
 20
0.0
 30
0.0
  0
VERTEX
  5
7B0
  8
1
  6
CONTINUOUS
 62
     7
 10
-229.6210118071042
 20
184.4333333333333
 30
0.0
  0
VERTEX
  5
7B1
  8
1
  6
CONTINUOUS
 62
     7
 10
-229.641716880748
 20
184.4329044335548
 30
0.0
  0
VERTEX
  5
7B2
  8
1
  6
CONTINUOUS
 62
     7
 10
-229.6624868429258
 20
184.4316101213358
 30
0.0
  0
VERTEX
  5
7B3
  8
1
  6
CONTINUOUS
 62
     7
 10
-229.6832208421673
 20
184.4294481290501
 30
0.0
  0
VERTEX
  5
7B4
  8
1
  6
CONTINUOUS
 62
     7
 10
-229.7040590445097
 20
184.4263879900994
 30
0.0
  0
VERTEX
  5
7B5
  8
1
  6
CONTINUOUS
 62
     7
 10
-229.72478656099
 20
184.4224451691084
 30
0.0
  0
VERTEX
  5
7B6
  8
1
  6
CONTINUOUS
 62
     7
 10
-229.7455414498348
 20
184.4175768351361
 30
0.0
  0
VERTEX
  5
7B7
  8
1
  6
CONTINUOUS
 62
     7
 10
-229.7661071595371
 20
184.4118168957197
 30
0.0
  0
VERTEX
  5
7B8
  8
1
  6
CONTINUOUS
 62
     7
 10
-229.7865088234525
 20
184.4051486202708
 30
0.0
  0
VERTEX
  5
7B9
  8
1
  6
CONTINUOUS
 62
     7
 10
-229.804795255211
 20
184.3983302902649
 30
0.0
  0
VERTEX
  5
7BA
  8
1
  6
CONTINUOUS
 62
     7
 10
-229.8228017737113
 20
184.3908037702941
 30
0.0
  0
VERTEX
  5
7BB
  8
1
  6
CONTINUOUS
 62
     7
 10
-229.8406087569249
 20
184.3825271890962
 30
0.0
  0
VERTEX
  5
7BC
  8
1
  6
CONTINUOUS
 62
     7
 10
-229.85807715099
 20
184.3735580387766
 30
0.0
  0
VERTEX
  5
7BD
  8
1
  6
CONTINUOUS
 62
     7
 10
-229.8719294313031
 20
184.3658119806976
 30
0.0
  0
VERTEX
  5
7BE
  8
1
  6
CONTINUOUS
 62
     7
 10
-229.8855289493252
 20
184.3576302818705
 30
0.0
  0
VERTEX
  5
7BF
  8
1
  6
CONTINUOUS
 62
     7
 10
-229.8989154336791
 20
184.3489851614336
 30
0.0
  0
VERTEX
  5
7C0
  8
1
  6
CONTINUOUS
 62
     7
 10
-229.9120196969204
 20
184.3399179481786
 30
0.0
  0
VERTEX
  5
7C1
  8
1
  6
CONTINUOUS
 62
     7
 10
-229.922787672576
 20
184.3319907318321
 30
0.0
  0
VERTEX
  5
7C2
  8
1
  6
CONTINUOUS
 62
     7
 10
-229.9333472988008
 20
184.3237724292826
 30
0.0
  0
VERTEX
  5
7C3
  8
1
  6
CONTINUOUS
 62
     7
 10
-229.9483462364862
 20
184.3112854655786
 30
0.0
  0
VERTEX
  5
7C4
  8
1
  6
CONTINUOUS
 62
     7
 10
-229.9628466320973
 20
184.298222888371
 30
0.0
  0
VERTEX
  5
7C5
  8
1
  6
CONTINUOUS
 62
     7
 10
-229.9769104727915
 20
184.2845185854517
 30
0.0
  0
VERTEX
  5
7C6
  8
1
  6
CONTINUOUS
 62
     7
 10
-229.990425578178
 20
184.2702728330275
 30
0.0
  0
VERTEX
  5
7C7
  8
1
  6
CONTINUOUS
 62
     7
 10
-230.000933218048
 20
184.2583782022746
 30
0.0
  0
VERTEX
  5
7C8
  8
1
  6
CONTINUOUS
 62
     7
 10
-230.0110581548883
 20
184.2461561569818
 30
0.0
  0
VERTEX
  5
7C9
  8
1
  6
CONTINUOUS
 62
     7
 10
-230.0208286817179
 20
184.2335673348564
 30
0.0
  0
VERTEX
  5
7CA
  8
1
  6
CONTINUOUS
 62
     7
 10
-230.0301931940267
 20
184.2206736330199
 30
0.0
  0
VERTEX
  5
7CB
  8
1
  6
CONTINUOUS
 62
     7
 10
-230.035672254918
 20
184.2127084562531
 30
0.0
  0
SEQEND
  5
991
  8
1
  6
CONTINUOUS
 62
     7
  0
LINE
  5
25E
  8
1
  6
CONTINUOUS
 62
     7
 10
-230.1210088781636
 20
183.9333142941404
 30
0.0
 11
-230.1219905633128
 21
183.9340720647507
 31
0.0
  0
LINE
  5
25F
  8
1
  6
CONTINUOUS
 62
     7
 10
-232.2775565040211
 20
183.9610083243249
 30
0.0
 11
-232.2787049609329
 21
183.9829221876385
 31
0.0
  0
POLYLINE
  5
260
  8
1
  6
CONTINUOUS
 62
     7
 66
     1
 10
0.0
 20
0.0
 30
0.0
  0
VERTEX
  5
7CC
  8
1
  6
CONTINUOUS
 62
     7
 10
-194.9637406608877
 20
184.4616460284205
 30
0.0
  0
VERTEX
  5
7CD
  8
1
  6
CONTINUOUS
 62
     7
 10
-194.9668580926894
 20
184.4616083264146
 30
0.0
  0
VERTEX
  5
7CE
  8
1
  6
CONTINUOUS
 62
     7
 10
-194.9965133207114
 20
184.4602762037676
 30
0.0
  0
VERTEX
  5
7CF
  8
1
  6
CONTINUOUS
 62
     7
 10
-195.0260421258926
 20
184.4571884476468
 30
0.0
  0
VERTEX
  5
7D0
  8
1
  6
CONTINUOUS
 62
     7
 10
-195.0553671233005
 20
184.4523527562566
 30
0.0
  0
VERTEX
  5
7D1
  8
1
  6
CONTINUOUS
 62
     7
 10
-195.0844621612853
 20
184.4457634687155
 30
0.0
  0
VERTEX
  5
7D2
  8
1
  6
CONTINUOUS
 62
     7
 10
-195.1101107223357
 20
184.4384188378301
 30
0.0
  0
VERTEX
  5
7D3
  8
1
  6
CONTINUOUS
 62
     7
 10
-195.1355451667625
 20
184.4296476384421
 30
0.0
  0
VERTEX
  5
7D4
  8
1
  6
CONTINUOUS
 62
     7
 10
-195.1606568269095
 20
184.4194535333714
 30
0.0
  0
VERTEX
  5
7D5
  8
1
  6
CONTINUOUS
 62
     7
 10
-195.1855929127965
 20
184.4077217009373
 30
0.0
  0
VERTEX
  5
7D6
  8
1
  6
CONTINUOUS
 62
     7
 10
-195.2101168890605
 20
184.3944966688473
 30
0.0
  0
VERTEX
  5
7D7
  8
1
  6
CONTINUOUS
 62
     7
 10
-195.234366677485
 20
184.3796220410058
 30
0.0
  0
VERTEX
  5
7D8
  8
1
  6
CONTINUOUS
 62
     7
 10
-195.2580941871486
 20
184.3631509016428
 30
0.0
  0
VERTEX
  5
7D9
  8
1
  6
CONTINUOUS
 62
     7
 10
-195.2813039080475
 20
184.3449740927111
 30
0.0
  0
VERTEX
  5
7DA
  8
1
  6
CONTINUOUS
 62
     7
 10
-195.30196004555
 20
184.3268370493523
 30
0.0
  0
VERTEX
  5
7DB
  8
1
  6
CONTINUOUS
 62
     7
 10
-195.3219933519161
 20
184.3072047475285
 30
0.0
  0
VERTEX
  5
7DC
  8
1
  6
CONTINUOUS
 62
     7
 10
-195.3397136116932
 20
184.2878767481426
 30
0.0
  0
VERTEX
  5
7DD
  8
1
  6
CONTINUOUS
 62
     7
 10
-195.3567749552999
 20
184.2671951423493
 30
0.0
  0
VERTEX
  5
7DE
  8
1
  6
CONTINUOUS
 62
     7
 10
-195.3659182600691
 20
184.2551284248017
 30
0.0
  0
VERTEX
  5
7DF
  8
1
  6
CONTINUOUS
 62
     7
 10
-195.3748039845363
 20
184.2426395998425
 30
0.0
  0
VERTEX
  5
7E0
  8
1
  6
CONTINUOUS
 62
     7
 10
-195.3834483981636
 20
184.2296706497078
 30
0.0
  0
VERTEX
  5
7E1
  8
1
  6
CONTINUOUS
 62
     7
 10
-195.3917966121581
 20
184.2162650740402
 30
0.0
  0
VERTEX
  5
7E2
  8
1
  6
CONTINUOUS
 62
     7
 10
-195.3987983345256
 20
184.2042510458998
 30
0.0
  0
VERTEX
  5
7E3
  8
1
  6
CONTINUOUS
 62
     7
 10
-195.4055522526773
 20
184.1918894040679
 30
0.0
  0
VERTEX
  5
7E4
  8
1
  6
CONTINUOUS
 62
     7
 10
-195.4112729730437
 20
184.1807312957409
 30
0.0
  0
VERTEX
  5
7E5
  8
1
  6
CONTINUOUS
 62
     7
 10
-195.4167726946401
 20
184.1693124450459
 30
0.0
  0
VERTEX
  5
7E6
  8
1
  6
CONTINUOUS
 62
     7
 10
-195.4220588474815
 20
184.1575890683841
 30
0.0
  0
VERTEX
  5
7E7
  8
1
  6
CONTINUOUS
 62
     7
 10
-195.4270974051118
 20
184.1456063910135
 30
0.0
  0
VERTEX
  5
7E8
  8
1
  6
CONTINUOUS
 62
     7
 10
-195.433891555126
 20
184.1279013423836
 30
0.0
  0
VERTEX
  5
7E9
  8
1
  6
CONTINUOUS
 62
     7
 10
-195.440117884353
 20
184.1096354760861
 30
0.0
  0
VERTEX
  5
7EA
  8
1
  6
CONTINUOUS
 62
     7
 10
-195.4432175628472
 20
184.0995780480536
 30
0.0
  0
VERTEX
  5
7EB
  8
1
  6
CONTINUOUS
 62
     7
 10
-195.4461274716429
 20
184.089382275055
 30
0.0
  0
VERTEX
  5
7EC
  8
1
  6
CONTINUOUS
 62
     7
 10
-195.4488501636507
 20
184.0790160468511
 30
0.0
  0
VERTEX
  5
7ED
  8
1
  6
CONTINUOUS
 62
     7
 10
-195.4513679972686
 20
184.0685228980133
 30
0.0
  0
VERTEX
  5
7EE
  8
1
  6
CONTINUOUS
 62
     7
 10
-195.4535018434465
 20
184.0587432274569
 30
0.0
  0
VERTEX
  5
7EF
  8
1
  6
CONTINUOUS
 62
     7
 10
-195.4554508589381
 20
184.0488687224344
 30
0.0
  0
VERTEX
  5
7F0
  8
1
  6
CONTINUOUS
 62
     7
 10
-195.4572162301639
 20
184.0388697652314
 30
0.0
  0
VERTEX
  5
7F1
  8
1
  6
CONTINUOUS
 62
     7
 10
-195.458785976551
 20
184.028790660402
 30
0.0
  0
VERTEX
  5
7F2
  8
1
  6
CONTINUOUS
 62
     7
 10
-195.4603020308755
 20
184.0174538647474
 30
0.0
  0
VERTEX
  5
7F3
  8
1
  6
CONTINUOUS
 62
     7
 10
-195.4615637561387
 20
184.0060409847762
 30
0.0
  0
VERTEX
  5
7F4
  8
1
  6
CONTINUOUS
 62
     7
 10
-195.4625709243858
 20
183.9945056761567
 30
0.0
  0
VERTEX
  5
7F5
  8
1
  6
CONTINUOUS
 62
     7
 10
-195.4633127953942
 20
183.9829221876385
 30
0.0
  0
SEQEND
  5
992
  8
1
  6
CONTINUOUS
 62
     7
  0
POLYLINE
  5
261
  8
1
  6
CONTINUOUS
 62
     7
 66
     1
 10
0.0
 20
0.0
 30
0.0
  0
VERTEX
  5
7F6
  8
1
  6
CONTINUOUS
 62
     7
 10
-194.9652244663627
 20
184.4333333333333
 30
0.0
  0
VERTEX
  5
7F7
  8
1
  6
CONTINUOUS
 62
     7
 10
-195.0595581168902
 20
184.4243535317145
 30
0.0
  0
VERTEX
  5
7F8
  8
1
  6
CONTINUOUS
 62
     7
 10
-195.1505035782427
 20
184.3977366619249
 30
0.0
  0
VERTEX
  5
7F9
  8
1
  6
CONTINUOUS
 62
     7
 10
-195.2347942860014
 20
184.3544387444024
 30
0.0
  0
VERTEX
  5
7FA
  8
1
  6
CONTINUOUS
 62
     7
 10
-195.3094027001142
 20
184.2960149467683
 30
0.0
  0
VERTEX
  5
7FB
  8
1
  6
CONTINUOUS
 62
     7
 10
-195.3716490475913
 20
184.224563725567
 30
0.0
  0
VERTEX
  5
7FC
  8
1
  6
CONTINUOUS
 62
     7
 10
-195.4192975741592
 20
184.1426514542423
 30
0.0
  0
VERTEX
  5
7FD
  8
1
  6
CONTINUOUS
 62
     7
 10
-195.4506368477225
 20
184.05322024455
 30
0.0
  0
VERTEX
  5
7FE
  8
1
  6
CONTINUOUS
 62
     7
 10
-195.4645412293057
 20
183.9594822722619
 30
0.0
  0
SEQEND
  5
993
  8
1
  6
CONTINUOUS
 62
     7
  0
LINE
  5
262
  8
1
  6
CONTINUOUS
 62
     7
 10
-197.6539767886323
 20
184.1118748239693
 30
0.0
 11
-197.6210088781635
 21
183.9333142941405
 31
0.0
  0
LINE
  5
263
  8
1
  6
CONTINUOUS
 62
     7
 10
-195.4633127953942
 20
183.9829221876385
 30
0.0
 11
-195.464461252306
 21
183.9610083243248
 31
0.0
  0
LINE
  5
264
  8
1
  6
CONTINUOUS
 62
     9
 10
-195.464461252306
 20
183.9610083243248
 30
0.0
 11
-197.6210088781636
 21
183.9333142941404
 31
0.0
  0
POLYLINE
  5
265
  8
1
  6
CONTINUOUS
 62
     7
 66
     1
 10
0.0
 20
0.0
 30
0.0
  0
VERTEX
  5
7FF
  8
1
  6
CONTINUOUS
 62
     7
 10
-198.1210059492229
 20
184.4333333333333
 30
0.0
  0
VERTEX
  5
800
  8
1
  6
CONTINUOUS
 62
     7
 10
-198.1003008755791
 20
184.4329044335548
 30
0.0
  0
VERTEX
  5
801
  8
1
  6
CONTINUOUS
 62
     7
 10
-198.0795309134012
 20
184.4316101213358
 30
0.0
  0
VERTEX
  5
802
  8
1
  6
CONTINUOUS
 62
     7
 10
-198.0587969141598
 20
184.4294481290501
 30
0.0
  0
VERTEX
  5
803
  8
1
  6
CONTINUOUS
 62
     7
 10
-198.0379587118174
 20
184.4263879900994
 30
0.0
  0
VERTEX
  5
804
  8
1
  6
CONTINUOUS
 62
     7
 10
-198.0172311953371
 20
184.4224451691084
 30
0.0
  0
VERTEX
  5
805
  8
1
  6
CONTINUOUS
 62
     7
 10
-197.9964763064922
 20
184.4175768351361
 30
0.0
  0
VERTEX
  5
806
  8
1
  6
CONTINUOUS
 62
     7
 10
-197.9759105967899
 20
184.4118168957197
 30
0.0
  0
VERTEX
  5
807
  8
1
  6
CONTINUOUS
 62
     7
 10
-197.9555089328746
 20
184.4051486202708
 30
0.0
  0
VERTEX
  5
808
  8
1
  6
CONTINUOUS
 62
     7
 10
-197.9372225011161
 20
184.3983302902649
 30
0.0
  0
VERTEX
  5
809
  8
1
  6
CONTINUOUS
 62
     7
 10
-197.9192159826157
 20
184.3908037702941
 30
0.0
  0
VERTEX
  5
80A
  8
1
  6
CONTINUOUS
 62
     7
 10
-197.9014089994022
 20
184.3825271890962
 30
0.0
  0
VERTEX
  5
80B
  8
1
  6
CONTINUOUS
 62
     7
 10
-197.8839406053371
 20
184.3735580387766
 30
0.0
  0
VERTEX
  5
80C
  8
1
  6
CONTINUOUS
 62
     7
 10
-197.870088325024
 20
184.3658119806976
 30
0.0
  0
VERTEX
  5
80D
  8
1
  6
CONTINUOUS
 62
     7
 10
-197.8564888070019
 20
184.3576302818705
 30
0.0
  0
VERTEX
  5
80E
  8
1
  6
CONTINUOUS
 62
     7
 10
-197.843102322648
 20
184.3489851614336
 30
0.0
  0
VERTEX
  5
80F
  8
1
  6
CONTINUOUS
 62
     7
 10
-197.8299980594067
 20
184.3399179481786
 30
0.0
  0
VERTEX
  5
810
  8
1
  6
CONTINUOUS
 62
     7
 10
-197.8192300837511
 20
184.3319907318321
 30
0.0
  0
VERTEX
  5
811
  8
1
  6
CONTINUOUS
 62
     7
 10
-197.8086704575262
 20
184.3237724292826
 30
0.0
  0
VERTEX
  5
812
  8
1
  6
CONTINUOUS
 62
     7
 10
-197.7936715198408
 20
184.3112854655786
 30
0.0
  0
VERTEX
  5
813
  8
1
  6
CONTINUOUS
 62
     7
 10
-197.7791711242298
 20
184.298222888371
 30
0.0
  0
VERTEX
  5
814
  8
1
  6
CONTINUOUS
 62
     7
 10
-197.7651072835356
 20
184.2845185854517
 30
0.0
  0
VERTEX
  5
815
  8
1
  6
CONTINUOUS
 62
     7
 10
-197.751592178149
 20
184.2702728330275
 30
0.0
  0
VERTEX
  5
816
  8
1
  6
CONTINUOUS
 62
     7
 10
-197.741084538279
 20
184.2583782022746
 30
0.0
  0
VERTEX
  5
817
  8
1
  6
CONTINUOUS
 62
     7
 10
-197.7309596014388
 20
184.2461561569818
 30
0.0
  0
VERTEX
  5
818
  8
1
  6
CONTINUOUS
 62
     7
 10
-197.7211890746091
 20
184.2335673348565
 30
0.0
  0
VERTEX
  5
819
  8
1
  6
CONTINUOUS
 62
     7
 10
-197.7118245623003
 20
184.2206736330199
 30
0.0
  0
VERTEX
  5
81A
  8
1
  6
CONTINUOUS
 62
     7
 10
-197.706345501409
 20
184.2127084562531
 30
0.0
  0
SEQEND
  5
994
  8
1
  6
CONTINUOUS
 62
     7
  0
LINE
  5
266
  8
1
  6
CONTINUOUS
 62
     9
 10
-192.1219905633128
 20
183.9340720647507
 30
0.0
 11
-194.277556504021
 21
183.9610083243248
 31
0.0
  0
POLYLINE
  5
267
  8
1
  6
CONTINUOUS
 62
     7
 66
     1
 10
0.0
 20
0.0
 30
0.0
  0
VERTEX
  5
81B
  8
1
  6
CONTINUOUS
 62
     7
 10
-194.2787049609329
 20
183.9829221876385
 30
0.0
  0
VERTEX
  5
81C
  8
1
  6
CONTINUOUS
 62
     7
 10
-194.279814471319
 20
183.9990818417654
 30
0.0
  0
VERTEX
  5
81D
  8
1
  6
CONTINUOUS
 62
     7
 10
-194.2814380379207
 20
184.0151362597079
 30
0.0
  0
VERTEX
  5
81E
  8
1
  6
CONTINUOUS
 62
     7
 10
-194.2833088063076
 20
184.0293105559488
 30
0.0
  0
VERTEX
  5
81F
  8
1
  6
CONTINUOUS
 62
     7
 10
-194.2855702450471
 20
184.0433578508056
 30
0.0
  0
VERTEX
  5
820
  8
1
  6
CONTINUOUS
 62
     7
 10
-194.28820780345
 20
184.0572434198014
 30
0.0
  0
VERTEX
  5
821
  8
1
  6
CONTINUOUS
 62
     7
 10
-194.2912069308274
 20
184.0709325384589
 30
0.0
  0
VERTEX
  5
822
  8
1
  6
CONTINUOUS
 62
     7
 10
-194.2944581561837
 20
184.0840406710465
 30
0.0
  0
VERTEX
  5
823
  8
1
  6
CONTINUOUS
 62
     7
 10
-194.2980278500945
 20
184.0969487721075
 30
0.0
  0
VERTEX
  5
824
  8
1
  6
CONTINUOUS
 62
     7
 10
-194.3018998719741
 20
184.1096354760861
 30
0.0
  0
VERTEX
  5
825
  8
1
  6
CONTINUOUS
 62
     7
 10
-194.3067205842409
 20
184.1239713197792
 30
0.0
  0
VERTEX
  5
826
  8
1
  6
CONTINUOUS
 62
     7
 10
-194.311905551701
 20
184.1379938269355
 30
0.0
  0
VERTEX
  5
827
  8
1
  6
CONTINUOUS
 62
     7
 10
-194.3194386662322
 20
184.1563895021533
 30
0.0
  0
VERTEX
  5
828
  8
1
  6
CONTINUOUS
 62
     7
 10
-194.3275545073154
 20
184.1741956557839
 30
0.0
  0
VERTEX
  5
829
  8
1
  6
CONTINUOUS
 62
     7
 10
-194.3361989710867
 20
184.1913843358926
 30
0.0
  0
VERTEX
  5
82A
  8
1
  6
CONTINUOUS
 62
     7
 10
-194.3430774360021
 20
184.203999344663
 30
0.0
  0
VERTEX
  5
82B
  8
1
  6
CONTINUOUS
 62
     7
 10
-194.3502211441689
 20
184.2162650740402
 30
0.0
  0
VERTEX
  5
82C
  8
1
  6
CONTINUOUS
 62
     7
 10
-194.362084488091
 20
184.2350489054942
 30
0.0
  0
VERTEX
  5
82D
  8
1
  6
CONTINUOUS
 62
     7
 10
-194.3745216960139
 20
184.2529683814632
 30
0.0
  0
VERTEX
  5
82E
  8
1
  6
CONTINUOUS
 62
     7
 10
-194.3876155165425
 20
184.2702078052627
 30
0.0
  0
VERTEX
  5
82F
  8
1
  6
CONTINUOUS
 62
     7
 10
-194.4011964899485
 20
184.2865998094927
 30
0.0
  0
VERTEX
  5
830
  8
1
  6
CONTINUOUS
 62
     7
 10
-194.4154140786635
 20
184.3023665878935
 30
0.0
  0
VERTEX
  5
831
  8
1
  6
CONTINUOUS
 62
     7
 10
-194.4300519289355
 20
184.3173028952084
 30
0.0
  0
VERTEX
  5
832
  8
1
  6
CONTINUOUS
 62
     7
 10
-194.4452016178493
 20
184.3315413044097
 30
0.0
  0
VERTEX
  5
833
  8
1
  6
CONTINUOUS
 62
     7
 10
-194.4607138482795
 20
184.3449740927111
 30
0.0
  0
VERTEX
  5
834
  8
1
  6
CONTINUOUS
 62
     7
 10
-194.4831489569346
 20
184.3625788671049
 30
0.0
  0
VERTEX
  5
835
  8
1
  6
CONTINUOUS
 62
     7
 10
-194.5061837257538
 20
184.378660609007
 30
0.0
  0
VERTEX
  5
836
  8
1
  6
CONTINUOUS
 62
     7
 10
-194.5299981339033
 20
184.39339654514
 30
0.0
  0
VERTEX
  5
837
  8
1
  6
CONTINUOUS
 62
     7
 10
-194.5543107991321
 20
184.4066495335904
 30
0.0
  0
VERTEX
  5
838
  8
1
  6
CONTINUOUS
 62
     7
 10
-194.5794193113252
 20
184.4185991642823
 30
0.0
  0
VERTEX
  5
839
  8
1
  6
CONTINUOUS
 62
     7
 10
-194.6049450533297
 20
184.4290719955715
 30
0.0
  0
VERTEX
  5
83A
  8
1
  6
CONTINUOUS
 62
     7
 10
-194.6310800528377
 20
184.4381574064504
 30
0.0
  0
VERTEX
  5
83B
  8
1
  6
CONTINUOUS
 62
     7
 10
-194.6575555950418
 20
184.4457634687155
 30
0.0
  0
VERTEX
  5
83C
  8
1
  6
CONTINUOUS
 62
     7
 10
-194.6864529479616
 20
184.4523140740818
 30
0.0
  0
VERTEX
  5
83D
  8
1
  6
CONTINUOUS
 62
     7
 10
-194.7157509005279
 20
184.4571581660181
 30
0.0
  0
VERTEX
  5
83E
  8
1
  6
CONTINUOUS
 62
     7
 10
-194.7453026220991
 20
184.4602610890241
 30
0.0
  0
VERTEX
  5
83F
  8
1
  6
CONTINUOUS
 62
     7
 10
-194.7751596636376
 20
184.4616083264146
 30
0.0
  0
VERTEX
  5
840
  8
1
  6
CONTINUOUS
 62
     7
 10
-194.7782770954394
 20
184.4616460284205
 30
0.0
  0
SEQEND
  5
995
  8
1
  6
CONTINUOUS
 62
     7
  0
POLYLINE
  5
268
  8
1
  6
CONTINUOUS
 62
     7
 66
     1
 10
0.0
 20
0.0
 30
0.0
  0
VERTEX
  5
841
  8
1
  6
CONTINUOUS
 62
     7
 10
-191.6210118071042
 20
184.4333333333333
 30
0.0
  0
VERTEX
  5
842
  8
1
  6
CONTINUOUS
 62
     7
 10
-191.641716880748
 20
184.4329044335548
 30
0.0
  0
VERTEX
  5
843
  8
1
  6
CONTINUOUS
 62
     7
 10
-191.6624868429258
 20
184.4316101213358
 30
0.0
  0
VERTEX
  5
844
  8
1
  6
CONTINUOUS
 62
     7
 10
-191.6832208421673
 20
184.4294481290501
 30
0.0
  0
VERTEX
  5
845
  8
1
  6
CONTINUOUS
 62
     7
 10
-191.7040590445097
 20
184.4263879900994
 30
0.0
  0
VERTEX
  5
846
  8
1
  6
CONTINUOUS
 62
     7
 10
-191.72478656099
 20
184.4224451691084
 30
0.0
  0
VERTEX
  5
847
  8
1
  6
CONTINUOUS
 62
     7
 10
-191.7455414498349
 20
184.4175768351361
 30
0.0
  0
VERTEX
  5
848
  8
1
  6
CONTINUOUS
 62
     7
 10
-191.7661071595372
 20
184.4118168957197
 30
0.0
  0
VERTEX
  5
849
  8
1
  6
CONTINUOUS
 62
     7
 10
-191.7865088234525
 20
184.4051486202708
 30
0.0
  0
VERTEX
  5
84A
  8
1
  6
CONTINUOUS
 62
     7
 10
-191.804795255211
 20
184.3983302902649
 30
0.0
  0
VERTEX
  5
84B
  8
1
  6
CONTINUOUS
 62
     7
 10
-191.8228017737113
 20
184.3908037702941
 30
0.0
  0
VERTEX
  5
84C
  8
1
  6
CONTINUOUS
 62
     7
 10
-191.8406087569249
 20
184.3825271890962
 30
0.0
  0
VERTEX
  5
84D
  8
1
  6
CONTINUOUS
 62
     7
 10
-191.85807715099
 20
184.3735580387766
 30
0.0
  0
VERTEX
  5
84E
  8
1
  6
CONTINUOUS
 62
     7
 10
-191.8719294313031
 20
184.3658119806976
 30
0.0
  0
VERTEX
  5
84F
  8
1
  6
CONTINUOUS
 62
     7
 10
-191.8855289493252
 20
184.3576302818705
 30
0.0
  0
VERTEX
  5
850
  8
1
  6
CONTINUOUS
 62
     7
 10
-191.8989154336791
 20
184.3489851614336
 30
0.0
  0
VERTEX
  5
851
  8
1
  6
CONTINUOUS
 62
     7
 10
-191.9120196969204
 20
184.3399179481786
 30
0.0
  0
VERTEX
  5
852
  8
1
  6
CONTINUOUS
 62
     7
 10
-191.922787672576
 20
184.3319907318321
 30
0.0
  0
VERTEX
  5
853
  8
1
  6
CONTINUOUS
 62
     7
 10
-191.9333472988008
 20
184.3237724292826
 30
0.0
  0
VERTEX
  5
854
  8
1
  6
CONTINUOUS
 62
     7
 10
-191.9483462364862
 20
184.3112854655786
 30
0.0
  0
VERTEX
  5
855
  8
1
  6
CONTINUOUS
 62
     7
 10
-191.9628466320973
 20
184.298222888371
 30
0.0
  0
VERTEX
  5
856
  8
1
  6
CONTINUOUS
 62
     7
 10
-191.9769104727915
 20
184.2845185854517
 30
0.0
  0
VERTEX
  5
857
  8
1
  6
CONTINUOUS
 62
     7
 10
-191.990425578178
 20
184.2702728330275
 30
0.0
  0
VERTEX
  5
858
  8
1
  6
CONTINUOUS
 62
     7
 10
-192.000933218048
 20
184.2583782022746
 30
0.0
  0
VERTEX
  5
859
  8
1
  6
CONTINUOUS
 62
     7
 10
-192.0110581548883
 20
184.2461561569818
 30
0.0
  0
VERTEX
  5
85A
  8
1
  6
CONTINUOUS
 62
     7
 10
-192.020828681718
 20
184.2335673348565
 30
0.0
  0
VERTEX
  5
85B
  8
1
  6
CONTINUOUS
 62
     7
 10
-192.0301931940267
 20
184.2206736330199
 30
0.0
  0
VERTEX
  5
85C
  8
1
  6
CONTINUOUS
 62
     7
 10
-192.035672254918
 20
184.2127084562531
 30
0.0
  0
SEQEND
  5
996
  8
1
  6
CONTINUOUS
 62
     7
  0
LINE
  5
269
  8
1
  6
CONTINUOUS
 62
     7
 10
-192.1210088781635
 20
183.9333142941404
 30
0.0
 11
-192.1219905633128
 21
183.9340720647507
 31
0.0
  0
LINE
  5
26A
  8
1
  6
CONTINUOUS
 62
     7
 10
-194.2775565040211
 20
183.9610083243249
 30
0.0
 11
-194.2787049609329
 21
183.9829221876385
 31
0.0
  0
POLYLINE
  5
26B
  8
1
  6
CONTINUOUS
 62
     7
 66
     1
 10
0.0
 20
0.0
 30
0.0
  0
VERTEX
  5
85D
  8
1
  6
CONTINUOUS
 62
     7
 10
-194.2774765270214
 20
183.9594822722619
 30
0.0
  0
VERTEX
  5
85E
  8
1
  6
CONTINUOUS
 62
     7
 10
-194.2913809086046
 20
184.05322024455
 30
0.0
  0
VERTEX
  5
85F
  8
1
  6
CONTINUOUS
 62
     7
 10
-194.3227201821678
 20
184.1426514542423
 30
0.0
  0
VERTEX
  5
860
  8
1
  6
CONTINUOUS
 62
     7
 10
-194.3703687087357
 20
184.224563725567
 30
0.0
  0
VERTEX
  5
861
  8
1
  6
CONTINUOUS
 62
     7
 10
-194.4326150562129
 20
184.2960149467683
 30
0.0
  0
VERTEX
  5
862
  8
1
  6
CONTINUOUS
 62
     7
 10
-194.5072234703257
 20
184.3544387444024
 30
0.0
  0
VERTEX
  5
863
  8
1
  6
CONTINUOUS
 62
     7
 10
-194.5915141780844
 20
184.3977366619249
 30
0.0
  0
VERTEX
  5
864
  8
1
  6
CONTINUOUS
 62
     7
 10
-194.6824596394369
 20
184.4243535317145
 30
0.0
  0
VERTEX
  5
865
  8
1
  6
CONTINUOUS
 62
     7
 10
-194.7767932899643
 20
184.4333333333333
 30
0.0
  0
SEQEND
  5
997
  8
1
  6
CONTINUOUS
 62
     7
  0
POLYLINE
  5
26C
  8
1
  6
CONTINUOUS
 62
     7
 66
     1
 10
0.0
 20
0.0
 30
0.0
  0
VERTEX
  5
866
  8
1
  6
CONTINUOUS
 62
     7
 10
-188.8710088781636
 20
196.4336379488199
 30
0.0
  0
VERTEX
  5
867
  8
1
  6
CONTINUOUS
 62
     7
 10
-189.024717631451
 20
197.9943335528368
 30
0.0
  0
VERTEX
  5
868
  8
1
  6
CONTINUOUS
 62
     7
 10
-189.4799375210092
 20
199.4950348859709
 30
0.0
  0
VERTEX
  5
869
  8
1
  6
CONTINUOUS
 62
     7
 10
-190.2191763924871
 20
200.8780764112896
 30
0.0
  0
VERTEX
  5
86A
  8
1
  6
CONTINUOUS
 62
     7
 10
-191.2140284562023
 20
202.0903137552945
 30
0.0
  0
VERTEX
  5
86B
  8
1
  6
CONTINUOUS
 62
     7
 10
-192.4262658002072
 20
203.0851658190097
 30
0.0
  0
VERTEX
  5
86C
  8
1
  6
CONTINUOUS
 62
     7
 10
-193.8093073255259
 20
203.8244046904877
 30
0.0
  0
VERTEX
  5
86D
  8
1
  6
CONTINUOUS
 62
     7
 10
-195.31000865866
 20
204.2796245800458
 30
0.0
  0
VERTEX
  5
86E
  8
1
  6
CONTINUOUS
 62
     7
 10
-196.8707042626769
 20
204.4333333333333
 30
0.0
  0
SEQEND
  5
998
  8
1
  6
CONTINUOUS
 62
     7
  0
LINE
  5
26D
  8
1
  6
CONTINUOUS
 62
     9
 10
-196.8955169046398
 20
204.4085206913704
 30
0.0
 11
-196.8707042626769
 21
204.4333333333333
 31
0.0
  0
LINE
  5
26E
  8
1
  6
CONTINUOUS
 62
     7
 10
-255.8797357459543
 20
191.9246064655426
 30
0.0
 11
-251.3710088781635
 21
191.9246064655426
 31
0.0
  0
LINE
  5
26F
  8
1
  6
CONTINUOUS
 62
     7
 10
-249.3710088781635
 20
191.9333333333333
 30
0.0
 11
-255.8710088781635
 21
191.9333333333333
 31
0.0
  0
LINE
  5
270
  8
1
  6
CONTINUOUS
 62
     7
 10
-249.3710088781635
 20
191.9246064655426
 30
0.0
 11
-249.3622820103728
 21
191.9246064655426
 31
0.0
  0
LINE
  5
271
  8
1
  6
CONTINUOUS
 62
     7
 10
-196.8707042626769
 20
204.4333333333333
 30
0.0
 11
-205.3710088781635
 21
204.4333333333333
 31
0.0
  0
LINE
  5
272
  8
1
  6
CONTINUOUS
 62
     9
 10
-198.6210088781635
 20
177.5649858309207
 30
0.0
 11
-195.7996625874297
 21
177.5649858309207
 31
0.0
  0
LINE
  5
273
  8
1
  6
CONTINUOUS
 62
     9
 10
-195.8132267188196
 20
177.3061667858182
 30
0.0
 11
-198.5869347044526
 21
177.3061667858182
 31
0.0
  0
LINE
  5
274
  8
1
  6
CONTINUOUS
 62
     7
 10
-195.7996625874297
 20
177.5649858309207
 30
0.0
 11
-195.8132267188196
 21
177.3061667858182
 31
0.0
  0
LINE
  5
275
  8
1
  6
CONTINUOUS
 62
     9
 10
-191.1550830518744
 20
177.3061667858182
 30
0.0
 11
-193.9287910375074
 21
177.3061667858182
 31
0.0
  0
LINE
  5
276
  8
1
  6
CONTINUOUS
 62
     9
 10
-193.9423551688974
 20
177.5649858309207
 30
0.0
 11
-191.1210088781635
 21
177.5649858309207
 31
0.0
  0
LINE
  5
277
  8
1
  6
CONTINUOUS
 62
     7
 10
-193.9287910375074
 20
177.3061667858182
 30
0.0
 11
-193.9423551688974
 21
177.5649858309207
 31
0.0
  0
LINE
  5
278
  8
1
  6
CONTINUOUS
 62
     9
 10
-236.6210088781635
 20
177.5649858309207
 30
0.0
 11
-233.7996625874297
 21
177.5649858309207
 31
0.0
  0
LINE
  5
279
  8
1
  6
CONTINUOUS
 62
     7
 10
-233.7996625874297
 20
177.5649858309207
 30
0.0
 11
-233.8132267188197
 21
177.3061667858182
 31
0.0
  0
LINE
  5
27A
  8
1
  6
CONTINUOUS
 62
     9
 10
-233.8132267188197
 20
177.3061667858182
 30
0.0
 11
-236.5869347044526
 21
177.3061667858182
 31
0.0
  0
LINE
  5
27B
  8
1
  6
CONTINUOUS
 62
     9
 10
-229.1550830518745
 20
177.3061667858182
 30
0.0
 11
-231.9287910375074
 21
177.3061667858182
 31
0.0
  0
LINE
  5
27C
  8
1
  6
CONTINUOUS
 62
     9
 10
-231.9423551688974
 20
177.5649858309207
 30
0.0
 11
-229.1210088781636
 21
177.5649858309207
 31
0.0
  0
LINE
  5
27D
  8
1
  6
CONTINUOUS
 62
     7
 10
-231.9287910375074
 20
177.3061667858182
 30
0.0
 11
-231.9423551688974
 21
177.5649858309207
 31
0.0
  0
LINE
  5
27E
  8
1
  6
CONTINUOUS
 62
     7
 10
-191.1210088781635
 20
178.1333333333333
 30
0.0
 11
-193.9721409993599
 21
178.1333333333333
 31
0.0
  0
LINE
  5
27F
  8
1
  6
CONTINUOUS
 62
     7
 10
-193.9423551688974
 20
177.5649858309207
 30
0.0
 11
-193.9721409993599
 21
178.1333333333333
 31
0.0
  0
LINE
  5
280
  8
1
  6
CONTINUOUS
 62
     7
 10
-195.7698767569672
 20
178.1333333333333
 30
0.0
 11
-198.6210088781635
 21
178.1333333333333
 31
0.0
  0
LINE
  5
281
  8
1
  6
CONTINUOUS
 62
     7
 10
-195.7698767569672
 20
178.1333333333333
 30
0.0
 11
-195.7996625874297
 21
177.5649858309207
 31
0.0
  0
LINE
  5
282
  8
1
  6
CONTINUOUS
 62
     7
 10
-229.1210088781636
 20
178.1333333333333
 30
0.0
 11
-231.9721409993599
 21
178.1333333333333
 31
0.0
  0
LINE
  5
283
  8
1
  6
CONTINUOUS
 62
     7
 10
-231.9423551688974
 20
177.5649858309208
 30
0.0
 11
-231.9721409993599
 21
178.1333333333334
 31
0.0
  0
LINE
  5
284
  8
1
  6
CONTINUOUS
 62
     7
 10
-233.7698767569672
 20
178.1333333333333
 30
0.0
 11
-236.6210088781636
 21
178.1333333333333
 31
0.0
  0
LINE
  5
285
  8
1
  6
CONTINUOUS
 62
     7
 10
-233.7698767569672
 20
178.1333333333333
 30
0.0
 11
-233.7996625874297
 21
177.5649858309207
 31
0.0
  0
LINE
  5
286
  8
1
  6
CONTINUOUS
 62
     9
 10
-197.1126131427319
 20
171.8039238107821
 30
0.0
 11
-196.101587054217
 21
171.8039238107821
 31
0.0
  0
LINE
  5
287
  8
1
  6
CONTINUOUS
 62
     7
 10
-195.8132267188196
 20
177.3061667858182
 30
0.0
 11
-196.101587054217
 21
171.8039238107821
 31
0.0
  0
LINE
  5
288
  8
1
  6
CONTINUOUS
 62
     9
 10
-193.6404307021101
 20
171.8039238107821
 30
0.0
 11
-192.6294046135952
 21
171.8039238107821
 31
0.0
  0
LINE
  5
289
  8
1
  6
CONTINUOUS
 62
     7
 10
-193.6404307021101
 20
171.8039238107822
 30
0.0
 11
-193.9287910375074
 21
177.3061667858182
 31
0.0
  0
LINE
  5
28A
  8
1
  6
CONTINUOUS
 62
     9
 10
-231.6404307021101
 20
171.8039238107821
 30
0.0
 11
-230.6294046135952
 21
171.8039238107821
 31
0.0
  0
LINE
  5
28B
  8
1
  6
CONTINUOUS
 62
     7
 10
-231.6404307021101
 20
171.8039238107822
 30
0.0
 11
-231.9287910375074
 21
177.3061667858182
 31
0.0
  0
LINE
  5
28C
  8
1
  6
CONTINUOUS
 62
     9
 10
-235.1126131427318
 20
171.8039238107821
 30
0.0
 11
-234.101587054217
 21
171.8039238107821
 31
0.0
  0
LINE
  5
28D
  8
1
  6
CONTINUOUS
 62
     7
 10
-233.8132267188197
 20
177.3061667858182
 30
0.0
 11
-234.101587054217
 21
171.8039238107821
 31
0.0
  0
LINE
  5
28E
  8
1
  6
CONTINUOUS
 62
     7
 10
-233.7698767569672
 20
178.1333333333333
 30
0.0
 11
-233.4671121034693
 21
183.9104270709379
 31
0.0
  0
LINE
  5
28F
  8
1
  6
CONTINUOUS
 62
     7
 10
-233.4671121034693
 20
183.9104270709379
 30
0.0
 11
-233.464461252306
 21
183.9610083243249
 31
0.0
  0
LINE
  5
290
  8
1
  6
CONTINUOUS
 62
     7
 10
-232.2775565040211
 20
183.9610083243248
 30
0.0
 11
-232.2748851401666
 21
183.9100356654737
 31
0.0
  0
LINE
  5
291
  8
1
  6
CONTINUOUS
 62
     7
 10
-232.2748851401666
 20
183.9100356654737
 30
0.0
 11
-231.9721409993599
 21
178.1333333333333
 31
0.0
  0
LINE
  5
292
  8
1
  6
CONTINUOUS
 62
     7
 10
-195.7698767569672
 20
178.1333333333333
 30
0.0
 11
-195.4671121034693
 21
183.9104270709379
 31
0.0
  0
LINE
  5
293
  8
1
  6
CONTINUOUS
 62
     7
 10
-195.4671121034693
 20
183.9104270709379
 30
0.0
 11
-195.464461252306
 21
183.9610083243248
 31
0.0
  0
LINE
  5
294
  8
1
  6
CONTINUOUS
 62
     7
 10
-194.2775565040211
 20
183.9610083243248
 30
0.0
 11
-194.2748851401666
 21
183.9100356654737
 31
0.0
  0
LINE
  5
295
  8
1
  6
CONTINUOUS
 62
     7
 10
-194.2748851401666
 20
183.9100356654737
 30
0.0
 11
-193.9721409993599
 21
178.1333333333333
 31
0.0
  0
LINE
  5
296
  8
1
  6
CONTINUOUS
 62
     7
 10
-193.1123675267398
 20
171.4333333333333
 30
0.0
 11
-193.6210088781635
 21
171.4333333333333
 31
0.0
  0
LINE
  5
297
  8
1
  6
CONTINUOUS
 62
     7
 10
-193.6210088781635
 20
171.4333333333333
 30
0.0
 11
-193.6404307021101
 21
171.8039238107822
 31
0.0
  0
LINE
  5
298
  8
1
  6
CONTINUOUS
 62
     7
 10
-231.1123675267397
 20
171.4333333333333
 30
0.0
 11
-231.6210088781635
 21
171.4333333333333
 31
0.0
  0
LINE
  5
299
  8
1
  6
CONTINUOUS
 62
     7
 10
-231.6210088781635
 20
171.4333333333333
 30
0.0
 11
-231.6404307021101
 21
171.8039238107822
 31
0.0
  0
LINE
  5
29A
  8
1
  6
CONTINUOUS
 62
     7
 10
-196.1210088781635
 20
171.4333333333333
 30
0.0
 11
-196.6296502295873
 21
171.4333333333333
 31
0.0
  0
LINE
  5
29B
  8
1
  6
CONTINUOUS
 62
     7
 10
-196.101587054217
 20
171.8039238107821
 30
0.0
 11
-196.1210088781635
 21
171.4333333333333
 31
0.0
  0
LINE
  5
29C
  8
1
  6
CONTINUOUS
 62
     7
 10
-234.1210088781635
 20
171.4333333333333
 30
0.0
 11
-234.6296502295873
 21
171.4333333333333
 31
0.0
  0
LINE
  5
29D
  8
1
  6
CONTINUOUS
 62
     7
 10
-234.101587054217
 20
171.8039238107821
 30
0.0
 11
-234.1210088781636
 21
171.4333333333333
 31
0.0
  0
LINE
  5
29E
  8
1
  6
CONTINUOUS
 62
     7
 10
-192.0880409676946
 20
184.1118748239697
 30
0.0
 11
-192.1210088781636
 21
183.9333142941405
 31
0.0
  0
LINE
  5
29F
  8
1
  6
CONTINUOUS
 62
     7
 10
-230.0880409676946
 20
184.1118748239695
 30
0.0
 11
-230.1210088781636
 21
183.9333142941404
 31
0.0
  0
LINE
  5
2A0
  8
1
  6
CONTINUOUS
 62
     7
 10
-235.706345501409
 20
184.2127084562531
 30
0.0
 11
-235.6987188845402
 21
184.2010407119293
 31
0.0
  0
LINE
  5
2A1
  8
1
  6
CONTINUOUS
 62
     7
 10
-235.6987188845403
 20
184.2010407119293
 30
0.0
 11
-235.6756137899547
 21
184.1605317478979
 31
0.0
  0
LINE
  5
2A2
  8
1
  6
CONTINUOUS
 62
     7
 10
-235.6756137899547
 20
184.1605317478979
 30
0.0
 11
-235.6539767886324
 21
184.1118748239694
 31
0.0
  0
LINE
  5
2A3
  8
1
  6
CONTINUOUS
 62
     7
 10
-197.706345501409
 20
184.2127084562531
 30
0.0
 11
-197.6987188845402
 21
184.2010407119292
 31
0.0
  0
LINE
  5
2A4
  8
1
  6
CONTINUOUS
 62
     7
 10
-197.6987188845402
 20
184.2010407119292
 30
0.0
 11
-197.6756137899547
 21
184.1605317478979
 31
0.0
  0
LINE
  5
2A5
  8
1
  6
CONTINUOUS
 62
     7
 10
-197.6756137899547
 20
184.160531747898
 30
0.0
 11
-197.6539767886323
 21
184.1118748239693
 31
0.0
  0
LINE
  5
2A6
  8
1
  6
CONTINUOUS
 62
     9
 10
-280.3710088781635
 20
148.1246445439283
 30
0.0
 11
-278.4015529154312
 21
148.1246445439283
 31
0.0
  0
LINE
  5
2A7
  8
1
  6
CONTINUOUS
 62
     7
 10
-278.4015529154312
 20
148.1246445439283
 30
0.0
 11
-278.392902202962
 21
147.1246826208641
 31
0.0
  0
LINE
  5
2A8
  8
1
  6
CONTINUOUS
 62
     9
 10
-278.4015529154312
 20
153.1420221227384
 30
0.0
 11
-280.3710088781636
 21
153.1420221227384
 31
0.0
  0
LINE
  5
2A9
  8
1
  6
CONTINUOUS
 62
     7
 10
-278.392902202962
 20
154.1419840458025
 30
0.0
 11
-278.4015529154312
 21
153.1420221227384
 31
0.0
  0
LINE
  5
2AA
  8
1
  6
CONTINUOUS
 62
     7
 10
-280.3710088781636
 20
148.4027892960657
 30
0.0
 11
-280.3710088781636
 21
152.863877370601
 31
0.0
  0
LINE
  5
2AB
  8
1
  6
CONTINUOUS
 62
     7
 10
-278.4015529154312
 20
148.1246445439283
 30
0.0
 11
-278.4015529154312
 21
153.1420221227384
 31
0.0
  0
LINE
  5
2AC
  8
1
  6
CONTINUOUS
 62
     7
 10
-282.3710088781635
 20
192.2333333333333
 30
0.0
 11
-282.3710088781635
 21
196.6333333333333
 31
0.0
  0
LINE
  5
2AD
  8
1
  6
CONTINUOUS
 62
     7
 10
-287.7488327290929
 20
196.6333333333333
 30
0.0
 11
-287.7488327290929
 21
192.2333333333333
 31
0.0
  0
LINE
  5
2AE
  8
1
  6
CONTINUOUS
 62
     7
 10
-243.3710088781635
 20
213.6653841409022
 30
0.0
 11
-243.3710088781635
 21
236.9333333333333
 31
0.0
  0
LINE
  5
2AF
  8
1
  6
CONTINUOUS
 62
     7
 10
-243.3710088781635
 20
241.9333333333333
 30
0.0
 11
-243.3710088781635
 21
242.1333333333333
 31
0.0
  0
LINE
  5
2B0
  8
1
  6
CONTINUOUS
 62
     7
 10
-243.3710088781635
 20
247.3333333333333
 30
0.0
 11
-243.3710088781635
 21
247.5333333333333
 31
0.0
  0
LINE
  5
2B1
  8
1
  6
CONTINUOUS
 62
     7
 10
-251.3710088781635
 20
247.5333333333333
 30
0.0
 11
-251.3710088781635
 21
247.3333333333333
 31
0.0
  0
LINE
  5
2B2
  8
1
  6
CONTINUOUS
 62
     7
 10
-251.3710088781635
 20
242.1333333333333
 30
0.0
 11
-251.3710088781635
 21
241.9333333333333
 31
0.0
  0
LINE
  5
2B3
  8
1
  6
CONTINUOUS
 62
     7
 10
-251.3710088781635
 20
236.9333333333333
 30
0.0
 11
-251.3710088781635
 21
213.6653841409022
 31
0.0
  0
LINE
  5
2B4
  8
1
  6
CONTINUOUS
 62
     7
 10
-243.3710088781635
 20
258.9333333333333
 30
0.0
 11
-243.3710088781635
 21
261.9333333333333
 31
0.0
  0
LINE
  5
2B5
  8
1
  6
CONTINUOUS
 62
     7
 10
-251.3710088781635
 20
261.9333333333333
 30
0.0
 11
-251.3710088781635
 21
258.9333333333333
 31
0.0
  0
LINE
  5
2B6
  8
1
  6
CONTINUOUS
 62
     7
 10
-250.8710088781635
 20
213.6653841409022
 30
0.0
 11
-249.8710088781635
 21
211.9333333333333
 31
0.0
  0
LINE
  5
2B7
  8
1
  6
CONTINUOUS
 62
     7
 10
-244.8710088781635
 20
211.9333333333333
 30
0.0
 11
-243.8710088781635
 21
213.6653841409022
 31
0.0
  0
LINE
  5
2B8
  8
1
  6
CONTINUOUS
 62
     7
 10
-240.8710088781635
 20
261.9333333333333
 30
0.0
 11
-239.8654553786984
 21
262.5138899169341
 31
0.0
  0
LINE
  5
2B9
  8
1
  6
CONTINUOUS
 62
     7
 10
-253.8710088781635
 20
267.2333333333333
 30
0.0
 11
-254.8765623776286
 21
266.6527767497325
 31
0.0
  0
LINE
  5
2BA
  8
1
  6
CONTINUOUS
 62
     7
 10
-254.8765623776287
 20
262.5138899169341
 30
0.0
 11
-253.8710088781636
 21
261.9333333333333
 31
0.0
  0
LINE
  5
2BB
  8
1
  6
CONTINUOUS
 62
     7
 10
-239.8654553786984
 20
266.6527767497326
 30
0.0
 11
-240.8710088781635
 21
267.2333333333333
 31
0.0
  0
LINE
  5
2BC
  8
1
  6
CONTINUOUS
 62
     7
 10
-253.8710088781635
 20
241.9333333333333
 30
0.0
 11
-253.8710088781635
 21
236.9333333333333
 31
0.0
  0
LINE
  5
2BD
  8
1
  6
CONTINUOUS
 62
     7
 10
-253.8710088781635
 20
258.9333333333333
 30
0.0
 11
-253.8710088781635
 21
247.5333333333333
 31
0.0
  0
LINE
  5
2BE
  8
1
  6
CONTINUOUS
 62
     7
 10
-235.6539772810168
 20
184.1118761004822
 30
0.0
 11
-235.6518517676465
 21
184.1062221413808
 31
0.0
  0
LINE
  5
2BF
  8
1
  6
CONTINUOUS
 62
     7
 10
-235.6518517676465
 20
184.1062221413809
 30
0.0
 11
-235.621009288926
 21
183.9430434459224
 31
0.0
  0
LINE
  5
2C0
  8
1
  6
CONTINUOUS
 62
     7
 10
-235.621009288926
 20
183.9430434459224
 30
0.0
 11
-235.6209088857543
 21
183.933556157442
 31
0.0
  0
LINE
  5
2C1
  8
1
  6
CONTINUOUS
 62
     7
 10
-230.1220770972438
 20
183.9341047514051
 30
0.0
 11
-230.0356725019406
 21
184.2127081074771
 31
0.0
  0
LINE
  5
2C2
  8
1
  6
CONTINUOUS
 62
     7
 10
-197.6539772810167
 20
184.1118761004821
 30
0.0
 11
-197.6518517676466
 21
184.1062221413809
 31
0.0
  0
LINE
  5
2C3
  8
1
  6
CONTINUOUS
 62
     7
 10
-197.6518517676466
 20
184.1062221413809
 30
0.0
 11
-197.621009288926
 21
183.9430434459222
 31
0.0
  0
LINE
  5
2C4
  8
1
  6
CONTINUOUS
 62
     7
 10
-197.621009288926
 20
183.9430434459222
 30
0.0
 11
-197.6209088857543
 21
183.933556157442
 31
0.0
  0
LINE
  5
2C5
  8
1
  6
CONTINUOUS
 62
     7
 10
-192.1220770972438
 20
183.9341047514051
 30
0.0
 11
-192.0356725019406
 21
184.2127081074771
 31
0.0
  0
ARC
  5
2C6
  8
1
  6
CONTINUOUS
 62
     7
 10
-197.6210088781635
 20
177.5649858309207
 30
0.0
 40
1.000000000000001
 50
180.0
 51
195.0000000000001
  0
ARC
  5
2C7
  8
1
  6
CONTINUOUS
 62
     7
 10
-192.1210088781635
 20
177.5649858309207
 30
0.0
 40
1.000000000000004
 50
344.9999999999998
 51
0.0
  0
ARC
  5
2C8
  8
1
  6
CONTINUOUS
 62
     7
 10
-235.6210088781635
 20
177.5649858309207
 30
0.0
 40
1.000000000000001
 50
180.0
 51
195.0000000000001
  0
ARC
  5
2C9
  8
1
  6
CONTINUOUS
 62
     7
 10
-230.1210088781636
 20
177.5649858309207
 30
0.0
 40
1.0
 50
344.9999999999998
 51
0.0
  0
LINE
  5
2CA
  8
1
  6
CONTINUOUS
 62
     7
 10
-191.1210088781635
 20
177.5649858309207
 30
0.0
 11
-191.1210088781635
 21
178.1333333333333
 31
0.0
  0
LINE
  5
2CB
  8
1
  6
CONTINUOUS
 62
     7
 10
-198.6210088781635
 20
178.1333333333333
 30
0.0
 11
-198.6210088781635
 21
177.5649858309207
 31
0.0
  0
LINE
  5
2CC
  8
1
  6
CONTINUOUS
 62
     7
 10
-229.1210088781636
 20
177.5649858309207
 30
0.0
 11
-229.1210088781636
 21
178.1333333333333
 31
0.0
  0
LINE
  5
2CD
  8
1
  6
CONTINUOUS
 62
     7
 10
-236.6210088781635
 20
178.1333333333333
 30
0.0
 11
-236.6210088781635
 21
177.5649858309207
 31
0.0
  0
LINE
  5
2CE
  8
1
  6
CONTINUOUS
 62
     7
 10
-198.5869347044526
 20
177.3061667858182
 30
0.0
 11
-197.1126131427318
 21
171.8039238107821
 31
0.0
  0
LINE
  5
2CF
  8
1
  6
CONTINUOUS
 62
     7
 10
-192.6294046135952
 20
171.8039238107821
 30
0.0
 11
-191.1550830518745
 21
177.3061667858182
 31
0.0
  0
LINE
  5
2D0
  8
1
  6
CONTINUOUS
 62
     7
 10
-230.6294046135952
 20
171.8039238107821
 30
0.0
 11
-229.1550830518745
 21
177.3061667858182
 31
0.0
  0
LINE
  5
2D1
  8
1
  6
CONTINUOUS
 62
     7
 10
-236.5869347044526
 20
177.3061667858182
 30
0.0
 11
-235.1126131427318
 21
171.8039238107821
 31
0.0
  0
LINE
  5
2D2
  8
1
  6
CONTINUOUS
 62
     7
 10
-235.6210088781635
 20
183.9333142941404
 30
0.0
 11
-235.6210088781635
 21
178.1333333333334
 31
0.0
  0
LINE
  5
2D3
  8
1
  6
CONTINUOUS
 62
     7
 10
-230.1210088781636
 20
178.1333333333334
 30
0.0
 11
-230.1210088781636
 21
183.9333142941404
 31
0.0
  0
LINE
  5
2D4
  8
1
  6
CONTINUOUS
 62
     7
 10
-197.6210088781635
 20
183.9333142941404
 30
0.0
 11
-197.6210088781635
 21
178.1333333333334
 31
0.0
  0
LINE
  5
2D5
  8
1
  6
CONTINUOUS
 62
     7
 10
-192.1210088781635
 20
178.1333333333334
 30
0.0
 11
-192.1210088781635
 21
183.9333142941404
 31
0.0
  0
ARC
  5
2D6
  8
1
  6
CONTINUOUS
 62
     7
 10
-193.1123675267398
 20
171.9333333333333
 30
0.0
 40
0.5000000000000004
 50
270.0
 51
344.9999999999997
  0
ARC
  5
2D7
  8
1
  6
CONTINUOUS
 62
     7
 10
-231.1123675267397
 20
171.9333333333333
 30
0.0
 40
0.5000000000000004
 50
270.0
 51
344.9999999999997
  0
ARC
  5
2D8
  8
1
  6
CONTINUOUS
 62
     7
 10
-196.6296502295873
 20
171.9333333333333
 30
0.0
 40
0.5000000000000022
 50
195.0000000000003
 51
270.0
  0
ARC
  5
2D9
  8
1
  6
CONTINUOUS
 62
     7
 10
-234.6296502295873
 20
171.9333333333333
 30
0.0
 40
0.4999999999999987
 50
194.9999999999999
 51
270.0
  0
LINE
  5
2DA
  8
1
  6
CONTINUOUS
 62
     7
 10
-192.1211088705728
 20
183.933556157442
 30
0.0
 11
-192.1210084674011
 21
183.9430434459223
 31
0.0
  0
LINE
  5
2DB
  8
1
  6
CONTINUOUS
 62
     7
 10
-192.1210084674011
 20
183.9430434459223
 30
0.0
 11
-192.0901659886806
 21
184.1062221413808
 31
0.0
  0
LINE
  5
2DC
  8
1
  6
CONTINUOUS
 62
     7
 10
-192.0901659886806
 20
184.1062221413808
 30
0.0
 11
-192.0880404753102
 21
184.1118761004825
 31
0.0
  0
LINE
  5
2DD
  8
1
  6
CONTINUOUS
 62
     7
 10
-230.1211088705728
 20
183.933556157442
 30
0.0
 11
-230.1210084674011
 21
183.9430434459224
 31
0.0
  0
LINE
  5
2DE
  8
1
  6
CONTINUOUS
 62
     7
 10
-230.1210084674011
 20
183.9430434459225
 30
0.0
 11
-230.0901659886805
 21
184.1062221413808
 31
0.0
  0
LINE
  5
2DF
  8
1
  6
CONTINUOUS
 62
     7
 10
-230.0901659886805
 20
184.1062221413808
 30
0.0
 11
-230.0880404753103
 21
184.1118761004824
 31
0.0
  0
LINE
  5
2E0
  8
1
  6
CONTINUOUS
 62
     7
 10
-235.7063452543865
 20
184.2127081074771
 30
0.0
 11
-235.6987009810821
 21
184.2010533475009
 31
0.0
  0
LINE
  5
2E1
  8
1
  6
CONTINUOUS
 62
     7
 10
-235.6987009810821
 20
184.2010533475009
 30
0.0
 11
-235.6755132985207
 21
184.1605848188628
 31
0.0
  0
LINE
  5
2E2
  8
1
  6
CONTINUOUS
 62
     7
 10
-235.6755132985207
 20
184.1605848188628
 30
0.0
 11
-235.6554722735182
 21
184.1164020249045
 31
0.0
  0
LINE
  5
2E3
  8
1
  6
CONTINUOUS
 62
     7
 10
-197.7063452543865
 20
184.2127081074771
 30
0.0
 11
-197.6987009810821
 21
184.2010533475009
 31
0.0
  0
LINE
  5
2E4
  8
1
  6
CONTINUOUS
 62
     7
 10
-197.6987009810821
 20
184.2010533475009
 30
0.0
 11
-197.6755132985207
 21
184.1605848188629
 31
0.0
  0
LINE
  5
2E5
  8
1
  6
CONTINUOUS
 62
     7
 10
-197.6755132985207
 20
184.1605848188629
 30
0.0
 11
-197.6554722735181
 21
184.1164020249045
 31
0.0
  0
ENDBLK
  8
0
  0
BLOCK
  8
0
  2
D_FRAME_VIEW_2447
 70
     0
 10
0.0
 20
0.0
 30
0.0
  0
ARC
  5
2EC
  8
1
  6
CONTINUOUS
 62
     7
 10
-129.0908931947612
 20
257.0487904468005
 30
0.0
 40
10.18553891557553
 50
90.80128158913057
 51
109.4548764112847
  0
ARC
  5
2ED
  8
1
  6
CONTINUOUS
 62
     7
 10
-129.3438404381619
 20
257.227554003357
 30
0.0
 40
10.00638954970267
 50
70.37660963181177
 51
89.36723236777306
  0
LINE
  5
2EE
  8
1
  6
CONTINUOUS
 62
     7
 10
-125.9833333333333
 20
266.6527767497326
 30
0.0
 11
-125.9833333333333
 21
262.5138899169341
 31
0.0
  0
ARC
  5
2EF
  8
1
  6
CONTINUOUS
 62
     7
 10
-129.3438404381625
 20
271.9391126633124
 30
0.0
 40
10.0063895497054
 50
270.6327676322306
 51
289.6233903681867
  0
ARC
  5
2F0
  8
1
  6
CONTINUOUS
 62
     7
 10
-129.0908931947613
 20
272.1178762198642
 30
0.0
 40
10.18553891557353
 50
250.5451235887126
 51
269.1987184108704
  0
LINE
  5
2F1
  8
1
  6
CONTINUOUS
 62
     7
 10
-132.4833333333333
 20
266.6527767497326
 30
0.0
 11
-132.4833333333333
 21
262.5138899169341
 31
0.0
  0
ARC
  5
2F2
  8
1
  6
CONTINUOUS
 62
     7
 10
-122.5910673599215
 20
272.1169012300245
 30
0.0
 40
10.18456158672085
 50
250.54422058108
 51
269.1996214185028
  0
LINE
  5
2F3
  8
1
  6
CONTINUOUS
 62
     7
 10
-122.7333333333333
 20
261.9333333333333
 30
0.0
 11
-129.2333333333333
 21
261.9333333333333
 31
0.0
  0
LINE
  5
2F4
  8
1
  6
CONTINUOUS
 62
     7
 10
-122.7333333333333
 20
267.2333333333333
 30
0.0
 11
-129.2333333333333
 21
267.2333333333333
 31
0.0
  0
ARC
  5
2F5
  8
1
  6
CONTINUOUS
 62
     7
 10
-122.591067359922
 20
257.0497654366442
 30
0.0
 40
10.18456158671879
 50
90.8003785814944
 51
109.4557794189209
  0
ARC
  5
2F6
  8
1
  6
CONTINUOUS
 62
     7
 10
-122.8328515781126
 20
257.2890704793887
 30
0.0
 40
9.944760811069706
 50
70.31721633115421
 51
89.42662566843048
  0
LINE
  5
2F7
  8
1
  6
CONTINUOUS
 62
     7
 10
-119.4833333333333
 20
266.6527767497326
 30
0.0
 11
-119.4833333333333
 21
262.5138899169341
 31
0.0
  0
ARC
  5
2F8
  8
1
  6
CONTINUOUS
 62
     7
 10
-122.8328515781132
 20
271.8775961872807
 30
0.0
 40
9.944760811072378
 50
270.5733743315729
 51
289.682783668844
  0
LINE
  5
2F9
  8
1
  6
CONTINUOUS
 62
     7
 10
-132.4833333333333
 20
261.9333333333333
 30
0.0
 11
-132.4833333333333
 21
262.5138899169341
 31
0.0
  0
LINE
  5
2FA
  8
1
  6
CONTINUOUS
 62
     7
 10
-129.2333333333333
 20
261.9333333333333
 30
0.0
 11
-132.4833333333333
 21
261.9333333333333
 31
0.0
  0
LINE
  5
2FB
  8
1
  6
CONTINUOUS
 62
     7
 10
-119.4833333333333
 20
262.5138899169341
 30
0.0
 11
-119.4833333333333
 21
261.9333333333333
 31
0.0
  0
LINE
  5
2FC
  8
1
  6
CONTINUOUS
 62
     7
 10
-119.4833333333333
 20
261.9333333333333
 30
0.0
 11
-122.7333333333333
 21
261.9333333333333
 31
0.0
  0
LINE
  5
2FD
  8
1
  6
CONTINUOUS
 62
     7
 10
-132.4833333333333
 20
267.2333333333333
 30
0.0
 11
-132.4833333333333
 21
266.6527767497326
 31
0.0
  0
LINE
  5
2FE
  8
1
  6
CONTINUOUS
 62
     7
 10
-129.2333333333333
 20
267.2333333333333
 30
0.0
 11
-132.4833333333333
 21
267.2333333333333
 31
0.0
  0
LINE
  5
2FF
  8
1
  6
CONTINUOUS
 62
     7
 10
-119.4833333333333
 20
266.6527767497326
 30
0.0
 11
-119.4833333333333
 21
267.2333333333333
 31
0.0
  0
LINE
  5
300
  8
1
  6
CONTINUOUS
 62
     7
 10
-119.4833333333333
 20
267.2333333333333
 30
0.0
 11
-122.7333333333333
 21
267.2333333333333
 31
0.0
  0
LINE
  5
301
  8
1
  6
CONTINUOUS
 62
     7
 10
-121.9833333333333
 20
213.6653841409022
 30
0.0
 11
-125.9833333333333
 21
213.6653841409022
 31
0.0
  0
LINE
  5
302
  8
1
  6
CONTINUOUS
 62
     9
 10
-129.9833333333333
 20
257.9333333333333
 30
0.0
 11
-121.9833333333333
 21
257.9333333333333
 31
0.0
  0
LINE
  5
303
  8
1
  6
CONTINUOUS
 62
     7
 10
-125.9833333333333
 20
213.6653841409022
 30
0.0
 11
-129.9833333333333
 21
213.6653841409022
 31
0.0
  0
LINE
  5
304
  8
1
  6
CONTINUOUS
 62
     7
 10
-123.4833333333333
 20
211.9333333333334
 30
0.0
 11
-128.4833333333333
 21
211.9333333333334
 31
0.0
  0
LINE
  5
305
  8
1
  6
CONTINUOUS
 62
     7
 10
-135.1757214887585
 20
247.3333333333333
 30
0.0
 11
-135.1757214887585
 21
242.1333333333334
 31
0.0
  0
LINE
  5
306
  8
1
  6
CONTINUOUS
 62
     7
 10
-125.9833333333333
 20
247.3333333333333
 30
0.0
 11
-129.9833333333333
 21
247.3333333333333
 31
0.0
  0
LINE
  5
307
  8
1
  6
CONTINUOUS
 62
     7
 10
-132.7833333333333
 20
247.3333333333333
 30
0.0
 11
-135.1757214887585
 21
247.3333333333333
 31
0.0
  0
LINE
  5
308
  8
1
  6
CONTINUOUS
 62
     7
 10
-125.9833333333333
 20
247.3333333333333
 30
0.0
 11
-125.9833333333333
 21
242.1333333333334
 31
0.0
  0
LINE
  5
309
  8
1
  6
CONTINUOUS
 62
     7
 10
-125.9833333333333
 20
242.1333333333334
 30
0.0
 11
-129.9833333333333
 21
242.1333333333334
 31
0.0
  0
LINE
  5
30A
  8
1
  6
CONTINUOUS
 62
     7
 10
-132.7833333333333
 20
242.1333333333334
 30
0.0
 11
-135.1757214887585
 21
242.1333333333334
 31
0.0
  0
LINE
  5
30B
  8
1
  6
CONTINUOUS
 62
     7
 10
-116.7909451779082
 20
247.3333333333333
 30
0.0
 11
-119.1833333333333
 21
247.3333333333333
 31
0.0
  0
LINE
  5
30C
  8
1
  6
CONTINUOUS
 62
     7
 10
-121.9833333333333
 20
247.3333333333333
 30
0.0
 11
-125.9833333333333
 21
247.3333333333333
 31
0.0
  0
LINE
  5
30D
  8
1
  6
CONTINUOUS
 62
     7
 10
-116.7909451779082
 20
247.3333333333333
 30
0.0
 11
-116.7909451779082
 21
242.1333333333334
 31
0.0
  0
LINE
  5
30E
  8
1
  6
CONTINUOUS
 62
     7
 10
-116.7909451779082
 20
242.1333333333334
 30
0.0
 11
-119.1833333333333
 21
242.1333333333334
 31
0.0
  0
LINE
  5
30F
  8
1
  6
CONTINUOUS
 62
     7
 10
-121.9833333333333
 20
242.1333333333334
 30
0.0
 11
-125.9833333333333
 21
242.1333333333334
 31
0.0
  0
LINE
  5
310
  8
1
  6
CONTINUOUS
 62
     7
 10
-119.1833333333333
 20
197.4333333333333
 30
0.0
 11
-119.1833333333333
 21
197.5410284879201
 31
0.0
  0
LINE
  5
311
  8
1
  6
CONTINUOUS
 62
     7
 10
-115.38525712198
 20
201.9333333333333
 30
0.0
 11
-119.1833333333333
 21
201.9333333333333
 31
0.0
  0
ARC
  5
312
  8
1
  6
CONTINUOUS
 62
     7
 10
-121.9103935764105
 20
199.6068315861595
 30
0.0
 40
6.927482668945509
 50
0.63274302426277
 51
19.62341497615295
  0
ARC
  5
313
  8
1
  6
CONTINUOUS
 62
     7
 10
-122.0341707163171
 20
199.7819457369602
 30
0.0
 40
7.051526941551731
 50
340.5451235887143
 51
359.19871841087
  0
LINE
  5
314
  8
1
  6
CONTINUOUS
 62
     7
 10
-115.38525712198
 20
197.4333333333333
 30
0.0
 11
-119.1833333333333
 21
197.4333333333333
 31
0.0
  0
LINE
  5
315
  8
1
  6
CONTINUOUS
 62
     7
 10
-119.1833333333333
 20
192.9333333333333
 30
0.0
 11
-119.1833333333333
 21
193.0430596672009
 31
0.0
  0
LINE
  5
316
  8
1
  6
CONTINUOUS
 62
     7
 10
-119.1833333333333
 20
197.3236069994658
 30
0.0
 11
-119.1833333333333
 21
197.4333333333333
 31
0.0
  0
ARC
  5
317
  8
1
  6
CONTINUOUS
 62
     7
 10
-121.9103935764105
 20
195.1068315861595
 30
0.0
 40
6.927482668945509
 50
0.63274302426277
 51
19.62341497615295
  0
ARC
  5
318
  8
1
  6
CONTINUOUS
 62
     7
 10
-122.0341707163169
 20
195.2819457369602
 30
0.0
 40
7.051526941551597
 50
340.5451235887137
 51
359.1987184108697
  0
LINE
  5
319
  8
1
  6
CONTINUOUS
 62
     7
 10
-115.38525712198
 20
192.9333333333333
 30
0.0
 11
-119.1833333333333
 21
192.9333333333333
 31
0.0
  0
LINE
  5
31A
  8
1
  6
CONTINUOUS
 62
     7
 10
-114.9833333333333
 20
195.1833333333333
 30
0.0
 11
-114.9833333333333
 21
199.6833333333333
 31
0.0
  0
LINE
  5
31B
  8
1
  6
CONTINUOUS
 62
     7
 10
-115.38525712198
 20
201.9333333333333
 30
0.0
 11
-114.9833333333333
 21
201.9333333333333
 31
0.0
  0
LINE
  5
31C
  8
1
  6
CONTINUOUS
 62
     7
 10
-114.9833333333333
 20
199.6833333333333
 30
0.0
 11
-114.9833333333333
 21
201.9333333333333
 31
0.0
  0
LINE
  5
31D
  8
1
  6
CONTINUOUS
 62
     7
 10
-114.9833333333333
 20
192.9333333333333
 30
0.0
 11
-115.38525712198
 21
192.9333333333333
 31
0.0
  0
LINE
  5
31E
  8
1
  6
CONTINUOUS
 62
     7
 10
-114.9833333333333
 20
192.9333333333333
 30
0.0
 11
-114.9833333333333
 21
195.1833333333333
 31
0.0
  0
LINE
  5
31F
  8
1
  6
CONTINUOUS
 62
     7
 10
-133.5833333333333
 20
192.4333333333333
 30
0.0
 11
-133.5833333333333
 21
197.4333333333333
 31
0.0
  0
LINE
  5
320
  8
1
  6
CONTINUOUS
 62
     7
 10
-133.5833333333333
 20
197.4333333333333
 30
0.0
 11
-133.5833333333333
 21
202.4333333333333
 31
0.0
  0
LINE
  5
321
  8
1
  6
CONTINUOUS
 62
     7
 10
-134.7833333333333
 20
192.6833333333333
 30
0.0
 11
-134.7833333333333
 21
202.1833333333333
 31
0.0
  0
LINE
  5
322
  8
1
  6
CONTINUOUS
 62
     9
 10
-136.3946207343766
 20
201.7923639520599
 30
0.0
 11
-136.3946207343766
 21
198.0333333333334
 31
0.0
  0
LINE
  5
323
  8
1
  6
CONTINUOUS
 62
     9
 10
-136.3946207343766
 20
196.8333333333335
 30
0.0
 11
-136.3946207343766
 21
193.0743027146068
 31
0.0
  0
LINE
  5
324
  8
1
  6
CONTINUOUS
 62
     7
 10
-136.2833333333333
 20
196.8333333333333
 30
0.0
 11
-136.3946207343766
 21
196.8333333333333
 31
0.0
  0
LINE
  5
325
  8
1
  6
CONTINUOUS
 62
     7
 10
-136.2833333333333
 20
198.0333333333334
 30
0.0
 11
-136.2833333333333
 21
196.8333333333333
 31
0.0
  0
LINE
  5
326
  8
1
  6
CONTINUOUS
 62
     7
 10
-136.3946207343766
 20
198.0333333333334
 30
0.0
 11
-136.2833333333333
 21
198.0333333333334
 31
0.0
  0
LINE
  5
327
  8
1
  6
CONTINUOUS
 62
     9
 10
-137.6981310991421
 20
198.0333333333334
 30
0.0
 11
-137.6981310991421
 21
200.8897322105581
 31
0.0
  0
LINE
  5
328
  8
1
  6
CONTINUOUS
 62
     7
 10
-137.6981310991421
 20
198.0333333333334
 30
0.0
 11
-136.3946207343766
 21
198.0333333333334
 31
0.0
  0
LINE
  5
329
  8
1
  6
CONTINUOUS
 62
     9
 10
-137.6981310991421
 20
193.9769344561086
 30
0.0
 11
-137.6981310991421
 21
196.8333333333333
 31
0.0
  0
LINE
  5
32A
  8
1
  6
CONTINUOUS
 62
     7
 10
-136.3946207343766
 20
196.8333333333333
 30
0.0
 11
-137.6981310991421
 21
196.8333333333333
 31
0.0
  0
LINE
  5
32B
  8
1
  6
CONTINUOUS
 62
     7
 10
-138.0989423043875
 20
195.0579386292894
 30
0.0
 11
-138.0989423043875
 21
194.9833333333333
 31
0.0
  0
ARC
  5
32C
  8
1
  6
CONTINUOUS
 62
     7
 10
-130.4833333333333
 20
197.4333333333333
 30
0.0
 40
7.97746827007164
 50
187.9256729887716
 51
197.3232917916808
  0
LINE
  5
32D
  8
1
  6
CONTINUOUS
 62
     7
 10
-138.3845990547225
 20
196.8333333333333
 30
0.0
 11
-138.3845990547225
 21
196.3333333333333
 31
0.0
  0
LINE
  5
32E
  8
1
  6
CONTINUOUS
 62
     7
 10
-137.6981310991421
 20
196.8333333333333
 30
0.0
 11
-138.3845990547225
 21
196.8333333333333
 31
0.0
  0
LINE
  5
32F
  8
1
  6
CONTINUOUS
 62
     7
 10
-138.0989423043875
 20
199.8833333333334
 30
0.0
 11
-138.0989423043875
 21
199.8087280373773
 31
0.0
  0
LINE
  5
330
  8
1
  6
CONTINUOUS
 62
     7
 10
-138.3845990547225
 20
198.5333333333334
 30
0.0
 11
-138.3845990547225
 21
198.0333333333334
 31
0.0
  0
ARC
  5
331
  8
1
  6
CONTINUOUS
 62
     7
 10
-130.4833333333333
 20
197.4333333333333
 30
0.0
 40
7.977468270071652
 50
162.6767082083192
 51
172.0743270112283
  0
LINE
  5
332
  8
1
  6
CONTINUOUS
 62
     7
 10
-138.3845990547225
 20
198.0333333333334
 30
0.0
 11
-137.6981310991421
 21
198.0333333333334
 31
0.0
  0
LINE
  5
333
  8
1
  6
CONTINUOUS
 62
     7
 10
-114.7833333333333
 20
199.5333333333333
 30
0.0
 11
-114.7833333333333
 21
195.3333333333333
 31
0.0
  0
LINE
  5
334
  8
1
  6
CONTINUOUS
 62
     7
 10
-119.6833333333333
 20
258.9333333333333
 30
0.0
 11
-121.9833333333333
 21
258.9333333333333
 31
0.0
  0
LINE
  5
335
  8
1
  6
CONTINUOUS
 62
     7
 10
-119.6833333333333
 20
254.9333333333333
 30
0.0
 11
-119.6833333333333
 21
258.9333333333333
 31
0.0
  0
LINE
  5
336
  8
1
  6
CONTINUOUS
 62
     9
 10
-119.6833333333333
 20
254.9333333333333
 30
0.0
 11
-121.9833333333333
 21
254.9333333333333
 31
0.0
  0
LINE
  5
337
  8
1
  6
CONTINUOUS
 62
     7
 10
-121.9833333333333
 20
254.9333333333333
 30
0.0
 11
-121.9833333333333
 21
258.9333333333333
 31
0.0
  0
LINE
  5
338
  8
1
  6
CONTINUOUS
 62
     9
 10
-132.2833333333333
 20
254.9333333333333
 30
0.0
 11
-129.9833333333333
 21
254.9333333333333
 31
0.0
  0
LINE
  5
339
  8
1
  6
CONTINUOUS
 62
     7
 10
-132.2833333333333
 20
254.9333333333333
 30
0.0
 11
-132.2833333333333
 21
258.9333333333333
 31
0.0
  0
LINE
  5
33A
  8
1
  6
CONTINUOUS
 62
     7
 10
-132.2833333333333
 20
258.9333333333333
 30
0.0
 11
-129.9833333333333
 21
258.9333333333333
 31
0.0
  0
LINE
  5
33B
  8
1
  6
CONTINUOUS
 62
     7
 10
-129.9833333333333
 20
254.9333333333333
 30
0.0
 11
-129.9833333333333
 21
258.9333333333333
 31
0.0
  0
LINE
  5
33C
  8
1
  6
CONTINUOUS
 62
     7
 10
-119.6833333333333
 20
197.4333333333333
 30
0.0
 11
-119.6833333333333
 21
254.9333333333333
 31
0.0
  0
LINE
  5
33D
  8
1
  6
CONTINUOUS
 62
     9
 10
-119.6833333333333
 20
197.4333333333333
 30
0.0
 11
-121.9833333333333
 21
197.4333333333333
 31
0.0
  0
LINE
  5
33E
  8
1
  6
CONTINUOUS
 62
     7
 10
-121.9833333333333
 20
197.4333333333333
 30
0.0
 11
-121.9833333333333
 21
254.9333333333333
 31
0.0
  0
LINE
  5
33F
  8
1
  6
CONTINUOUS
 62
     9
 10
-132.2833333333333
 20
197.4333333333333
 30
0.0
 11
-129.9833333333333
 21
197.4333333333333
 31
0.0
  0
LINE
  5
340
  8
1
  6
CONTINUOUS
 62
     7
 10
-129.9833333333333
 20
197.4333333333333
 30
0.0
 11
-129.9833333333333
 21
254.9333333333333
 31
0.0
  0
LINE
  5
341
  8
1
  6
CONTINUOUS
 62
     7
 10
-132.2833333333333
 20
197.4333333333333
 30
0.0
 11
-132.2833333333333
 21
254.9333333333333
 31
0.0
  0
LINE
  5
342
  8
1
  6
CONTINUOUS
 62
     7
 10
-119.6833333333333
 20
188.9333333333333
 30
0.0
 11
-121.9833333333333
 21
188.9333333333333
 31
0.0
  0
LINE
  5
343
  8
1
  6
CONTINUOUS
 62
     7
 10
-121.9833333333333
 20
188.9333333333333
 30
0.0
 11
-121.9833333333333
 21
197.4333333333333
 31
0.0
  0
LINE
  5
344
  8
1
  6
CONTINUOUS
 62
     7
 10
-119.6833333333333
 20
188.9333333333333
 30
0.0
 11
-119.6833333333333
 21
197.4333333333333
 31
0.0
  0
LINE
  5
345
  8
1
  6
CONTINUOUS
 62
     7
 10
-132.2833333333333
 20
188.9333333333333
 30
0.0
 11
-129.9833333333333
 21
188.9333333333333
 31
0.0
  0
LINE
  5
346
  8
1
  6
CONTINUOUS
 62
     7
 10
-129.9833333333333
 20
188.9333333333333
 30
0.0
 11
-129.9833333333333
 21
197.4333333333333
 31
0.0
  0
LINE
  5
347
  8
1
  6
CONTINUOUS
 62
     7
 10
-132.2833333333333
 20
188.9333333333333
 30
0.0
 11
-132.2833333333333
 21
197.4333333333333
 31
0.0
  0
ARC
  5
348
  8
1
  6
CONTINUOUS
 62
     7
 10
-120.1833333333333
 20
255.5673079295488
 30
0.0
 40
0.9999999999999898
 50
0.0000000000027285
 51
60.00000000000131
  0
LINE
  5
349
  8
1
  6
CONTINUOUS
 62
     7
 10
-119.1833333333333
 20
255.5673079295489
 30
0.0
 11
-119.1833333333333
 21
252.4333333333333
 31
0.0
  0
LINE
  5
34A
  8
1
  6
CONTINUOUS
 62
     9
 10
-119.6833333333334
 20
252.4333333333333
 30
0.0
 11
-119.1833333333333
 21
252.4333333333333
 31
0.0
  0
LINE
  5
34B
  8
1
  6
CONTINUOUS
 62
     7
 10
-132.7833333333333
 20
252.4333333333333
 30
0.0
 11
-132.7833333333333
 21
255.5673079295489
 31
0.0
  0
ARC
  5
34C
  8
1
  6
CONTINUOUS
 62
     7
 10
-131.7833333333333
 20
255.5673079295489
 30
0.0
 40
1.000000000000001
 50
120.0000000000001
 51
180.0
  0
LINE
  5
34D
  8
1
  6
CONTINUOUS
 62
     9
 10
-132.7833333333333
 20
252.4333333333333
 30
0.0
 11
-132.2833333333333
 21
252.4333333333333
 31
0.0
  0
LINE
  5
34E
  8
1
  6
CONTINUOUS
 62
     7
 10
-119.1833333333333
 20
252.4333333333333
 30
0.0
 11
-119.1833333333333
 21
197.5410284879201
 31
0.0
  0
LINE
  5
34F
  8
1
  6
CONTINUOUS
 62
     9
 10
-119.6833333333334
 20
197.4333333333333
 30
0.0
 11
-119.1833333333333
 21
197.4333333333333
 31
0.0
  0
LINE
  5
350
  8
1
  6
CONTINUOUS
 62
     7
 10
-132.7833333333333
 20
197.4333333333333
 30
0.0
 11
-132.7833333333333
 21
252.4333333333333
 31
0.0
  0
LINE
  5
351
  8
1
  6
CONTINUOUS
 62
     9
 10
-132.7833333333333
 20
197.4333333333333
 30
0.0
 11
-132.2833333333333
 21
197.4333333333333
 31
0.0
  0
LINE
  5
352
  8
1
  6
CONTINUOUS
 62
     7
 10
-119.1833333333333
 20
197.3236069994658
 30
0.0
 11
-119.1833333333333
 21
193.0430596672009
 31
0.0
  0
LINE
  5
353
  8
1
  6
CONTINUOUS
 62
     7
 10
-119.1833333333333
 20
192.9333333333333
 30
0.0
 11
-119.1833333333333
 21
192.2993587371178
 31
0.0
  0
ARC
  5
354
  8
1
  6
CONTINUOUS
 62
     7
 10
-120.1833333333333
 20
192.2993587371178
 30
0.0
 40
1.000000000000014
 50
299.9999999999986
 51
359.9999999999972
  0
LINE
  5
355
  8
1
  6
CONTINUOUS
 62
     7
 10
-132.7833333333333
 20
192.2993587371178
 30
0.0
 11
-132.7833333333333
 21
197.4333333333333
 31
0.0
  0
ARC
  5
356
  8
1
  6
CONTINUOUS
 62
     7
 10
-131.7833333333333
 20
192.2993587371178
 30
0.0
 40
1.000000000000001
 50
180.0
 51
240.0
  0
LINE
  5
357
  8
1
  6
CONTINUOUS
 62
     7
 10
-119.1833333333334
 20
229.9333333333333
 30
0.0
 11
-117.9833333333333
 21
229.9333333333333
 31
0.0
  0
LINE
  5
358
  8
1
  6
CONTINUOUS
 62
     7
 10
-117.9833333333333
 20
229.9333333333333
 30
0.0
 11
-117.9833333333333
 21
227.4333333333333
 31
0.0
  0
LINE
  5
359
  8
1
  6
CONTINUOUS
 62
     7
 10
-117.9833333333333
 20
227.4333333333333
 30
0.0
 11
-119.1833333333334
 21
227.4333333333333
 31
0.0
  0
LINE
  5
35A
  8
1
  6
CONTINUOUS
 62
     7
 10
-119.1833333333334
 20
204.4333333333334
 30
0.0
 11
-117.9833333333333
 21
204.4333333333334
 31
0.0
  0
LINE
  5
35B
  8
1
  6
CONTINUOUS
 62
     7
 10
-117.9833333333333
 20
204.4333333333334
 30
0.0
 11
-117.9833333333333
 21
201.9333333333333
 31
0.0
  0
ARC
  5
35C
  8
1
  6
CONTINUOUS
 62
     7
 10
-119.9833333333333
 20
249.7663636113157
 30
0.0
 40
2.000000000000006
 50
293.5781784782018
 51
0.0
  0
ARC
  5
35D
  8
1
  6
CONTINUOUS
 62
     7
 10
-119.9833333333333
 20
251.100303055351
 30
0.0
 40
2.000000000000002
 50
0.0
 51
66.42182152179892
  0
LINE
  5
35E
  8
1
  6
CONTINUOUS
 62
     7
 10
-117.9833333333333
 20
249.7663636113157
 30
0.0
 11
-117.9833333333333
 21
251.100303055351
 31
0.0
  0
LINE
  5
35F
  8
1
  6
CONTINUOUS
 62
     7
 10
-132.7833333333333
 20
204.6333333333334
 30
0.0
 11
-138.7833333333333
 21
204.6333333333334
 31
0.0
  0
LINE
  5
360
  8
1
  6
CONTINUOUS
 62
     9
 10
-138.7833333333333
 20
206.9333333333334
 30
0.0
 11
-138.7833333333333
 21
204.6333333333334
 31
0.0
  0
LINE
  5
361
  8
1
  6
CONTINUOUS
 62
     7
 10
-132.7833333333333
 20
206.9333333333334
 30
0.0
 11
-138.7833333333333
 21
206.9333333333334
 31
0.0
  0
LINE
  5
362
  8
1
  6
CONTINUOUS
 62
     9
 10
-113.1833333333333
 20
204.6333333333334
 30
0.0
 11
-113.1833333333333
 21
206.9333333333334
 31
0.0
  0
LINE
  5
363
  8
1
  6
CONTINUOUS
 62
     7
 10
-119.1833333333333
 20
204.6333333333334
 30
0.0
 11
-113.1833333333333
 21
204.6333333333334
 31
0.0
  0
LINE
  5
364
  8
1
  6
CONTINUOUS
 62
     7
 10
-119.1833333333333
 20
206.9333333333334
 30
0.0
 11
-113.1833333333333
 21
206.9333333333334
 31
0.0
  0
LINE
  5
365
  8
1
  6
CONTINUOUS
 62
     7
 10
-139.7833333333333
 20
204.6333333333334
 30
0.0
 11
-139.7833333333333
 21
206.9333333333334
 31
0.0
  0
LINE
  5
366
  8
1
  6
CONTINUOUS
 62
     7
 10
-138.7833333333333
 20
204.6333333333334
 30
0.0
 11
-139.7833333333333
 21
204.6333333333334
 31
0.0
  0
LINE
  5
367
  8
1
  6
CONTINUOUS
 62
     7
 10
-139.7833333333333
 20
206.9333333333334
 30
0.0
 11
-138.7833333333333
 21
206.9333333333334
 31
0.0
  0
LINE
  5
368
  8
1
  6
CONTINUOUS
 62
     7
 10
-112.1833333333333
 20
206.9333333333334
 30
0.0
 11
-112.1833333333333
 21
204.6333333333334
 31
0.0
  0
LINE
  5
369
  8
1
  6
CONTINUOUS
 62
     7
 10
-112.1833333333333
 20
204.6333333333334
 30
0.0
 11
-113.1833333333333
 21
204.6333333333334
 31
0.0
  0
LINE
  5
36A
  8
1
  6
CONTINUOUS
 62
     7
 10
-113.1833333333333
 20
206.9333333333334
 30
0.0
 11
-112.1833333333333
 21
206.9333333333334
 31
0.0
  0
LINE
  5
36B
  8
1
  6
CONTINUOUS
 62
     7
 10
-128.826580482003
 20
204.4085206913705
 30
0.0
 11
-128.8787886902417
 21
196.4083696927262
 31
0.0
  0
LINE
  5
36C
  8
1
  6
CONTINUOUS
 62
     7
 10
-128.8787886902417
 20
196.4083696927262
 30
0.0
 11
-129.8962036843026
 21
196.4174022020081
 31
0.0
  0
LINE
  5
36D
  8
1
  6
CONTINUOUS
 62
     7
 10
-129.8962036843026
 20
196.4174022020081
 30
0.0
 11
-129.8439954760639
 21
202.3998703097437
 31
0.0
  0
LINE
  5
36E
  8
1
  6
CONTINUOUS
 62
     7
 10
-125.9833333333333
 20
204.4333333333334
 30
0.0
 11
-125.9833333333333
 21
196.43363794882
 31
0.0
  0
LINE
  5
36F
  8
1
  6
CONTINUOUS
 62
     7
 10
-125.9833333333333
 20
204.4333333333334
 30
0.0
 11
-123.1400861846636
 21
204.4085206913705
 31
0.0
  0
LINE
  5
370
  8
1
  6
CONTINUOUS
 62
     7
 10
-123.087877976425
 20
196.4083696927262
 30
0.0
 11
-123.1400861846637
 21
204.4085206913705
 31
0.0
  0
LINE
  5
371
  8
1
  6
CONTINUOUS
 62
     9
 10
-123.087877976425
 20
196.4083696927262
 30
0.0
 11
-125.9833333333333
 21
196.43363794882
 31
0.0
  0
LINE
  5
372
  8
1
  6
CONTINUOUS
 62
     9
 10
-125.9833333333333
 20
196.43363794882
 30
0.0
 11
-128.8787886902416
 21
196.4083696927262
 31
0.0
  0
LINE
  5
373
  8
1
  6
CONTINUOUS
 62
     7
 10
-128.826580482003
 20
204.4085206913705
 30
0.0
 11
-125.9833333333333
 21
204.4333333333334
 31
0.0
  0
LINE
  5
374
  8
1
  6
CONTINUOUS
 62
     7
 10
-122.1226711906027
 20
202.3998703097437
 30
0.0
 11
-122.0704629823641
 21
196.4174022020081
 31
0.0
  0
LINE
  5
375
  8
1
  6
CONTINUOUS
 62
     7
 10
-122.0704629823641
 20
196.4174022020081
 30
0.0
 11
-123.087877976425
 21
196.4083696927262
 31
0.0
  0
LINE
  5
376
  8
1
  6
CONTINUOUS
 62
     7
 10
-122.0704629823641
 20
196.4174022020081
 30
0.0
 11
-121.9833333333333
 21
186.4333333333333
 31
0.0
  0
LINE
  5
377
  8
1
  6
CONTINUOUS
 62
     7
 10
-123.0009046493302
 20
186.4422135436757
 30
0.0
 11
-123.087877976425
 21
196.4083696927262
 31
0.0
  0
LINE
  5
378
  8
1
  6
CONTINUOUS
 62
     7
 10
-128.8787886902417
 20
196.4083696927262
 30
0.0
 11
-128.9657620173365
 21
186.4422135436757
 31
0.0
  0
LINE
  5
379
  8
1
  6
CONTINUOUS
 62
     7
 10
-129.9833333333333
 20
186.4333333333333
 30
0.0
 11
-129.8962036843026
 21
196.4174022020081
 31
0.0
  0
LINE
  5
37A
  8
1
  6
CONTINUOUS
 62
     7
 10
-125.9833333333334
 20
184.4333333333333
 30
0.0
 11
-125.9833333333333
 21
196.43363794882
 31
0.0
  0
LINE
  5
37B
  8
1
  6
CONTINUOUS
 62
     7
 10
-131.0095129398285
 20
184.4771961382518
 30
0.0
 11
-125.9833333333334
 21
184.4333333333333
 31
0.0
  0
LINE
  5
37C
  8
1
  6
CONTINUOUS
 62
     9
 10
-131.0095129398285
 20
186.4243779995779
 30
0.0
 11
-131.0095129398285
 21
184.4771961382518
 31
0.0
  0
LINE
  5
37D
  8
1
  6
CONTINUOUS
 62
     7
 10
-131.0095129398285
 20
186.4243779995779
 30
0.0
 11
-128.9657620173365
 21
186.4422135436757
 31
0.0
  0
LINE
  5
37E
  8
1
  6
CONTINUOUS
 62
     9
 10
-120.9571537268382
 20
184.4771961382518
 30
0.0
 11
-120.9571537268382
 21
186.4243779995779
 31
0.0
  0
LINE
  5
37F
  8
1
  6
CONTINUOUS
 62
     7
 10
-125.9833333333334
 20
184.4333333333333
 30
0.0
 11
-120.9571537268382
 21
184.4771961382518
 31
0.0
  0
LINE
  5
380
  8
1
  6
CONTINUOUS
 62
     7
 10
-123.0009046493302
 20
186.4422135436757
 30
0.0
 11
-120.9571537268382
 21
186.4243779995779
 31
0.0
  0
LINE
  5
381
  8
1
  6
CONTINUOUS
 62
     7
 10
-133.9833333333333
 20
184.5031482756594
 30
0.0
 11
-133.9833333333333
 21
186.3984258621703
 31
0.0
  0
LINE
  5
382
  8
1
  6
CONTINUOUS
 62
     7
 10
-133.9833333333333
 20
186.3984258621703
 30
0.0
 11
-131.0095129398285
 21
186.4243779995779
 31
0.0
  0
LINE
  5
383
  8
1
  6
CONTINUOUS
 62
     7
 10
-131.0095129398285
 20
184.4771961382518
 30
0.0
 11
-133.9833333333333
 21
184.5031482756594
 31
0.0
  0
LINE
  5
384
  8
1
  6
CONTINUOUS
 62
     7
 10
-117.9833333333333
 20
186.3984258621703
 30
0.0
 11
-117.9833333333333
 21
184.5031482756594
 31
0.0
  0
LINE
  5
385
  8
1
  6
CONTINUOUS
 62
     7
 10
-120.9571537268382
 20
186.4243779995779
 30
0.0
 11
-117.9833333333333
 21
186.3984258621703
 31
0.0
  0
LINE
  5
386
  8
1
  6
CONTINUOUS
 62
     7
 10
-117.9833333333333
 20
184.5031482756594
 30
0.0
 11
-120.9571537268382
 21
184.4771961382518
 31
0.0
  0
LINE
  5
387
  8
1
  6
CONTINUOUS
 62
     9
 10
-128.7333333333333
 20
177.5649858309207
 30
0.0
 11
-123.2333333333333
 21
177.5649858309207
 31
0.0
  0
LINE
  5
388
  8
1
  6
CONTINUOUS
 62
     7
 10
-123.2333333333333
 20
178.1333333333333
 30
0.0
 11
-128.7333333333333
 21
178.1333333333333
 31
0.0
  0
LINE
  5
389
  8
1
  6
CONTINUOUS
 62
     9
 10
-123.2674075070443
 20
177.3061667858182
 30
0.0
 11
-128.6992591596224
 21
177.3061667858182
 31
0.0
  0
LINE
  5
38A
  8
1
  6
CONTINUOUS
 62
     7
 10
-123.562616281106
 20
176.2044326435863
 30
0.0
 11
-124.7633272454296
 21
171.8039238107821
 31
0.0
  0
LINE
  5
38B
  8
1
  6
CONTINUOUS
 62
     9
 10
-127.203339421237
 20
171.8039238107822
 30
0.0
 11
-124.7633272454296
 21
171.803923810782
 31
0.0
  0
LINE
  5
38C
  8
1
  6
CONTINUOUS
 62
     7
 10
-127.2033394212371
 20
171.8039238107822
 30
0.0
 11
-128.4040657202249
 21
176.2044898735369
 31
0.0
  0
POLYLINE
  5
38D
  8
1
  6
CONTINUOUS
 62
     7
 66
     1
 10
0.0
 20
0.0
 30
0.0
  0
VERTEX
  5
86F
  8
1
  6
CONTINUOUS
 62
     7
 10
-128.6692815954748
 20
183.9829221876385
 30
0.0
  0
VERTEX
  5
870
  8
1
  6
CONTINUOUS
 62
     7
 10
-128.6705181002062
 20
183.9990609740159
 30
0.0
  0
VERTEX
  5
871
  8
1
  6
CONTINUOUS
 62
     7
 10
-128.67239826872
 20
184.015136259708
 30
0.0
  0
VERTEX
  5
872
  8
1
  6
CONTINUOUS
 62
     7
 10
-128.674588775944
 20
184.0292654199838
 30
0.0
  0
VERTEX
  5
873
  8
1
  6
CONTINUOUS
 62
     7
 10
-128.6772571367594
 20
184.043255755786
 30
0.0
  0
VERTEX
  5
874
  8
1
  6
CONTINUOUS
 62
     7
 10
-128.6804134458071
 20
184.0571866940289
 30
0.0
  0
VERTEX
  5
875
  8
1
  6
CONTINUOUS
 62
     7
 10
-128.684021228467
 20
184.0709325384589
 30
0.0
  0
VERTEX
  5
876
  8
1
  6
CONTINUOUS
 62
     7
 10
-128.6869074560963
 20
184.080767799203
 30
0.0
  0
VERTEX
  5
877
  8
1
  6
CONTINUOUS
 62
     7
 10
-128.6900133244611
 20
184.0904899697542
 30
0.0
  0
VERTEX
  5
878
  8
1
  6
CONTINUOUS
 62
     7
 10
-128.6933424021603
 20
184.1001247612391
 30
0.0
  0
VERTEX
  5
879
  8
1
  6
CONTINUOUS
 62
     7
 10
-128.6968769049448
 20
184.1096354760861
 30
0.0
  0
VERTEX
  5
87A
  8
1
  6
CONTINUOUS
 62
     7
 10
-128.7026739554592
 20
184.1239599840426
 30
0.0
  0
VERTEX
  5
87B
  8
1
  6
CONTINUOUS
 62
     7
 10
-128.7089170620651
 20
184.1379938269355
 30
0.0
  0
VERTEX
  5
87C
  8
1
  6
CONTINUOUS
 62
     7
 10
-128.7156248263746
 20
184.1518140538808
 30
0.0
  0
VERTEX
  5
87D
  8
1
  6
CONTINUOUS
 62
     7
 10
-128.7227208072218
 20
184.1652995462848
 30
0.0
  0
VERTEX
  5
87E
  8
1
  6
CONTINUOUS
 62
     7
 10
-128.7302188750947
 20
184.1785142709457
 30
0.0
  0
VERTEX
  5
87F
  8
1
  6
CONTINUOUS
 62
     7
 10
-128.7380570790888
 20
184.1913843358926
 30
0.0
  0
VERTEX
  5
880
  8
1
  6
CONTINUOUS
 62
     7
 10
-128.746267741264
 20
184.2039929725273
 30
0.0
  0
VERTEX
  5
881
  8
1
  6
CONTINUOUS
 62
     7
 10
-128.7547846370552
 20
184.2162650740402
 30
0.0
  0
VERTEX
  5
882
  8
1
  6
CONTINUOUS
 62
     7
 10
-128.7688609244843
 20
184.2350295260382
 30
0.0
  0
VERTEX
  5
883
  8
1
  6
CONTINUOUS
 62
     7
 10
-128.7835869725321
 20
184.2529683814632
 30
0.0
  0
VERTEX
  5
884
  8
1
  6
CONTINUOUS
 62
     7
 10
-128.7989904785579
 20
184.2701934420851
 30
0.0
  0
VERTEX
  5
885
  8
1
  6
CONTINUOUS
 62
     7
 10
-128.8149169049745
 20
184.2865998094928
 30
0.0
  0
VERTEX
  5
886
  8
1
  6
CONTINUOUS
 62
     7
 10
-128.8314792988895
 20
184.3023556624828
 30
0.0
  0
VERTEX
  5
887
  8
1
  6
CONTINUOUS
 62
     7
 10
-128.8484649120809
 20
184.3173028952084
 30
0.0
  0
VERTEX
  5
888
  8
1
  6
CONTINUOUS
 62
     7
 10
-128.8659254914492
 20
184.331532969192
 30
0.0
  0
VERTEX
  5
889
  8
1
  6
CONTINUOUS
 62
     7
 10
-128.8837247421998
 20
184.3449740927111
 30
0.0
  0
VERTEX
  5
88A
  8
1
  6
CONTINUOUS
 62
     7
 10
-128.9092489934055
 20
184.3625619973618
 30
0.0
  0
VERTEX
  5
88B
  8
1
  6
CONTINUOUS
 62
     7
 10
-128.9352919711222
 20
184.378660609007
 30
0.0
  0
VERTEX
  5
88C
  8
1
  6
CONTINUOUS
 62
     7
 10
-128.9619422600041
 20
184.3933844281848
 30
0.0
  0
VERTEX
  5
88D
  8
1
  6
CONTINUOUS
 62
     7
 10
-128.9889658859446
 20
184.4066495335904
 30
0.0
  0
VERTEX
  5
88E
  8
1
  6
CONTINUOUS
 62
     7
 10
-129.0165896080711
 20
184.4185902898802
 30
0.0
  0
VERTEX
  5
88F
  8
1
  6
CONTINUOUS
 62
     7
 10
-129.0444732152837
 20
184.4290719955715
 30
0.0
  0
VERTEX
  5
890
  8
1
  6
CONTINUOUS
 62
     7
 10
-129.0727315472041
 20
184.4381511496559
 30
0.0
  0
VERTEX
  5
891
  8
1
  6
CONTINUOUS
 62
     7
 10
-129.1011516812653
 20
184.4457634687156
 30
0.0
  0
VERTEX
  5
892
  8
1
  6
CONTINUOUS
 62
     7
 10
-129.1318703621875
 20
184.4523140740818
 30
0.0
  0
VERTEX
  5
893
  8
1
  6
CONTINUOUS
 62
     7
 10
-129.1627006189372
 20
184.4571547759715
 30
0.0
  0
VERTEX
  5
894
  8
1
  6
CONTINUOUS
 62
     7
 10
-129.1935649999233
 20
184.4602610890241
 30
0.0
  0
VERTEX
  5
895
  8
1
  6
CONTINUOUS
 62
     7
 10
-129.2244392440609
 20
184.4616083264146
 30
0.0
  0
VERTEX
  5
896
  8
1
  6
CONTINUOUS
 62
     7
 10
-129.227646844901
 20
184.4616460284206
 30
0.0
  0
SEQEND
  5
999
  8
1
  6
CONTINUOUS
 62
     7
  0
LINE
  5
38E
  8
1
  6
CONTINUOUS
 62
     7
 10
-125.9833333333333
 20
184.4333333333333
 30
0.0
 11
-125.9833333333333
 21
183.9333142941405
 31
0.0
  0
LINE
  5
38F
  8
1
  6
CONTINUOUS
 62
     9
 10
-125.9833333333333
 20
183.9333142941405
 30
0.0
 11
-128.6685361710394
 21
183.9610083243249
 31
0.0
  0
LINE
  5
390
  8
1
  6
CONTINUOUS
 62
     7
 10
-128.6685361710394
 20
183.9610083243249
 30
0.0
 11
-128.6692815954748
 21
183.9829221876385
 31
0.0
  0
POLYLINE
  5
391
  8
1
  6
CONTINUOUS
 62
     7
 66
     1
 10
0.0
 20
0.0
 30
0.0
  0
VERTEX
  5
897
  8
1
  6
CONTINUOUS
 62
     7
 10
-122.7390198217656
 20
184.4616460284206
 30
0.0
  0
VERTEX
  5
898
  8
1
  6
CONTINUOUS
 62
     7
 10
-122.7422274226058
 20
184.4616083264146
 30
0.0
  0
VERTEX
  5
899
  8
1
  6
CONTINUOUS
 62
     7
 10
-122.7728920335412
 20
184.4602762037677
 30
0.0
  0
VERTEX
  5
89A
  8
1
  6
CONTINUOUS
 62
     7
 10
-122.8036779780913
 20
184.4571918305638
 30
0.0
  0
VERTEX
  5
89B
  8
1
  6
CONTINUOUS
 62
     7
 10
-122.8345871412549
 20
184.4523527562567
 30
0.0
  0
VERTEX
  5
89C
  8
1
  6
CONTINUOUS
 62
     7
 10
-122.8655149854014
 20
184.4457634687156
 30
0.0
  0
VERTEX
  5
89D
  8
1
  6
CONTINUOUS
 62
     7
 10
-122.8930232436217
 20
184.4384188378301
 30
0.0
  0
VERTEX
  5
89E
  8
1
  6
CONTINUOUS
 62
     7
 10
-122.9204585808248
 20
184.429673583676
 30
0.0
  0
VERTEX
  5
89F
  8
1
  6
CONTINUOUS
 62
     7
 10
-122.9479274698567
 20
184.4194535333714
 30
0.0
  0
VERTEX
  5
8A0
  8
1
  6
CONTINUOUS
 62
     7
 10
-122.975231311112
 20
184.4077821595421
 30
0.0
  0
VERTEX
  5
8A1
  8
1
  6
CONTINUOUS
 62
     7
 10
-123.0025799972425
 20
184.3944966688473
 30
0.0
  0
VERTEX
  5
8A2
  8
1
  6
CONTINUOUS
 62
     7
 10
-123.029645428009
 20
184.3796680208183
 30
0.0
  0
VERTEX
  5
8A3
  8
1
  6
CONTINUOUS
 62
     7
 10
-123.0565137075906
 20
184.3631509016428
 30
0.0
  0
VERTEX
  5
8A4
  8
1
  6
CONTINUOUS
 62
     7
 10
-123.0829419244669
 20
184.3449740927111
 30
0.0
  0
VERTEX
  5
8A5
  8
1
  6
CONTINUOUS
 62
     7
 10
-123.108741410422
 20
184.325147812364
 30
0.0
  0
VERTEX
  5
8A6
  8
1
  6
CONTINUOUS
 62
     7
 10
-123.1298195757993
 20
184.3072047475285
 30
0.0
  0
VERTEX
  5
8A7
  8
1
  6
CONTINUOUS
 62
     7
 10
-123.1503575412888
 20
184.2879729513281
 30
0.0
  0
VERTEX
  5
8A8
  8
1
  6
CONTINUOUS
 62
     7
 10
-123.1704510907988
 20
184.2671951423493
 30
0.0
  0
VERTEX
  5
8A9
  8
1
  6
CONTINUOUS
 62
     7
 10
-123.1802282161571
 20
184.256267858717
 30
0.0
  0
VERTEX
  5
8AA
  8
1
  6
CONTINUOUS
 62
     7
 10
-123.1897854405341
 20
184.2449937496025
 30
0.0
  0
VERTEX
  5
8AB
  8
1
  6
CONTINUOUS
 62
     7
 10
-123.2010172624343
 20
184.2308990789942
 30
0.0
  0
VERTEX
  5
8AC
  8
1
  6
CONTINUOUS
 62
     7
 10
-123.2118820296114
 20
184.2162650740402
 30
0.0
  0
VERTEX
  5
8AD
  8
1
  6
CONTINUOUS
 62
     7
 10
-123.2202292652383
 20
184.2042450368442
 30
0.0
  0
VERTEX
  5
8AE
  8
1
  6
CONTINUOUS
 62
     7
 10
-123.228290940467
 20
184.1918894040679
 30
0.0
  0
VERTEX
  5
8AF
  8
1
  6
CONTINUOUS
 62
     7
 10
-123.2360775156366
 20
184.1791426589989
 30
0.0
  0
VERTEX
  5
8B0
  8
1
  6
CONTINUOUS
 62
     7
 10
-123.2435308287351
 20
184.1660569635913
 30
0.0
  0
VERTEX
  5
8B1
  8
1
  6
CONTINUOUS
 62
     7
 10
-123.2489358537105
 20
184.1559274447633
 30
0.0
  0
VERTEX
  5
8B2
  8
1
  6
CONTINUOUS
 62
     7
 10
-123.2541245075446
 20
184.1456063910135
 30
0.0
  0
VERTEX
  5
8B3
  8
1
  6
CONTINUOUS
 62
     7
 10
-123.2591009138176
 20
184.1350613870289
 30
0.0
  0
VERTEX
  5
8B4
  8
1
  6
CONTINUOUS
 62
     7
 10
-123.2638356850811
 20
184.1243291614009
 30
0.0
  0
VERTEX
  5
8B5
  8
1
  6
CONTINUOUS
 62
     7
 10
-123.2697897617218
 20
184.1096354760861
 30
0.0
  0
VERTEX
  5
8B6
  8
1
  6
CONTINUOUS
 62
     7
 10
-123.2738365675005
 20
184.0986883984056
 30
0.0
  0
VERTEX
  5
8B7
  8
1
  6
CONTINUOUS
 62
     7
 10
-123.277613869152
 20
184.0875666048669
 30
0.0
  0
VERTEX
  5
8B8
  8
1
  6
CONTINUOUS
 62
     7
 10
-123.2805682123872
 20
184.078097280323
 30
0.0
  0
VERTEX
  5
8B9
  8
1
  6
CONTINUOUS
 62
     7
 10
-123.2833136401826
 20
184.0685228980133
 30
0.0
  0
VERTEX
  5
8BA
  8
1
  6
CONTINUOUS
 62
     7
 10
-123.2858512540571
 20
184.0588166961746
 30
0.0
  0
VERTEX
  5
8BB
  8
1
  6
CONTINUOUS
 62
     7
 10
-123.288164959044
 20
184.049017019351
 30
0.0
  0
VERTEX
  5
8BC
  8
1
  6
CONTINUOUS
 62
     7
 10
-123.2902850928341
 20
184.0389445435497
 30
0.0
  0
VERTEX
  5
8BD
  8
1
  6
CONTINUOUS
 62
     7
 10
-123.2921598838521
 20
184.028790660402
 30
0.0
  0
VERTEX
  5
8BE
  8
1
  6
CONTINUOUS
 62
     7
 10
-123.2937893217253
 20
184.0185229578468
 30
0.0
  0
VERTEX
  5
8BF
  8
1
  6
CONTINUOUS
 62
     7
 10
-123.2951602734104
 20
184.0081917481077
 30
0.0
  0
VERTEX
  5
8C0
  8
1
  6
CONTINUOUS
 62
     7
 10
-123.2964688580031
 20
183.9955967467444
 30
0.0
  0
VERTEX
  5
8C1
  8
1
  6
CONTINUOUS
 62
     7
 10
-123.2973850711919
 20
183.9829221876385
 30
0.0
  0
SEQEND
  5
99A
  8
1
  6
CONTINUOUS
 62
     7
  0
LINE
  5
392
  8
1
  6
CONTINUOUS
 62
     7
 10
-123.2973850711919
 20
183.9829221876385
 30
0.0
 11
-123.2981304956273
 21
183.9610083243249
 31
0.0
  0
LINE
  5
393
  8
1
  6
CONTINUOUS
 62
     9
 10
-123.2981304956273
 20
183.9610083243249
 30
0.0
 11
-125.9833333333333
 21
183.9333142941405
 31
0.0
  0
LINE
  5
394
  8
1
  6
CONTINUOUS
 62
     7
 10
-128.6685361710394
 20
183.9610083243249
 30
0.0
 11
-128.5822824548929
 21
178.1333333333334
 31
0.0
  0
LINE
  5
395
  8
1
  6
CONTINUOUS
 62
     7
 10
-123.3843842117738
 20
178.1333333333334
 30
0.0
 11
-123.2981304956273
 21
183.9610083243249
 31
0.0
  0
LINE
  5
396
  8
1
  6
CONTINUOUS
 62
     7
 10
-125.2670675306524
 20
171.4333333333333
 30
0.0
 11
-126.6995991360142
 21
171.4333333333333
 31
0.0
  0
POLYLINE
  5
397
  8
1
  6
CONTINUOUS
 62
     7
 66
     1
 10
0.0
 20
0.0
 30
0.0
  0
VERTEX
  5
8C2
  8
1
  6
CONTINUOUS
 62
     7
 10
-126.6995991360142
 20
171.4333333333333
 30
0.0
  0
VERTEX
  5
8C3
  8
1
  6
CONTINUOUS
 62
     7
 10
-126.7233287881145
 20
171.43383691073
 30
0.0
  0
VERTEX
  5
8C4
  8
1
  6
CONTINUOUS
 62
     7
 10
-126.7470584402147
 20
171.4353559128985
 30
0.0
  0
VERTEX
  5
8C5
  8
1
  6
CONTINUOUS
 62
     7
 10
-126.7709073981256
 20
171.4379223480568
 30
0.0
  0
VERTEX
  5
8C6
  8
1
  6
CONTINUOUS
 62
     7
 10
-126.7946662529681
 20
171.4415382508966
 30
0.0
  0
VERTEX
  5
8C7
  8
1
  6
CONTINUOUS
 62
     7
 10
-126.8185702655902
 20
171.4462728078113
 30
0.0
  0
VERTEX
  5
8C8
  8
1
  6
CONTINUOUS
 62
     7
 10
-126.8422838650394
 20
171.4520935388859
 30
0.0
  0
VERTEX
  5
8C9
  8
1
  6
CONTINUOUS
 62
     7
 10
-126.8659207594711
 20
171.4590550254553
 30
0.0
  0
VERTEX
  5
8CA
  8
1
  6
CONTINUOUS
 62
     7
 10
-126.8892594738702
 20
171.4671191923263
 30
0.0
  0
VERTEX
  5
8CB
  8
1
  6
CONTINUOUS
 62
     7
 10
-126.9049846819117
 20
171.4732524594933
 30
0.0
  0
VERTEX
  5
8CC
  8
1
  6
CONTINUOUS
 62
     7
 10
-126.9205211143065
 20
171.4798921119257
 30
0.0
  0
VERTEX
  5
8CD
  8
1
  6
CONTINUOUS
 62
     7
 10
-126.9333985602811
 20
171.485851314621
 30
0.0
  0
VERTEX
  5
8CE
  8
1
  6
CONTINUOUS
 62
     7
 10
-126.9461097024675
 20
171.4921565213604
 30
0.0
  0
VERTEX
  5
8CF
  8
1
  6
CONTINUOUS
 62
     7
 10
-126.9586815038123
 20
171.4988244211221
 30
0.0
  0
VERTEX
  5
8D0
  8
1
  6
CONTINUOUS
 62
     7
 10
-126.9710662510597
 20
171.5058327054225
 30
0.0
  0
VERTEX
  5
8D1
  8
1
  6
CONTINUOUS
 62
     7
 10
-126.9834471225224
 20
171.5132972018386
 30
0.0
  0
VERTEX
  5
8D2
  8
1
  6
CONTINUOUS
 62
     7
 10
-126.9956146522901
 20
171.5211036912202
 30
0.0
  0
VERTEX
  5
8D3
  8
1
  6
CONTINUOUS
 62
     7
 10
-127.0075958933309
 20
171.5292732240112
 30
0.0
  0
VERTEX
  5
8D4
  8
1
  6
CONTINUOUS
 62
     7
 10
-127.0193422998526
 20
171.5377760355186
 30
0.0
  0
VERTEX
  5
8D5
  8
1
  6
CONTINUOUS
 62
     7
 10
-127.0332252760012
 20
171.5485000787879
 30
0.0
  0
VERTEX
  5
8D6
  8
1
  6
CONTINUOUS
 62
     7
 10
-127.0467483656092
 20
171.5597055085914
 30
0.0
  0
VERTEX
  5
8D7
  8
1
  6
CONTINUOUS
 62
     7
 10
-127.0588275487822
 20
171.5704047739643
 30
0.0
  0
VERTEX
  5
8D8
  8
1
  6
CONTINUOUS
 62
     7
 10
-127.0705733821891
 20
171.5814915088744
 30
0.0
  0
VERTEX
  5
8D9
  8
1
  6
CONTINUOUS
 62
     7
 10
-127.0801595670815
 20
171.5910840991833
 30
0.0
  0
VERTEX
  5
8DA
  8
1
  6
CONTINUOUS
 62
     7
 10
-127.0894859434764
 20
171.6009287838315
 30
0.0
  0
VERTEX
  5
8DB
  8
1
  6
CONTINUOUS
 62
     7
 10
-127.0985709301476
 20
171.611048415018
 30
0.0
  0
VERTEX
  5
8DC
  8
1
  6
CONTINUOUS
 62
     7
 10
-127.1073804277173
 20
171.62140809729
 30
0.0
  0
VERTEX
  5
8DD
  8
1
  6
CONTINUOUS
 62
     7
 10
-127.1160368608634
 20
171.6321661073092
 30
0.0
  0
VERTEX
  5
8DE
  8
1
  6
CONTINUOUS
 62
     7
 10
-127.1243952324545
 20
171.6431566575518
 30
0.0
  0
VERTEX
  5
8DF
  8
1
  6
CONTINUOUS
 62
     7
 10
-127.1324725393357
 20
171.6544061640616
 30
0.0
  0
VERTEX
  5
8E0
  8
1
  6
CONTINUOUS
 62
     7
 10
-127.1402366025566
 20
171.6658735032611
 30
0.0
  0
VERTEX
  5
8E1
  8
1
  6
CONTINUOUS
 62
     7
 10
-127.149199131726
 20
171.6800218017321
 30
0.0
  0
VERTEX
  5
8E2
  8
1
  6
CONTINUOUS
 62
     7
 10
-127.1576924936784
 20
171.6944775569715
 30
0.0
  0
VERTEX
  5
8E3
  8
1
  6
CONTINUOUS
 62
     7
 10
-127.1647617928912
 20
171.7074275143407
 30
0.0
  0
VERTEX
  5
8E4
  8
1
  6
CONTINUOUS
 62
     7
 10
-127.1714452113104
 20
171.7205802174653
 30
0.0
  0
VERTEX
  5
8E5
  8
1
  6
CONTINUOUS
 62
     7
 10
-127.1777576541572
 20
171.7339717869052
 30
0.0
  0
VERTEX
  5
8E6
  8
1
  6
CONTINUOUS
 62
     7
 10
-127.1836690421414
 20
171.747544663224
 30
0.0
  0
VERTEX
  5
8E7
  8
1
  6
CONTINUOUS
 62
     7
 10
-127.1892114757945
 20
171.7613862873439
 30
0.0
  0
VERTEX
  5
8E8
  8
1
  6
CONTINUOUS
 62
     7
 10
-127.1943358304239
 20
171.7753876355911
 30
0.0
  0
VERTEX
  5
8E9
  8
1
  6
CONTINUOUS
 62
     7
 10
-127.1990531115027
 20
171.7895879228996
 30
0.0
  0
VERTEX
  5
8EA
  8
1
  6
CONTINUOUS
 62
     7
 10
-127.2033394212371
 20
171.8039238107822
 30
0.0
  0
SEQEND
  5
99B
  8
1
  6
CONTINUOUS
 62
     7
  0
POLYLINE
  5
398
  8
1
  6
CONTINUOUS
 62
     7
 66
     1
 10
0.0
 20
0.0
 30
0.0
  0
VERTEX
  5
8EB
  8
1
  6
CONTINUOUS
 62
     7
 10
-124.7633272454296
 20
171.8039238107821
 30
0.0
  0
VERTEX
  5
8EC
  8
1
  6
CONTINUOUS
 62
     7
 10
-124.7677931372557
 20
171.7890197783883
 30
0.0
  0
VERTEX
  5
8ED
  8
1
  6
CONTINUOUS
 62
     7
 10
-124.7727300047672
 20
171.7742484780951
 30
0.0
  0
VERTEX
  5
8EE
  8
1
  6
CONTINUOUS
 62
     7
 10
-124.7772307515793
 20
171.7619731723393
 30
0.0
  0
VERTEX
  5
8EF
  8
1
  6
CONTINUOUS
 62
     7
 10
-124.7820531762714
 20
171.749820297532
 30
0.0
  0
VERTEX
  5
8F0
  8
1
  6
CONTINUOUS
 62
     7
 10
-124.7872084461523
 20
171.73776498177
 30
0.0
  0
VERTEX
  5
8F1
  8
1
  6
CONTINUOUS
 62
     7
 10
-124.7926795949949
 20
171.7258493090724
 30
0.0
  0
VERTEX
  5
8F2
  8
1
  6
CONTINUOUS
 62
     7
 10
-124.802215256882
 20
171.7068392629331
 30
0.0
  0
VERTEX
  5
8F3
  8
1
  6
CONTINUOUS
 62
     7
 10
-124.8125718869208
 20
171.6882182677683
 30
0.0
  0
VERTEX
  5
8F4
  8
1
  6
CONTINUOUS
 62
     7
 10
-124.8238073216007
 20
171.6699067509816
 30
0.0
  0
VERTEX
  5
8F5
  8
1
  6
CONTINUOUS
 62
     7
 10
-124.8358401590316
 20
171.6520599763118
 30
0.0
  0
VERTEX
  5
8F6
  8
1
  6
CONTINUOUS
 62
     7
 10
-124.8450111057324
 20
171.6394848945678
 30
0.0
  0
VERTEX
  5
8F7
  8
1
  6
CONTINUOUS
 62
     7
 10
-124.8545759283225
 20
171.6271870721295
 30
0.0
  0
VERTEX
  5
8F8
  8
1
  6
CONTINUOUS
 62
     7
 10
-124.8714690754275
 20
171.6072268216051
 30
0.0
  0
VERTEX
  5
8F9
  8
1
  6
CONTINUOUS
 62
     7
 10
-124.8894207229341
 20
171.5881140709749
 30
0.0
  0
VERTEX
  5
8FA
  8
1
  6
CONTINUOUS
 62
     7
 10
-124.908611500773
 20
171.5696999857005
 30
0.0
  0
VERTEX
  5
8FB
  8
1
  6
CONTINUOUS
 62
     7
 10
-124.9287934731169
 20
171.552263596696
 30
0.0
  0
VERTEX
  5
8FC
  8
1
  6
CONTINUOUS
 62
     7
 10
-124.9414203333575
 20
171.5422443255001
 30
0.0
  0
VERTEX
  5
8FD
  8
1
  6
CONTINUOUS
 62
     7
 10
-124.9543687782095
 20
171.5326164299665
 30
0.0
  0
VERTEX
  5
8FE
  8
1
  6
CONTINUOUS
 62
     7
 10
-124.9673274293409
 20
171.5235907179448
 30
0.0
  0
VERTEX
  5
8FF
  8
1
  6
CONTINUOUS
 62
     7
 10
-124.980568956491
 20
171.5149570902186
 30
0.0
  0
VERTEX
  5
900
  8
1
  6
CONTINUOUS
 62
     7
 10
-125.0033630683022
 20
171.5013877739708
 30
0.0
  0
VERTEX
  5
901
  8
1
  6
CONTINUOUS
 62
     7
 10
-125.0268821981664
 20
171.4889652881214
 30
0.0
  0
VERTEX
  5
902
  8
1
  6
CONTINUOUS
 62
     7
 10
-125.0463845348235
 20
171.4797854858433
 30
0.0
  0
VERTEX
  5
903
  8
1
  6
CONTINUOUS
 62
     7
 10
-125.0662812922625
 20
171.4713986117104
 30
0.0
  0
VERTEX
  5
904
  8
1
  6
CONTINUOUS
 62
     7
 10
-125.0866607561132
 20
171.4637763519062
 30
0.0
  0
VERTEX
  5
905
  8
1
  6
CONTINUOUS
 62
     7
 10
-125.1073711159576
 20
171.4569839915761
 30
0.0
  0
VERTEX
  5
906
  8
1
  6
CONTINUOUS
 62
     7
 10
-125.1266301031876
 20
171.4514928651096
 30
0.0
  0
VERTEX
  5
907
  8
1
  6
CONTINUOUS
 62
     7
 10
-125.1460809546145
 20
171.4467234085026
 30
0.0
  0
VERTEX
  5
908
  8
1
  6
CONTINUOUS
 62
     7
 10
-125.1658058202347
 20
171.4426583729926
 30
0.0
  0
VERTEX
  5
909
  8
1
  6
CONTINUOUS
 62
     7
 10
-125.185668263912
 20
171.4393274242012
 30
0.0
  0
VERTEX
  5
90A
  8
1
  6
CONTINUOUS
 62
     7
 10
-125.2058648215651
 20
171.4367064227766
 30
0.0
  0
VERTEX
  5
90B
  8
1
  6
CONTINUOUS
 62
     7
 10
-125.2261448902138
 20
171.4348353066086
 30
0.0
  0
VERTEX
  5
90C
  8
1
  6
CONTINUOUS
 62
     7
 10
-125.2465923356852
 20
171.4337082048
 30
0.0
  0
VERTEX
  5
90D
  8
1
  6
CONTINUOUS
 62
     7
 10
-125.2670675306524
 20
171.4333333333333
 30
0.0
  0
SEQEND
  5
99C
  8
1
  6
CONTINUOUS
 62
     7
  0
ARC
  5
399
  8
1
  6
CONTINUOUS
 62
     7
 10
-132.9833333333333
 20
187.9071146515753
 30
0.0
 40
1.0
 50
90.5000000000005
 51
180.0
  0
LINE
  5
39A
  8
1
  6
CONTINUOUS
 62
     7
 10
-129.9615145021731
 20
188.9335237433882
 30
0.0
 11
-129.9833333333339
 21
188.9333333333333
 31
0.0
  0
LINE
  5
39B
  8
1
  6
CONTINUOUS
 62
     7
 10
-129.9833333333339
 20
188.9333333333333
 30
0.0
 11
-132.9920598688317
 21
188.9070765746395
 31
0.0
  0
LINE
  5
39C
  8
1
  6
CONTINUOUS
 62
     7
 10
-133.9833333333333
 20
187.9071146515753
 30
0.0
 11
-133.9833333333333
 21
186.3984258621703
 31
0.0
  0
ARC
  5
39D
  8
1
  6
CONTINUOUS
 62
     7
 10
-118.9833333333333
 20
187.9071146515753
 30
0.0
 40
1.0
 50
0.0
 51
89.50000000000033
  0
LINE
  5
39E
  8
1
  6
CONTINUOUS
 62
     7
 10
-118.974606797835
 20
188.9070765746395
 30
0.0
 11
-121.9833333333327
 21
188.9333333333333
 31
0.0
  0
LINE
  5
39F
  8
1
  6
CONTINUOUS
 62
     7
 10
-121.9833333333327
 20
188.9333333333333
 30
0.0
 11
-122.0051521644936
 21
188.9335237433882
 31
0.0
  0
LINE
  5
3A0
  8
1
  6
CONTINUOUS
 62
     7
 10
-117.9833333333333
 20
187.9071146515753
 30
0.0
 11
-117.9833333333333
 21
186.3984258621703
 31
0.0
  0
LINE
  5
3A1
  8
1
  6
CONTINUOUS
 62
     7
 10
-133.9833333333333
 20
188.872245258798
 30
0.0
 11
-133.2191415655539
 21
188.8789142593222
 31
0.0
  0
LINE
  5
3A2
  8
1
  6
CONTINUOUS
 62
     7
 10
-133.9833333333333
 20
188.872245258798
 30
0.0
 11
-133.9833333333333
 21
187.9071146515753
 31
0.0
  0
LINE
  5
3A3
  8
1
  6
CONTINUOUS
 62
     7
 10
-118.7475251011128
 20
188.8789142593222
 30
0.0
 11
-117.9833333333333
 21
188.872245258798
 31
0.0
  0
LINE
  5
3A4
  8
1
  6
CONTINUOUS
 62
     7
 10
-117.9833333333333
 20
188.872245258798
 30
0.0
 11
-117.9833333333333
 21
187.9071146515753
 31
0.0
  0
LINE
  5
3A5
  8
1
  6
CONTINUOUS
 62
     9
 10
-117.9833333333333
 20
181.5032625064669
 30
0.0
 11
-123.3305412885225
 21
181.4565981295923
 31
0.0
  0
LINE
  5
3A6
  8
1
  6
CONTINUOUS
 62
     7
 10
-117.9833333333333
 20
181.5032625064669
 30
0.0
 11
-117.9833333333333
 21
184.5031482756594
 31
0.0
  0
LINE
  5
3A7
  8
1
  6
CONTINUOUS
 62
     9
 10
-128.6361253781442
 20
181.4565981295923
 30
0.0
 11
-133.9833333333333
 21
181.5032625064669
 31
0.0
  0
LINE
  5
3A8
  8
1
  6
CONTINUOUS
 62
     7
 10
-133.9833333333333
 20
184.5031482756594
 30
0.0
 11
-133.9833333333333
 21
181.5032625064669
 31
0.0
  0
LINE
  5
3A9
  8
1
  6
CONTINUOUS
 62
     9
 10
-121.9833333333333
 20
203.3984639391062
 30
0.0
 11
-122.6313399424242
 21
203.4041190071112
 31
0.0
  0
LINE
  5
3AA
  8
1
  6
CONTINUOUS
 62
     7
 10
-123.1400861846637
 20
204.4085206913705
 30
0.0
 11
-121.9833333333333
 21
204.3984258621703
 31
0.0
  0
LINE
  5
3AB
  8
1
  6
CONTINUOUS
 62
     9
 10
-129.3353267242424
 20
203.4041190071112
 30
0.0
 11
-129.9833333333333
 21
203.3984639391062
 31
0.0
  0
LINE
  5
3AC
  8
1
  6
CONTINUOUS
 62
     9
 10
-132.7833333333333
 20
203.374028709292
 30
0.0
 11
-133.9833333333333
 21
203.3635564679431
 31
0.0
  0
LINE
  5
3AD
  8
1
  6
CONTINUOUS
 62
     7
 10
-133.9833333333333
 20
204.3635183910073
 30
0.0
 11
-132.7833333333333
 21
204.3739906323562
 31
0.0
  0
LINE
  5
3AE
  8
1
  6
CONTINUOUS
 62
     7
 10
-129.9833333333333
 20
204.3984258621703
 30
0.0
 11
-128.826580482003
 21
204.4085206913705
 31
0.0
  0
LINE
  5
3AF
  8
1
  6
CONTINUOUS
 62
     7
 10
-133.9833333333333
 20
203.3635564679431
 30
0.0
 11
-133.9833333333333
 21
204.3635183910073
 31
0.0
  0
LINE
  5
3B0
  8
1
  6
CONTINUOUS
 62
     7
 10
-111.9833333333333
 20
199.5333333333333
 30
0.0
 11
-114.7833333333333
 21
199.5333333333333
 31
0.0
  0
ARC
  5
3B1
  8
1
  6
CONTINUOUS
 62
     7
 10
-111.9833333333333
 20
194.4333333333333
 30
0.0
 40
5.1
 50
42.36979856937594
 51
90.0
  0
POLYLINE
  5
3B2
  8
1
  6
CONTINUOUS
 62
     7
 66
     1
 10
0.0
 20
0.0
 30
0.0
  0
VERTEX
  5
90E
  8
1
  6
CONTINUOUS
 62
     7
 10
-108.5848042397401
 20
197.0333333333334
 30
0.0
  0
VERTEX
  5
90F
  8
1
  6
CONTINUOUS
 62
     7
 10
-108.5607480218438
 20
197.0339123702366
 30
0.0
  0
VERTEX
  5
910
  8
1
  6
CONTINUOUS
 62
     7
 10
-108.5367475216991
 20
197.0356481398113
 30
0.0
  0
VERTEX
  5
911
  8
1
  6
CONTINUOUS
 62
     7
 10
-108.5128583280073
 20
197.0385366217589
 30
0.0
  0
VERTEX
  5
912
  8
1
  6
CONTINUOUS
 62
     7
 10
-108.4891357716671
 20
197.0425711259288
 30
0.0
  0
VERTEX
  5
913
  8
1
  6
CONTINUOUS
 62
     7
 10
-108.4656347976209
 20
197.0477423078139
 30
0.0
  0
VERTEX
  5
914
  8
1
  6
CONTINUOUS
 62
     7
 10
-108.4424098375936
 20
197.0540381901936
 30
0.0
  0
VERTEX
  5
915
  8
1
  6
CONTINUOUS
 62
     7
 10
-108.4195146840209
 20
197.0614441908749
 30
0.0
  0
VERTEX
  5
916
  8
1
  6
CONTINUOUS
 62
     7
 10
-108.3970023654581
 20
197.069943156467
 30
0.0
  0
VERTEX
  5
917
  8
1
  6
CONTINUOUS
 62
     7
 10
-108.3749250237581
 20
197.0795154021112
 30
0.0
  0
VERTEX
  5
918
  8
1
  6
CONTINUOUS
 62
     7
 10
-108.3533337933032
 20
197.0901387570733
 30
0.0
  0
VERTEX
  5
919
  8
1
  6
CONTINUOUS
 62
     7
 10
-108.3322786825702
 20
197.1017886160953
 30
0.0
  0
VERTEX
  5
91A
  8
1
  6
CONTINUOUS
 62
     7
 10
-108.3118084583037
 20
197.1144379963839
 30
0.0
  0
VERTEX
  5
91B
  8
1
  6
CONTINUOUS
 62
     7
 10
-108.2919705325647
 20
197.1280576001073
 30
0.0
  0
VERTEX
  5
91C
  8
1
  6
CONTINUOUS
 62
     7
 10
-108.2728108529174
 20
197.1426158822527
 30
0.0
  0
VERTEX
  5
91D
  8
1
  6
CONTINUOUS
 62
     7
 10
-108.2543737960083
 20
197.1580791236897
 30
0.0
  0
VERTEX
  5
91E
  8
1
  6
CONTINUOUS
 62
     7
 10
-108.2367020647827
 20
197.1744115092686
 30
0.0
  0
VERTEX
  5
91F
  8
1
  6
CONTINUOUS
 62
     7
 10
-108.2198365895786
 20
197.1915752107735
 30
0.0
  0
VERTEX
  5
920
  8
1
  6
CONTINUOUS
 62
     7
 10
-108.2038164333262
 20
197.2095304745382
 30
0.0
  0
VERTEX
  5
921
  8
1
  6
CONTINUOUS
 62
     7
 10
-108.1886787010721
 20
197.2282357135212
 30
0.0
  0
VERTEX
  5
922
  8
1
  6
CONTINUOUS
 62
     7
 10
-108.1744584540388
 20
197.2476476036281
 30
0.0
  0
VERTEX
  5
923
  8
1
  6
CONTINUOUS
 62
     7
 10
-108.1611886284175
 20
197.2677211840558
 30
0.0
  0
VERTEX
  5
924
  8
1
  6
CONTINUOUS
 62
     7
 10
-108.1488999590831
 20
197.2884099614291
 30
0.0
  0
VERTEX
  5
925
  8
1
  6
CONTINUOUS
 62
     7
 10
-108.1376209084078
 20
197.3096660174855
 30
0.0
  0
VERTEX
  5
926
  8
1
  6
CONTINUOUS
 62
     7
 10
-108.1273776003379
 20
197.3314401200615
 30
0.0
  0
VERTEX
  5
927
  8
1
  6
CONTINUOUS
 62
     7
 10
-108.1181937598868
 20
197.3536818371216
 30
0.0
  0
VERTEX
  5
928
  8
1
  6
CONTINUOUS
 62
     7
 10
-108.1100906581848
 20
197.3763396535657
 30
0.0
  0
VERTEX
  5
929
  8
1
  6
CONTINUOUS
 62
     7
 10
-108.1030870632115
 20
197.3993610905465
 30
0.0
  0
VERTEX
  5
92A
  8
1
  6
CONTINUOUS
 62
     7
 10
-108.0971991963267
 20
197.4226928270176
 30
0.0
  0
VERTEX
  5
92B
  8
1
  6
CONTINUOUS
 62
     7
 10
-108.0924406946991
 20
197.4462808232332
 30
0.0
  0
VERTEX
  5
92C
  8
1
  6
CONTINUOUS
 62
     7
 10
-108.0888225797211
 20
197.4700704459123
 30
0.0
  0
VERTEX
  5
92D
  8
1
  6
CONTINUOUS
 62
     7
 10
-108.0863532314809
 20
197.4940065947771
 30
0.0
  0
VERTEX
  5
92E
  8
1
  6
CONTINUOUS
 62
     7
 10
-108.0850383693537
 20
197.5180338301736
 30
0.0
  0
VERTEX
  5
92F
  8
1
  6
CONTINUOUS
 62
     7
 10
-108.0848810387541
 20
197.5420965014777
 30
0.0
  0
VERTEX
  5
930
  8
1
  6
CONTINUOUS
 62
     7
 10
-108.085881604083
 20
197.5661388759909
 30
0.0
  0
VERTEX
  5
931
  8
1
  6
CONTINUOUS
 62
     7
 10
-108.0880377478836
 20
197.5901052680247
 30
0.0
  0
VERTEX
  5
932
  8
1
  6
CONTINUOUS
 62
     7
 10
-108.0913444762083
 20
197.6139401678776
 30
0.0
  0
VERTEX
  5
933
  8
1
  6
CONTINUOUS
 62
     7
 10
-108.0957941301865
 20
197.637588370403
 30
0.0
  0
VERTEX
  5
934
  8
1
  6
CONTINUOUS
 62
     7
 10
-108.1013764037625
 20
197.6609951028732
 30
0.0
  0
VERTEX
  5
935
  8
1
  6
CONTINUOUS
 62
     7
 10
-108.1080783675668
 20
197.6841061518406
 30
0.0
  0
VERTEX
  5
936
  8
1
  6
CONTINUOUS
 62
     7
 10
-108.1158844988619
 20
197.7068679887044
 30
0.0
  0
VERTEX
  5
937
  8
1
  6
CONTINUOUS
 62
     7
 10
-108.1247767174955
 20
197.7292278936904
 30
0.0
  0
VERTEX
  5
938
  8
1
  6
CONTINUOUS
 62
     7
 10
-108.1347344277765
 20
197.7511340779581
 30
0.0
  0
VERTEX
  5
939
  8
1
  6
CONTINUOUS
 62
     7
 10
-108.1457345661781
 20
197.772535803551
 30
0.0
  0
VERTEX
  5
93A
  8
1
  6
CONTINUOUS
 62
     7
 10
-108.157751654756
 20
197.7933835009135
 30
0.0
  0
VERTEX
  5
93B
  8
1
  6
CONTINUOUS
 62
     7
 10
-108.1707578601592
 20
197.8136288837011
 30
0.0
  0
VERTEX
  5
93C
  8
1
  6
CONTINUOUS
 62
     7
 10
-108.1847230580961
 20
197.833225060619
 30
0.0
  0
VERTEX
  5
93D
  8
1
  6
CONTINUOUS
 62
     7
 10
-108.1996149031067
 20
197.8521266440285
 30
0.0
  0
VERTEX
  5
93E
  8
1
  6
CONTINUOUS
 62
     7
 10
-108.2153989034799
 20
197.8702898550725
 30
0.0
  0
SEQEND
  5
99D
  8
1
  6
CONTINUOUS
 62
     7
  0
LINE
  5
3B3
  8
1
  6
CONTINUOUS
 62
     7
 10
-108.5848042397401
 20
197.0333333333334
 30
0.0
 11
-111.5833333333333
 21
197.0333333333334
 31
0.0
  0
ARC
  5
3B4
  8
1
  6
CONTINUOUS
 62
     7
 10
-111.5833333333333
 20
194.4333333333333
 30
0.0
 40
2.6
 50
90.0
 51
270.0
  0
LINE
  5
3B5
  8
1
  6
CONTINUOUS
 62
     7
 10
-111.5833333333333
 20
191.8333333333333
 30
0.0
 11
-108.58480423974
 21
191.8333333333333
 31
0.0
  0
POLYLINE
  5
3B6
  8
1
  6
CONTINUOUS
 62
     7
 66
     1
 10
0.0
 20
0.0
 30
0.0
  0
VERTEX
  5
93F
  8
1
  6
CONTINUOUS
 62
     7
 10
-108.2153989034799
 20
190.9963768115942
 30
0.0
  0
VERTEX
  5
940
  8
1
  6
CONTINUOUS
 62
     7
 10
-108.1996149031067
 20
191.0145400226382
 30
0.0
  0
VERTEX
  5
941
  8
1
  6
CONTINUOUS
 62
     7
 10
-108.1847230580961
 20
191.0334416060477
 30
0.0
  0
VERTEX
  5
942
  8
1
  6
CONTINUOUS
 62
     7
 10
-108.1707578601592
 20
191.0530377829655
 30
0.0
  0
VERTEX
  5
943
  8
1
  6
CONTINUOUS
 62
     7
 10
-108.157751654756
 20
191.0732831657532
 30
0.0
  0
VERTEX
  5
944
  8
1
  6
CONTINUOUS
 62
     7
 10
-108.1457345661781
 20
191.0941308631157
 30
0.0
  0
VERTEX
  5
945
  8
1
  6
CONTINUOUS
 62
     7
 10
-108.1347344277765
 20
191.1155325887086
 30
0.0
  0
VERTEX
  5
946
  8
1
  6
CONTINUOUS
 62
     7
 10
-108.1247767174954
 20
191.1374387729763
 30
0.0
  0
VERTEX
  5
947
  8
1
  6
CONTINUOUS
 62
     7
 10
-108.1158844988619
 20
191.1597986779623
 30
0.0
  0
VERTEX
  5
948
  8
1
  6
CONTINUOUS
 62
     7
 10
-108.1080783675668
 20
191.182560514826
 30
0.0
  0
VERTEX
  5
949
  8
1
  6
CONTINUOUS
 62
     7
 10
-108.1013764037625
 20
191.2056715637935
 30
0.0
  0
VERTEX
  5
94A
  8
1
  6
CONTINUOUS
 62
     7
 10
-108.0957941301865
 20
191.2290782962637
 30
0.0
  0
VERTEX
  5
94B
  8
1
  6
CONTINUOUS
 62
     7
 10
-108.0913444762083
 20
191.2527264987891
 30
0.0
  0
VERTEX
  5
94C
  8
1
  6
CONTINUOUS
 62
     7
 10
-108.0880377478836
 20
191.276561398642
 30
0.0
  0
VERTEX
  5
94D
  8
1
  6
CONTINUOUS
 62
     7
 10
-108.085881604083
 20
191.3005277906758
 30
0.0
  0
VERTEX
  5
94E
  8
1
  6
CONTINUOUS
 62
     7
 10
-108.0848810387541
 20
191.324570165189
 30
0.0
  0
VERTEX
  5
94F
  8
1
  6
CONTINUOUS
 62
     7
 10
-108.0850383693537
 20
191.3486328364932
 30
0.0
  0
VERTEX
  5
950
  8
1
  6
CONTINUOUS
 62
     7
 10
-108.0863532314809
 20
191.3726600718896
 30
0.0
  0
VERTEX
  5
951
  8
1
  6
CONTINUOUS
 62
     7
 10
-108.0888225797211
 20
191.3965962207544
 30
0.0
  0
VERTEX
  5
952
  8
1
  6
CONTINUOUS
 62
     7
 10
-108.0924406946991
 20
191.4203858434335
 30
0.0
  0
VERTEX
  5
953
  8
1
  6
CONTINUOUS
 62
     7
 10
-108.0971991963267
 20
191.4439738396492
 30
0.0
  0
VERTEX
  5
954
  8
1
  6
CONTINUOUS
 62
     7
 10
-108.1030870632115
 20
191.4673055761202
 30
0.0
  0
VERTEX
  5
955
  8
1
  6
CONTINUOUS
 62
     7
 10
-108.1100906581848
 20
191.490327013101
 30
0.0
  0
VERTEX
  5
956
  8
1
  6
CONTINUOUS
 62
     7
 10
-108.1181937598868
 20
191.5129848295451
 30
0.0
  0
VERTEX
  5
957
  8
1
  6
CONTINUOUS
 62
     7
 10
-108.1273776003379
 20
191.5352265466052
 30
0.0
  0
VERTEX
  5
958
  8
1
  6
CONTINUOUS
 62
     7
 10
-108.1376209084078
 20
191.5570006491812
 30
0.0
  0
VERTEX
  5
959
  8
1
  6
CONTINUOUS
 62
     7
 10
-108.1488999590831
 20
191.5782567052376
 30
0.0
  0
VERTEX
  5
95A
  8
1
  6
CONTINUOUS
 62
     7
 10
-108.1611886284175
 20
191.5989454826109
 30
0.0
  0
VERTEX
  5
95B
  8
1
  6
CONTINUOUS
 62
     7
 10
-108.1744584540388
 20
191.6190190630386
 30
0.0
  0
VERTEX
  5
95C
  8
1
  6
CONTINUOUS
 62
     7
 10
-108.1886787010721
 20
191.6384309531455
 30
0.0
  0
VERTEX
  5
95D
  8
1
  6
CONTINUOUS
 62
     7
 10
-108.2038164333262
 20
191.6571361921285
 30
0.0
  0
VERTEX
  5
95E
  8
1
  6
CONTINUOUS
 62
     7
 10
-108.2198365895786
 20
191.6750914558932
 30
0.0
  0
VERTEX
  5
95F
  8
1
  6
CONTINUOUS
 62
     7
 10
-108.2367020647827
 20
191.6922551573981
 30
0.0
  0
VERTEX
  5
960
  8
1
  6
CONTINUOUS
 62
     7
 10
-108.2543737960083
 20
191.708587542977
 30
0.0
  0
VERTEX
  5
961
  8
1
  6
CONTINUOUS
 62
     7
 10
-108.2728108529174
 20
191.724050784414
 30
0.0
  0
VERTEX
  5
962
  8
1
  6
CONTINUOUS
 62
     7
 10
-108.2919705325646
 20
191.7386090665594
 30
0.0
  0
VERTEX
  5
963
  8
1
  6
CONTINUOUS
 62
     7
 10
-108.3118084583037
 20
191.7522286702828
 30
0.0
  0
VERTEX
  5
964
  8
1
  6
CONTINUOUS
 62
     7
 10
-108.3322786825702
 20
191.7648780505714
 30
0.0
  0
VERTEX
  5
965
  8
1
  6
CONTINUOUS
 62
     7
 10
-108.3533337933032
 20
191.7765279095934
 30
0.0
  0
VERTEX
  5
966
  8
1
  6
CONTINUOUS
 62
     7
 10
-108.3749250237581
 20
191.7871512645555
 30
0.0
  0
VERTEX
  5
967
  8
1
  6
CONTINUOUS
 62
     7
 10
-108.3970023654581
 20
191.7967235101997
 30
0.0
  0
VERTEX
  5
968
  8
1
  6
CONTINUOUS
 62
     7
 10
-108.4195146840209
 20
191.8052224757918
 30
0.0
  0
VERTEX
  5
969
  8
1
  6
CONTINUOUS
 62
     7
 10
-108.4424098375936
 20
191.8126284764731
 30
0.0
  0
VERTEX
  5
96A
  8
1
  6
CONTINUOUS
 62
     7
 10
-108.4656347976209
 20
191.8189243588528
 30
0.0
  0
VERTEX
  5
96B
  8
1
  6
CONTINUOUS
 62
     7
 10
-108.4891357716671
 20
191.8240955407379
 30
0.0
  0
VERTEX
  5
96C
  8
1
  6
CONTINUOUS
 62
     7
 10
-108.5128583280073
 20
191.8281300449078
 30
0.0
  0
VERTEX
  5
96D
  8
1
  6
CONTINUOUS
 62
     7
 10
-108.5367475216991
 20
191.8310185268555
 30
0.0
  0
VERTEX
  5
96E
  8
1
  6
CONTINUOUS
 62
     7
 10
-108.5607480218438
 20
191.8327542964302
 30
0.0
  0
VERTEX
  5
96F
  8
1
  6
CONTINUOUS
 62
     7
 10
-108.5848042397401
 20
191.8333333333333
 30
0.0
  0
SEQEND
  5
99E
  8
1
  6
CONTINUOUS
 62
     7
  0
ARC
  5
3B7
  8
1
  6
CONTINUOUS
 62
     7
 10
-111.9833333333333
 20
194.4333333333333
 30
0.0
 40
5.1
 50
270.0
 51
317.6302014306244
  0
LINE
  5
3B8
  8
1
  6
CONTINUOUS
 62
     7
 10
-117.9833333333333
 20
189.3333333333333
 30
0.0
 11
-111.9833333333333
 21
189.3333333333333
 31
0.0
  0
LINE
  5
3B9
  8
1
  6
CONTINUOUS
 62
     7
 10
-117.9833333333333
 20
189.3333333333333
 30
0.0
 11
-117.9833333333333
 21
188.872245258798
 31
0.0
  0
LINE
  5
3BA
  8
1
  6
CONTINUOUS
 62
     7
 10
-133.9833333333333
 20
203.3635564679431
 30
0.0
 11
-133.9833333333333
 21
202.1833333333333
 31
0.0
  0
LINE
  5
3BB
  8
1
  6
CONTINUOUS
 62
     7
 10
-133.9833333333333
 20
192.6833333333333
 30
0.0
 11
-133.9833333333333
 21
188.872245258798
 31
0.0
  0
ARC
  5
3BC
  8
1
  6
CONTINUOUS
 62
     7
 10
-118.9833333333333
 20
145.4944594862544
 30
0.0
 40
1.0
 50
270.5000000000005
 51
0.0
  0
LINE
  5
3BD
  8
1
  6
CONTINUOUS
 62
     7
 10
-125.9833333333333
 20
144.4333333333334
 30
0.0
 11
-118.974606797835
 21
144.4944975631902
 31
0.0
  0
LINE
  5
3BE
  8
1
  6
CONTINUOUS
 62
     7
 10
-125.9833333333333
 20
144.4333333333334
 30
0.0
 11
-125.9833333333333
 21
147.1027892960657
 31
0.0
  0
LINE
  5
3BF
  8
1
  6
CONTINUOUS
 62
     7
 10
-125.9833333333333
 20
147.1027892960657
 30
0.0
 11
-123.474606797835
 21
147.1246826208642
 31
0.0
  0
ARC
  5
3C0
  8
1
  6
CONTINUOUS
 62
     7
 10
-123.4833333333333
 20
148.1246445439283
 30
0.0
 40
1.0
 50
270.4999999999997
 51
0.0
  0
LINE
  5
3C1
  8
1
  6
CONTINUOUS
 62
     7
 10
-122.4833333333333
 20
148.1246445439283
 30
0.0
 11
-122.4833333333333
 21
153.1420221227384
 31
0.0
  0
ARC
  5
3C2
  8
1
  6
CONTINUOUS
 62
     7
 10
-123.4833333333333
 20
153.1420221227384
 30
0.0
 40
1.0
 50
0.0
 51
89.50000000000036
  0
LINE
  5
3C3
  8
1
  6
CONTINUOUS
 62
     7
 10
-123.474606797835
 20
154.1419840458025
 30
0.0
 11
-125.9833333333333
 21
154.163877370601
 31
0.0
  0
LINE
  5
3C4
  8
1
  6
CONTINUOUS
 62
     7
 10
-125.9833333333333
 20
154.163877370601
 30
0.0
 11
-125.9833333333333
 21
171.4333333333333
 31
0.0
  0
LINE
  5
3C5
  8
1
  6
CONTINUOUS
 62
     7
 10
-117.9833333333333
 20
181.5032625064669
 30
0.0
 11
-117.9833333333333
 21
145.4944594862544
 31
0.0
  0
LINE
  5
3C6
  8
1
  6
CONTINUOUS
 62
     7
 10
-125.9833333333333
 20
154.163877370601
 30
0.0
 11
-132.9920598688317
 21
154.2250416004579
 31
0.0
  0
ARC
  5
3C7
  8
1
  6
CONTINUOUS
 62
     7
 10
-132.9833333333333
 20
155.225003523522
 30
0.0
 40
1.0
 50
180.0
 51
269.4999999999995
  0
LINE
  5
3C8
  8
1
  6
CONTINUOUS
 62
     7
 10
-133.9833333333333
 20
181.5032625064669
 30
0.0
 11
-133.9833333333333
 21
155.2250035235221
 31
0.0
  0
LINE
  5
3C9
  8
1
  6
CONTINUOUS
 62
     7
 10
-132.9920598688317
 20
144.4944975631902
 30
0.0
 11
-125.9833333333333
 21
144.4333333333334
 31
0.0
  0
ARC
  5
3CA
  8
1
  6
CONTINUOUS
 62
     7
 10
-132.9833333333333
 20
145.4944594862544
 30
0.0
 40
1.0
 50
180.0
 51
269.4999999999995
  0
ARC
  5
3CB
  8
1
  6
CONTINUOUS
 62
     7
 10
-132.9833333333333
 20
146.0416631431447
 30
0.0
 40
1.0
 50
90.5000000000005
 51
180.0
  0
LINE
  5
3CC
  8
1
  6
CONTINUOUS
 62
     7
 10
-132.9920598688317
 20
147.0416250662088
 30
0.0
 11
-125.9833333333333
 21
147.1027892960657
 31
0.0
  0
LINE
  5
3CD
  8
1
  6
CONTINUOUS
 62
     7
 10
-133.9833333333333
 20
146.0416631431447
 30
0.0
 11
-133.9833333333333
 21
145.4944594862544
 31
0.0
  0
LINE
  5
3CE
  8
1
  6
CONTINUOUS
 62
     7
 10
-125.9833333333333
 20
152.8333333333333
 30
0.0
 11
-122.4833333333334
 21
152.863877370601
 31
0.0
  0
ARC
  5
3CF
  8
1
  6
CONTINUOUS
 62
     7
 10
-125.9833333333333
 20
150.6333333333333
 30
0.0
 40
2.200000000000001
 50
90.0
 51
270.0
  0
LINE
  5
3D0
  8
1
  6
CONTINUOUS
 62
     7
 10
-125.9833333333333
 20
148.4333333333334
 30
0.0
 11
-122.4833333333334
 21
148.4027892960657
 31
0.0
  0
LINE
  5
3D1
  8
1
  6
CONTINUOUS
 62
     7
 10
-133.9833333333333
 20
146.0416631431447
 30
0.0
 11
-133.9833333333333
 21
155.2250035235221
 31
0.0
  0
ARC
  5
3D2
  8
1
  6
CONTINUOUS
 62
     7
 10
-111.9833333333333
 20
194.4333333333333
 30
0.0
 40
2.200000000000007
 50
270.0000000000001
 51
90.00000000000006
  0
LINE
  5
3D3
  8
1
  6
CONTINUOUS
 62
     7
 10
-112.9554127470914
 20
196.6418165418593
 30
0.0
 11
-111.9833333333333
 21
196.6333333333334
 31
0.0
  0
LINE
  5
3D4
  8
1
  6
CONTINUOUS
 62
     7
 10
-111.9833333333333
 20
192.2333333333334
 30
0.0
 11
-112.9554127470914
 21
192.2248501248073
 31
0.0
  0
ARC
  5
3D5
  8
1
  6
CONTINUOUS
 62
     7
 10
-111.9833333333333
 20
194.4333333333333
 30
0.0
 40
5.100000000000002
 50
317.6302014306243
 51
42.36979856937592
  0
LINE
  5
3D6
  8
1
  6
CONTINUOUS
 62
     7
 10
-121.9833333333333
 20
258.9333333333333
 30
0.0
 11
-121.9833333333333
 21
261.9333333333333
 31
0.0
  0
LINE
  5
3D7
  8
1
  6
CONTINUOUS
 62
     7
 10
-129.9833333333333
 20
261.9333333333333
 30
0.0
 11
-129.9833333333333
 21
258.9333333333333
 31
0.0
  0
LINE
  5
3D8
  8
1
  6
CONTINUOUS
 62
     7
 10
-129.4833333333333
 20
213.6653841409022
 30
0.0
 11
-128.4833333333333
 21
211.9333333333334
 31
0.0
  0
LINE
  5
3D9
  8
1
  6
CONTINUOUS
 62
     7
 10
-123.4833333333333
 20
211.9333333333334
 30
0.0
 11
-122.4833333333333
 21
213.6653841409022
 31
0.0
  0
LINE
  5
3DA
  8
1
  6
CONTINUOUS
 62
     7
 10
-132.7833333333333
 20
202.4333333333333
 30
0.0
 11
-133.5833333333333
 21
202.4333333333333
 31
0.0
  0
LINE
  5
3DB
  8
1
  6
CONTINUOUS
 62
     7
 10
-133.5833333333333
 20
192.4333333333333
 30
0.0
 11
-132.7833333333333
 21
192.4333333333333
 31
0.0
  0
LINE
  5
3DC
  8
1
  6
CONTINUOUS
 62
     7
 10
-133.5833333333333
 20
202.1833333333333
 30
0.0
 11
-134.7833333333333
 21
202.1833333333333
 31
0.0
  0
LINE
  5
3DD
  8
1
  6
CONTINUOUS
 62
     7
 10
-134.7833333333333
 20
192.6833333333333
 30
0.0
 11
-133.5833333333333
 21
192.6833333333333
 31
0.0
  0
LINE
  5
3DE
  8
1
  6
CONTINUOUS
 62
     7
 10
-134.7833333333333
 20
201.9333333333333
 30
0.0
 11
-136.3946207343766
 21
201.7923639520599
 31
0.0
  0
LINE
  5
3DF
  8
1
  6
CONTINUOUS
 62
     7
 10
-136.3946207343766
 20
193.0743027146068
 30
0.0
 11
-134.7833333333333
 21
192.9333333333333
 31
0.0
  0
ARC
  5
3E0
  8
1
  6
CONTINUOUS
 62
     7
 10
-136.2551715459804
 20
200.1984524351131
 30
0.0
 40
1.600000000000002
 50
95.00000000000006
 51
154.4022801097753
  0
ARC
  5
3E1
  8
1
  6
CONTINUOUS
 62
     7
 10
-136.2551715459804
 20
194.6682142315536
 30
0.0
 40
1.600000000000001
 50
205.5977198902247
 51
264.9999999999999
  0
ARC
  5
3E2
  8
1
  6
CONTINUOUS
 62
     7
 10
-130.4833333333333
 20
197.4333333333333
 30
0.0
 40
8.000000000000004
 50
197.833382709813
 51
205.5977198902246
  0
ARC
  5
3E3
  8
1
  6
CONTINUOUS
 62
     7
 10
-130.4833333333333
 20
197.4333333333333
 30
0.0
 40
7.999999999999991
 50
154.4022801097754
 51
162.166617290187
  0
LINE
  5
3E4
  8
1
  6
CONTINUOUS
 62
     7
 10
-114.9833333333333
 20
195.1333333333334
 30
0.0
 11
-114.7833333333333
 21
195.3333333333333
 31
0.0
  0
LINE
  5
3E5
  8
1
  6
CONTINUOUS
 62
     7
 10
-114.7833333333333
 20
199.5333333333333
 30
0.0
 11
-114.9833333333333
 21
199.7333333333333
 31
0.0
  0
LINE
  5
3E6
  8
1
  6
CONTINUOUS
 62
     7
 10
-121.9833333333333
 20
199.9333333333333
 30
0.0
 11
-122.1011460485086
 21
199.9333333333333
 31
0.0
  0
LINE
  5
3E7
  8
1
  6
CONTINUOUS
 62
     7
 10
-129.8655206181581
 20
199.9333333333333
 30
0.0
 11
-129.9833333333333
 21
199.9333333333333
 31
0.0
  0
LINE
  5
3E8
  8
1
  6
CONTINUOUS
 62
     7
 10
-129.9833333333333
 20
194.9333333333333
 30
0.0
 11
-129.9091549571119
 21
194.9333333333333
 31
0.0
  0
LINE
  5
3E9
  8
1
  6
CONTINUOUS
 62
     7
 10
-122.0575117095548
 20
194.9333333333333
 30
0.0
 11
-121.9833333333333
 21
194.9333333333333
 31
0.0
  0
LINE
  5
3EA
  8
1
  6
CONTINUOUS
 62
     7
 10
-128.8267200192913
 20
204.4085094820602
 30
0.0
 11
-129.8439950729417
 21
202.3999165029831
 31
0.0
  0
LINE
  5
3EB
  8
1
  6
CONTINUOUS
 62
     7
 10
-122.122671593725
 20
202.3999165029831
 30
0.0
 11
-123.1399466473754
 21
204.4085094820602
 31
0.0
  0
ARC
  5
3EC
  8
1
  6
CONTINUOUS
 62
     7
 10
-124.2333333333333
 20
177.5649858309207
 30
0.0
 40
0.9999999999999972
 50
344.9999999999998
 51
0.0
  0
ARC
  5
3ED
  8
1
  6
CONTINUOUS
 62
     7
 10
-127.7333333333333
 20
177.5649858309207
 30
0.0
 40
1.000000000000001
 50
180.0
 51
195.0000000000001
  0
LINE
  5
3EE
  8
1
  6
CONTINUOUS
 62
     7
 10
-128.7333333333333
 20
178.1333333333333
 30
0.0
 11
-128.7333333333333
 21
177.5649858309207
 31
0.0
  0
LINE
  5
3EF
  8
1
  6
CONTINUOUS
 62
     7
 10
-123.2333333333333
 20
177.5649858309207
 30
0.0
 11
-123.2333333333333
 21
178.1333333333333
 31
0.0
  0
LINE
  5
3F0
  8
1
  6
CONTINUOUS
 62
     7
 10
-128.6992591596224
 20
177.3061667858182
 30
0.0
 11
-128.4040652855946
 21
176.2044882498635
 31
0.0
  0
LINE
  5
3F1
  8
1
  6
CONTINUOUS
 62
     7
 10
-123.5626167069303
 20
176.2044310529817
 30
0.0
 11
-123.2674075070443
 21
177.3061667858182
 31
0.0
  0
ENDBLK
  8
0
  0
BLOCK
  8
0
  2
D_FRAME_VIEW_2665
 70
     0
 10
0.0
 20
0.0
 30
0.0
  0
LINE
  5
3F6
  8
1
  6
CONTINUOUS
 62
     7
 10
-211.2729326668102
 20
65.38525712198
 30
0.0
 11
-211.2729326668102
 21
67.98333333333333
 31
0.0
  0
ARC
  5
3F7
  8
1
  6
CONTINUOUS
 62
     7
 10
-213.9433333345912
 20
74.04892218029474
 30
0.0
 40
9.065877341391099
 50
270.4570909035043
 51
287.1308628704892
  0
ARC
  5
3F8
  8
1
  6
CONTINUOUS
 62
     7
 10
-213.7830315428617
 20
74.15010397990694
 30
0.0
 40
9.16719281451036
 50
252.961920924582
 51
269.4501253014246
  0
LINE
  5
3F9
  8
1
  6
CONTINUOUS
 62
     7
 10
-216.4690850895169
 20
65.38525712198
 30
0.0
 11
-216.4690850895169
 21
67.98333333333332
 31
0.0
  0
LINE
  5
3FA
  8
1
  6
CONTINUOUS
 62
     7
 10
-208.6748564554569
 20
65.38525712198
 30
0.0
 11
-208.6748564554569
 21
67.98333333333332
 31
0.0
  0
ARC
  5
3FB
  8
1
  6
CONTINUOUS
 62
     7
 10
-210.0452178543235
 20
67.51409431426741
 30
0.0
 40
2.531765817521414
 50
271.6143137623395
 51
302.7699337057014
  0
ARC
  5
3FC
  8
1
  6
CONTINUOUS
 62
     7
 10
-209.8819244185668
 20
67.58082598046931
 30
0.0
 40
2.599120343317944
 50
237.6435929533617
 51
267.9721595785977
  0
LINE
  5
3FD
  8
1
  6
CONTINUOUS
 62
     7
 10
-213.8710088781635
 20
64.98333333333333
 30
0.0
 11
-209.9738945611335
 21
64.98333333333333
 31
0.0
  0
ARC
  5
3FE
  8
1
  6
CONTINUOUS
 62
     7
 10
-217.8394464883835
 20
67.51409431426741
 30
0.0
 40
2.531765817521414
 50
271.6143137623395
 51
302.7699337057014
  0
ARC
  5
3FF
  8
1
  6
CONTINUOUS
 62
     7
 10
-217.6761530526268
 20
67.5808259804691
 30
0.0
 40
2.599120343317737
 50
237.6435929533602
 51
267.9721595785982
  0
LINE
  5
400
  8
1
  6
CONTINUOUS
 62
     7
 10
-219.0671613008701
 20
65.38525712198
 30
0.0
 11
-219.0671613008701
 21
67.98333333333332
 31
0.0
  0
LINE
  5
401
  8
1
  6
CONTINUOUS
 62
     7
 10
-217.7681231951935
 20
64.98333333333333
 30
0.0
 11
-213.8710088781635
 21
64.98333333333333
 31
0.0
  0
LINE
  5
402
  8
1
  6
CONTINUOUS
 62
     7
 10
-209.9738945611335
 20
64.98333333333333
 30
0.0
 11
-209.3710088781635
 21
64.98333333333333
 31
0.0
  0
LINE
  5
403
  8
1
  6
CONTINUOUS
 62
     7
 10
-218.3710088781635
 20
64.98333333333333
 30
0.0
 11
-217.7681231951935
 21
64.98333333333333
 31
0.0
  0
LINE
  5
404
  8
1
  6
CONTINUOUS
 62
     7
 10
-218.6144253684161
 20
83.98333333333332
 30
0.0
 11
-218.6144253684161
 21
84.78333333333333
 31
0.0
  0
LINE
  5
405
  8
1
  6
CONTINUOUS
 62
     7
 10
-218.6144253684161
 20
84.78333333333333
 30
0.0
 11
-209.1210088781635
 21
84.78333333333333
 31
0.0
  0
LINE
  5
406
  8
1
  6
CONTINUOUS
 62
     7
 10
-209.5022418734524
 20
86.28333333333333
 30
0.0
 11
-209.5436395685884
 21
86.28333333333333
 31
0.0
  0
LINE
  5
407
  8
1
  6
CONTINUOUS
 62
     7
 10
-218.1885484477559
 20
86.39462073437663
 30
0.0
 11
-218.1983781877386
 21
86.28333333333333
 31
0.0
  0
LINE
  5
408
  8
1
  6
CONTINUOUS
 62
     9
 10
-209.5534693085712
 20
86.39462073437657
 30
0.0
 11
-218.1885484477559
 21
86.3946207343767
 31
0.0
  0
LINE
  5
409
  8
1
  6
CONTINUOUS
 62
     7
 10
-209.5436395685884
 20
86.28333333333333
 30
0.0
 11
-209.5534693085703
 21
86.39462073437656
 31
0.0
  0
LINE
  5
40A
  8
1
  6
CONTINUOUS
 62
     7
 10
-218.1983781877386
 20
86.28333333333333
 30
0.0
 11
-218.2397758828746
 21
86.28333333333333
 31
0.0
  0
ARC
  5
40B
  8
1
  6
CONTINUOUS
 62
     7
 10
-211.1449933387572
 20
86.25106581065711
 30
0.0
 40
1.59798521732415
 50
5.15411201806931
 51
64.89828712562532
  0
ARC
  5
40C
  8
1
  6
CONTINUOUS
 62
     7
 10
-216.5970827855679
 20
86.25110672015884
 30
0.0
 40
1.597923410617746
 50
115.1004399505805
 51
174.8471609057761
  0
LINE
  5
40D
  8
1
  6
CONTINUOUS
 62
     9
 10
-217.2749320850647
 20
87.69813109914213
 30
0.0
 11
-210.4670856712624
 21
87.69813109914213
 31
0.0
  0
LINE
  5
40E
  8
1
  6
CONTINUOUS
 62
     7
 10
-213.2710088781635
 20
88.09894230438746
 30
0.0
 11
-214.4710088781635
 21
88.09894230438746
 31
0.0
  0
LINE
  5
40F
  8
1
  6
CONTINUOUS
 62
     7
 10
-213.2710088781635
 20
88.38459905472254
 30
0.0
 11
-213.2710088781635
 21
88.09894230438746
 31
0.0
  0
LINE
  5
410
  8
1
  6
CONTINUOUS
 62
     7
 10
-212.7710088781635
 20
88.38459905472254
 30
0.0
 11
-213.2710088781635
 21
88.38459905472254
 31
0.0
  0
ARC
  5
411
  8
1
  6
CONTINUOUS
 62
     7
 10
-213.8710088781635
 20
80.48333333333333
 30
0.0
 40
7.977468270071638
 50
64.74218097053684
 51
82.0743270112283
  0
ARC
  5
412
  8
1
  6
CONTINUOUS
 62
     7
 10
-213.8710088781635
 20
80.48333333333333
 30
0.0
 40
7.977468270071657
 50
97.92567298877171
 51
115.2578190294632
  0
LINE
  5
413
  8
1
  6
CONTINUOUS
 62
     7
 10
-214.4710088781635
 20
88.38459905472254
 30
0.0
 11
-214.9710088781635
 21
88.38459905472254
 31
0.0
  0
LINE
  5
414
  8
1
  6
CONTINUOUS
 62
     7
 10
-214.4710088781635
 20
88.09894230438746
 30
0.0
 11
-214.4710088781635
 21
88.38459905472254
 31
0.0
  0
LINE
  5
415
  8
1
  6
CONTINUOUS
 62
     7
 10
-211.7710088781635
 20
64.78333333333333
 30
0.0
 11
-215.9710088781635
 21
64.78333333333333
 31
0.0
  0
ARC
  5
416
  8
1
  6
CONTINUOUS
 62
     7
 10
-231.3710088781635
 20
63.18333333333332
 30
0.0
 40
1.000000000000001
 50
270.0
 51
0.0
  0
LINE
  5
417
  8
1
  6
CONTINUOUS
 62
     7
 10
-255.3710088781635
 20
62.18333333333332
 30
0.0
 11
-231.3710088781635
 21
62.18333333333332
 31
0.0
  0
LINE
  5
418
  8
1
  6
CONTINUOUS
 62
     7
 10
-230.3710088781635
 20
67.98333333333332
 30
0.0
 11
-230.3710088781635
 21
63.18333333333332
 31
0.0
  0
LINE
  5
419
  8
1
  6
CONTINUOUS
 62
     7
 10
-255.3710088781635
 20
67.98333333333332
 30
0.0
 11
-255.3710088781635
 21
62.18333333333332
 31
0.0
  0
LINE
  5
41A
  8
1
  6
CONTINUOUS
 62
     7
 10
-255.3710088781635
 20
89.78333333333332
 30
0.0
 11
-231.3710088781635
 21
89.78333333333332
 31
0.0
  0
ARC
  5
41B
  8
1
  6
CONTINUOUS
 62
     7
 10
-231.3710088781635
 20
88.78333333333332
 30
0.0
 40
1.000000000000001
 50
0.0000000000003976
 51
90.0
  0
LINE
  5
41C
  8
1
  6
CONTINUOUS
 62
     7
 10
-230.3710088781635
 20
83.98333333333332
 30
0.0
 11
-230.3710088781635
 21
88.78333333333333
 31
0.0
  0
LINE
  5
41D
  8
1
  6
CONTINUOUS
 62
     7
 10
-255.3710088781635
 20
83.98333333333332
 30
0.0
 11
-255.3710088781635
 21
89.78333333333332
 31
0.0
  0
LINE
  5
41E
  8
1
  6
CONTINUOUS
 62
     7
 10
-284.3710088781635
 20
75.98333333333355
 30
0.0
 11
-278.3710088781635
 21
75.98333333333326
 31
0.0
  0
LINE
  5
41F
  8
1
  6
CONTINUOUS
 62
     7
 10
-284.3098446483066
 20
82.9920598688317
 30
0.0
 11
-284.3710088781635
 21
75.98333333333355
 31
0.0
  0
LINE
  5
420
  8
1
  6
CONTINUOUS
 62
     9
 10
-278.4321731080204
 20
82.9920598688317
 30
0.0
 11
-284.3098446483066
 21
82.9920598688317
 31
0.0
  0
LINE
  5
421
  8
1
  6
CONTINUOUS
 62
     7
 10
-278.4321731080204
 20
82.9920598688317
 30
0.0
 11
-278.3710088781635
 21
75.98333333333326
 31
0.0
  0
LINE
  5
422
  8
1
  6
CONTINUOUS
 62
     7
 10
-278.3710088781635
 20
75.98333333333326
 30
0.0
 11
-278.4321731080204
 21
68.97460679783495
 31
0.0
  0
LINE
  5
423
  8
1
  6
CONTINUOUS
 62
     9
 10
-284.3098446483066
 20
68.97460679783495
 30
0.0
 11
-278.4321731080204
 21
68.97460679783495
 31
0.0
  0
LINE
  5
424
  8
1
  6
CONTINUOUS
 62
     7
 10
-284.3710088781635
 20
75.98333333333355
 30
0.0
 11
-284.3098446483066
 21
68.97460679783495
 31
0.0
  0
LINE
  5
425
  8
1
  6
CONTINUOUS
 62
     7
 10
-284.3011939358375
 20
83.98333333333332
 30
0.0
 11
-278.4408238204896
 21
83.98333333333332
 31
0.0
  0
LINE
  5
426
  8
1
  6
CONTINUOUS
 62
     7
 10
-278.4408238204896
 20
83.98333333333332
 30
0.0
 11
-278.4321731080204
 21
82.9920598688317
 31
0.0
  0
LINE
  5
427
  8
1
  6
CONTINUOUS
 62
     7
 10
-284.3098446483066
 20
82.9920598688317
 30
0.0
 11
-284.3011939358375
 21
83.98333333333332
 31
0.0
  0
LINE
  5
428
  8
1
  6
CONTINUOUS
 62
     7
 10
-278.4408238204896
 20
67.98333333333332
 30
0.0
 11
-284.3011939358375
 21
67.98333333333332
 31
0.0
  0
LINE
  5
429
  8
1
  6
CONTINUOUS
 62
     7
 10
-278.4321731080204
 20
68.97460679783495
 30
0.0
 11
-278.4408238204896
 21
67.98333333333332
 31
0.0
  0
LINE
  5
42A
  8
1
  6
CONTINUOUS
 62
     7
 10
-284.3011939358375
 20
67.98333333333332
 30
0.0
 11
-284.3098446483066
 21
68.97460679783495
 31
0.0
  0
LINE
  5
42B
  8
1
  6
CONTINUOUS
 62
     7
 10
-287.8710088781635
 20
75.98333333333372
 30
0.0
 11
-285.8710088781635
 21
75.98333333333319
 31
0.0
  0
LINE
  5
42C
  8
1
  6
CONTINUOUS
 62
     9
 10
-287.8098446483066
 20
68.97460679783495
 30
0.0
 11
-285.9321731080204
 21
68.97460679783495
 31
0.0
  0
LINE
  5
42D
  8
1
  6
CONTINUOUS
 62
     7
 10
-285.8710088781635
 20
75.98333333333319
 30
0.0
 11
-285.9321731080204
 21
68.97460679783495
 31
0.0
  0
LINE
  5
42E
  8
1
  6
CONTINUOUS
 62
     7
 10
-287.8710088781635
 20
75.98333333333372
 30
0.0
 11
-287.8098446483066
 21
68.97460679783495
 31
0.0
  0
LINE
  5
42F
  8
1
  6
CONTINUOUS
 62
     9
 10
-285.9321731080204
 20
82.9920598688317
 30
0.0
 11
-287.8098446483066
 21
82.9920598688317
 31
0.0
  0
LINE
  5
430
  8
1
  6
CONTINUOUS
 62
     7
 10
-285.9321731080204
 20
82.9920598688317
 30
0.0
 11
-285.8710088781635
 21
75.98333333333319
 31
0.0
  0
LINE
  5
431
  8
1
  6
CONTINUOUS
 62
     7
 10
-287.8098446483066
 20
82.9920598688317
 30
0.0
 11
-287.8710088781635
 21
75.98333333333372
 31
0.0
  0
LINE
  5
432
  8
1
  6
CONTINUOUS
 62
     7
 10
-285.9321731080204
 20
68.97460679783495
 30
0.0
 11
-285.9408238204896
 21
67.98333333333332
 31
0.0
  0
LINE
  5
433
  8
1
  6
CONTINUOUS
 62
     7
 10
-287.8011939358375
 20
67.98333333333332
 30
0.0
 11
-287.8098446483066
 21
68.97460679783495
 31
0.0
  0
LINE
  5
434
  8
1
  6
CONTINUOUS
 62
     7
 10
-285.9408238204896
 20
67.98333333333332
 30
0.0
 11
-287.8011939358375
 21
67.98333333333332
 31
0.0
  0
LINE
  5
435
  8
1
  6
CONTINUOUS
 62
     7
 10
-285.9408238204896
 20
83.98333333333332
 30
0.0
 11
-285.9321731080204
 21
82.9920598688317
 31
0.0
  0
LINE
  5
436
  8
1
  6
CONTINUOUS
 62
     7
 10
-287.8098446483066
 20
82.9920598688317
 30
0.0
 11
-287.8011939358375
 21
83.98333333333332
 31
0.0
  0
LINE
  5
437
  8
1
  6
CONTINUOUS
 62
     7
 10
-287.8011939358375
 20
83.98333333333332
 30
0.0
 11
-285.9408238204896
 21
83.98333333333332
 31
0.0
  0
ARC
  5
438
  8
1
  6
CONTINUOUS
 62
     9
 10
-233.8710088781635
 20
75.98333333333333
 30
0.0
 40
0.7586413514237781
 50
109.2406440950062
 51
250.7593559049938
  0
LINE
  5
439
  8
1
  6
CONTINUOUS
 62
     7
 10
-234.1210088781635
 20
75.26706753065243
 30
0.0
 11
-234.101587054217
 21
74.7633272454296
 31
0.0
  0
ARC
  5
43A
  8
1
  6
CONTINUOUS
 62
     9
 10
-233.8710088781635
 20
75.98333333333333
 30
0.0
 40
1.241604264568324
 50
100.7025226162913
 51
259.2974773837093
  0
LINE
  5
43B
  8
1
  6
CONTINUOUS
 62
     7
 10
-234.101587054217
 20
77.20333942123703
 30
0.0
 11
-234.1210088781635
 21
76.69959913601421
 31
0.0
  0
LINE
  5
43C
  8
1
  6
CONTINUOUS
 62
     7
 10
-233.7698767569671
 20
78.58228245489286
 30
0.0
 11
-233.7698767569671
 21
78.73147312127395
 31
0.0
  0
ARC
  5
43D
  8
1
  6
CONTINUOUS
 62
     7
 10
-232.8710088781635
 20
75.98333333333333
 30
0.0
 40
2.750000000000001
 50
102.4625164264977
 51
109.0783641367908
  0
LINE
  5
43E
  8
1
  6
CONTINUOUS
 62
     7
 10
-233.4633127953942
 20
78.66928159547474
 30
0.0
 11
-233.464461252306
 21
78.6685361710394
 31
0.0
  0
LINE
  5
43F
  8
1
  6
CONTINUOUS
 62
     9
 10
-233.4645412293056
 20
75.9833333333333
 30
0.0
 11
-233.4633127953942
 21
78.66928159547474
 31
0.0
  0
LINE
  5
440
  8
1
  6
CONTINUOUS
 62
     9
 10
-233.4633127953942
 20
73.29738507119193
 30
0.0
 11
-233.4645412293056
 21
75.9833333333333
 31
0.0
  0
LINE
  5
441
  8
1
  6
CONTINUOUS
 62
     7
 10
-233.464461252306
 20
73.29813049562726
 30
0.0
 11
-233.4633127953942
 21
73.29738507119193
 31
0.0
  0
ARC
  5
442
  8
1
  6
CONTINUOUS
 62
     7
 10
-232.8710088781635
 20
75.98333333333333
 30
0.0
 40
2.750000000000001
 50
250.9216358632092
 51
257.5374835735023
  0
LINE
  5
443
  8
1
  6
CONTINUOUS
 62
     7
 10
-233.7698767569671
 20
73.2351935453927
 30
0.0
 11
-233.7698767569671
 21
73.38438421177379
 31
0.0
  0
ARC
  5
444
  8
1
  6
CONTINUOUS
 62
     7
 10
-233.8710088781635
 20
75.98333333333333
 30
0.0
 40
2.75
 50
271.4866545699234
 51
272.1075456741796
  0
LINE
  5
445
  8
1
  6
CONTINUOUS
 62
     7
 10
-233.8132267188196
 20
73.26802224324335
 30
0.0
 11
-233.7996625874297
 21
73.23425899697963
 31
0.0
  0
LINE
  5
446
  8
1
  6
CONTINUOUS
 62
     7
 10
-234.101587054217
 20
74.7633272454296
 30
0.0
 11
-233.8132267188196
 21
73.26802224324335
 31
0.0
  0
LINE
  5
447
  8
1
  6
CONTINUOUS
 62
     7
 10
-234.1210088781635
 20
75.26706753065243
 30
0.0
 11
-234.1210088781635
 21
76.69959913601421
 31
0.0
  0
LINE
  5
448
  8
1
  6
CONTINUOUS
 62
     7
 10
-233.8132267188196
 20
78.69864442342327
 30
0.0
 11
-234.101587054217
 21
77.20333942123703
 31
0.0
  0
LINE
  5
449
  8
1
  6
CONTINUOUS
 62
     7
 10
-233.7996625874297
 20
78.73240766968703
 30
0.0
 11
-233.8132267188196
 21
78.69864442342327
 31
0.0
  0
ARC
  5
44A
  8
1
  6
CONTINUOUS
 62
     7
 10
-233.8710088781635
 20
75.98333333333333
 30
0.0
 40
2.75
 50
87.89245432582041
 51
88.51334543007664
  0
ARC
  5
44B
  8
1
  6
CONTINUOUS
 62
     9
 10
-195.8710088781635
 20
75.98333333333333
 30
0.0
 40
0.7586413514237912
 50
109.2406440950068
 51
250.7593559049932
  0
LINE
  5
44C
  8
1
  6
CONTINUOUS
 62
     7
 10
-196.1210088781635
 20
75.26706753065243
 30
0.0
 11
-196.101587054217
 21
74.7633272454296
 31
0.0
  0
ARC
  5
44D
  8
1
  6
CONTINUOUS
 62
     9
 10
-195.8710088781635
 20
75.98333333333333
 30
0.0
 40
1.241604264568324
 50
100.7025226162917
 51
259.297477383709
  0
LINE
  5
44E
  8
1
  6
CONTINUOUS
 62
     7
 10
-196.101587054217
 20
77.20333942123703
 30
0.0
 11
-196.1210088781635
 21
76.69959913601423
 31
0.0
  0
LINE
  5
44F
  8
1
  6
CONTINUOUS
 62
     7
 10
-193.9721409993599
 20
73.3843842117738
 30
0.0
 11
-193.9721409993599
 21
73.2351935453927
 31
0.0
  0
ARC
  5
450
  8
1
  6
CONTINUOUS
 62
     7
 10
-194.8710088781635
 20
75.98333333333333
 30
0.0
 40
2.749999999999998
 50
282.4625164264978
 51
289.0783641367914
  0
LINE
  5
451
  8
1
  6
CONTINUOUS
 62
     7
 10
-194.2787049609329
 20
73.29738507119193
 30
0.0
 11
-194.2775565040211
 21
73.29813049562728
 31
0.0
  0
LINE
  5
452
  8
1
  6
CONTINUOUS
 62
     9
 10
-194.2774765270214
 20
75.98333333333335
 30
0.0
 11
-194.2787049609329
 21
73.29738507119193
 31
0.0
  0
LINE
  5
453
  8
1
  6
CONTINUOUS
 62
     9
 10
-194.2787049609329
 20
78.66928159547473
 30
0.0
 11
-194.2774765270214
 21
75.98333333333333
 31
0.0
  0
LINE
  5
454
  8
1
  6
CONTINUOUS
 62
     7
 10
-194.2775565040211
 20
78.66853617103939
 30
0.0
 11
-194.2787049609329
 21
78.66928159547473
 31
0.0
  0
ARC
  5
455
  8
1
  6
CONTINUOUS
 62
     7
 10
-194.8710088781635
 20
75.98333333333333
 30
0.0
 40
2.749999999999998
 50
70.92163586320875
 51
77.5374835735023
  0
LINE
  5
456
  8
1
  6
CONTINUOUS
 62
     7
 10
-193.9721409993599
 20
78.73147312127396
 30
0.0
 11
-193.9721409993599
 21
78.58228245489286
 31
0.0
  0
ARC
  5
457
  8
1
  6
CONTINUOUS
 62
     7
 10
-193.8710088781635
 20
75.98333333333333
 30
0.0
 40
2.750000000000004
 50
91.48665456992336
 51
92.10754567417902
  0
LINE
  5
458
  8
1
  6
CONTINUOUS
 62
     7
 10
-193.9287910375074
 20
78.69864442342329
 30
0.0
 11
-193.9423551688974
 21
78.73240766968703
 31
0.0
  0
LINE
  5
459
  8
1
  6
CONTINUOUS
 62
     7
 10
-193.6404307021101
 20
77.20333942123706
 30
0.0
 11
-193.9287910375074
 21
78.69864442342329
 31
0.0
  0
LINE
  5
45A
  8
1
  6
CONTINUOUS
 62
     7
 10
-193.6210088781635
 20
76.69959913601423
 30
0.0
 11
-193.6404307021101
 21
77.20333942123706
 31
0.0
  0
LINE
  5
45B
  8
1
  6
CONTINUOUS
 62
     7
 10
-193.6210088781635
 20
75.26706753065243
 30
0.0
 11
-193.6210088781635
 21
76.69959913601423
 31
0.0
  0
LINE
  5
45C
  8
1
  6
CONTINUOUS
 62
     7
 10
-193.6404307021101
 20
74.76332724542962
 30
0.0
 11
-193.6210088781635
 21
75.26706753065243
 31
0.0
  0
LINE
  5
45D
  8
1
  6
CONTINUOUS
 62
     7
 10
-193.9287910375074
 20
73.26802224324337
 30
0.0
 11
-193.6404307021101
 21
74.76332724542962
 31
0.0
  0
LINE
  5
45E
  8
1
  6
CONTINUOUS
 62
     7
 10
-193.9423551688974
 20
73.23425899697963
 30
0.0
 11
-193.9287910375074
 21
73.26802224324337
 31
0.0
  0
ARC
  5
45F
  8
1
  6
CONTINUOUS
 62
     7
 10
-193.8710088781635
 20
75.98333333333333
 30
0.0
 40
2.750000000000004
 50
267.892454325821
 51
268.5133454300766
  0
ARC
  5
460
  8
1
  6
CONTINUOUS
 62
     9
 10
-231.8710088781635
 20
75.98333333333333
 30
0.0
 40
0.7586413514237781
 50
289.2406440950074
 51
70.7593559049926
  0
LINE
  5
461
  8
1
  6
CONTINUOUS
 62
     7
 10
-231.6210088781635
 20
76.69959913601421
 30
0.0
 11
-231.6404307021101
 21
77.20333942123706
 31
0.0
  0
ARC
  5
462
  8
1
  6
CONTINUOUS
 62
     9
 10
-231.8710088781635
 20
75.98333333333333
 30
0.0
 40
1.241604264568311
 50
280.702522616292
 51
79.2974773837085
  0
LINE
  5
463
  8
1
  6
CONTINUOUS
 62
     7
 10
-231.6404307021101
 20
74.76332724542964
 30
0.0
 11
-231.6210088781635
 21
75.26706753065244
 31
0.0
  0
ARC
  5
464
  8
1
  6
CONTINUOUS
 62
     9
 10
-193.8710088781635
 20
75.98333333333333
 30
0.0
 40
0.7586413514237912
 50
289.2406440950068
 51
70.75935590499319
  0
ARC
  5
465
  8
1
  6
CONTINUOUS
 62
     9
 10
-193.8710088781635
 20
75.98333333333333
 30
0.0
 40
1.241604264568324
 50
280.7025226162917
 51
79.29747738370895
  0
LINE
  5
466
  8
1
  6
CONTINUOUS
 62
     7
 10
-231.9721409993599
 20
73.3843842117738
 30
0.0
 11
-231.9721409993599
 21
73.2351935453927
 31
0.0
  0
ARC
  5
467
  8
1
  6
CONTINUOUS
 62
     7
 10
-232.8710088781635
 20
75.98333333333333
 30
0.0
 40
2.750000000000001
 50
282.4625164264978
 51
289.0783641367914
  0
LINE
  5
468
  8
1
  6
CONTINUOUS
 62
     7
 10
-232.2787049609329
 20
73.29738507119193
 30
0.0
 11
-232.2775565040211
 21
73.29813049562726
 31
0.0
  0
LINE
  5
469
  8
1
  6
CONTINUOUS
 62
     9
 10
-232.2774765270214
 20
75.98333333333336
 30
0.0
 11
-232.2787049609329
 21
73.29738507119193
 31
0.0
  0
LINE
  5
46A
  8
1
  6
CONTINUOUS
 62
     9
 10
-232.2787049609329
 20
78.66928159547473
 30
0.0
 11
-232.2774765270214
 21
75.98333333333336
 31
0.0
  0
LINE
  5
46B
  8
1
  6
CONTINUOUS
 62
     7
 10
-232.2775565040211
 20
78.66853617103939
 30
0.0
 11
-232.2787049609329
 21
78.66928159547473
 31
0.0
  0
ARC
  5
46C
  8
1
  6
CONTINUOUS
 62
     7
 10
-232.8710088781635
 20
75.98333333333333
 30
0.0
 40
2.750000000000001
 50
70.92163586320875
 51
77.5374835735023
  0
LINE
  5
46D
  8
1
  6
CONTINUOUS
 62
     7
 10
-231.9721409993599
 20
78.73147312127396
 30
0.0
 11
-231.9721409993599
 21
78.58228245489286
 31
0.0
  0
ARC
  5
46E
  8
1
  6
CONTINUOUS
 62
     7
 10
-231.8710088781635
 20
75.98333333333333
 30
0.0
 40
2.750000000000001
 50
91.48665456992279
 51
92.10754567417902
  0
LINE
  5
46F
  8
1
  6
CONTINUOUS
 62
     7
 10
-231.9287910375074
 20
78.69864442342329
 30
0.0
 11
-231.9423551688974
 21
78.73240766968703
 31
0.0
  0
LINE
  5
470
  8
1
  6
CONTINUOUS
 62
     7
 10
-231.6404307021101
 20
77.20333942123706
 30
0.0
 11
-231.9287910375074
 21
78.69864442342329
 31
0.0
  0
LINE
  5
471
  8
1
  6
CONTINUOUS
 62
     7
 10
-231.6210088781635
 20
75.26706753065244
 30
0.0
 11
-231.6210088781635
 21
76.69959913601421
 31
0.0
  0
LINE
  5
472
  8
1
  6
CONTINUOUS
 62
     7
 10
-231.9287910375074
 20
73.26802224324337
 30
0.0
 11
-231.6404307021101
 21
74.76332724542964
 31
0.0
  0
LINE
  5
473
  8
1
  6
CONTINUOUS
 62
     7
 10
-231.9423551688974
 20
73.23425899697963
 30
0.0
 11
-231.9287910375074
 21
73.26802224324337
 31
0.0
  0
ARC
  5
474
  8
1
  6
CONTINUOUS
 62
     7
 10
-231.8710088781635
 20
75.98333333333333
 30
0.0
 40
2.750000000000001
 50
267.892454325821
 51
268.5133454300772
  0
LINE
  5
475
  8
1
  6
CONTINUOUS
 62
     7
 10
-195.7698767569672
 20
78.58228245489286
 30
0.0
 11
-195.7698767569672
 21
78.73147312127396
 31
0.0
  0
ARC
  5
476
  8
1
  6
CONTINUOUS
 62
     7
 10
-194.8710088781635
 20
75.98333333333333
 30
0.0
 40
2.749999999999998
 50
102.4625164264978
 51
109.0783641367914
  0
LINE
  5
477
  8
1
  6
CONTINUOUS
 62
     7
 10
-195.4633127953942
 20
78.66928159547473
 30
0.0
 11
-195.464461252306
 21
78.66853617103939
 31
0.0
  0
LINE
  5
478
  8
1
  6
CONTINUOUS
 62
     9
 10
-195.4645412293056
 20
75.98333333333329
 30
0.0
 11
-195.4633127953942
 21
78.66928159547473
 31
0.0
  0
LINE
  5
479
  8
1
  6
CONTINUOUS
 62
     9
 10
-195.4633127953942
 20
73.29738507119193
 30
0.0
 11
-195.4645412293056
 21
75.98333333333329
 31
0.0
  0
LINE
  5
47A
  8
1
  6
CONTINUOUS
 62
     7
 10
-195.464461252306
 20
73.29813049562728
 30
0.0
 11
-195.4633127953942
 21
73.29738507119193
 31
0.0
  0
ARC
  5
47B
  8
1
  6
CONTINUOUS
 62
     7
 10
-194.8710088781635
 20
75.98333333333333
 30
0.0
 40
2.749999999999998
 50
250.9216358632088
 51
257.5374835735022
  0
LINE
  5
47C
  8
1
  6
CONTINUOUS
 62
     7
 10
-195.7698767569672
 20
73.2351935453927
 30
0.0
 11
-195.7698767569672
 21
73.3843842117738
 31
0.0
  0
ARC
  5
47D
  8
1
  6
CONTINUOUS
 62
     7
 10
-195.8710088781635
 20
75.98333333333333
 30
0.0
 40
2.750000000000004
 50
271.4866545699234
 51
272.107545674179
  0
LINE
  5
47E
  8
1
  6
CONTINUOUS
 62
     7
 10
-195.8132267188196
 20
73.26802224324337
 30
0.0
 11
-195.7996625874297
 21
73.23425899697963
 31
0.0
  0
LINE
  5
47F
  8
1
  6
CONTINUOUS
 62
     7
 10
-196.101587054217
 20
74.7633272454296
 30
0.0
 11
-195.8132267188196
 21
73.26802224324337
 31
0.0
  0
LINE
  5
480
  8
1
  6
CONTINUOUS
 62
     7
 10
-196.1210088781635
 20
75.26706753065243
 30
0.0
 11
-196.1210088781635
 21
76.69959913601423
 31
0.0
  0
LINE
  5
481
  8
1
  6
CONTINUOUS
 62
     7
 10
-195.8132267188196
 20
78.69864442342329
 30
0.0
 11
-196.101587054217
 21
77.20333942123703
 31
0.0
  0
LINE
  5
482
  8
1
  6
CONTINUOUS
 62
     7
 10
-195.7996625874297
 20
78.73240766968703
 30
0.0
 11
-195.8132267188196
 21
78.69864442342329
 31
0.0
  0
ARC
  5
483
  8
1
  6
CONTINUOUS
 62
     7
 10
-195.8710088781635
 20
75.98333333333333
 30
0.0
 40
2.750000000000004
 50
87.89245432582098
 51
88.51334543007664
  0
ARC
  5
484
  8
1
  6
CONTINUOUS
 62
     9
 10
-231.8710088781635
 20
75.98333333333333
 30
0.0
 40
2.715925826289071
 50
268.7809226463633
 51
91.21907735363675
  0
ARC
  5
485
  8
1
  6
CONTINUOUS
 62
     9
 10
-193.8710088781635
 20
75.98333333333333
 30
0.0
 40
2.715925826289071
 50
268.7809226463631
 51
91.21907735363685
  0
ARC
  5
486
  8
1
  6
CONTINUOUS
 62
     9
 10
-233.8710088781635
 20
75.98333333333333
 30
0.0
 40
2.715925826289058
 50
88.78092264636297
 51
271.2190773536371
  0
ARC
  5
487
  8
1
  6
CONTINUOUS
 62
     9
 10
-195.8710088781635
 20
75.98333333333333
 30
0.0
 40
2.715925826289071
 50
88.78092264636315
 51
271.2190773536369
  0
LINE
  5
488
  8
1
  6
CONTINUOUS
 62
     7
 10
-285.8710088781635
 20
75.98333333333319
 30
0.0
 11
-284.3710088781635
 21
75.98333333333319
 31
0.0
  0
LINE
  5
489
  8
1
  6
CONTINUOUS
 62
     7
 10
-284.3011939358375
 20
67.98333333333332
 30
0.0
 11
-285.9408238204896
 21
67.98333333333332
 31
0.0
  0
LINE
  5
48A
  8
1
  6
CONTINUOUS
 62
     7
 10
-284.3011939358375
 20
83.98333333333332
 30
0.0
 11
-285.9408238204896
 21
83.98333333333332
 31
0.0
  0
ARC
  5
48B
  8
1
  6
CONTINUOUS
 62
     7
 10
-233.8710088781635
 20
75.98333333333333
 30
0.0
 40
2.750000000000002
 50
88.51334543007694
 51
271.4866545699232
  0
ARC
  5
48C
  8
1
  6
CONTINUOUS
 62
     7
 10
-195.8710088781635
 20
75.98333333333333
 30
0.0
 40
2.750000000000002
 50
88.51334543007727
 51
271.4866545699231
  0
ARC
  5
48D
  8
1
  6
CONTINUOUS
 62
     7
 10
-193.8710088781635
 20
75.98333333333333
 30
0.0
 40
2.750000000000002
 50
268.5133454300773
 51
91.48665456992309
  0
ARC
  5
48E
  8
1
  6
CONTINUOUS
 62
     7
 10
-231.8710088781635
 20
75.98333333333333
 30
0.0
 40
2.750000000000002
 50
268.5133454300773
 51
91.48665456992296
  0
LINE
  5
48F
  8
1
  6
CONTINUOUS
 62
     9
 10
-275.4409380512971
 20
83.98333333333332
 30
0.0
 11
-275.371123108971
 21
75.98333333333333
 31
0.0
  0
LINE
  5
490
  8
1
  6
CONTINUOUS
 62
     7
 10
-275.371123108971
 20
75.98333333333336
 30
0.0
 11
-278.3710088781635
 21
75.98333333333336
 31
0.0
  0
LINE
  5
491
  8
1
  6
CONTINUOUS
 62
     7
 10
-275.4409380512971
 20
83.98333333333332
 30
0.0
 11
-278.4408238204896
 21
83.98333333333332
 31
0.0
  0
LINE
  5
492
  8
1
  6
CONTINUOUS
 62
     9
 10
-275.371123108971
 20
75.98333333333333
 30
0.0
 11
-275.4409380512971
 21
67.98333333333332
 31
0.0
  0
LINE
  5
493
  8
1
  6
CONTINUOUS
 62
     7
 10
-278.4408238204896
 20
67.98333333333332
 30
0.0
 11
-275.4409380512971
 21
67.98333333333332
 31
0.0
  0
ARC
  5
494
  8
1
  6
CONTINUOUS
 62
     9
 10
-194.8710088781635
 20
75.98769660108252
 30
0.0
 40
3.249999999999996
 50
271.6350341436082
 51
307.729664305805
  0
LINE
  5
495
  8
1
  6
CONTINUOUS
 62
     7
 10
-194.7782770954394
 20
72.73901982176562
 30
0.0
 11
-194.2787049609329
 21
73.29738507119193
 31
0.0
  0
LINE
  5
496
  8
1
  6
CONTINUOUS
 62
     7
 10
-194.2787049609329
 20
78.66928159547473
 30
0.0
 11
-194.7782770954394
 21
79.22764684490103
 31
0.0
  0
ARC
  5
497
  8
1
  6
CONTINUOUS
 62
     9
 10
-194.8710088781635
 20
75.97897006558414
 30
0.0
 40
3.249999999999996
 50
52.27033569419483
 51
88.36496585639179
  0
ARC
  5
498
  8
1
  6
CONTINUOUS
 62
     9
 10
-232.8710088781635
 20
75.98769660108252
 30
0.0
 40
3.25
 50
271.6350341436087
 51
307.7296643058068
  0
LINE
  5
499
  8
1
  6
CONTINUOUS
 62
     7
 10
-232.7782770954394
 20
72.73901982176562
 30
0.0
 11
-232.2787049609329
 21
73.29738507119193
 31
0.0
  0
LINE
  5
49A
  8
1
  6
CONTINUOUS
 62
     7
 10
-232.2787049609329
 20
78.66928159547473
 30
0.0
 11
-232.7782770954394
 21
79.22764684490103
 31
0.0
  0
ARC
  5
49B
  8
1
  6
CONTINUOUS
 62
     9
 10
-232.8710088781635
 20
75.97897006558414
 30
0.0
 40
3.25
 50
52.27033569419325
 51
88.36496585639134
  0
LINE
  5
49C
  8
1
  6
CONTINUOUS
 62
     7
 10
-233.4633127953942
 20
73.29738507119193
 30
0.0
 11
-232.9637406608877
 21
72.73901982176562
 31
0.0
  0
ARC
  5
49D
  8
1
  6
CONTINUOUS
 62
     9
 10
-232.8710088781635
 20
75.98769660108252
 30
0.0
 40
3.25
 50
232.2703356941927
 51
268.3649658563918
  0
ARC
  5
49E
  8
1
  6
CONTINUOUS
 62
     9
 10
-232.8710088781635
 20
75.97897006558414
 30
0.0
 40
3.25
 50
91.6350341436082
 51
127.7296643058073
  0
LINE
  5
49F
  8
1
  6
CONTINUOUS
 62
     7
 10
-232.9637406608877
 20
79.22764684490103
 30
0.0
 11
-233.4633127953942
 21
78.66928159547474
 31
0.0
  0
ARC
  5
4A0
  8
1
  6
CONTINUOUS
 62
     9
 10
-194.8710088781635
 20
75.97897006558414
 30
0.0
 40
3.249999999999996
 50
91.6350341436082
 51
127.7296643058063
  0
LINE
  5
4A1
  8
1
  6
CONTINUOUS
 62
     7
 10
-194.9637406608877
 20
79.22764684490103
 30
0.0
 11
-195.4633127953942
 21
78.66928159547473
 31
0.0
  0
LINE
  5
4A2
  8
1
  6
CONTINUOUS
 62
     7
 10
-195.4633127953942
 20
73.29738507119193
 30
0.0
 11
-194.9637406608877
 21
72.73901982176562
 31
0.0
  0
ARC
  5
4A3
  8
1
  6
CONTINUOUS
 62
     9
 10
-194.8710088781635
 20
75.98769660108252
 30
0.0
 40
3.249999999999996
 50
232.2703356941938
 51
268.3649658563918
  0
LINE
  5
4A4
  8
1
  6
CONTINUOUS
 62
     7
 10
-194.2774765270214
 20
75.98333333333332
 30
0.0
 11
-194.7767932899643
 21
75.98333333333332
 31
0.0
  0
LINE
  5
4A5
  8
1
  6
CONTINUOUS
 62
     9
 10
-194.7782770954394
 20
72.73901982176562
 30
0.0
 11
-194.7767932899643
 21
75.98333333333333
 31
0.0
  0
LINE
  5
4A6
  8
1
  6
CONTINUOUS
 62
     9
 10
-194.9637406608877
 20
79.22764684490103
 30
0.0
 11
-194.9652244663627
 21
75.98333333333333
 31
0.0
  0
LINE
  5
4A7
  8
1
  6
CONTINUOUS
 62
     7
 10
-194.9652244663627
 20
75.98333333333346
 30
0.0
 11
-195.4645412293056
 21
75.98333333333346
 31
0.0
  0
LINE
  5
4A8
  8
1
  6
CONTINUOUS
 62
     7
 10
-232.9652244663627
 20
75.98333333333346
 30
0.0
 11
-233.4645412293056
 21
75.98333333333346
 31
0.0
  0
LINE
  5
4A9
  8
1
  6
CONTINUOUS
 62
     9
 10
-232.9652244663627
 20
75.98333333333333
 30
0.0
 11
-232.9637406608877
 21
72.73901982176562
 31
0.0
  0
LINE
  5
4AA
  8
1
  6
CONTINUOUS
 62
     9
 10
-194.7767932899643
 20
75.98333333333333
 30
0.0
 11
-194.7782770954394
 21
79.22764684490103
 31
0.0
  0
LINE
  5
4AB
  8
1
  6
CONTINUOUS
 62
     9
 10
-232.9637406608877
 20
79.22764684490103
 30
0.0
 11
-232.9652244663627
 21
75.98333333333333
 31
0.0
  0
LINE
  5
4AC
  8
1
  6
CONTINUOUS
 62
     9
 10
-194.9652244663627
 20
75.98333333333333
 30
0.0
 11
-194.9637406608877
 21
72.73901982176562
 31
0.0
  0
LINE
  5
4AD
  8
1
  6
CONTINUOUS
 62
     7
 10
-232.2774765270214
 20
75.98333333333333
 30
0.0
 11
-232.7767932899643
 21
75.98333333333333
 31
0.0
  0
LINE
  5
4AE
  8
1
  6
CONTINUOUS
 62
     9
 10
-232.7782770954394
 20
72.73901982176562
 30
0.0
 11
-232.7767932899643
 21
75.98333333333333
 31
0.0
  0
LINE
  5
4AF
  8
1
  6
CONTINUOUS
 62
     9
 10
-232.7767932899643
 20
75.98333333333333
 30
0.0
 11
-232.7782770954394
 21
79.22764684490103
 31
0.0
  0
LINE
  5
4B0
  8
1
  6
CONTINUOUS
 62
     7
 10
-236.6210088781635
 20
75.98333333333333
 30
0.0
 11
-275.3711231089711
 21
75.98333333333333
 31
0.0
  0
LINE
  5
4B1
  8
1
  6
CONTINUOUS
 62
     7
 10
-232.7767932899643
 20
75.98333333333333
 30
0.0
 11
-232.9652244663627
 21
75.98333333333333
 31
0.0
  0
LINE
  5
4B2
  8
1
  6
CONTINUOUS
 62
     7
 10
-198.6210088781635
 20
75.98333333333333
 30
0.0
 11
-229.1210088781635
 21
75.98333333333333
 31
0.0
  0
LINE
  5
4B3
  8
1
  6
CONTINUOUS
 62
     7
 10
-194.7767932899643
 20
75.98333333333333
 30
0.0
 11
-194.9652244663627
 21
75.98333333333333
 31
0.0
  0
LINE
  5
4B4
  8
1
  6
CONTINUOUS
 62
     7
 10
-188.8710088781635
 20
75.98333333333346
 30
0.0
 11
-191.1210088781635
 21
75.98333333333333
 31
0.0
  0
LINE
  5
4B5
  8
1
  6
CONTINUOUS
 62
     7
 10
-188.8710088781635
 20
75.98333333333346
 30
0.0
 11
-188.914871683082
 21
70.95715372683821
 31
0.0
  0
ARC
  5
4B6
  8
1
  6
CONTINUOUS
 62
     7
 10
-191.9147574522745
 20
70.98333333333333
 30
0.0
 40
3.0
 50
270.0
 51
359.5000000000001
  0
LINE
  5
4B7
  8
1
  6
CONTINUOUS
 62
     7
 10
-275.4409380512971
 20
67.98333333333332
 30
0.0
 11
-191.9147574522745
 21
67.98333333333332
 31
0.0
  0
ARC
  5
4B8
  8
1
  6
CONTINUOUS
 62
     7
 10
-191.9147574522745
 20
80.98333333333333
 30
0.0
 40
3.0
 50
0.4999999999999485
 51
90.0
  0
LINE
  5
4B9
  8
1
  6
CONTINUOUS
 62
     7
 10
-188.914871683082
 20
81.00951293982845
 30
0.0
 11
-188.8710088781635
 21
75.98333333333346
 31
0.0
  0
LINE
  5
4BA
  8
1
  6
CONTINUOUS
 62
     7
 10
-275.4409380512971
 20
83.98333333333332
 30
0.0
 11
-191.9147574522745
 21
83.98333333333332
 31
0.0
  0
LINE
  5
4BB
  8
1
  6
CONTINUOUS
 62
     7
 10
-282.3710088781635
 20
56.88333333333334
 30
0.0
 11
-282.3710088781635
 21
58.2153989034799
 31
0.0
  0
LINE
  5
4BC
  8
1
  6
CONTINUOUS
 62
     9
 10
-287.7488327290929
 20
61.98333333333333
 30
0.0
 11
-278.4582775560711
 21
61.98333333333333
 31
0.0
  0
LINE
  5
4BD
  8
1
  6
CONTINUOUS
 62
     9
 10
-282.3710088781635
 20
58.2153989034799
 30
0.0
 11
-278.4911598216847
 21
58.2153989034799
 31
0.0
  0
LINE
  5
4BE
  8
1
  6
CONTINUOUS
 62
     7
 10
-278.4582775560711
 20
61.98333333333333
 30
0.0
 11
-278.4911598216847
 21
58.2153989034799
 31
0.0
  0
LINE
  5
4BF
  8
1
  6
CONTINUOUS
 62
     7
 10
-287.7488327290929
 20
61.98333333333333
 30
0.0
 11
-287.70432570336
 21
56.88333333333334
 31
0.0
  0
LINE
  5
4C0
  8
1
  6
CONTINUOUS
 62
     7
 10
-278.4059163493266
 20
67.98333333333333
 30
0.0
 11
-278.4582775560711
 21
61.98333333333333
 31
0.0
  0
LINE
  5
4C1
  8
1
  6
CONTINUOUS
 62
     7
 10
-287.8011939358375
 20
67.98333333333333
 30
0.0
 11
-287.7488327290929
 21
61.98333333333333
 31
0.0
  0
LINE
  5
4C2
  8
1
  6
CONTINUOUS
 62
     7
 10
-278.4911598216847
 20
58.2153989034799
 30
0.0
 11
-278.4922995040493
 21
58.08480423974004
 31
0.0
  0
LINE
  5
4C3
  8
1
  6
CONTINUOUS
 62
     7
 10
-209.3710088781635
 20
64.98333333333333
 30
0.0
 11
-208.6748564554569
 21
65.38525712198
 31
0.0
  0
LINE
  5
4C4
  8
1
  6
CONTINUOUS
 62
     7
 10
-219.0671613008701
 20
65.38525712198
 30
0.0
 11
-218.3710088781635
 21
64.98333333333333
 31
0.0
  0
LINE
  5
4C5
  8
1
  6
CONTINUOUS
 62
     7
 10
-209.1210088781635
 20
83.98333333333332
 30
0.0
 11
-209.1210088781635
 21
84.78333333333333
 31
0.0
  0
LINE
  5
4C6
  8
1
  6
CONTINUOUS
 62
     7
 10
-209.3710088781635
 20
84.78333333333333
 30
0.0
 11
-209.5022418734524
 21
86.28333333333333
 31
0.0
  0
LINE
  5
4C7
  8
1
  6
CONTINUOUS
 62
     7
 10
-218.2397758828746
 20
86.28333333333333
 30
0.0
 11
-218.3710088781635
 21
84.78333333333333
 31
0.0
  0
LINE
  5
4C8
  8
1
  6
CONTINUOUS
 62
     7
 10
-216.1710088781635
 20
64.98333333333333
 30
0.0
 11
-215.9710088781635
 21
64.78333333333333
 31
0.0
  0
LINE
  5
4C9
  8
1
  6
CONTINUOUS
 62
     7
 10
-211.7710088781635
 20
64.78333333333333
 30
0.0
 11
-211.5710088781635
 21
64.98333333333333
 31
0.0
  0
LINE
  5
4CA
  8
1
  6
CONTINUOUS
 62
     7
 10
-287.70432570336
 20
56.88333333333334
 30
0.0
 11
-282.3710088781635
 21
56.88333333333334
 31
0.0
  0
LINE
  5
4CB
  8
1
  6
CONTINUOUS
 62
     7
 10
-282.3710088781635
 20
58.08480423974004
 30
0.0
 11
-278.4922995040493
 21
58.08480423974004
 31
0.0
  0
ENDBLK
  8
0
  0
ENDSEC
  0
SECTION
  2
ENTITIES
  0
LINE
  5
70
  8
1
  6
CENTER
 62
     1
 10
-129.8467585169927
 20
202.0832571794617
 30
0.0
 11
-129.9279170582772
 21
192.783409487205
 31
0.0
  0
LINE
  5
72
  8
1
  6
CENTER
 62
     1
 10
-213.8710088781635
 20
202.0832571794617
 30
0.0
 11
-213.8710088781635
 21
192.783409487205
 31
0.0
  0
LINE
  5
73
  8
1
  6
CENTER
 62
     1
 10
-218.5210088781635
 20
197.4333333333333
 30
0.0
 11
-209.2210088781635
 21
197.4333333333333
 31
0.0
  0
LINE
  5
74
  8
1
  6
CENTER
 62
     1
 10
-213.8710088781635
 20
79.84675851699272
 30
0.0
 11
-213.8710088781635
 21
79.92791705827725
 31
0.0
  0
LINE
  5
75
  8
1
  6
CENTER
 62
     1
 10
-293.3333333333333
 20
75.98333333333332
 30
0.0
 11
-183.3333333333333
 21
75.98333333333332
 31
0.0
  0
LINE
  5
76
  8
1
  6
CENTER
 62
     1
 10
-247.3710088781635
 20
270.8333333333334
 30
0.0
 11
-247.3710088781635
 21
210.8333333333334
 31
0.0
  0
LINE
  5
77
  8
1
  6
CENTER
 62
     1
 10
-125.9833333333333
 20
130.8333333333333
 30
0.0
 11
-125.9833333333333
 21
275.8333333333334
 31
0.0
  0
INSERT
  5
2E6
  8
1
  6
CONTINUOUS
 62
     7
  2
D_FRAME_VIEW_1492
 10
0.0
 20
0.0
 30
0.0
  0
TEXT
  5
2E7
  8
1
  6
CONTINUOUS
 62
     7
 10
-132.6386634571298
 20
74.16175336584553
 30
0.0
 40
3.0
  1
SG-6L
  0
LINE
  5
2E8
  8
1
  6
CONTINUOUS
 62
     2
 10
-132.5537878787879
 20
73.60378787878788
 30
0.0
 11
-124.1128787878788
 21
73.60378787878788
 31
0.0
  0
INSERT
  5
3F2
  8
1
  6
CONTINUOUS
 62
     7
  2
D_FRAME_VIEW_2447
 10
0.0
 20
0.0
 30
0.0
  0
INSERT
  5
4CC
  8
1
  6
CONTINUOUS
 62
     7
  2
D_FRAME_VIEW_2665
 10
0.0
 20
0.0
 30
0.0
  0
POINT
  5
4CD
  8
1
 62
     7
 10
-293.3333333333333
 20
73.33333333333333
 30
0.0
  0
POINT
  5
4CE
  8
1
 62
     7
 10
-118.3333333333333
 20
130.8333333333333
 30
0.0
  0
POINT
  5
4CF
  8
1
 62
     7
 10
-123.3333333333333
 20
275.8333333333334
 30
0.0
  0
POINT
  5
4D0
  8
1
 62
     7
 10
-248.3333333333333
 20
270.8333333333334
 30
0.0
  0
POINT
  5
4D1
  8
1
 62
     7
 10
-183.3333333333333
 20
73.33333333333333
 30
0.0
  0
POINT
  5
4D2
  8
1
 62
     7
 10
-243.3333333333333
 20
210.8333333333333
 30
0.0
  0
LINE
  5
4D3
  8
1
  6
CENTER
 62
     1
 10
-196.8710088781636
 20
192.7833333333334
 30
0.0
 11
-196.8710088781636
 21
202.0833333333333
 31
0.0
  0
LINE
  5
4D4
  8
1
  6
CENTER
 62
     1
 10
-218.6210088781635
 20
222.9333333333333
 30
0.0
 11
-209.1210088781635
 21
222.9333333333333
 31
0.0
  0
LINE
  5
4D5
  8
1
  6
CENTER
 62
     1
 10
-213.8710088781635
 20
218.1833333333333
 30
0.0
 11
-213.8710088781635
 21
227.6833333333333
 31
0.0
  0
LINE
  5
4D6
  8
1
  6
CENTER
 62
     1
 10
-111.9833333333333
 20
190.2333333333333
 30
0.0
 11
-111.9833333333333
 21
198.6333333333334
 31
0.0
  0
LINE
  5
4D7
  8
1
  6
CENTER
 62
     1
 10
-242.3710088781635
 20
192.6833333333333
 30
0.0
 11
-242.3710088781635
 21
202.1833333333333
 31
0.0
  0
LINE
  5
4D8
  8
1
  6
CENTER
 62
     1
 10
-201.5210088781635
 20
197.4333333333333
 30
0.0
 11
-192.2210088781636
 21
197.4333333333333
 31
0.0
  0
LINE
  5
4D9
  8
1
  6
CENTER
 62
     1
 10
-218.6210088781635
 20
250.4333333333333
 30
0.0
 11
-209.1210088781635
 21
250.4333333333333
 31
0.0
  0
LINE
  5
4DA
  8
1
  6
CENTER
 62
     1
 10
-213.8710088781635
 20
245.6833333333333
 30
0.0
 11
-213.8710088781635
 21
255.1833333333333
 31
0.0
  0
LINE
  5
4DB
  8
1
  6
CENTER
 62
     1
 10
-116.1833333333334
 20
194.4333333333333
 30
0.0
 11
-107.7833333333333
 21
194.4333333333333
 31
0.0
  0
LINE
  5
4DC
  8
1
  6
CENTER
 62
     1
 10
-130.1833333333333
 20
150.6333333333333
 30
0.0
 11
-121.7833333333333
 21
150.6333333333333
 31
0.0
  0
LINE
  5
4DD
  8
1
  6
CENTER
 62
     1
 10
-125.9833333333333
 20
146.4333333333333
 30
0.0
 11
-125.9833333333333
 21
154.8333333333333
 31
0.0
  0
LINE
  5
4DE
  8
1
  6
CENTER
 62
     1
 10
-277.4409380512971
 20
75.98333333333332
 30
0.0
 11
-189.9147574522745
 21
75.98333333333332
 31
0.0
  0
LINE
  5
4DF
  8
1
  6
CENTER
 62
     1
 10
-247.1210088781635
 20
197.4333333333333
 30
0.0
 11
-237.6210088781635
 21
197.4333333333333
 31
0.0
  0
ENDSEC
  0
EOF
