  0
SECTION
  2
HEADER
  9
$ACADVER
  1
AC1006
  9
$DWGCODEPAGE
  3
ansi_932
  9
$INSBASE
 10
0.0
 20
0.0
 30
0.0
  9
$EXTMIN
 10
-447.3472071805812
 20
106.1337616428267
  9
$EXTMAX
 10
-207.8023075214682
 20
333.8902169840354
  9
$LIMMIN
 10
0.0
 20
0.0
  9
$LIMMAX
 10
12.0
 20
9.0
  9
$ORTHOMODE
 70
     0
  9
$REGENMODE
 70
     1
  9
$FILLMODE
 70
     1
  9
$QTEXTMODE
 70
     0
  9
$MIRRTEXT
 70
     1
  9
$DRAGMODE
 70
     2
  9
$LTSCALE
 40
1.0
  9
$OSMODE
 70
    37
  9
$ATTMODE
 70
     1
  9
$TEXTSIZE
 40
0.2
  9
$TRACEWID
 40
0.05
  9
$TEXTSTYLE
  7
STANDARD
  9
$CLAYER
  8
0
  9
$CELTYPE
  6
BYLAYER
  9
$CECOLOR
 62
   256
  9
$DIMSCALE
 40
1.0
  9
$DIMASZ
 40
3.0
  9
$DIMEXO
 40
0.0625
  9
$DIMDLI
 40
0.38
  9
$DIMRND
 40
0.0
  9
$DIMDLE
 40
0.0
  9
$DIMEXE
 40
1.5
  9
$DIMTP
 40
0.0
  9
$DIMTM
 40
0.0
  9
$DIMTXT
 40
3.0
  9
$DIMCEN
 40
0.09
  9
$DIMTSZ
 40
0.0
  9
$DIMTOL
 70
     0
  9
$DIMLIM
 70
     0
  9
$DIMTIH
 70
     1
  9
$DIMTOH
 70
     1
  9
$DIMSE1
 70
     0
  9
$DIMSE2
 70
     0
  9
$DIMTAD
 70
     1
  9
$DIMZIN
 70
     0
  9
$DIMBLK
  1

  9
$DIMASO
 70
     1
  9
$DIMSHO
 70
     1
  9
$DIMPOST
  1

  9
$DIMAPOST
  1

  9
$DIMALT
 70
     0
  9
$DIMALTD
 70
     2
  9
$DIMALTF
 40
25.4
  9
$DIMLFAC
 40
1.0
  9
$DIMTOFL
 70
     0
  9
$DIMTVP
 40
0.0
  9
$DIMTIX
 70
     0
  9
$DIMSOXD
 70
     0
  9
$DIMSAH
 70
     0
  9
$DIMBLK1
  1

  9
$DIMBLK2
  1

  9
$LUNITS
 70
     2
  9
$LUPREC
 70
     4
  9
$SKETCHINC
 40
0.1
  9
$FILLETRAD
 40
0.5
  9
$AUNITS
 70
     0
  9
$AUPREC
 70
     0
  9
$MENU
  1
.
  9
$ELEVATION
 40
0.0
  9
$THICKNESS
 40
0.0
  9
$LIMCHECK
 70
     0
  9
$CHAMFERA
 40
0.0
  9
$CHAMFERB
 40
0.0
  9
$SKPOLY
 70
     0
  9
$TDCREATE
 40
2460529.656518796
  9
$TDUPDATE
 40
2460529.656519005
  9
$TDINDWG
 40
0.0000000116
  9
$TDUSRTIMER
 40
0.0000000116
  9
$USRTIMER
 70
     1
  9
$ANGBASE
 50
0.0
  9
$ANGDIR
 70
     0
  9
$PDMODE
 70
     0
  9
$PDSIZE
 40
0.0
  9
$PLINEWID
 40
0.0
  9
$COORDS
 70
     1
  9
$SPLFRAME
 70
     0
  9
$SPLINETYPE
 70
     6
  9
$SPLINESEGS
 70
     8
  9
$ATTDIA
 70
     0
  9
$ATTREQ
 70
     1
  9
$HANDLING
 70
     1
  9
$HANDSEED
  5
1F7
  9
$SURFTAB1
 70
     6
  9
$SURFTAB2
 70
     6
  9
$SURFTYPE
 70
     6
  9
$SURFU
 70
     6
  9
$SURFV
 70
     6
  9
$UCSNAME
  2

  9
$UCSORG
 10
0.0
 20
0.0
 30
0.0
  9
$UCSXDIR
 10
1.0
 20
0.0
 30
0.0
  9
$UCSYDIR
 10
0.0
 20
1.0
 30
0.0
  9
$USERI1
 70
     0
  9
$USERI2
 70
     0
  9
$USERI3
 70
     0
  9
$USERI4
 70
     0
  9
$USERI5
 70
     0
  9
$USERR1
 40
0.0
  9
$USERR2
 40
0.0
  9
$USERR3
 40
0.0
  9
$USERR4
 40
0.0
  9
$USERR5
 40
0.0
  9
$WORLDVIEW
 70
     1
  0
ENDSEC
  0
SECTION
  2
TABLES
  0
TABLE
  2
VPORT
 70
     1
  0
VPORT
  2
*ACTIVE
 70
     0
 10
0.0
 20
0.0
 11
1.0
 21
1.0
 12
-327.5747573510247
 22
220.0119893134311
 13
0.0
 23
0.0
 14
0.5
 24
0.5
 15
0.5
 25
0.5
 16
0.0
 26
0.0
 36
1.0
 17
0.0
 27
0.0
 37
0.0
 40
227.7564553412087
 41
1.6
 42
50.0
 43
0.0
 44
0.0
 50
0.0
 51
0.0
 71
     0
 72
   100
 73
     1
 74
     3
 75
     0
 76
     0
 77
     0
 78
     0
  0
ENDTAB
  0
TABLE
  2
LTYPE
 70
     3
  0
LTYPE
  2
CONTINUOUS
 70
     0
  3
Solid line
 72
    65
 73
     0
 40
0.0
  0
LTYPE
  2
DOT
 70
     0
  3

 72
    65
 73
     0
 40
0.0
  0
LTYPE
  2
CENTER
 70
     0
  3

 72
    65
 73
     0
 40
0.0
  0
ENDTAB
  0
TABLE
  2
LAYER
 70
     2
  0
LAYER
  2
0
 70
     0
 62
     7
  6
CONTINUOUS
  0
LAYER
  2
1
 70
     0
 62
     7
  6
CONTINUOUS
  0
ENDTAB
  0
TABLE
  2
STYLE
 70
     2
  0
STYLE
  2
STANDARD
 70
     0
 40
0.0
 41
1.0
 50
0.0
 71
     0
 42
0.2
  3
txt
  4

  0
STYLE
  2
ＭＳ_ゴシック
 70
     0
 40
0.0
 41
1.0
 50
0.0
 71
     0
 42
0.2
  3
ＭＳ ゴシック.shx
  4

  0
ENDTAB
  0
TABLE
  2
VIEW
 70
     0
  0
ENDTAB
  0
TABLE
  2
UCS
 70
     0
  0
ENDTAB
  0
ENDSEC
  0
SECTION
  2
BLOCKS
  0
BLOCK
  8
0
  2
D_FRAME_VIEW_2871
 70
     0
 10
0.0
 20
0.0
 30
0.0
  0
LINE
  5
71
  8
1
  6
CONTINUOUS
 62
     7
 10
-254.1523075214682
 20
248.3633070973721
 30
0.0
 11
-254.1523075214682
 21
128.3633070973721
 31
0.0
  0
LINE
  5
72
  8
1
  6
CONTINUOUS
 62
     7
 10
-252.5523075214682
 20
248.3633070973721
 30
0.0
 11
-252.5523075214682
 21
128.3633070973721
 31
0.0
  0
LINE
  5
73
  8
1
  6
CONTINUOUS
 62
     9
 10
-251.7259556991351
 20
195.3633070973721
 30
0.0
 11
-251.7259556991351
 21
181.3633070973721
 31
0.0
  0
LINE
  5
74
  8
1
  6
CONTINUOUS
 62
     7
 10
-252.5523075214682
 20
181.3633070973721
 30
0.0
 11
-251.7259556991351
 21
181.3633070973721
 31
0.0
  0
LINE
  5
75
  8
1
  6
CONTINUOUS
 62
     7
 10
-251.7259556991351
 20
195.3633070973721
 30
0.0
 11
-252.5523075214682
 21
195.3633070973721
 31
0.0
  0
LINE
  5
76
  8
1
  6
CONTINUOUS
 62
     9
 10
-250.5271740818672
 20
181.3633070973721
 30
0.0
 11
-250.5271740818672
 21
195.3633070973721
 31
0.0
  0
LINE
  5
77
  8
1
  6
CONTINUOUS
 62
     7
 10
-251.7259556991351
 20
181.3633070973721
 30
0.0
 11
-250.5271740818672
 21
181.3633070973721
 31
0.0
  0
LINE
  5
78
  8
1
  6
CONTINUOUS
 62
     7
 10
-251.7259556991351
 20
195.3633070973721
 30
0.0
 11
-250.5271740818672
 21
195.3633070973721
 31
0.0
  0
LINE
  5
79
  8
1
  6
CONTINUOUS
 62
     7
 10
-247.5523075214682
 20
195.3633070973721
 30
0.0
 11
-247.5523075214682
 21
194.6696615755872
 31
0.0
  0
LINE
  5
7A
  8
1
  6
CONTINUOUS
 62
     7
 10
-247.5523075214682
 20
182.056952619157
 30
0.0
 11
-247.5523075214682
 21
181.3633070973721
 31
0.0
  0
LINE
  5
7B
  8
1
  6
CONTINUOUS
 62
     7
 10
-247.5523075214682
 20
181.3633070973721
 30
0.0
 11
-250.5271740818672
 21
181.3633070973721
 31
0.0
  0
LINE
  5
7C
  8
1
  6
CONTINUOUS
 62
     7
 10
-250.5271740818672
 20
195.3633070973721
 30
0.0
 11
-247.5523075214682
 21
195.3633070973721
 31
0.0
  0
LINE
  5
7D
  8
1
  6
CONTINUOUS
 62
     7
 10
-239.3023075214682
 20
186.3633070973721
 30
0.0
 11
-239.3023075214682
 21
190.3633070973721
 31
0.0
  0
LINE
  5
7E
  8
1
  6
CONTINUOUS
 62
     7
 10
-238.9523075214682
 20
190.0133070973721
 30
0.0
 11
-238.9523075214682
 21
186.7133070973722
 31
0.0
  0
LINE
  5
7F
  8
1
  6
CONTINUOUS
 62
     9
 10
-245.9523075214682
 20
185.2500584433203
 30
0.0
 11
-247.5523075214682
 21
185.2500584433203
 31
0.0
  0
LINE
  5
80
  8
1
  6
CONTINUOUS
 62
     7
 10
-245.9523075214682
 20
185.2500584433203
 30
0.0
 11
-245.9523075214682
 21
180.9199314243981
 31
0.0
  0
LINE
  5
81
  8
1
  6
CONTINUOUS
 62
     9
 10
-245.9523075214682
 20
180.9199314243981
 30
0.0
 11
-247.5523075214682
 21
180.9199314243981
 31
0.0
  0
LINE
  5
82
  8
1
  6
CONTINUOUS
 62
     7
 10
-247.5523075214682
 20
185.2500584433203
 30
0.0
 11
-247.5523075214682
 21
182.056952619157
 31
0.0
  0
LINE
  5
83
  8
1
  6
CONTINUOUS
 62
     7
 10
-247.5523075214682
 20
181.3633070973722
 30
0.0
 11
-247.5523075214682
 21
180.9199314243981
 31
0.0
  0
LINE
  5
84
  8
1
  6
CONTINUOUS
 62
     9
 10
-245.9523075214682
 20
195.8066827703462
 30
0.0
 11
-247.5523075214682
 21
195.8066827703462
 31
0.0
  0
LINE
  5
85
  8
1
  6
CONTINUOUS
 62
     7
 10
-245.9523075214682
 20
195.8066827703462
 30
0.0
 11
-245.9523075214682
 21
191.476555751424
 31
0.0
  0
LINE
  5
86
  8
1
  6
CONTINUOUS
 62
     9
 10
-245.9523075214682
 20
191.476555751424
 30
0.0
 11
-247.5523075214682
 21
191.476555751424
 31
0.0
  0
LINE
  5
87
  8
1
  6
CONTINUOUS
 62
     7
 10
-247.5523075214682
 20
195.8066827703462
 30
0.0
 11
-247.5523075214682
 21
195.3633070973721
 31
0.0
  0
LINE
  5
88
  8
1
  6
CONTINUOUS
 62
     7
 10
-247.5523075214682
 20
194.6696615755872
 30
0.0
 11
-247.5523075214682
 21
191.476555751424
 31
0.0
  0
LINE
  5
89
  8
1
  6
CONTINUOUS
 62
     7
 10
-247.5523075214682
 20
191.476555751424
 30
0.0
 11
-247.5523075214682
 21
185.2500584433203
 31
0.0
  0
LINE
  5
8A
  8
1
  6
CONTINUOUS
 62
     7
 10
-245.9523075214682
 20
191.476555751424
 30
0.0
 11
-245.9523075214682
 21
185.2500584433203
 31
0.0
  0
LINE
  5
8B
  8
1
  6
CONTINUOUS
 62
     9
 10
-245.9523075214682
 20
200.1934341162943
 30
0.0
 11
-247.5523075214682
 21
200.1934341162943
 31
0.0
  0
LINE
  5
8C
  8
1
  6
CONTINUOUS
 62
     7
 10
-247.5523075214682
 20
200.1934341162943
 30
0.0
 11
-247.5523075214682
 21
195.8066827703462
 31
0.0
  0
LINE
  5
8D
  8
1
  6
CONTINUOUS
 62
     7
 10
-245.9523075214682
 20
200.1934341162943
 30
0.0
 11
-245.9523075214682
 21
195.8066827703462
 31
0.0
  0
LINE
  5
8E
  8
1
  6
CONTINUOUS
 62
     9
 10
-245.9523075214682
 20
176.53318007845
 30
0.0
 11
-247.5523075214682
 21
176.53318007845
 31
0.0
  0
LINE
  5
8F
  8
1
  6
CONTINUOUS
 62
     7
 10
-247.5523075214682
 20
180.9199314243981
 30
0.0
 11
-247.5523075214682
 21
176.53318007845
 31
0.0
  0
LINE
  5
90
  8
1
  6
CONTINUOUS
 62
     7
 10
-245.9523075214682
 20
180.9199314243981
 30
0.0
 11
-245.9523075214682
 21
176.53318007845
 31
0.0
  0
LINE
  5
91
  8
1
  6
CONTINUOUS
 62
     9
 10
-245.4523075214682
 20
190.9633070973721
 30
0.0
 11
-245.4523075214682
 21
185.7633070973721
 31
0.0
  0
LINE
  5
92
  8
1
  6
CONTINUOUS
 62
     7
 10
-244.4523075214682
 20
190.9633070973721
 30
0.0
 11
-244.4523075214682
 21
185.7633070973721
 31
0.0
  0
LINE
  5
93
  8
1
  6
CONTINUOUS
 62
     7
 10
-245.9523075214682
 20
200.8593821382914
 30
0.0
 11
-245.9424748045115
 21
200.8633070973721
 31
0.0
  0
LINE
  5
94
  8
1
  6
CONTINUOUS
 62
     7
 10
-247.5468541986579
 20
200.8633070973721
 30
0.0
 11
-247.5523075214682
 21
200.8593821382914
 31
0.0
  0
LINE
  5
95
  8
1
  6
CONTINUOUS
 62
     7
 10
-245.9424748045115
 20
200.8633070973721
 30
0.0
 11
-247.5468541986579
 21
200.8633070973721
 31
0.0
  0
LINE
  5
96
  8
1
  6
CONTINUOUS
 62
     7
 10
-247.5523075214682
 20
200.8593821382914
 30
0.0
 11
-247.5523075214682
 21
200.1934341162943
 31
0.0
  0
LINE
  5
97
  8
1
  6
CONTINUOUS
 62
     7
 10
-245.9523075214682
 20
200.8593821382914
 30
0.0
 11
-245.9523075214682
 21
200.1934341162943
 31
0.0
  0
LINE
  5
98
  8
1
  6
CONTINUOUS
 62
     7
 10
-245.9424748045115
 20
175.8633070973722
 30
0.0
 11
-245.9523075214682
 21
175.867232056453
 31
0.0
  0
LINE
  5
99
  8
1
  6
CONTINUOUS
 62
     7
 10
-245.9424748045115
 20
175.8633070973722
 30
0.0
 11
-247.5468541986579
 21
175.8633070973722
 31
0.0
  0
LINE
  5
9A
  8
1
  6
CONTINUOUS
 62
     7
 10
-247.5523075214682
 20
175.867232056453
 30
0.0
 11
-247.5468541986579
 21
175.8633070973722
 31
0.0
  0
LINE
  5
9B
  8
1
  6
CONTINUOUS
 62
     7
 10
-247.5523075214682
 20
176.53318007845
 30
0.0
 11
-247.5523075214682
 21
175.867232056453
 31
0.0
  0
LINE
  5
9C
  8
1
  6
CONTINUOUS
 62
     7
 10
-245.9523075214682
 20
176.53318007845
 30
0.0
 11
-245.9523075214682
 21
175.867232056453
 31
0.0
  0
LINE
  5
9D
  8
1
  6
CONTINUOUS
 62
     7
 10
-243.9523075214682
 20
200.8633070973721
 30
0.0
 11
-245.9424748045115
 21
200.8633070973721
 31
0.0
  0
LINE
  5
9E
  8
1
  6
CONTINUOUS
 62
     9
 10
-243.9523075214682
 20
200.8633070973721
 30
0.0
 11
-243.9523075214682
 21
190.3633070973721
 31
0.0
  0
LINE
  5
9F
  8
1
  6
CONTINUOUS
 62
     9
 10
-243.9523075214682
 20
186.3633070973721
 30
0.0
 11
-243.9523075214682
 21
175.8633070973722
 31
0.0
  0
LINE
  5
A0
  8
1
  6
CONTINUOUS
 62
     7
 10
-245.9424748045115
 20
175.8633070973722
 30
0.0
 11
-243.9523075214682
 21
175.8633070973722
 31
0.0
  0
LINE
  5
A1
  8
1
  6
CONTINUOUS
 62
     9
 10
-224.0523075214683
 20
175.8633070973722
 30
0.0
 11
-224.0523075214683
 21
200.8633070973721
 31
0.0
  0
LINE
  5
A2
  8
1
  6
CONTINUOUS
 62
     7
 10
-243.9523075214682
 20
200.8633070973721
 30
0.0
 11
-224.0523075214683
 21
200.8633070973721
 31
0.0
  0
LINE
  5
A3
  8
1
  6
CONTINUOUS
 62
     7
 10
-243.9523075214682
 20
175.8633070973722
 30
0.0
 11
-224.0523075214683
 21
175.8633070973722
 31
0.0
  0
LINE
  5
A4
  8
1
  6
CONTINUOUS
 62
     7
 10
-221.4523075214683
 20
200.863307097372
 30
0.0
 11
-221.4523075214683
 21
175.863307097372
 31
0.0
  0
LINE
  5
A5
  8
1
  6
CONTINUOUS
 62
     7
 10
-224.0523075214683
 20
200.8633070973721
 30
0.0
 11
-221.4523075214683
 21
200.8633070973721
 31
0.0
  0
LINE
  5
A6
  8
1
  6
CONTINUOUS
 62
     7
 10
-221.4523075214683
 20
175.863307097372
 30
0.0
 11
-224.0523075214683
 21
175.8633070973722
 31
0.0
  0
LINE
  5
A7
  8
1
  6
CONTINUOUS
 62
     7
 10
-252.5523075214682
 20
248.3633070973721
 30
0.0
 11
-254.1523075214682
 21
248.3633070973721
 31
0.0
  0
LINE
  5
A8
  8
1
  6
CONTINUOUS
 62
     7
 10
-254.1523075214682
 20
128.3633070973721
 30
0.0
 11
-252.5523075214682
 21
128.3633070973721
 31
0.0
  0
LINE
  5
A9
  8
1
  6
CONTINUOUS
 62
     7
 10
-239.3023075214682
 20
190.3633070973721
 30
0.0
 11
-244.4523075214682
 21
190.3633070973721
 31
0.0
  0
LINE
  5
AA
  8
1
  6
CONTINUOUS
 62
     7
 10
-244.4523075214682
 20
186.3633070973721
 30
0.0
 11
-239.3023075214682
 21
186.3633070973721
 31
0.0
  0
LINE
  5
AB
  8
1
  6
CONTINUOUS
 62
     7
 10
-239.3023075214682
 20
186.3633070973721
 30
0.0
 11
-238.9523075214682
 21
186.7133070973722
 31
0.0
  0
LINE
  5
AC
  8
1
  6
CONTINUOUS
 62
     7
 10
-238.9523075214682
 20
190.0133070973721
 30
0.0
 11
-239.3023075214682
 21
190.3633070973721
 31
0.0
  0
ARC
  5
AD
  8
1
  6
CONTINUOUS
 62
     7
 10
-245.4523075214682
 20
191.4633070973721
 30
0.0
 40
0.5000000000000004
 50
179.9999999999999
 51
269.9999999999991
  0
ARC
  5
AE
  8
1
  6
CONTINUOUS
 62
     7
 10
-245.4523075214682
 20
185.2633070973721
 30
0.0
 40
0.5000000000000004
 50
90.0000000000009
 51
180.0000000000001
  0
LINE
  5
AF
  8
1
  6
CONTINUOUS
 62
     7
 10
-244.4523075214682
 20
190.9633070973721
 30
0.0
 11
-245.4523075214682
 21
190.9633070973721
 31
0.0
  0
LINE
  5
B0
  8
1
  6
CONTINUOUS
 62
     7
 10
-245.4523075214682
 20
185.7633070973721
 30
0.0
 11
-244.4523075214682
 21
185.7633070973721
 31
0.0
  0
ENDBLK
  8
0
  0
BLOCK
  8
0
  2
D_FRAME_VIEW_2995
 70
     0
 10
0.0
 20
0.0
 30
0.0
  0
LINE
  5
BF
  8
1
  6
CONTINUOUS
 62
     7
 10
-445.3472071805812
 20
299.1402169840355
 30
0.0
 11
-325.3472071805812
 21
299.1402169840355
 31
0.0
  0
LINE
  5
C0
  8
1
  6
CONTINUOUS
 62
     7
 10
-445.3472071805812
 20
297.5402169840355
 30
0.0
 11
-325.3472071805812
 21
297.5402169840355
 31
0.0
  0
ARC
  5
C1
  8
1
  6
CONTINUOUS
 62
     7
 10
-409.4996007563618
 20
300.5402169840355
 30
0.0
 40
3.599999999999992
 50
88.37790965250913
 51
90.0
  0
ARC
  5
C2
  8
1
  6
CONTINUOUS
 62
     7
 10
-409.4996007563618
 20
300.5402169840355
 30
0.0
 40
3.599999999999982
 50
10.0
 51
88.37790965250913
  0
LINE
  5
C3
  8
1
  6
CONTINUOUS
 62
     7
 10
-405.7429153024162
 20
299.9665688063686
 30
0.0
 11
-405.9542928455178
 21
301.1653504236364
 31
0.0
  0
ARC
  5
C4
  8
1
  6
CONTINUOUS
 62
     7
 10
-404.7581075494039
 20
300.1402169840355
 30
0.0
 40
1.000000000000028
 50
190.0000000000001
 51
270.0000000000002
  0
LINE
  5
C5
  8
1
  6
CONTINUOUS
 62
     7
 10
-407.0944133938097
 20
299.6887317221015
 30
0.0
 11
-407.3057909369114
 21
300.8875133393694
 31
0.0
  0
ARC
  5
C6
  8
1
  6
CONTINUOUS
 62
     7
 10
-409.2754064429358
 20
300.5402169840355
 30
0.0
 40
2.00000000000001
 50
9.99999999999994
 51
89.99999999999999
  0
LINE
  5
C7
  8
1
  6
CONTINUOUS
 62
     7
 10
-409.2754064429358
 20
302.5402169840355
 30
0.0
 11
-420.9190079182267
 21
302.5402169840355
 31
0.0
  0
ARC
  5
C8
  8
1
  6
CONTINUOUS
 62
     7
 10
-420.9190079182267
 20
300.5402169840355
 30
0.0
 40
2.000000000000002
 50
90.0
 51
170.0
  0
LINE
  5
C9
  8
1
  6
CONTINUOUS
 62
     7
 10
-423.1000009673527
 20
299.6887317221015
 30
0.0
 11
-422.8886234242511
 21
300.8875133393694
 31
0.0
  0
ARC
  5
CA
  8
1
  6
CONTINUOUS
 62
     7
 10
-425.4363068117585
 20
300.1402169840355
 30
0.0
 40
1.000000000000001
 50
270.0
 51
349.9999999999999
  0
LINE
  5
CB
  8
1
  6
CONTINUOUS
 62
     7
 10
-424.4514990587463
 20
299.9665688063685
 30
0.0
 11
-424.2401215156447
 21
301.1653504236364
 31
0.0
  0
ARC
  5
CC
  8
1
  6
CONTINUOUS
 62
     7
 10
-420.6948136048007
 20
300.5402169840355
 30
0.0
 40
3.599999999999998
 50
90.0
 51
170.0
  0
LINE
  5
CD
  8
1
  6
CONTINUOUS
 62
     7
 10
-419.9925472217792
 20
304.1402169840354
 30
0.0
 11
-420.6948136048007
 21
304.1402169840355
 31
0.0
  0
ARC
  5
CE
  8
1
  6
CONTINUOUS
 62
     7
 10
-404.533913235978
 20
300.1402169840355
 30
0.0
 40
2.600000000000013
 50
190.0000000000001
 51
202.6198649480405
  0
ARC
  5
CF
  8
1
  6
CONTINUOUS
 62
     7
 10
-425.6605011251845
 20
300.1402169840355
 30
0.0
 40
2.600000000000025
 50
337.3801350519595
 51
349.9999999999999
  0
ARC
  5
D0
  8
1
  6
CONTINUOUS
 62
     7
 10
-349.9996007563618
 20
300.5402169840355
 30
0.0
 40
3.600000000000007
 50
10.00000000000001
 51
90.00000000000001
  0
LINE
  5
D1
  8
1
  6
CONTINUOUS
 62
     7
 10
-346.2429153024161
 20
299.9665688063686
 30
0.0
 11
-346.4542928455178
 21
301.1653504236364
 31
0.0
  0
ARC
  5
D2
  8
1
  6
CONTINUOUS
 62
     7
 10
-345.2581075494039
 20
300.1402169840355
 30
0.0
 40
1.000000000000001
 50
190.0000000000001
 51
270.0
  0
LINE
  5
D3
  8
1
  6
CONTINUOUS
 62
     7
 10
-347.5944133938098
 20
299.6887317221015
 30
0.0
 11
-347.8057909369114
 21
300.8875133393694
 31
0.0
  0
ARC
  5
D4
  8
1
  6
CONTINUOUS
 62
     7
 10
-349.7754064429358
 20
300.5402169840355
 30
0.0
 40
2.000000000000002
 50
10.0
 51
90.0
  0
LINE
  5
D5
  8
1
  6
CONTINUOUS
 62
     7
 10
-361.4190079182267
 20
302.5402169840355
 30
0.0
 11
-349.7754064429358
 21
302.5402169840355
 31
0.0
  0
ARC
  5
D6
  8
1
  6
CONTINUOUS
 62
     7
 10
-361.4190079182267
 20
300.5402169840355
 30
0.0
 40
2.00000000000001
 50
90.0
 51
170.0
  0
LINE
  5
D7
  8
1
  6
CONTINUOUS
 62
     7
 10
-363.6000009673527
 20
299.6887317221015
 30
0.0
 11
-363.3886234242511
 21
300.8875133393694
 31
0.0
  0
ARC
  5
D8
  8
1
  6
CONTINUOUS
 62
     7
 10
-365.9363068117585
 20
300.1402169840355
 30
0.0
 40
1.000000000000028
 50
269.9999999999998
 51
349.9999999999999
  0
LINE
  5
D9
  8
1
  6
CONTINUOUS
 62
     7
 10
-364.9514990587463
 20
299.9665688063686
 30
0.0
 11
-364.7401215156447
 21
301.1653504236364
 31
0.0
  0
ARC
  5
DA
  8
1
  6
CONTINUOUS
 62
     7
 10
-361.1948136048007
 20
300.5402169840355
 30
0.0
 40
3.599999999999992
 50
90.0
 51
93.49317677311281
  0
ARC
  5
DB
  8
1
  6
CONTINUOUS
 62
     7
 10
-361.1948136048007
 20
300.5402169840355
 30
0.0
 40
3.599999999999979
 50
93.4931767731129
 51
170.0
  0
LINE
  5
DC
  8
1
  6
CONTINUOUS
 62
     7
 10
-350.7018671393821
 20
304.1402169840355
 30
0.0
 11
-349.9996007563618
 21
304.1402169840355
 31
0.0
  0
ARC
  5
DD
  8
1
  6
CONTINUOUS
 62
     7
 10
-366.1605011251845
 20
300.1402169840355
 30
0.0
 40
2.600000000000013
 50
337.3801350519595
 51
349.9999999999999
  0
ARC
  5
DE
  8
1
  6
CONTINUOUS
 62
     7
 10
-345.033913235978
 20
300.1402169840355
 30
0.0
 40
2.600000000000025
 50
190.0
 51
202.6198649480404
  0
LINE
  5
DF
  8
1
  6
CONTINUOUS
 62
     7
 10
-418.2754064429359
 20
300.7402169840352
 30
0.0
 11
-410.2754064429359
 21
300.7402169840352
 31
0.0
  0
LINE
  5
E0
  8
1
  6
CONTINUOUS
 62
     7
 10
-412.2754064429359
 20
312.3902169840351
 30
0.0
 11
-416.2754064429359
 21
312.3902169840351
 31
0.0
  0
LINE
  5
E1
  8
1
  6
CONTINUOUS
 62
     7
 10
-415.925406442936
 20
312.7402169840352
 30
0.0
 11
-412.625406442936
 21
312.7402169840352
 31
0.0
  0
LINE
  5
E2
  8
1
  6
CONTINUOUS
 62
     7
 10
-360.4190079182267
 20
300.7402169840354
 30
0.0
 11
-352.4190079182267
 21
300.7402169840354
 31
0.0
  0
LINE
  5
E3
  8
1
  6
CONTINUOUS
 62
     7
 10
-354.4190079182267
 20
312.3902169840355
 30
0.0
 11
-358.4190079182267
 21
312.3902169840355
 31
0.0
  0
LINE
  5
E4
  8
1
  6
CONTINUOUS
 62
     7
 10
-358.0690079182267
 20
312.7402169840355
 30
0.0
 11
-354.7690079182267
 21
312.7402169840355
 31
0.0
  0
LINE
  5
E5
  8
1
  6
CONTINUOUS
 62
     7
 10
-414.323406442936
 20
300.7402169840346
 30
0.0
 11
-414.1934064429358
 21
301.7402169840363
 31
0.0
  0
LINE
  5
E6
  8
1
  6
CONTINUOUS
 62
     7
 10
-414.3574064429361
 20
301.7402169840346
 30
0.0
 11
-414.4874064429363
 21
300.740216984033
 31
0.0
  0
LINE
  5
E7
  8
1
  6
CONTINUOUS
 62
     7
 10
-356.4670079182267
 20
300.7402169840355
 30
0.0
 11
-356.3370079182267
 21
301.7402169840354
 31
0.0
  0
LINE
  5
E8
  8
1
  6
CONTINUOUS
 62
     7
 10
-356.5010079182267
 20
301.7402169840354
 30
0.0
 11
-356.6310079182267
 21
300.7402169840354
 31
0.0
  0
LINE
  5
E9
  8
1
  6
CONTINUOUS
 62
     7
 10
-351.9190079182267
 20
301.7402169840354
 30
0.0
 11
-360.9190079182267
 21
301.7402169840354
 31
0.0
  0
LINE
  5
EA
  8
1
  6
CONTINUOUS
 62
     7
 10
-409.7754064429359
 20
301.7402169840354
 30
0.0
 11
-418.7754064429359
 21
301.7402169840354
 31
0.0
  0
ARC
  5
EB
  8
1
  6
CONTINUOUS
 62
     7
 10
-361.2472071805811
 20
307.7402169840354
 30
0.0
 40
2.000000000000012
 50
180.0000000000009
 51
264.3162169723207
  0
LINE
  5
EC
  8
1
  6
CONTINUOUS
 62
     9
 10
-361.4452833919345
 20
305.7500497009922
 30
0.0
 11
-361.4452833919345
 21
304.1456703068457
 31
0.0
  0
ARC
  5
ED
  8
1
  6
CONTINUOUS
 62
     7
 10
-361.2472071805812
 20
307.7402169840354
 30
0.0
 40
3.599999999999992
 50
180.0
 51
266.845926415137
  0
LINE
  5
EE
  8
1
  6
CONTINUOUS
 62
     7
 10
-364.8472071805812
 20
327.6402169840354
 30
0.0
 11
-364.8472071805812
 21
307.7402169840354
 31
0.0
  0
ARC
  5
EF
  8
1
  6
CONTINUOUS
 62
     7
 10
-365.8472071805812
 20
327.6402169840354
 30
0.0
 40
1.000000000000001
 50
359.9999999999996
 51
89.99999999998408
  0
LINE
  5
F0
  8
1
  6
CONTINUOUS
 62
     7
 10
-404.8472071805809
 20
328.6402169840354
 30
0.0
 11
-365.8472071805809
 21
328.6402169840354
 31
0.0
  0
ARC
  5
F1
  8
1
  6
CONTINUOUS
 62
     7
 10
-404.8472071805807
 20
327.6402169840354
 30
0.0
 40
1.000000000000001
 50
90.00000000001593
 51
180.000000000008
  0
LINE
  5
F2
  8
1
  6
CONTINUOUS
 62
     7
 10
-405.8472071805807
 20
327.6402169840352
 30
0.0
 11
-405.8472071805807
 21
307.7402169840354
 31
0.0
  0
ARC
  5
F3
  8
1
  6
CONTINUOUS
 62
     7
 10
-409.4472071805806
 20
307.7402169840354
 30
0.0
 40
3.600000000000031
 50
273.1540735848641
 51
359.9999999999998
  0
LINE
  5
F4
  8
1
  6
CONTINUOUS
 62
     9
 10
-409.2491309692272
 20
305.750049700992
 30
0.0
 11
-409.2491309692272
 21
304.1456703068457
 31
0.0
  0
ARC
  5
F5
  8
1
  6
CONTINUOUS
 62
     7
 10
-409.4472071805806
 20
307.7402169840353
 30
0.0
 40
2.000000000000002
 50
275.6837830276802
 51
359.999999999996
  0
LINE
  5
F6
  8
1
  6
CONTINUOUS
 62
     7
 10
-407.4472071805806
 20
307.7402169840352
 30
0.0
 11
-407.4472071805806
 21
327.6402169840351
 31
0.0
  0
ARC
  5
F7
  8
1
  6
CONTINUOUS
 62
     7
 10
-404.8472071805807
 20
327.6402169840354
 30
0.0
 40
2.599999999999991
 50
90.00000000000611
 51
180.0000000000064
  0
LINE
  5
F8
  8
1
  6
CONTINUOUS
 62
     7
 10
-404.8472071805809
 20
330.2402169840354
 30
0.0
 11
-365.8472071805809
 21
330.2402169840354
 31
0.0
  0
ARC
  5
F9
  8
1
  6
CONTINUOUS
 62
     7
 10
-365.8472071805812
 20
327.6402169840354
 30
0.0
 40
2.599999999999991
 50
359.9999999999985
 51
89.99999999999392
  0
LINE
  5
FA
  8
1
  6
CONTINUOUS
 62
     7
 10
-363.2472071805811
 20
307.7402169840354
 30
0.0
 11
-363.2472071805811
 21
327.6402169840353
 31
0.0
  0
LINE
  5
FB
  8
1
  6
CONTINUOUS
 62
     7
 10
-361.2472071805811
 20
305.7402169840354
 30
0.0
 11
-358.9452833919345
 21
305.7402169840354
 31
0.0
  0
LINE
  5
FC
  8
1
  6
CONTINUOUS
 62
     9
 10
-358.9452833919345
 20
305.7402169840354
 30
0.0
 11
-358.9452833919345
 21
304.1402169840355
 31
0.0
  0
LINE
  5
FD
  8
1
  6
CONTINUOUS
 62
     7
 10
-361.2472071805812
 20
304.1402169840355
 30
0.0
 11
-358.9452833919345
 21
304.1402169840355
 31
0.0
  0
LINE
  5
FE
  8
1
  6
CONTINUOUS
 62
     7
 10
-361.4452833919345
 20
304.1456703068457
 30
0.0
 11
-361.2472071805812
 21
304.1402169840355
 31
0.0
  0
LINE
  5
FF
  8
1
  6
CONTINUOUS
 62
     7
 10
-361.2472071805811
 20
305.7402169840354
 30
0.0
 11
-361.4452833919345
 21
305.7500497009922
 31
0.0
  0
LINE
  5
100
  8
1
  6
CONTINUOUS
 62
     9
 10
-411.7491309692272
 20
305.7402169840353
 30
0.0
 11
-411.7491309692272
 21
304.1402169840354
 31
0.0
  0
LINE
  5
101
  8
1
  6
CONTINUOUS
 62
     7
 10
-409.4472071805806
 20
305.7402169840353
 30
0.0
 11
-411.7491309692271
 21
305.7402169840353
 31
0.0
  0
LINE
  5
102
  8
1
  6
CONTINUOUS
 62
     7
 10
-409.4472071805806
 20
304.1402169840354
 30
0.0
 11
-409.2491309692272
 21
304.1456703068457
 31
0.0
  0
LINE
  5
103
  8
1
  6
CONTINUOUS
 62
     7
 10
-409.4472071805806
 20
304.1402169840354
 30
0.0
 11
-411.7491309692271
 21
304.1402169840354
 31
0.0
  0
LINE
  5
104
  8
1
  6
CONTINUOUS
 62
     7
 10
-409.2491309692272
 20
305.750049700992
 30
0.0
 11
-409.4472071805806
 21
305.7402169840353
 31
0.0
  0
LINE
  5
105
  8
1
  6
CONTINUOUS
 62
     9
 10
-351.3472071805812
 20
305.7402169840354
 30
0.0
 11
-351.3472071805812
 21
304.1402169840355
 31
0.0
  0
LINE
  5
106
  8
1
  6
CONTINUOUS
 62
     7
 10
-358.9452833919345
 20
304.1402169840355
 30
0.0
 11
-351.3472071805812
 21
304.1402169840355
 31
0.0
  0
LINE
  5
107
  8
1
  6
CONTINUOUS
 62
     7
 10
-358.9452833919345
 20
305.7402169840354
 30
0.0
 11
-351.3472071805812
 21
305.7402169840354
 31
0.0
  0
LINE
  5
108
  8
1
  6
CONTINUOUS
 62
     9
 10
-419.3472071805803
 20
305.7402169840353
 30
0.0
 11
-419.3472071805803
 21
304.1402169840354
 31
0.0
  0
LINE
  5
109
  8
1
  6
CONTINUOUS
 62
     7
 10
-411.7491309692272
 20
304.1402169840354
 30
0.0
 11
-419.3472071805803
 21
304.1402169840354
 31
0.0
  0
LINE
  5
10A
  8
1
  6
CONTINUOUS
 62
     7
 10
-411.7491309692272
 20
305.7402169840353
 30
0.0
 11
-419.3472071805803
 21
305.7402169840353
 31
0.0
  0
LINE
  5
10B
  8
1
  6
CONTINUOUS
 62
     7
 10
-348.8472071805812
 20
305.7402169840354
 30
0.0
 11
-348.8472071805812
 21
304.1402169840355
 31
0.0
  0
LINE
  5
10C
  8
1
  6
CONTINUOUS
 62
     7
 10
-351.3472071805812
 20
304.1402169840355
 30
0.0
 11
-350.7018671393821
 21
304.1402169840355
 31
0.0
  0
LINE
  5
10D
  8
1
  6
CONTINUOUS
 62
     7
 10
-349.9996007563618
 20
304.1402169840355
 30
0.0
 11
-348.8472071805812
 21
304.1402169840355
 31
0.0
  0
LINE
  5
10E
  8
1
  6
CONTINUOUS
 62
     7
 10
-351.3472071805812
 20
305.7402169840354
 30
0.0
 11
-348.8472071805812
 21
305.7402169840354
 31
0.0
  0
LINE
  5
10F
  8
1
  6
CONTINUOUS
 62
     7
 10
-421.8472071805801
 20
305.7402169840353
 30
0.0
 11
-421.8472071805801
 21
304.1402169840354
 31
0.0
  0
LINE
  5
110
  8
1
  6
CONTINUOUS
 62
     7
 10
-419.3472071805802
 20
304.1402169840354
 30
0.0
 11
-419.9925472217792
 21
304.1402169840354
 31
0.0
  0
LINE
  5
111
  8
1
  6
CONTINUOUS
 62
     7
 10
-420.6948136048006
 20
304.1402169840354
 30
0.0
 11
-421.8472071805801
 21
304.1402169840354
 31
0.0
  0
LINE
  5
112
  8
1
  6
CONTINUOUS
 62
     7
 10
-419.3472071805802
 20
305.7402169840353
 30
0.0
 11
-421.8472071805801
 21
305.7402169840353
 31
0.0
  0
LINE
  5
113
  8
1
  6
CONTINUOUS
 62
     9
 10
-358.9472071805812
 20
306.2402169840354
 30
0.0
 11
-353.7472071805812
 21
306.2402169840354
 31
0.0
  0
LINE
  5
114
  8
1
  6
CONTINUOUS
 62
     9
 10
-411.7472071805805
 20
306.2402169840353
 30
0.0
 11
-416.9472071805803
 21
306.2402169840353
 31
0.0
  0
LINE
  5
115
  8
1
  6
CONTINUOUS
 62
     7
 10
-358.9472071805812
 20
307.2402169840354
 30
0.0
 11
-353.7472071805812
 21
307.2402169840354
 31
0.0
  0
LINE
  5
116
  8
1
  6
CONTINUOUS
 62
     7
 10
-411.7472071805805
 20
307.2402169840353
 30
0.0
 11
-416.9472071805803
 21
307.2402169840353
 31
0.0
  0
LINE
  5
117
  8
1
  6
CONTINUOUS
 62
     7
 10
-445.3472071805812
 20
299.1402169840355
 30
0.0
 11
-445.3472071805812
 21
297.5402169840355
 31
0.0
  0
LINE
  5
118
  8
1
  6
CONTINUOUS
 62
     7
 10
-325.3472071805812
 20
297.5402169840355
 30
0.0
 11
-325.3472071805812
 21
299.1402169840355
 31
0.0
  0
LINE
  5
119
  8
1
  6
CONTINUOUS
 62
     7
 10
-418.2754064429362
 20
300.7402169840352
 30
0.0
 11
-418.2754064429362
 21
299.1402169840355
 31
0.0
  0
LINE
  5
11A
  8
1
  6
CONTINUOUS
 62
     7
 10
-410.2754064429356
 20
299.1402169840355
 30
0.0
 11
-410.2754064429356
 21
300.7402169840352
 31
0.0
  0
LINE
  5
11B
  8
1
  6
CONTINUOUS
 62
     7
 10
-416.2754064429361
 20
312.3902169840351
 30
0.0
 11
-416.2754064429361
 21
307.2402169840353
 31
0.0
  0
LINE
  5
11C
  8
1
  6
CONTINUOUS
 62
     7
 10
-412.2754064429358
 20
307.2402169840353
 30
0.0
 11
-412.2754064429358
 21
312.3902169840351
 31
0.0
  0
LINE
  5
11D
  8
1
  6
CONTINUOUS
 62
     7
 10
-412.2754064429358
 20
312.3902169840351
 30
0.0
 11
-412.6254064429358
 21
312.7402169840352
 31
0.0
  0
LINE
  5
11E
  8
1
  6
CONTINUOUS
 62
     7
 10
-415.9254064429361
 20
312.7402169840352
 30
0.0
 11
-416.2754064429361
 21
312.3902169840351
 31
0.0
  0
LINE
  5
11F
  8
1
  6
CONTINUOUS
 62
     7
 10
-360.4190079182267
 20
300.7402169840354
 30
0.0
 11
-360.4190079182267
 21
299.1402169840355
 31
0.0
  0
LINE
  5
120
  8
1
  6
CONTINUOUS
 62
     7
 10
-352.4190079182267
 20
299.1402169840355
 30
0.0
 11
-352.4190079182267
 21
300.7402169840354
 31
0.0
  0
LINE
  5
121
  8
1
  6
CONTINUOUS
 62
     7
 10
-358.4190079182267
 20
312.3902169840355
 30
0.0
 11
-358.4190079182267
 21
307.2402169840354
 31
0.0
  0
LINE
  5
122
  8
1
  6
CONTINUOUS
 62
     7
 10
-354.4190079182267
 20
307.2402169840354
 30
0.0
 11
-354.4190079182267
 21
312.3902169840355
 31
0.0
  0
LINE
  5
123
  8
1
  6
CONTINUOUS
 62
     7
 10
-354.4190079182267
 20
312.3902169840355
 30
0.0
 11
-354.7690079182267
 21
312.7402169840355
 31
0.0
  0
LINE
  5
124
  8
1
  6
CONTINUOUS
 62
     7
 10
-358.0690079182267
 20
312.7402169840355
 30
0.0
 11
-358.4190079182267
 21
312.3902169840355
 31
0.0
  0
LINE
  5
125
  8
1
  6
CONTINUOUS
 62
     7
 10
-418.0754064429374
 20
301.7402169840354
 30
0.0
 11
-418.0754064429374
 21
300.7402169840352
 31
0.0
  0
LINE
  5
126
  8
1
  6
CONTINUOUS
 62
     7
 10
-410.4754064429345
 20
300.7402169840352
 30
0.0
 11
-410.4754064429345
 21
301.7402169840354
 31
0.0
  0
LINE
  5
127
  8
1
  6
CONTINUOUS
 62
     7
 10
-360.2190079182267
 20
301.7402169840354
 30
0.0
 11
-360.2190079182267
 21
300.7402169840354
 31
0.0
  0
LINE
  5
128
  8
1
  6
CONTINUOUS
 62
     7
 10
-352.6190079182267
 20
300.7402169840354
 30
0.0
 11
-352.6190079182267
 21
301.7402169840354
 31
0.0
  0
LINE
  5
129
  8
1
  6
CONTINUOUS
 62
     7
 10
-360.9190079182267
 20
302.5402169840355
 30
0.0
 11
-360.9190079182267
 21
301.7402169840354
 31
0.0
  0
LINE
  5
12A
  8
1
  6
CONTINUOUS
 62
     7
 10
-351.9190079182267
 20
301.7402169840354
 30
0.0
 11
-351.9190079182267
 21
302.5402169840355
 31
0.0
  0
LINE
  5
12B
  8
1
  6
CONTINUOUS
 62
     7
 10
-418.7754064429359
 20
302.5402169840355
 30
0.0
 11
-418.7754064429359
 21
301.7402169840354
 31
0.0
  0
LINE
  5
12C
  8
1
  6
CONTINUOUS
 62
     7
 10
-409.7754064429359
 20
301.7402169840354
 30
0.0
 11
-409.7754064429359
 21
302.5402169840355
 31
0.0
  0
ARC
  5
12D
  8
1
  6
CONTINUOUS
 62
     7
 10
-359.4472071805812
 20
306.2402169840354
 30
0.0
 40
0.4999999999999449
 50
270.0
 51
359.9999999999991
  0
ARC
  5
12E
  8
1
  6
CONTINUOUS
 62
     7
 10
-353.2472071805812
 20
306.2402169840354
 30
0.0
 40
0.5000000000000004
 50
180.0000000000009
 51
270.0
  0
ARC
  5
12F
  8
1
  6
CONTINUOUS
 62
     7
 10
-417.4472071805803
 20
306.2402169840353
 30
0.0
 40
0.5000000000000004
 50
269.9999999999857
 51
359.9999999999991
  0
ARC
  5
130
  8
1
  6
CONTINUOUS
 62
     7
 10
-411.2472071805805
 20
306.2402169840353
 30
0.0
 40
0.5000000000000004
 50
180.0000000000009
 51
270.0000000000139
  0
LINE
  5
131
  8
1
  6
CONTINUOUS
 62
     7
 10
-358.9472071805812
 20
307.2402169840354
 30
0.0
 11
-358.9472071805812
 21
306.2402169840354
 31
0.0
  0
LINE
  5
132
  8
1
  6
CONTINUOUS
 62
     7
 10
-353.7472071805812
 20
306.2402169840354
 30
0.0
 11
-353.7472071805812
 21
307.2402169840354
 31
0.0
  0
LINE
  5
133
  8
1
  6
CONTINUOUS
 62
     7
 10
-416.9472071805803
 20
307.2402169840346
 30
0.0
 11
-416.9472071805803
 21
306.2402169840346
 31
0.0
  0
LINE
  5
134
  8
1
  6
CONTINUOUS
 62
     7
 10
-411.7472071805805
 20
306.2402169840346
 30
0.0
 11
-411.7472071805805
 21
307.2402169840346
 31
0.0
  0
ENDBLK
  8
0
  0
BLOCK
  8
0
  2
D_FRAME_VIEW_2626
 70
     0
 10
0.0
 20
0.0
 30
0.0
  0
ARC
  5
13B
  8
1
  6
CONTINUOUS
 62
     7
 10
-385.3472071805812
 20
188.3633070973721
 30
0.0
 40
13.5
 50
0.000000000000007
 51
240.0000000000002
  0
LINE
  5
13C
  8
1
  6
CONTINUOUS
 62
     7
 10
-392.0972071805812
 20
176.6719641462822
 30
0.0
 11
-382.3472071805812
 21
171.0427990216834
 31
0.0
  0
ARC
  5
13D
  8
1
  6
CONTINUOUS
 62
     7
 10
-378.8472071805812
 20
177.1049768481744
 30
0.0
 40
7.000000000000002
 50
240.0
 51
359.9999999999998
  0
LINE
  5
13E
  8
1
  6
CONTINUOUS
 62
     7
 10
-371.8472071805812
 20
177.1049768481744
 30
0.0
 11
-371.8472071805812
 21
188.3633070973721
 31
0.0
  0
LINE
  5
13F
  8
1
  6
CONTINUOUS
 62
     7
 10
-382.7472071805813
 20
213.3633070973721
 30
0.0
 11
-382.7472071805813
 21
233.3633070973721
 31
0.0
  0
ARC
  5
140
  8
1
  6
CONTINUOUS
 62
     7
 10
-385.3472071805812
 20
233.3633070973721
 30
0.0
 40
2.599999999999998
 50
359.9999999999997
 51
180.0000000000003
  0
LINE
  5
141
  8
1
  6
CONTINUOUS
 62
     7
 10
-387.9472071805812
 20
213.3633070973721
 30
0.0
 11
-387.9472071805812
 21
233.3633070973721
 31
0.0
  0
ARC
  5
142
  8
1
  6
CONTINUOUS
 62
     7
 10
-385.3472071805812
 20
213.3633070973721
 30
0.0
 40
2.599999999999998
 50
180.0
 51
359.9999999999998
  0
CIRCLE
  5
143
  8
1
  6
CONTINUOUS
 62
     7
 10
-385.3472071805812
 20
188.3633070973721
 30
0.0
 40
60.0
  0
ARC
  5
144
  8
1
  6
CONTINUOUS
 62
     7
 10
-353.5274020271866
 20
220.1831122507668
 30
0.0
 40
2.600000000000001
 50
315.0
 51
135.0000000000005
  0
LINE
  5
145
  8
1
  6
CONTINUOUS
 62
     7
 10
-355.3658796582716
 20
222.0215898818518
 30
0.0
 11
-364.2047144231034
 21
213.18275511702
 31
0.0
  0
ARC
  5
146
  8
1
  6
CONTINUOUS
 62
     7
 10
-362.3662367920185
 20
211.344277485935
 30
0.0
 40
2.599999999999998
 50
135.0
 51
314.9999999999999
  0
LINE
  5
147
  8
1
  6
CONTINUOUS
 62
     7
 10
-360.5277591609334
 20
209.5057998548499
 30
0.0
 11
-351.6889243961015
 21
218.3446346196818
 31
0.0
  0
ARC
  5
148
  8
1
  6
CONTINUOUS
 62
     7
 10
-346.3760640102815
 20
210.8633070973721
 30
0.0
 40
2.599999999999996
 50
300.0
 51
120.0000000000001
  0
LINE
  5
149
  8
1
  6
CONTINUOUS
 62
     7
 10
-347.6760640102815
 20
213.1149731472117
 30
0.0
 11
-358.501381557587
 21
206.8649731472117
 31
0.0
  0
ARC
  5
14A
  8
1
  6
CONTINUOUS
 62
     7
 10
-357.201381557587
 20
204.6133070973721
 30
0.0
 40
2.600000000000009
 50
120.0000000000003
 51
300.0000000000001
  0
LINE
  5
14B
  8
1
  6
CONTINUOUS
 62
     7
 10
-355.901381557587
 20
202.3616410475326
 30
0.0
 11
-345.0760640102815
 21
208.6116410475326
 31
0.0
  0
ARC
  5
14C
  8
1
  6
CONTINUOUS
 62
     7
 10
-353.5274020271866
 20
156.5435019439775
 30
0.0
 40
2.600000000000006
 50
224.9999999999999
 51
45.00000000000034
  0
LINE
  5
14D
  8
1
  6
CONTINUOUS
 62
     7
 10
-351.6889243961015
 20
158.3819795750625
 30
0.0
 11
-360.5277591609334
 21
167.2208143398944
 31
0.0
  0
ARC
  5
14E
  8
1
  6
CONTINUOUS
 62
     7
 10
-362.3662367920185
 20
165.3823367088094
 30
0.0
 40
2.600000000000006
 50
44.99999999999996
 51
225.0000000000001
  0
LINE
  5
14F
  8
1
  6
CONTINUOUS
 62
     7
 10
-364.2047144231035
 20
163.5438590777243
 30
0.0
 11
-355.3658796582716
 21
154.7050243128925
 31
0.0
  0
LINE
  5
150
  8
1
  6
CONTINUOUS
 62
     7
 10
-344.5972071805812
 20
195.8633070973721
 30
0.0
 11
-344.5972071805812
 21
197.3633070973721
 31
0.0
  0
ARC
  5
151
  8
1
  6
CONTINUOUS
 62
     7
 10
-345.0972071805812
 20
197.3633070973721
 30
0.0
 40
0.5000000000000004
 50
359.9999999999994
 51
90.0
  0
LINE
  5
152
  8
1
  6
CONTINUOUS
 62
     7
 10
-345.0972071805812
 20
197.8633070973721
 30
0.0
 11
-366.0972071805812
 21
197.8633070973721
 31
0.0
  0
ARC
  5
153
  8
1
  6
CONTINUOUS
 62
     7
 10
-366.0972071805812
 20
197.3633070973721
 30
0.0
 40
0.5000000000000004
 50
90.00000000000001
 51
180.0000000000008
  0
LINE
  5
154
  8
1
  6
CONTINUOUS
 62
     7
 10
-366.5972071805812
 20
197.3633070973721
 30
0.0
 11
-366.5972071805812
 21
195.8633070973721
 31
0.0
  0
ARC
  5
155
  8
1
  6
CONTINUOUS
 62
     7
 10
-366.0972071805812
 20
195.8633070973721
 30
0.0
 40
0.5000000000000004
 50
179.9999999999999
 51
262.7275363672095
  0
LINE
  5
156
  8
1
  6
CONTINUOUS
 62
     9
 10
-366.1605011251845
 20
181.3592847950326
 30
0.0
 11
-366.1605011251845
 21
195.3673293997117
 31
0.0
  0
ARC
  5
157
  8
1
  6
CONTINUOUS
 62
     7
 10
-366.0972071805812
 20
180.8633070973721
 30
0.0
 40
0.5000000000000004
 50
97.27246363279136
 51
180.0
  0
LINE
  5
158
  8
1
  6
CONTINUOUS
 62
     7
 10
-366.5972071805812
 20
179.3633070973721
 30
0.0
 11
-366.5972071805812
 21
180.8633070973721
 31
0.0
  0
ARC
  5
159
  8
1
  6
CONTINUOUS
 62
     7
 10
-366.0972071805812
 20
179.3633070973722
 30
0.0
 40
0.5000000000000004
 50
180.0000000000008
 51
270.0
  0
LINE
  5
15A
  8
1
  6
CONTINUOUS
 62
     7
 10
-345.0972071805812
 20
178.8633070973722
 30
0.0
 11
-366.0972071805812
 21
178.8633070973722
 31
0.0
  0
ARC
  5
15B
  8
1
  6
CONTINUOUS
 62
     7
 10
-345.0972071805812
 20
179.3633070973721
 30
0.0
 40
0.5000000000000004
 50
270.0
 51
0.0000000000007958
  0
LINE
  5
15C
  8
1
  6
CONTINUOUS
 62
     7
 10
-344.5972071805812
 20
180.8633070973721
 30
0.0
 11
-344.5972071805812
 21
179.3633070973722
 31
0.0
  0
ARC
  5
15D
  8
1
  6
CONTINUOUS
 62
     7
 10
-345.0972071805812
 20
180.8633070973721
 30
0.0
 40
0.5
 50
0.0
 51
82.72753636720824
  0
LINE
  5
15E
  8
1
  6
CONTINUOUS
 62
     9
 10
-345.033913235978
 20
195.3673293997117
 30
0.0
 11
-345.033913235978
 21
181.3592847950326
 31
0.0
  0
ARC
  5
15F
  8
1
  6
CONTINUOUS
 62
     7
 10
-345.0972071805812
 20
195.8633070973721
 30
0.0
 40
0.5000000000000009
 50
277.2724636327918
 51
0.0000000000001137
  0
ARC
  5
160
  8
1
  6
CONTINUOUS
 62
     7
 10
-385.3472071805812
 20
143.3633070973722
 30
0.0
 40
2.600000000000009
 50
180.0
 51
359.9999999999998
  0
LINE
  5
161
  8
1
  6
CONTINUOUS
 62
     7
 10
-382.7472071805813
 20
143.3633070973722
 30
0.0
 11
-382.7472071805813
 21
163.3633070973722
 31
0.0
  0
ARC
  5
162
  8
1
  6
CONTINUOUS
 62
     7
 10
-385.3472071805812
 20
163.3633070973721
 30
0.0
 40
2.600000000000003
 50
0.000000000000007
 51
180.0000000000001
  0
LINE
  5
163
  8
1
  6
CONTINUOUS
 62
     7
 10
-387.9472071805812
 20
143.3633070973722
 30
0.0
 11
-387.9472071805812
 21
163.3633070973722
 31
0.0
  0
ARC
  5
164
  8
1
  6
CONTINUOUS
 62
     7
 10
-408.328177569144
 20
211.344277485935
 30
0.0
 40
2.599999999999998
 50
225.0
 51
45.0
  0
LINE
  5
165
  8
1
  6
CONTINUOUS
 62
     7
 10
-415.3285347028908
 20
222.0215898818518
 30
0.0
 11
-406.489699938059
 21
213.18275511702
 31
0.0
  0
ARC
  5
166
  8
1
  6
CONTINUOUS
 62
     7
 10
-417.1670123339759
 20
220.1831122507668
 30
0.0
 40
2.599999999999996
 50
44.99999999999955
 51
225.0
  0
LINE
  5
167
  8
1
  6
CONTINUOUS
 62
     7
 10
-410.1666552002291
 20
209.5057998548499
 30
0.0
 11
-419.0054899650609
 21
218.3446346196818
 31
0.0
  0
ARC
  5
168
  8
1
  6
CONTINUOUS
 62
     7
 10
-413.4930328035754
 20
204.6133070973722
 30
0.0
 40
2.600000000000009
 50
239.9999999999998
 51
59.99999999999972
  0
LINE
  5
169
  8
1
  6
CONTINUOUS
 62
     7
 10
-423.018350350881
 20
213.1149731472117
 30
0.0
 11
-412.1930328035755
 21
206.8649731472117
 31
0.0
  0
ARC
  5
16A
  8
1
  6
CONTINUOUS
 62
     7
 10
-424.318350350881
 20
210.8633070973722
 30
0.0
 40
2.599999999999996
 50
59.99999999999988
 51
240.0
  0
LINE
  5
16B
  8
1
  6
CONTINUOUS
 62
     7
 10
-414.7930328035755
 20
202.3616410475326
 30
0.0
 11
-425.618350350881
 21
208.6116410475326
 31
0.0
  0
ARC
  5
16C
  8
1
  6
CONTINUOUS
 62
     7
 10
-408.328177569144
 20
165.3823367088094
 30
0.0
 40
2.600000000000006
 50
315.0
 51
135.0000000000001
  0
LINE
  5
16D
  8
1
  6
CONTINUOUS
 62
     7
 10
-419.0054899650609
 20
158.3819795750626
 30
0.0
 11
-410.1666552002291
 21
167.2208143398944
 31
0.0
  0
ARC
  5
16E
  8
1
  6
CONTINUOUS
 62
     7
 10
-417.1670123339759
 20
156.5435019439775
 30
0.0
 40
2.600000000000001
 50
134.9999999999996
 51
315.0000000000001
  0
LINE
  5
16F
  8
1
  6
CONTINUOUS
 62
     7
 10
-406.489699938059
 20
163.5438590777243
 30
0.0
 11
-415.3285347028909
 21
154.7050243128925
 31
0.0
  0
LINE
  5
170
  8
1
  6
CONTINUOUS
 62
     9
 10
-425.6605011251845
 20
195.3673293997117
 30
0.0
 11
-425.6605011251845
 21
181.3592847950326
 31
0.0
  0
ARC
  5
171
  8
1
  6
CONTINUOUS
 62
     7
 10
-425.5972071805812
 20
180.8633070973722
 30
0.0
 40
0.5
 50
97.27246363279176
 51
179.9999999999999
  0
LINE
  5
172
  8
1
  6
CONTINUOUS
 62
     7
 10
-426.0972071805812
 20
180.8633070973722
 30
0.0
 11
-426.0972071805812
 21
179.3633070973722
 31
0.0
  0
ARC
  5
173
  8
1
  6
CONTINUOUS
 62
     7
 10
-425.5972071805812
 20
179.3633070973722
 30
0.0
 40
0.5000000000000004
 50
179.9999999999992
 51
270.0
  0
LINE
  5
174
  8
1
  6
CONTINUOUS
 62
     7
 10
-425.5972071805812
 20
178.8633070973722
 30
0.0
 11
-404.5972071805812
 21
178.8633070973722
 31
0.0
  0
ARC
  5
175
  8
1
  6
CONTINUOUS
 62
     7
 10
-404.5972071805812
 20
179.3633070973722
 30
0.0
 40
0.5000000000000004
 50
270.0
 51
359.9999999999993
  0
LINE
  5
176
  8
1
  6
CONTINUOUS
 62
     7
 10
-404.0972071805812
 20
179.3633070973722
 30
0.0
 11
-404.0972071805812
 21
180.8633070973722
 31
0.0
  0
ARC
  5
177
  8
1
  6
CONTINUOUS
 62
     7
 10
-404.5972071805812
 20
180.8633070973722
 30
0.0
 40
0.5000000000000004
 50
359.9999999999998
 51
82.72753636720863
  0
LINE
  5
178
  8
1
  6
CONTINUOUS
 62
     9
 10
-404.533913235978
 20
181.3592847950326
 30
0.0
 11
-404.533913235978
 21
195.3673293997117
 31
0.0
  0
ARC
  5
179
  8
1
  6
CONTINUOUS
 62
     7
 10
-404.5972071805812
 20
195.8633070973721
 30
0.0
 40
0.5000000000000004
 50
277.2724636327906
 51
0.0
  0
LINE
  5
17A
  8
1
  6
CONTINUOUS
 62
     7
 10
-404.0972071805812
 20
197.3633070973721
 30
0.0
 11
-404.0972071805812
 21
195.8633070973721
 31
0.0
  0
ARC
  5
17B
  8
1
  6
CONTINUOUS
 62
     7
 10
-404.5972071805812
 20
197.3633070973721
 30
0.0
 40
0.5000000000000004
 50
359.9999999999993
 51
90.0
  0
LINE
  5
17C
  8
1
  6
CONTINUOUS
 62
     7
 10
-425.5972071805812
 20
197.8633070973721
 30
0.0
 11
-404.5972071805812
 21
197.8633070973721
 31
0.0
  0
ARC
  5
17D
  8
1
  6
CONTINUOUS
 62
     7
 10
-425.5972071805812
 20
197.3633070973721
 30
0.0
 40
0.5000000000000004
 50
90.0
 51
180.0000000000006
  0
LINE
  5
17E
  8
1
  6
CONTINUOUS
 62
     7
 10
-426.0972071805812
 20
195.8633070973722
 30
0.0
 11
-426.0972071805812
 21
197.3633070973721
 31
0.0
  0
ARC
  5
17F
  8
1
  6
CONTINUOUS
 62
     7
 10
-425.5972071805812
 20
195.8633070973722
 30
0.0
 40
0.5000000000000009
 50
179.9999999999998
 51
262.7275363672082
  0
LINE
  5
180
  8
1
  6
CONTINUOUS
 62
     9
 10
-423.1000009673528
 20
181.3633070973722
 30
0.0
 11
-423.1000009673528
 21
195.3633070973722
 31
0.0
  0
LINE
  5
181
  8
1
  6
CONTINUOUS
 62
     7
 10
-425.5972071805812
 20
181.3633070973722
 30
0.0
 11
-423.1000009673528
 21
181.3633070973722
 31
0.0
  0
LINE
  5
182
  8
1
  6
CONTINUOUS
 62
     7
 10
-425.5972071805812
 20
195.3633070973722
 30
0.0
 11
-425.6605011251845
 21
195.3673293997117
 31
0.0
  0
LINE
  5
183
  8
1
  6
CONTINUOUS
 62
     7
 10
-423.1000009673527
 20
195.3633070973722
 30
0.0
 11
-425.5972071805812
 21
195.3633070973722
 31
0.0
  0
LINE
  5
184
  8
1
  6
CONTINUOUS
 62
     7
 10
-425.6605011251845
 20
181.3592847950326
 30
0.0
 11
-425.5972071805812
 21
181.3633070973722
 31
0.0
  0
LINE
  5
185
  8
1
  6
CONTINUOUS
 62
     9
 10
-407.0944133938097
 20
195.3633070973721
 30
0.0
 11
-407.0944133938097
 21
181.3633070973721
 31
0.0
  0
LINE
  5
186
  8
1
  6
CONTINUOUS
 62
     7
 10
-404.5972071805812
 20
195.3633070973721
 30
0.0
 11
-407.0944133938098
 21
195.3633070973721
 31
0.0
  0
LINE
  5
187
  8
1
  6
CONTINUOUS
 62
     7
 10
-404.533913235978
 20
195.3673293997117
 30
0.0
 11
-404.5972071805812
 21
195.3633070973722
 31
0.0
  0
LINE
  5
188
  8
1
  6
CONTINUOUS
 62
     7
 10
-407.0944133938097
 20
181.3633070973722
 30
0.0
 11
-404.5972071805812
 21
181.3633070973722
 31
0.0
  0
LINE
  5
189
  8
1
  6
CONTINUOUS
 62
     7
 10
-404.5972071805812
 20
181.3633070973722
 30
0.0
 11
-404.533913235978
 21
181.3592847950326
 31
0.0
  0
LINE
  5
18A
  8
1
  6
CONTINUOUS
 62
     7
 10
-366.1605011251845
 20
195.3673293997117
 30
0.0
 11
-366.0972071805812
 21
195.3633070973721
 31
0.0
  0
LINE
  5
18B
  8
1
  6
CONTINUOUS
 62
     7
 10
-366.0972071805812
 20
195.3633070973721
 30
0.0
 11
-363.6000009673527
 21
195.3633070973721
 31
0.0
  0
LINE
  5
18C
  8
1
  6
CONTINUOUS
 62
     9
 10
-363.6000009673527
 20
195.3633070973721
 30
0.0
 11
-363.6000009673527
 21
181.3633070973721
 31
0.0
  0
LINE
  5
18D
  8
1
  6
CONTINUOUS
 62
     7
 10
-363.6000009673528
 20
181.3633070973721
 30
0.0
 11
-366.0972071805813
 21
181.3633070973721
 31
0.0
  0
LINE
  5
18E
  8
1
  6
CONTINUOUS
 62
     7
 10
-366.0972071805812
 20
181.3633070973721
 30
0.0
 11
-366.1605011251845
 21
181.3592847950326
 31
0.0
  0
LINE
  5
18F
  8
1
  6
CONTINUOUS
 62
     7
 10
-345.0972071805812
 20
195.3633070973721
 30
0.0
 11
-345.033913235978
 21
195.3673293997117
 31
0.0
  0
LINE
  5
190
  8
1
  6
CONTINUOUS
 62
     7
 10
-345.033913235978
 20
181.3592847950326
 30
0.0
 11
-345.0972071805812
 21
181.3633070973722
 31
0.0
  0
LINE
  5
191
  8
1
  6
CONTINUOUS
 62
     7
 10
-345.0972071805812
 20
181.3633070973721
 30
0.0
 11
-347.5944133938097
 21
181.3633070973721
 31
0.0
  0
LINE
  5
192
  8
1
  6
CONTINUOUS
 62
     9
 10
-347.5944133938098
 20
181.3633070973721
 30
0.0
 11
-347.5944133938098
 21
195.3633070973721
 31
0.0
  0
LINE
  5
193
  8
1
  6
CONTINUOUS
 62
     7
 10
-347.5944133938098
 20
195.3633070973721
 30
0.0
 11
-345.0972071805812
 21
195.3633070973721
 31
0.0
  0
LINE
  5
194
  8
1
  6
CONTINUOUS
 62
     9
 10
-422.8886234242511
 20
195.3633070973722
 30
0.0
 11
-422.8886234242511
 21
181.3633070973722
 31
0.0
  0
LINE
  5
195
  8
1
  6
CONTINUOUS
 62
     7
 10
-423.1000009673527
 20
195.3633070973722
 30
0.0
 11
-422.888623424251
 21
195.3633070973722
 31
0.0
  0
LINE
  5
196
  8
1
  6
CONTINUOUS
 62
     7
 10
-423.1000009673528
 20
181.3633070973722
 30
0.0
 11
-422.8886234242511
 21
181.3633070973722
 31
0.0
  0
LINE
  5
197
  8
1
  6
CONTINUOUS
 62
     9
 10
-407.3057909369114
 20
181.3633070973722
 30
0.0
 11
-407.3057909369114
 21
195.3633070973722
 31
0.0
  0
LINE
  5
198
  8
1
  6
CONTINUOUS
 62
     7
 10
-407.0944133938097
 20
195.3633070973721
 30
0.0
 11
-407.3057909369113
 21
195.3633070973721
 31
0.0
  0
LINE
  5
199
  8
1
  6
CONTINUOUS
 62
     7
 10
-407.0944133938098
 20
181.3633070973722
 30
0.0
 11
-407.3057909369114
 21
181.3633070973722
 31
0.0
  0
LINE
  5
19A
  8
1
  6
CONTINUOUS
 62
     9
 10
-363.3886234242511
 20
181.3633070973721
 30
0.0
 11
-363.3886234242511
 21
195.3633070973721
 31
0.0
  0
LINE
  5
19B
  8
1
  6
CONTINUOUS
 62
     7
 10
-363.6000009673527
 20
195.3633070973721
 30
0.0
 11
-363.3886234242511
 21
195.3633070973721
 31
0.0
  0
LINE
  5
19C
  8
1
  6
CONTINUOUS
 62
     7
 10
-363.6000009673528
 20
181.3633070973721
 30
0.0
 11
-363.3886234242511
 21
181.3633070973721
 31
0.0
  0
LINE
  5
19D
  8
1
  6
CONTINUOUS
 62
     9
 10
-347.8057909369114
 20
195.3633070973721
 30
0.0
 11
-347.8057909369114
 21
181.3633070973721
 31
0.0
  0
LINE
  5
19E
  8
1
  6
CONTINUOUS
 62
     7
 10
-347.5944133938098
 20
195.3633070973721
 30
0.0
 11
-347.8057909369114
 21
195.3633070973721
 31
0.0
  0
LINE
  5
19F
  8
1
  6
CONTINUOUS
 62
     7
 10
-347.5944133938098
 20
181.3633070973721
 30
0.0
 11
-347.8057909369114
 21
181.3633070973721
 31
0.0
  0
LINE
  5
1A0
  8
1
  6
CONTINUOUS
 62
     9
 10
-420.9190079182267
 20
181.3633070973722
 30
0.0
 11
-420.9190079182267
 21
195.3633070973721
 31
0.0
  0
LINE
  5
1A1
  8
1
  6
CONTINUOUS
 62
     7
 10
-422.8886234242511
 20
195.3633070973721
 30
0.0
 11
-420.9190079182267
 21
195.3633070973721
 31
0.0
  0
LINE
  5
1A2
  8
1
  6
CONTINUOUS
 62
     7
 10
-420.9190079182267
 20
181.3633070973722
 30
0.0
 11
-422.8886234242511
 21
181.3633070973722
 31
0.0
  0
LINE
  5
1A3
  8
1
  6
CONTINUOUS
 62
     9
 10
-409.2754064429358
 20
195.3633070973721
 30
0.0
 11
-409.2754064429358
 21
181.3633070973722
 31
0.0
  0
LINE
  5
1A4
  8
1
  6
CONTINUOUS
 62
     7
 10
-409.2754064429358
 20
195.3633070973721
 30
0.0
 11
-407.3057909369114
 21
195.3633070973721
 31
0.0
  0
LINE
  5
1A5
  8
1
  6
CONTINUOUS
 62
     7
 10
-407.3057909369114
 20
181.3633070973722
 30
0.0
 11
-409.2754064429358
 21
181.3633070973722
 31
0.0
  0
LINE
  5
1A6
  8
1
  6
CONTINUOUS
 62
     9
 10
-361.4190079182267
 20
195.3633070973721
 30
0.0
 11
-361.4190079182267
 21
181.3633070973722
 31
0.0
  0
LINE
  5
1A7
  8
1
  6
CONTINUOUS
 62
     7
 10
-361.4190079182267
 20
195.3633070973721
 30
0.0
 11
-363.3886234242511
 21
195.3633070973721
 31
0.0
  0
LINE
  5
1A8
  8
1
  6
CONTINUOUS
 62
     7
 10
-363.3886234242511
 20
181.3633070973721
 30
0.0
 11
-361.4190079182267
 21
181.3633070973721
 31
0.0
  0
LINE
  5
1A9
  8
1
  6
CONTINUOUS
 62
     9
 10
-349.7754064429358
 20
181.3633070973721
 30
0.0
 11
-349.7754064429358
 21
195.3633070973721
 31
0.0
  0
LINE
  5
1AA
  8
1
  6
CONTINUOUS
 62
     7
 10
-347.8057909369114
 20
195.3633070973721
 30
0.0
 11
-349.7754064429358
 21
195.3633070973721
 31
0.0
  0
LINE
  5
1AB
  8
1
  6
CONTINUOUS
 62
     7
 10
-349.7754064429358
 20
181.3633070973721
 30
0.0
 11
-347.8057909369114
 21
181.3633070973721
 31
0.0
  0
LINE
  5
1AC
  8
1
  6
CONTINUOUS
 62
     7
 10
-409.2754064429358
 20
195.3633070973721
 30
0.0
 11
-420.9190079182267
 21
195.3633070973721
 31
0.0
  0
LINE
  5
1AD
  8
1
  6
CONTINUOUS
 62
     7
 10
-420.9190079182267
 20
181.3633070973722
 30
0.0
 11
-409.2754064429358
 21
181.3633070973722
 31
0.0
  0
LINE
  5
1AE
  8
1
  6
CONTINUOUS
 62
     7
 10
-361.4190079182267
 20
195.3633070973721
 30
0.0
 11
-349.7754064429358
 21
195.3633070973721
 31
0.0
  0
LINE
  5
1AF
  8
1
  6
CONTINUOUS
 62
     7
 10
-349.7754064429358
 20
181.3633070973721
 30
0.0
 11
-361.4190079182267
 21
181.3633070973721
 31
0.0
  0
LINE
  5
1B0
  8
1
  6
CONTINUOUS
 62
     7
 10
-414.7754064429359
 20
186.2208785688088
 30
0.0
 11
-414.7754064429359
 21
187.8633070973722
 31
0.0
  0
ARC
  5
1B1
  8
1
  6
CONTINUOUS
 62
     7
 10
-414.2754064429359
 20
188.3633070973722
 30
0.0
 40
2.200000000000001
 50
256.8634412130551
 51
283.1365587869449
  0
LINE
  5
1B2
  8
1
  6
CONTINUOUS
 62
     7
 10
-413.7754064429359
 20
187.8633070973721
 30
0.0
 11
-413.7754064429359
 21
186.2208785688087
 31
0.0
  0
LINE
  5
1B3
  8
1
  6
CONTINUOUS
 62
     7
 10
-412.1329779143726
 20
187.8633070973721
 30
0.0
 11
-413.7754064429359
 21
187.8633070973721
 31
0.0
  0
ARC
  5
1B4
  8
1
  6
CONTINUOUS
 62
     7
 10
-414.2754064429359
 20
188.3633070973722
 30
0.0
 40
2.200000000000001
 50
346.8634412130552
 51
13.13655878695687
  0
LINE
  5
1B5
  8
1
  6
CONTINUOUS
 62
     7
 10
-413.7754064429358
 20
188.8633070973722
 30
0.0
 11
-412.1329779143726
 21
188.8633070973722
 31
0.0
  0
LINE
  5
1B6
  8
1
  6
CONTINUOUS
 62
     7
 10
-413.7754064429359
 20
190.5057356259355
 30
0.0
 11
-413.7754064429359
 21
188.8633070973722
 31
0.0
  0
ARC
  5
1B7
  8
1
  6
CONTINUOUS
 62
     7
 10
-414.2754064429359
 20
188.3633070973722
 30
0.0
 40
2.200000000000001
 50
76.86344121305513
 51
103.1365587869569
  0
LINE
  5
1B8
  8
1
  6
CONTINUOUS
 62
     7
 10
-414.7754064429359
 20
188.8633070973723
 30
0.0
 11
-414.7754064429359
 21
190.5057356259355
 31
0.0
  0
LINE
  5
1B9
  8
1
  6
CONTINUOUS
 62
     7
 10
-416.4178349714993
 20
188.8633070973722
 30
0.0
 11
-414.7754064429359
 21
188.8633070973722
 31
0.0
  0
ARC
  5
1BA
  8
1
  6
CONTINUOUS
 62
     7
 10
-414.2754064429359
 20
188.3633070973722
 30
0.0
 40
2.200000000000001
 50
166.8634412130551
 51
193.1365587869569
  0
LINE
  5
1BB
  8
1
  6
CONTINUOUS
 62
     7
 10
-414.7754064429361
 20
187.8633070973721
 30
0.0
 11
-416.4178349714993
 21
187.8633070973721
 31
0.0
  0
CIRCLE
  5
1BC
  8
1
  6
CONTINUOUS
 62
     7
 10
-414.2754064429359
 20
188.3633070973722
 30
0.0
 40
4.0
  0
ARC
  5
1BD
  8
1
  6
CONTINUOUS
 62
     7
 10
-414.2754064429359
 20
188.3633070973722
 30
0.0
 40
1.21654992179303
 50
155.7324355160329
 51
204.2675644839671
  0
ARC
  5
1BE
  8
1
  6
CONTINUOUS
 62
     7
 10
-414.2754064429359
 20
188.3633070973722
 30
0.0
 40
1.216549921793029
 50
245.7324355160328
 51
294.2675644839671
  0
ARC
  5
1BF
  8
1
  6
CONTINUOUS
 62
     7
 10
-414.2754064429359
 20
188.3633070973722
 30
0.0
 40
1.21654992179303
 50
335.7324355160329
 51
24.26756448396713
  0
ARC
  5
1C0
  8
1
  6
CONTINUOUS
 62
     7
 10
-414.2754064429359
 20
188.3633070973722
 30
0.0
 40
1.216549921793029
 50
65.73243551603288
 51
114.2675644839671
  0
ARC
  5
1C1
  8
1
  6
CONTINUOUS
 62
     7
 10
-356.4190079182267
 20
188.3633070973721
 30
0.0
 40
2.200000000000001
 50
256.8634412130551
 51
283.1365587869449
  0
LINE
  5
1C2
  8
1
  6
CONTINUOUS
 62
     7
 10
-354.2765793896638
 20
187.8633070973721
 30
0.0
 11
-355.9190079182267
 21
187.8633070973721
 31
0.0
  0
ARC
  5
1C3
  8
1
  6
CONTINUOUS
 62
     7
 10
-356.4190079182267
 20
188.3633070973721
 30
0.0
 40
2.200000000000001
 50
346.8634412130552
 51
13.13655878695687
  0
LINE
  5
1C4
  8
1
  6
CONTINUOUS
 62
     7
 10
-355.9190079182267
 20
188.8633070973721
 30
0.0
 11
-354.2765793896639
 21
188.8633070973721
 31
0.0
  0
LINE
  5
1C5
  8
1
  6
CONTINUOUS
 62
     7
 10
-355.9190079182267
 20
190.505735625935
 30
0.0
 11
-355.9190079182267
 21
188.8633070973721
 31
0.0
  0
ARC
  5
1C6
  8
1
  6
CONTINUOUS
 62
     7
 10
-356.4190079182267
 20
188.3633070973721
 30
0.0
 40
2.200000000000001
 50
76.86344121305513
 51
103.1365587869569
  0
LINE
  5
1C7
  8
1
  6
CONTINUOUS
 62
     7
 10
-356.9190079182267
 20
188.8633070973721
 30
0.0
 11
-356.9190079182267
 21
190.5057356259349
 31
0.0
  0
LINE
  5
1C8
  8
1
  6
CONTINUOUS
 62
     7
 10
-358.5614364467896
 20
188.8633070973721
 30
0.0
 11
-356.9190079182267
 21
188.8633070973721
 31
0.0
  0
ARC
  5
1C9
  8
1
  6
CONTINUOUS
 62
     7
 10
-356.4190079182267
 20
188.3633070973721
 30
0.0
 40
2.200000000000001
 50
166.8634412130551
 51
193.1365587869569
  0
LINE
  5
1CA
  8
1
  6
CONTINUOUS
 62
     7
 10
-356.9190079182267
 20
187.8633070973721
 30
0.0
 11
-358.5614364467894
 21
187.8633070973721
 31
0.0
  0
CIRCLE
  5
1CB
  8
1
  6
CONTINUOUS
 62
     7
 10
-356.4190079182267
 20
188.3633070973721
 30
0.0
 40
4.0
  0
LINE
  5
1CC
  8
1
  6
CONTINUOUS
 62
     7
 10
-356.9190079182267
 20
186.2208785688093
 30
0.0
 11
-356.9190079182267
 21
187.8633070973722
 31
0.0
  0
LINE
  5
1CD
  8
1
  6
CONTINUOUS
 62
     7
 10
-355.9190079182267
 20
187.8633070973721
 30
0.0
 11
-355.9190079182267
 21
186.2208785688093
 31
0.0
  0
ARC
  5
1CE
  8
1
  6
CONTINUOUS
 62
     7
 10
-356.4190079182267
 20
188.3633070973721
 30
0.0
 40
1.21654992179303
 50
335.732435516033
 51
24.26756448396708
  0
ARC
  5
1CF
  8
1
  6
CONTINUOUS
 62
     7
 10
-356.4190079182267
 20
188.3633070973721
 30
0.0
 40
1.21654992179303
 50
155.7324355160329
 51
204.2675644839671
  0
ARC
  5
1D0
  8
1
  6
CONTINUOUS
 62
     7
 10
-356.4190079182267
 20
188.3633070973721
 30
0.0
 40
1.216549921793029
 50
245.7324355160328
 51
294.2675644839671
  0
ARC
  5
1D1
  8
1
  6
CONTINUOUS
 62
     7
 10
-356.4190079182267
 20
188.3633070973721
 30
0.0
 40
1.216549921793029
 50
65.73243551603288
 51
114.2675644839671
  0
CIRCLE
  5
1D2
  8
1
  6
CONTINUOUS
 62
     7
 10
-356.4190079182267
 20
188.3633070973721
 30
0.0
 40
4.5
  0
CIRCLE
  5
1D3
  8
1
  6
CONTINUOUS
 62
     7
 10
-414.2754064429359
 20
188.3633070973722
 30
0.0
 40
4.500000000000004
  0
LINE
  5
1D4
  8
1
  6
CONTINUOUS
 62
     9
 10
-409.4472071805806
 20
178.8633070973722
 30
0.0
 11
-409.4472071805806
 21
181.3633070973722
 31
0.0
  0
LINE
  5
1D5
  8
1
  6
CONTINUOUS
 62
     9
 10
-409.4472071805806
 20
195.3633070973721
 30
0.0
 11
-409.4472071805806
 21
197.8633070973721
 31
0.0
  0
LINE
  5
1D6
  8
1
  6
CONTINUOUS
 62
     7
 10
-405.8472071805807
 20
197.8633070973721
 30
0.0
 11
-405.8472071805807
 21
195.3633070973721
 31
0.0
  0
LINE
  5
1D7
  8
1
  6
CONTINUOUS
 62
     7
 10
-405.8472071805807
 20
181.3633070973722
 30
0.0
 11
-405.8472071805807
 21
178.8633070973722
 31
0.0
  0
LINE
  5
1D8
  8
1
  6
CONTINUOUS
 62
     7
 10
-419.3472071805802
 20
180.9199314243982
 30
0.0
 11
-415.7850293540891
 21
178.8633070973722
 31
0.0
  0
ARC
  5
1D9
  8
1
  6
CONTINUOUS
 62
     7
 10
-416.8472071805803
 20
185.2500584433203
 30
0.0
 40
4.999999999999899
 50
231.0186047021867
 51
240.0000000000005
  0
ARC
  5
1DA
  8
1
  6
CONTINUOUS
 62
     7
 10
-416.8472071805803
 20
191.476555751424
 30
0.0
 40
4.999999999999898
 50
119.9999999999998
 51
128.9813952978146
  0
LINE
  5
1DB
  8
1
  6
CONTINUOUS
 62
     7
 10
-415.7850293540891
 20
197.8633070973721
 30
0.0
 11
-419.3472071805803
 21
195.8066827703461
 31
0.0
  0
LINE
  5
1DC
  8
1
  6
CONTINUOUS
 62
     7
 10
-364.8472071805812
 20
178.8633070973722
 30
0.0
 11
-364.8472071805812
 21
181.3633070973722
 31
0.0
  0
LINE
  5
1DD
  8
1
  6
CONTINUOUS
 62
     7
 10
-364.8472071805812
 20
195.3633070973721
 30
0.0
 11
-364.8472071805812
 21
197.8633070973721
 31
0.0
  0
LINE
  5
1DE
  8
1
  6
CONTINUOUS
 62
     9
 10
-361.2472071805812
 20
197.8633070973721
 30
0.0
 11
-361.2472071805812
 21
195.3633070973721
 31
0.0
  0
LINE
  5
1DF
  8
1
  6
CONTINUOUS
 62
     9
 10
-361.2472071805812
 20
181.3633070973721
 30
0.0
 11
-361.2472071805812
 21
178.8633070973721
 31
0.0
  0
LINE
  5
1E0
  8
1
  6
CONTINUOUS
 62
     7
 10
-354.9093850070723
 20
197.8633070973721
 30
0.0
 11
-351.3472071805812
 21
195.8066827703462
 31
0.0
  0
ARC
  5
1E1
  8
1
  6
CONTINUOUS
 62
     7
 10
-353.8472071805812
 20
191.476555751424
 30
0.0
 40
4.999999999999996
 50
51.01860470218407
 51
59.99999999999954
  0
ARC
  5
1E2
  8
1
  6
CONTINUOUS
 62
     7
 10
-353.8472071805812
 20
185.2500584433203
 30
0.0
 40
4.999999999999997
 50
300.0
 51
308.9813952978159
  0
LINE
  5
1E3
  8
1
  6
CONTINUOUS
 62
     7
 10
-351.3472071805812
 20
180.9199314243981
 30
0.0
 11
-354.9093850070723
 21
178.8633070973722
 31
0.0
  0
LINE
  5
1E4
  8
1
  6
CONTINUOUS
 62
     9
 10
-404.847207180581
 20
197.8633070973721
 30
0.0
 11
-404.8472071805807
 21
195.3633070973721
 31
0.0
  0
LINE
  5
1E5
  8
1
  6
CONTINUOUS
 62
     9
 10
-404.8472071805807
 20
181.3633070973722
 30
0.0
 11
-404.8472071805812
 21
178.8633070973722
 31
0.0
  0
LINE
  5
1E6
  8
1
  6
CONTINUOUS
 62
     9
 10
-365.8472071805812
 20
178.8633070973722
 30
0.0
 11
-365.8472071805812
 21
181.3633070973722
 31
0.0
  0
LINE
  5
1E7
  8
1
  6
CONTINUOUS
 62
     9
 10
-365.8472071805812
 20
195.3633070973721
 30
0.0
 11
-365.847207180581
 21
197.8633070973721
 31
0.0
  0
CIRCLE
  5
1E8
  8
1
  6
CONTINUOUS
 62
     7
 10
-396.3472071805809
 20
188.3633070973721
 30
0.0
 40
2.249999999999938
  0
CIRCLE
  5
1E9
  8
1
  6
CONTINUOUS
 62
     7
 10
-374.3472071805812
 20
188.3633070973721
 30
0.0
 40
2.249999999999999
  0
CIRCLE
  5
1EA
  8
1
  6
CONTINUOUS
 62
     7
 10
-385.3472071805812
 20
188.3633070973721
 30
0.0
 40
5.100000000000044
  0
LINE
  5
1EB
  8
1
  6
CONTINUOUS
 62
     7
 10
-371.9582118815597
 20
175.863307097372
 30
0.0
 11
-390.69657208597
 21
175.863307097372
 31
0.0
  0
LINE
  5
1EC
  8
1
  6
CONTINUOUS
 62
     7
 10
-390.4462266941744
 20
200.863307097372
 30
0.0
 11
-380.2481876669881
 21
200.863307097372
 31
0.0
  0
ENDBLK
  8
0
  0
ENDSEC
  0
SECTION
  2
ENTITIES
  0
INSERT
  5
B1
  8
1
  6
DOT
 62
     7
  2
D_FRAME_VIEW_2871
 10
0.0
 20
0.0
 30
0.0
  0
LINE
  5
B3
  8
1
  6
CENTER
 62
     1
 10
-385.3472071805809
 20
288.8902169840354
 30
0.0
 11
-385.3472071805809
 21
333.8902169840354
 31
0.0
  0
LINE
  5
B5
  8
1
  6
CENTER
 62
     1
 10
-257.8023075214683
 20
188.3633070973722
 30
0.0
 11
-207.8023075214682
 21
188.3633070973722
 31
0.0
  0
LINE
  5
B6
  8
1
  6
CENTER
 62
     1
 10
-385.3472071805812
 20
126.3633070973721
 30
0.0
 11
-385.3472071805812
 21
250.3633070973721
 31
0.0
  0
LINE
  5
B7
  8
1
  6
CENTER
 62
     1
 10
-447.3472071805812
 20
188.3633070973721
 30
0.0
 11
-323.3472071805812
 21
188.3633070973721
 31
0.0
  0
POINT
  5
B8
  8
1
 62
     7
 10
-385.3472071805812
 20
333.8902169840354
 30
0.0
  0
POINT
  5
B9
  8
1
 62
     7
 10
-257.8023075214683
 20
188.3633070973721
 30
0.0
  0
POINT
  5
BA
  8
1
 62
     7
 10
-380.3472071805812
 20
288.8902169840354
 30
0.0
  0
POINT
  5
BB
  8
1
 62
     7
 10
-207.8023075214682
 20
183.3633070973721
 30
0.0
  0
INSERT
  5
135
  8
1
  6
DOT
 62
     7
  2
D_FRAME_VIEW_2995
 10
0.0
 20
0.0
 30
0.0
  0
TEXT
  5
136
  8
1
  6
CONTINUOUS
 62
     7
 10
-288.9008194634465
 20
106.6917271298843
 30
0.0
 40
3.0
  1
SG-VK1A
  0
LINE
  5
137
  8
1
  6
CONTINUOUS
 62
     2
 10
-288.8159438851046
 20
106.1337616428267
 30
0.0
 11
-276.7886711578319
 21
106.1337616428267
 31
0.0
  0
INSERT
  5
1ED
  8
1
  6
DOT
 62
     7
  2
D_FRAME_VIEW_2626
 10
0.0
 20
0.0
 30
0.0
  0
ENDSEC
  0
EOF
