  0
SECTION
  2
HEADER
  9
$ACADVER
  1
AC1006
  9
$DWGCODEPAGE
  3
ansi_932
  9
$INSBASE
 10
0.0
 20
0.0
 30
0.0
  9
$EXTMIN
 10
-2024.802307521468
 20
-368.8662383571734
  9
$EXTMAX
 10
-1772.802307521468
 20
-106.6366929026279
  9
$LIMMIN
 10
0.0
 20
0.0
  9
$LIMMAX
 10
12.0
 20
9.0
  9
$ORTHOMODE
 70
     0
  9
$REGENMODE
 70
     1
  9
$FILLMODE
 70
     1
  9
$QTEXTMODE
 70
     0
  9
$MIRRTEXT
 70
     1
  9
$DRAGMODE
 70
     2
  9
$LTSCALE
 40
1.0
  9
$OSMODE
 70
    37
  9
$ATTMODE
 70
     1
  9
$TEXTSIZE
 40
0.2
  9
$TRACEWID
 40
0.05
  9
$TEXTSTYLE
  7
STANDARD
  9
$CLAYER
  8
0
  9
$CELTYPE
  6
BYLAYER
  9
$CECOLOR
 62
   256
  9
$DIMSCALE
 40
1.0
  9
$DIMASZ
 40
3.0
  9
$DIMEXO
 40
0.0625
  9
$DIMDLI
 40
0.38
  9
$DIMRND
 40
0.0
  9
$DIMDLE
 40
0.0
  9
$DIMEXE
 40
1.5
  9
$DIMTP
 40
0.0
  9
$DIMTM
 40
0.0
  9
$DIMTXT
 40
3.0
  9
$DIMCEN
 40
0.09
  9
$DIMTSZ
 40
0.0
  9
$DIMTOL
 70
     0
  9
$DIMLIM
 70
     0
  9
$DIMTIH
 70
     1
  9
$DIMTOH
 70
     1
  9
$DIMSE1
 70
     0
  9
$DIMSE2
 70
     0
  9
$DIMTAD
 70
     1
  9
$DIMZIN
 70
     0
  9
$DIMBLK
  1

  9
$DIMASO
 70
     1
  9
$DIMSHO
 70
     1
  9
$DIMPOST
  1

  9
$DIMAPOST
  1

  9
$DIMALT
 70
     0
  9
$DIMALTD
 70
     2
  9
$DIMALTF
 40
25.4
  9
$DIMLFAC
 40
1.0
  9
$DIMTOFL
 70
     0
  9
$DIMTVP
 40
0.0
  9
$DIMTIX
 70
     0
  9
$DIMSOXD
 70
     0
  9
$DIMSAH
 70
     0
  9
$DIMBLK1
  1

  9
$DIMBLK2
  1

  9
$LUNITS
 70
     2
  9
$LUPREC
 70
     4
  9
$SKETCHINC
 40
0.1
  9
$FILLETRAD
 40
0.5
  9
$AUNITS
 70
     0
  9
$AUPREC
 70
     0
  9
$MENU
  1
.
  9
$ELEVATION
 40
0.0
  9
$THICKNESS
 40
0.0
  9
$LIMCHECK
 70
     0
  9
$CHAMFERA
 40
0.0
  9
$CHAMFERB
 40
0.0
  9
$SKPOLY
 70
     0
  9
$TDCREATE
 40
2460529.662932998
  9
$TDUPDATE
 40
2460529.662933217
  9
$TDINDWG
 40
0.0000000116
  9
$TDUSRTIMER
 40
0.0000000116
  9
$USRTIMER
 70
     1
  9
$ANGBASE
 50
0.0
  9
$ANGDIR
 70
     0
  9
$PDMODE
 70
     0
  9
$PDSIZE
 40
0.0
  9
$PLINEWID
 40
0.0
  9
$COORDS
 70
     1
  9
$SPLFRAME
 70
     0
  9
$SPLINETYPE
 70
     6
  9
$SPLINESEGS
 70
     8
  9
$ATTDIA
 70
     0
  9
$ATTREQ
 70
     1
  9
$HANDLING
 70
     1
  9
$HANDSEED
  5
2AC
  9
$SURFTAB1
 70
     6
  9
$SURFTAB2
 70
     6
  9
$SURFTYPE
 70
     6
  9
$SURFU
 70
     6
  9
$SURFV
 70
     6
  9
$UCSNAME
  2

  9
$UCSORG
 10
0.0
 20
0.0
 30
0.0
  9
$UCSXDIR
 10
1.0
 20
0.0
 30
0.0
  9
$UCSYDIR
 10
0.0
 20
1.0
 30
0.0
  9
$USERI1
 70
     0
  9
$USERI2
 70
     0
  9
$USERI3
 70
     0
  9
$USERI4
 70
     0
  9
$USERI5
 70
     0
  9
$USERR1
 40
0.0
  9
$USERR2
 40
0.0
  9
$USERR3
 40
0.0
  9
$USERR4
 40
0.0
  9
$USERR5
 40
0.0
  9
$WORLDVIEW
 70
     1
  0
ENDSEC
  0
SECTION
  2
TABLES
  0
TABLE
  2
VPORT
 70
     1
  0
VPORT
  2
*ACTIVE
 70
     0
 10
0.0
 20
0.0
 11
1.0
 21
1.0
 12
-1898.802307521468
 22
-237.7514656299006
 13
0.0
 23
0.0
 14
0.5
 24
0.5
 15
0.5
 25
0.5
 16
0.0
 26
0.0
 36
1.0
 17
0.0
 27
0.0
 37
0.0
 40
262.2295454545455
 41
1.6
 42
50.0
 43
0.0
 44
0.0
 50
0.0
 51
0.0
 71
     0
 72
   100
 73
     1
 74
     3
 75
     0
 76
     0
 77
     0
 78
     0
  0
ENDTAB
  0
TABLE
  2
LTYPE
 70
     3
  0
LTYPE
  2
CONTINUOUS
 70
     0
  3
Solid line
 72
    65
 73
     0
 40
0.0
  0
LTYPE
  2
CENTER
 70
     0
  3

 72
    65
 73
     0
 40
0.0
  0
LTYPE
  2
DOT
 70
     0
  3

 72
    65
 73
     0
 40
0.0
  0
ENDTAB
  0
TABLE
  2
LAYER
 70
     2
  0
LAYER
  2
0
 70
     0
 62
     7
  6
CONTINUOUS
  0
LAYER
  2
1
 70
     0
 62
     7
  6
CONTINUOUS
  0
ENDTAB
  0
TABLE
  2
STYLE
 70
     2
  0
STYLE
  2
STANDARD
 70
     0
 40
0.0
 41
1.0
 50
0.0
 71
     0
 42
0.2
  3
txt
  4

  0
STYLE
  2
ＭＳ_ゴシック
 70
     0
 40
0.0
 41
1.0
 50
0.0
 71
     0
 42
0.2
  3
ＭＳ ゴシック.shx
  4

  0
ENDTAB
  0
TABLE
  2
VIEW
 70
     0
  0
ENDTAB
  0
TABLE
  2
UCS
 70
     0
  0
ENDTAB
  0
ENDSEC
  0
SECTION
  2
BLOCKS
  0
BLOCK
  8
0
  2
D_FRAME_VIEW_4955
 70
     0
 10
0.0
 20
0.0
 30
0.0
  0
LINE
  5
76
  8
1
  6
CONTINUOUS
 62
     7
 10
-1980.730506783823
 20
-144.7866929026281
 30
0.0
 11
-1972.730506783823
 21
-144.7866929026281
 31
0.0
  0
LINE
  5
77
  8
1
  6
CONTINUOUS
 62
     7
 10
-1974.730506783823
 20
-133.1366929026281
 30
0.0
 11
-1978.730506783823
 21
-133.1366929026281
 31
0.0
  0
LINE
  5
78
  8
1
  6
CONTINUOUS
 62
     7
 10
-1978.380506783823
 20
-132.7866929026281
 30
0.0
 11
-1975.080506783823
 21
-132.7866929026281
 31
0.0
  0
LINE
  5
79
  8
1
  6
CONTINUOUS
 62
     7
 10
-1922.874108259114
 20
-144.7866929026278
 30
0.0
 11
-1914.874108259114
 21
-144.7866929026278
 31
0.0
  0
LINE
  5
7A
  8
1
  6
CONTINUOUS
 62
     7
 10
-1916.874108259114
 20
-133.1366929026278
 30
0.0
 11
-1920.874108259114
 21
-133.1366929026278
 31
0.0
  0
LINE
  5
7B
  8
1
  6
CONTINUOUS
 62
     7
 10
-1920.524108259114
 20
-132.7866929026278
 30
0.0
 11
-1917.224108259114
 21
-132.7866929026278
 31
0.0
  0
LINE
  5
7C
  8
1
  6
CONTINUOUS
 62
     7
 10
-1976.778506783823
 20
-144.7866929026286
 30
0.0
 11
-1976.648506783823
 21
-143.786692902627
 31
0.0
  0
LINE
  5
7D
  8
1
  6
CONTINUOUS
 62
     7
 10
-1976.812506783823
 20
-143.7866929026286
 30
0.0
 11
-1976.942506783823
 21
-144.7866929026303
 31
0.0
  0
LINE
  5
7E
  8
1
  6
CONTINUOUS
 62
     7
 10
-1918.922108259114
 20
-144.7866929026278
 30
0.0
 11
-1918.792108259114
 21
-143.7866929026278
 31
0.0
  0
LINE
  5
7F
  8
1
  6
CONTINUOUS
 62
     7
 10
-1918.956108259114
 20
-143.7866929026278
 30
0.0
 11
-1919.086108259114
 21
-144.7866929026278
 31
0.0
  0
LINE
  5
80
  8
1
  6
CONTINUOUS
 62
     7
 10
-1914.374108259114
 20
-143.7866929026278
 30
0.0
 11
-1923.374108259114
 21
-143.7866929026278
 31
0.0
  0
LINE
  5
81
  8
1
  6
CONTINUOUS
 62
     7
 10
-1972.230506783823
 20
-143.7866929026278
 30
0.0
 11
-1981.230506783823
 21
-143.7866929026278
 31
0.0
  0
ARC
  5
82
  8
1
  6
CONTINUOUS
 62
     7
 10
-1923.702307521468
 20
-137.7866929026278
 30
0.0
 40
1.999999999999998
 50
180.0000000000009
 51
264.3162169723207
  0
LINE
  5
83
  8
1
  6
CONTINUOUS
 62
     9
 10
-1923.900383732822
 20
-139.7768601856711
 30
0.0
 11
-1923.900383732822
 21
-141.3812395798175
 31
0.0
  0
ARC
  5
84
  8
1
  6
CONTINUOUS
 62
     7
 10
-1923.702307521468
 20
-137.7866929026278
 30
0.0
 40
3.600000000000048
 50
180.0
 51
266.845926415137
  0
LINE
  5
85
  8
1
  6
CONTINUOUS
 62
     7
 10
-1927.302307521468
 20
-117.8866929026279
 30
0.0
 11
-1927.302307521468
 21
-137.7866929026278
 31
0.0
  0
ARC
  5
86
  8
1
  6
CONTINUOUS
 62
     7
 10
-1928.302307521468
 20
-117.8866929026279
 30
0.0
 40
1.000000000000001
 50
359.9999999999996
 51
89.99999999998408
  0
LINE
  5
87
  8
1
  6
CONTINUOUS
 62
     7
 10
-1967.302307521468
 20
-116.8866929026279
 30
0.0
 11
-1928.302307521468
 21
-116.8866929026279
 31
0.0
  0
ARC
  5
88
  8
1
  6
CONTINUOUS
 62
     7
 10
-1967.302307521468
 20
-117.8866929026279
 30
0.0
 40
1.000000000000112
 50
90.00000000001593
 51
180.000000000008
  0
LINE
  5
89
  8
1
  6
CONTINUOUS
 62
     7
 10
-1968.302307521468
 20
-117.8866929026281
 30
0.0
 11
-1968.302307521468
 21
-137.7866929026279
 31
0.0
  0
ARC
  5
8A
  8
1
  6
CONTINUOUS
 62
     7
 10
-1971.902307521468
 20
-137.7866929026279
 30
0.0
 40
3.6
 50
273.1540735848641
 51
359.9999999999998
  0
LINE
  5
8B
  8
1
  6
CONTINUOUS
 62
     9
 10
-1971.704231310114
 20
-139.7768601856713
 30
0.0
 11
-1971.704231310114
 21
-141.3812395798177
 31
0.0
  0
ARC
  5
8C
  8
1
  6
CONTINUOUS
 62
     7
 10
-1971.902307521468
 20
-137.7866929026279
 30
0.0
 40
2.000000000000002
 50
275.6837830276802
 51
359.999999999996
  0
LINE
  5
8D
  8
1
  6
CONTINUOUS
 62
     7
 10
-1969.902307521468
 20
-137.7866929026281
 30
0.0
 11
-1969.902307521468
 21
-117.8866929026282
 31
0.0
  0
ARC
  5
8E
  8
1
  6
CONTINUOUS
 62
     7
 10
-1967.302307521468
 20
-117.8866929026279
 30
0.0
 40
2.600000000000005
 50
90.00000000000611
 51
180.0000000000064
  0
LINE
  5
8F
  8
1
  6
CONTINUOUS
 62
     7
 10
-1967.302307521468
 20
-115.2866929026279
 30
0.0
 11
-1928.302307521468
 21
-115.2866929026279
 31
0.0
  0
ARC
  5
90
  8
1
  6
CONTINUOUS
 62
     7
 10
-1928.302307521468
 20
-117.8866929026279
 30
0.0
 40
2.599999999999936
 50
359.9999999999985
 51
89.99999999999392
  0
LINE
  5
91
  8
1
  6
CONTINUOUS
 62
     7
 10
-1925.702307521468
 20
-137.7866929026278
 30
0.0
 11
-1925.702307521468
 21
-117.886692902628
 31
0.0
  0
LINE
  5
92
  8
1
  6
CONTINUOUS
 62
     7
 10
-1923.702307521468
 20
-139.7866929026278
 30
0.0
 11
-1921.400383732821
 21
-139.7866929026278
 31
0.0
  0
LINE
  5
93
  8
1
  6
CONTINUOUS
 62
     9
 10
-1921.400383732821
 20
-139.7866929026278
 30
0.0
 11
-1921.400383732821
 21
-141.3866929026278
 31
0.0
  0
LINE
  5
94
  8
1
  6
CONTINUOUS
 62
     7
 10
-1923.702307521468
 20
-141.3866929026278
 30
0.0
 11
-1921.400383732821
 21
-141.3866929026278
 31
0.0
  0
LINE
  5
95
  8
1
  6
CONTINUOUS
 62
     7
 10
-1923.900383732822
 20
-141.3812395798176
 30
0.0
 11
-1923.702307521468
 21
-141.3866929026278
 31
0.0
  0
LINE
  5
96
  8
1
  6
CONTINUOUS
 62
     7
 10
-1923.702307521468
 20
-139.7866929026278
 30
0.0
 11
-1923.900383732822
 21
-139.7768601856711
 31
0.0
  0
LINE
  5
97
  8
1
  6
CONTINUOUS
 62
     9
 10
-1974.204231310114
 20
-139.7866929026279
 30
0.0
 11
-1974.204231310114
 21
-141.3866929026279
 31
0.0
  0
LINE
  5
98
  8
1
  6
CONTINUOUS
 62
     7
 10
-1971.902307521468
 20
-139.7866929026279
 30
0.0
 11
-1974.204231310114
 21
-139.7866929026279
 31
0.0
  0
LINE
  5
99
  8
1
  6
CONTINUOUS
 62
     7
 10
-1971.902307521468
 20
-141.3866929026279
 30
0.0
 11
-1971.704231310114
 21
-141.3812395798177
 31
0.0
  0
LINE
  5
9A
  8
1
  6
CONTINUOUS
 62
     7
 10
-1971.902307521468
 20
-141.3866929026279
 30
0.0
 11
-1974.204231310114
 21
-141.3866929026279
 31
0.0
  0
LINE
  5
9B
  8
1
  6
CONTINUOUS
 62
     7
 10
-1971.704231310114
 20
-139.7768601856713
 30
0.0
 11
-1971.902307521468
 21
-139.7866929026279
 31
0.0
  0
LINE
  5
9C
  8
1
  6
CONTINUOUS
 62
     9
 10
-1913.802307521468
 20
-139.7866929026278
 30
0.0
 11
-1913.802307521468
 21
-141.3866929026278
 31
0.0
  0
LINE
  5
9D
  8
1
  6
CONTINUOUS
 62
     7
 10
-1921.400383732821
 20
-139.7866929026278
 30
0.0
 11
-1913.802307521468
 21
-139.7866929026278
 31
0.0
  0
LINE
  5
9E
  8
1
  6
CONTINUOUS
 62
     7
 10
-1921.400383732821
 20
-141.3866929026278
 30
0.0
 11
-1913.802307521468
 21
-141.3866929026278
 31
0.0
  0
LINE
  5
9F
  8
1
  6
CONTINUOUS
 62
     9
 10
-1981.802307521467
 20
-139.7866929026279
 30
0.0
 11
-1981.802307521467
 21
-141.3866929026279
 31
0.0
  0
LINE
  5
A0
  8
1
  6
CONTINUOUS
 62
     7
 10
-1974.204231310114
 20
-141.3866929026279
 30
0.0
 11
-1981.802307521467
 21
-141.3866929026279
 31
0.0
  0
LINE
  5
A1
  8
1
  6
CONTINUOUS
 62
     7
 10
-1974.204231310114
 20
-139.7866929026279
 30
0.0
 11
-1981.802307521467
 21
-139.7866929026279
 31
0.0
  0
LINE
  5
A2
  8
1
  6
CONTINUOUS
 62
     7
 10
-1911.302307521468
 20
-139.7866929026278
 30
0.0
 11
-1911.302307521468
 21
-141.3866929026278
 31
0.0
  0
LINE
  5
A3
  8
1
  6
CONTINUOUS
 62
     7
 10
-1913.802307521468
 20
-139.7866929026278
 30
0.0
 11
-1911.302307521468
 21
-139.7866929026278
 31
0.0
  0
LINE
  5
A4
  8
1
  6
CONTINUOUS
 62
     7
 10
-1913.802307521468
 20
-141.3866929026278
 30
0.0
 11
-1913.156967480269
 21
-141.3866929026278
 31
0.0
  0
LINE
  5
A5
  8
1
  6
CONTINUOUS
 62
     7
 10
-1984.302307521467
 20
-139.7866929026279
 30
0.0
 11
-1984.302307521467
 21
-141.3866929026279
 31
0.0
  0
LINE
  5
A6
  8
1
  6
CONTINUOUS
 62
     7
 10
-1981.802307521467
 20
-141.3866929026279
 30
0.0
 11
-1982.447647562666
 21
-141.3866929026279
 31
0.0
  0
LINE
  5
A7
  8
1
  6
CONTINUOUS
 62
     7
 10
-1981.802307521467
 20
-139.7866929026279
 30
0.0
 11
-1984.302307521467
 21
-139.7866929026279
 31
0.0
  0
LINE
  5
A8
  8
1
  6
CONTINUOUS
 62
     9
 10
-1921.402307521468
 20
-139.2866929026278
 30
0.0
 11
-1916.202307521468
 21
-139.2866929026278
 31
0.0
  0
LINE
  5
A9
  8
1
  6
CONTINUOUS
 62
     9
 10
-1974.202307521467
 20
-139.286692902628
 30
0.0
 11
-1979.402307521467
 21
-139.286692902628
 31
0.0
  0
LINE
  5
AA
  8
1
  6
CONTINUOUS
 62
     7
 10
-1921.402307521468
 20
-138.2866929026278
 30
0.0
 11
-1916.202307521468
 21
-138.2866929026278
 31
0.0
  0
LINE
  5
AB
  8
1
  6
CONTINUOUS
 62
     7
 10
-1974.202307521467
 20
-138.286692902628
 30
0.0
 11
-1979.402307521467
 21
-138.286692902628
 31
0.0
  0
LINE
  5
AC
  8
1
  6
CONTINUOUS
 62
     7
 10
-2022.802307521468
 20
-147.9866929026278
 30
0.0
 11
-1872.802307521468
 21
-147.9866929026278
 31
0.0
  0
LINE
  5
AD
  8
1
  6
CONTINUOUS
 62
     7
 10
-2022.802307521468
 20
-146.3866929026278
 30
0.0
 11
-1872.802307521468
 21
-146.3866929026278
 31
0.0
  0
POLYLINE
  5
AE
  8
1
  6
CONTINUOUS
 62
     7
 66
     1
 10
0.0
 20
0.0
 30
0.0
  0
VERTEX
  5
224
  8
1
  6
CONTINUOUS
 62
     7
 10
-1989.891407152646
 20
-146.3866929026278
 30
0.0
  0
VERTEX
  5
225
  8
1
  6
CONTINUOUS
 62
     7
 10
-1989.859433188549
 20
-146.386181604725
 30
0.0
  0
VERTEX
  5
226
  8
1
  6
CONTINUOUS
 62
     7
 10
-1989.826840231576
 20
-146.3846060491421
 30
0.0
  0
VERTEX
  5
227
  8
1
  6
CONTINUOUS
 62
     7
 10
-1989.79379532328
 20
-146.3819174656124
 30
0.0
  0
VERTEX
  5
228
  8
1
  6
CONTINUOUS
 62
     7
 10
-1989.75992072469
 20
-146.3780105599024
 30
0.0
  0
VERTEX
  5
229
  8
1
  6
CONTINUOUS
 62
     7
 10
-1989.725705436292
 20
-146.3728688206047
 30
0.0
  0
VERTEX
  5
22A
  8
1
  6
CONTINUOUS
 62
     7
 10
-1989.690749105783
 20
-146.3663538380838
 30
0.0
  0
VERTEX
  5
22B
  8
1
  6
CONTINUOUS
 62
     7
 10
-1989.655593733251
 20
-146.3584912516866
 30
0.0
  0
VERTEX
  5
22C
  8
1
  6
CONTINUOUS
 62
     7
 10
-1989.620156889612
 20
-146.3492017570309
 30
0.0
  0
VERTEX
  5
22D
  8
1
  6
CONTINUOUS
 62
     7
 10
-1989.585894446103
 20
-146.338880901996
 30
0.0
  0
VERTEX
  5
22E
  8
1
  6
CONTINUOUS
 62
     7
 10
-1989.551525960485
 20
-146.327160789815
 30
0.0
  0
VERTEX
  5
22F
  8
1
  6
CONTINUOUS
 62
     7
 10
-1989.517301918808
 20
-146.3140791619694
 30
0.0
  0
VERTEX
  5
230
  8
1
  6
CONTINUOUS
 62
     7
 10
-1989.482765214151
 20
-146.2993871144032
 30
0.0
  0
VERTEX
  5
231
  8
1
  6
CONTINUOUS
 62
     7
 10
-1989.448559714573
 20
-146.2832898837695
 30
0.0
  0
VERTEX
  5
232
  8
1
  6
CONTINUOUS
 62
     7
 10
-1989.414229425642
 20
-146.2654990806216
 30
0.0
  0
VERTEX
  5
233
  8
1
  6
CONTINUOUS
 62
     7
 10
-1989.380428124682
 20
-146.2462860813938
 30
0.0
  0
VERTEX
  5
234
  8
1
  6
CONTINUOUS
 62
     7
 10
-1989.347076024827
 20
-146.2255633475048
 30
0.0
  0
VERTEX
  5
235
  8
1
  6
CONTINUOUS
 62
     7
 10
-1989.317311323839
 20
-146.2054792453677
 30
0.0
  0
VERTEX
  5
236
  8
1
  6
CONTINUOUS
 62
     7
 10
-1989.28818897759
 20
-146.184267307853
 30
0.0
  0
VERTEX
  5
237
  8
1
  6
CONTINUOUS
 62
     7
 10
-1989.259792461967
 20
-146.1619753560081
 30
0.0
  0
VERTEX
  5
238
  8
1
  6
CONTINUOUS
 62
     7
 10
-1989.231763372697
 20
-146.1382708342788
 30
0.0
  0
VERTEX
  5
239
  8
1
  6
CONTINUOUS
 62
     7
 10
-1989.2045815665
 20
-146.1135151740368
 30
0.0
  0
VERTEX
  5
23A
  8
1
  6
CONTINUOUS
 62
     7
 10
-1989.177928435425
 20
-146.0873679378891
 30
0.0
  0
VERTEX
  5
23B
  8
1
  6
CONTINUOUS
 62
     7
 10
-1989.152237162673
 20
-146.0602098750071
 30
0.0
  0
VERTEX
  5
23C
  8
1
  6
CONTINUOUS
 62
     7
 10
-1989.127572930694
 20
-146.0321053919524
 30
0.0
  0
VERTEX
  5
23D
  8
1
  6
CONTINUOUS
 62
     7
 10
-1989.101077588163
 20
-145.9993719017087
 30
0.0
  0
VERTEX
  5
23E
  8
1
  6
CONTINUOUS
 62
     7
 10
-1989.075964932252
 20
-145.9655282523777
 30
0.0
  0
VERTEX
  5
23F
  8
1
  6
CONTINUOUS
 62
     7
 10
-1989.052307521468
 20
-145.9306706677599
 30
0.0
  0
SEQEND
  5
2A6
  8
1
  6
CONTINUOUS
 62
     7
  0
LINE
  5
AF
  8
1
  6
CONTINUOUS
 62
     9
 10
-1989.052307521468
 20
-145.9306706677599
 30
0.0
 11
-1989.052307521468
 21
-146.3866929026278
 31
0.0
  0
LINE
  5
B0
  8
1
  6
CONTINUOUS
 62
     9
 10
-1968.052307521468
 20
-145.93067066776
 30
0.0
 11
-1968.052307521468
 21
-146.3866929026278
 31
0.0
  0
POLYLINE
  5
B1
  8
1
  6
CONTINUOUS
 62
     7
 66
     1
 10
0.0
 20
0.0
 30
0.0
  0
VERTEX
  5
240
  8
1
  6
CONTINUOUS
 62
     7
 10
-1968.052307521468
 20
-145.93067066776
 30
0.0
  0
VERTEX
  5
241
  8
1
  6
CONTINUOUS
 62
     7
 10
-1967.984141769414
 20
-146.0236080885207
 30
0.0
  0
VERTEX
  5
242
  8
1
  6
CONTINUOUS
 62
     7
 10
-1967.904219263728
 20
-146.109536185034
 30
0.0
  0
VERTEX
  5
243
  8
1
  6
CONTINUOUS
 62
     7
 10
-1967.815082536123
 20
-146.1852834802739
 30
0.0
  0
VERTEX
  5
244
  8
1
  6
CONTINUOUS
 62
     7
 10
-1967.719742713629
 20
-146.2489118003703
 30
0.0
  0
VERTEX
  5
245
  8
1
  6
CONTINUOUS
 62
     7
 10
-1967.617028182178
 20
-146.3015312336242
 30
0.0
  0
SEQEND
  5
2A7
  8
1
  6
CONTINUOUS
 62
     7
  0
ARC
  5
B2
  8
1
  6
CONTINUOUS
 62
     7
 10
-1967.213207890291
 20
-145.3866929026292
 30
0.0
 40
0.999999999998584
 50
246.1827783357177
 51
270.0000000000127
  0
POLYLINE
  5
B3
  8
1
  6
CONTINUOUS
 62
     7
 66
     1
 10
0.0
 20
0.0
 30
0.0
  0
VERTEX
  5
246
  8
1
  6
CONTINUOUS
 62
     7
 10
-1905.713207890291
 20
-146.3866929026278
 30
0.0
  0
VERTEX
  5
247
  8
1
  6
CONTINUOUS
 62
     7
 10
-1905.745181854388
 20
-146.386181604725
 30
0.0
  0
VERTEX
  5
248
  8
1
  6
CONTINUOUS
 62
     7
 10
-1905.777774811361
 20
-146.3846060491421
 30
0.0
  0
VERTEX
  5
249
  8
1
  6
CONTINUOUS
 62
     7
 10
-1905.810819719657
 20
-146.3819174656124
 30
0.0
  0
VERTEX
  5
24A
  8
1
  6
CONTINUOUS
 62
     7
 10
-1905.844694318247
 20
-146.3780105599024
 30
0.0
  0
VERTEX
  5
24B
  8
1
  6
CONTINUOUS
 62
     7
 10
-1905.878909606644
 20
-146.3728688206047
 30
0.0
  0
VERTEX
  5
24C
  8
1
  6
CONTINUOUS
 62
     7
 10
-1905.913865937153
 20
-146.3663538380838
 30
0.0
  0
VERTEX
  5
24D
  8
1
  6
CONTINUOUS
 62
     7
 10
-1905.949021309686
 20
-146.3584912516866
 30
0.0
  0
VERTEX
  5
24E
  8
1
  6
CONTINUOUS
 62
     7
 10
-1905.984458153325
 20
-146.3492017570309
 30
0.0
  0
VERTEX
  5
24F
  8
1
  6
CONTINUOUS
 62
     7
 10
-1906.018720596834
 20
-146.338880901996
 30
0.0
  0
VERTEX
  5
250
  8
1
  6
CONTINUOUS
 62
     7
 10
-1906.053089082452
 20
-146.327160789815
 30
0.0
  0
VERTEX
  5
251
  8
1
  6
CONTINUOUS
 62
     7
 10
-1906.087313124128
 20
-146.3140791619694
 30
0.0
  0
VERTEX
  5
252
  8
1
  6
CONTINUOUS
 62
     7
 10
-1906.121849828786
 20
-146.2993871144032
 30
0.0
  0
VERTEX
  5
253
  8
1
  6
CONTINUOUS
 62
     7
 10
-1906.156055328364
 20
-146.2832898837695
 30
0.0
  0
VERTEX
  5
254
  8
1
  6
CONTINUOUS
 62
     7
 10
-1906.190385617295
 20
-146.2654990806216
 30
0.0
  0
VERTEX
  5
255
  8
1
  6
CONTINUOUS
 62
     7
 10
-1906.224186918255
 20
-146.2462860813938
 30
0.0
  0
VERTEX
  5
256
  8
1
  6
CONTINUOUS
 62
     7
 10
-1906.257539018109
 20
-146.2255633475048
 30
0.0
  0
VERTEX
  5
257
  8
1
  6
CONTINUOUS
 62
     7
 10
-1906.287303719098
 20
-146.2054792453677
 30
0.0
  0
VERTEX
  5
258
  8
1
  6
CONTINUOUS
 62
     7
 10
-1906.316426065346
 20
-146.184267307853
 30
0.0
  0
VERTEX
  5
259
  8
1
  6
CONTINUOUS
 62
     7
 10
-1906.344822580969
 20
-146.1619753560081
 30
0.0
  0
VERTEX
  5
25A
  8
1
  6
CONTINUOUS
 62
     7
 10
-1906.372851670239
 20
-146.1382708342788
 30
0.0
  0
VERTEX
  5
25B
  8
1
  6
CONTINUOUS
 62
     7
 10
-1906.400033476436
 20
-146.1135151740368
 30
0.0
  0
VERTEX
  5
25C
  8
1
  6
CONTINUOUS
 62
     7
 10
-1906.426686607512
 20
-146.0873679378891
 30
0.0
  0
VERTEX
  5
25D
  8
1
  6
CONTINUOUS
 62
     7
 10
-1906.452377880264
 20
-146.0602098750071
 30
0.0
  0
VERTEX
  5
25E
  8
1
  6
CONTINUOUS
 62
     7
 10
-1906.477042112242
 20
-146.0321053919524
 30
0.0
  0
VERTEX
  5
25F
  8
1
  6
CONTINUOUS
 62
     7
 10
-1906.503537454774
 20
-145.9993719017087
 30
0.0
  0
VERTEX
  5
260
  8
1
  6
CONTINUOUS
 62
     7
 10
-1906.528650110684
 20
-145.9655282523777
 30
0.0
  0
VERTEX
  5
261
  8
1
  6
CONTINUOUS
 62
     7
 10
-1906.552307521468
 20
-145.9306706677599
 30
0.0
  0
SEQEND
  5
2A8
  8
1
  6
CONTINUOUS
 62
     7
  0
LINE
  5
B4
  8
1
  6
CONTINUOUS
 62
     9
 10
-1906.552307521468
 20
-145.9306706677599
 30
0.0
 11
-1906.552307521468
 21
-146.3866929026278
 31
0.0
  0
POLYLINE
  5
B5
  8
1
  6
CONTINUOUS
 62
     7
 66
     1
 10
0.0
 20
0.0
 30
0.0
  0
VERTEX
  5
262
  8
1
  6
CONTINUOUS
 62
     7
 10
-1927.552307521468
 20
-145.93067066776
 30
0.0
  0
VERTEX
  5
263
  8
1
  6
CONTINUOUS
 62
     7
 10
-1927.620473273523
 20
-146.0236080885207
 30
0.0
  0
VERTEX
  5
264
  8
1
  6
CONTINUOUS
 62
     7
 10
-1927.700395779209
 20
-146.109536185034
 30
0.0
  0
VERTEX
  5
265
  8
1
  6
CONTINUOUS
 62
     7
 10
-1927.789532506814
 20
-146.1852834802738
 30
0.0
  0
VERTEX
  5
266
  8
1
  6
CONTINUOUS
 62
     7
 10
-1927.884872329308
 20
-146.2489118003703
 30
0.0
  0
VERTEX
  5
267
  8
1
  6
CONTINUOUS
 62
     7
 10
-1927.987586860758
 20
-146.3015312336242
 30
0.0
  0
SEQEND
  5
2A9
  8
1
  6
CONTINUOUS
 62
     7
  0
ARC
  5
B6
  8
1
  6
CONTINUOUS
 62
     7
 10
-1928.391407152645
 20
-145.3866929026292
 30
0.0
 40
0.999999999998584
 50
269.9999999999872
 51
293.8172216642823
  0
LINE
  5
B7
  8
1
  6
CONTINUOUS
 62
     9
 10
-1927.552307521468
 20
-145.93067066776
 30
0.0
 11
-1927.552307521468
 21
-146.3866929026278
 31
0.0
  0
ARC
  5
B8
  8
1
  6
CONTINUOUS
 62
     7
 10
-1971.954701097249
 20
-144.9866929026278
 30
0.0
 40
3.600000000000006
 50
88.49426465826161
 51
90.0
  0
ARC
  5
B9
  8
1
  6
CONTINUOUS
 62
     7
 10
-1971.954701097249
 20
-144.9866929026278
 30
0.0
 40
3.600000000000001
 50
10.0
 51
88.49426465826161
  0
LINE
  5
BA
  8
1
  6
CONTINUOUS
 62
     7
 10
-1968.198015643303
 20
-145.5603410802948
 30
0.0
 11
-1968.409393186405
 21
-144.3615594630269
 31
0.0
  0
LINE
  5
BB
  8
1
  6
CONTINUOUS
 62
     7
 10
-1969.549513734697
 20
-145.8381781645618
 30
0.0
 11
-1969.760891277798
 21
-144.639396547294
 31
0.0
  0
ARC
  5
BC
  8
1
  6
CONTINUOUS
 62
     7
 10
-1971.730506783823
 20
-144.9866929026278
 30
0.0
 40
2.000000000000062
 50
9.999999999999975
 51
90.0
  0
LINE
  5
BD
  8
1
  6
CONTINUOUS
 62
     7
 10
-1971.730506783823
 20
-142.9866929026278
 30
0.0
 11
-1985.374108259114
 21
-142.9866929026278
 31
0.0
  0
ARC
  5
BE
  8
1
  6
CONTINUOUS
 62
     7
 10
-1985.374108259114
 20
-144.9866929026278
 30
0.0
 40
2.000000000000002
 50
90.0
 51
170.0000000000001
  0
LINE
  5
BF
  8
1
  6
CONTINUOUS
 62
     7
 10
-1987.55510130824
 20
-145.8381781645618
 30
0.0
 11
-1987.343723765138
 21
-144.639396547294
 31
0.0
  0
LINE
  5
C0
  8
1
  6
CONTINUOUS
 62
     7
 10
-1988.906599399633
 20
-145.5603410802948
 30
0.0
 11
-1988.695221856532
 21
-144.3615594630269
 31
0.0
  0
ARC
  5
C1
  8
1
  6
CONTINUOUS
 62
     7
 10
-1985.149913945688
 20
-144.9866929026278
 30
0.0
 40
3.599999999999896
 50
90.0
 51
170.0
  0
LINE
  5
C2
  8
1
  6
CONTINUOUS
 62
     7
 10
-1982.447647562666
 20
-141.3866929026279
 30
0.0
 11
-1985.149913945688
 21
-141.3866929026278
 31
0.0
  0
ARC
  5
C3
  8
1
  6
CONTINUOUS
 62
     7
 10
-1989.891407152646
 20
-145.3866929026278
 30
0.0
 40
1.000000000000047
 50
327.045164673287
 51
350.0000000000001
  0
ARC
  5
C4
  8
1
  6
CONTINUOUS
 62
     7
 10
-1967.213207890291
 20
-145.3866929026278
 30
0.0
 40
0.9999999999999231
 50
190.0000000000001
 51
212.9548353267156
  0
ARC
  5
C5
  8
1
  6
CONTINUOUS
 62
     7
 10
-1990.115601466071
 20
-145.3866929026278
 30
0.0
 40
2.599999999999975
 50
337.3801350519595
 51
349.9999999999999
  0
ARC
  5
C6
  8
1
  6
CONTINUOUS
 62
     7
 10
-1966.989013576865
 20
-145.3866929026278
 30
0.0
 40
2.599999999999961
 50
190.0000000000001
 51
202.6198649480405
  0
ARC
  5
C7
  8
1
  6
CONTINUOUS
 62
     7
 10
-1910.454701097249
 20
-144.9866929026278
 30
0.0
 40
3.599999999999893
 50
10.00000000000001
 51
90.0
  0
LINE
  5
C8
  8
1
  6
CONTINUOUS
 62
     7
 10
-1906.698015643303
 20
-145.5603410802948
 30
0.0
 11
-1906.909393186405
 21
-144.3615594630269
 31
0.0
  0
LINE
  5
C9
  8
1
  6
CONTINUOUS
 62
     7
 10
-1908.049513734697
 20
-145.8381781645618
 30
0.0
 11
-1908.260891277798
 21
-144.639396547294
 31
0.0
  0
ARC
  5
CA
  8
1
  6
CONTINUOUS
 62
     7
 10
-1910.230506783823
 20
-144.9866929026278
 30
0.0
 40
1.999999999999988
 50
9.999999999999945
 51
90.0
  0
LINE
  5
CB
  8
1
  6
CONTINUOUS
 62
     7
 10
-1923.874108259114
 20
-142.9866929026278
 30
0.0
 11
-1910.230506783823
 21
-142.9866929026278
 31
0.0
  0
ARC
  5
CC
  8
1
  6
CONTINUOUS
 62
     7
 10
-1923.874108259114
 20
-144.9866929026278
 30
0.0
 40
2.000000000000062
 50
90.0
 51
170.0
  0
LINE
  5
CD
  8
1
  6
CONTINUOUS
 62
     7
 10
-1926.05510130824
 20
-145.8381781645618
 30
0.0
 11
-1925.843723765138
 21
-144.639396547294
 31
0.0
  0
LINE
  5
CE
  8
1
  6
CONTINUOUS
 62
     7
 10
-1927.406599399633
 20
-145.5603410802948
 30
0.0
 11
-1927.195221856532
 21
-144.3615594630269
 31
0.0
  0
ARC
  5
CF
  8
1
  6
CONTINUOUS
 62
     7
 10
-1923.649913945688
 20
-144.9866929026278
 30
0.0
 40
3.599999999999992
 50
90.0
 51
93.9045785512601
  0
ARC
  5
D0
  8
1
  6
CONTINUOUS
 62
     7
 10
-1923.649913945688
 20
-144.9866929026278
 30
0.0
 40
3.6
 50
93.90457855126002
 51
170.0
  0
LINE
  5
D1
  8
1
  6
CONTINUOUS
 62
     7
 10
-1913.156967480269
 20
-141.3866929026278
 30
0.0
 11
-1910.454701097249
 21
-141.3866929026278
 31
0.0
  0
ARC
  5
D2
  8
1
  6
CONTINUOUS
 62
     7
 10
-1905.713207890291
 20
-145.3866929026278
 30
0.0
 40
1.000000000000047
 50
190.0
 51
212.954835326713
  0
ARC
  5
D3
  8
1
  6
CONTINUOUS
 62
     7
 10
-1928.391407152646
 20
-145.3866929026278
 30
0.0
 40
0.9999999999999231
 50
327.0451646732844
 51
349.9999999999999
  0
ARC
  5
D4
  8
1
  6
CONTINUOUS
 62
     7
 10
-1905.489013576865
 20
-145.3866929026278
 30
0.0
 40
2.59999999999997
 50
190.0000000000001
 51
202.6198649480405
  0
ARC
  5
D5
  8
1
  6
CONTINUOUS
 62
     7
 10
-1928.615601466071
 20
-145.3866929026278
 30
0.0
 40
2.599999999999961
 50
337.3801350519595
 51
349.9999999999999
  0
LINE
  5
D6
  8
1
  6
CONTINUOUS
 62
     7
 10
-1980.730506783823
 20
-144.7866929026281
 30
0.0
 11
-1980.730506783823
 21
-146.3866929026278
 31
0.0
  0
LINE
  5
D7
  8
1
  6
CONTINUOUS
 62
     7
 10
-1972.730506783823
 20
-146.3866929026278
 30
0.0
 11
-1972.730506783823
 21
-144.7866929026281
 31
0.0
  0
LINE
  5
D8
  8
1
  6
CONTINUOUS
 62
     7
 10
-1978.730506783823
 20
-133.1366929026281
 30
0.0
 11
-1978.730506783823
 21
-138.286692902628
 31
0.0
  0
LINE
  5
D9
  8
1
  6
CONTINUOUS
 62
     7
 10
-1974.730506783823
 20
-138.286692902628
 30
0.0
 11
-1974.730506783823
 21
-133.1366929026281
 31
0.0
  0
LINE
  5
DA
  8
1
  6
CONTINUOUS
 62
     7
 10
-1974.730506783823
 20
-133.1366929026281
 30
0.0
 11
-1975.080506783823
 21
-132.7866929026281
 31
0.0
  0
LINE
  5
DB
  8
1
  6
CONTINUOUS
 62
     7
 10
-1978.380506783823
 20
-132.7866929026281
 30
0.0
 11
-1978.730506783823
 21
-133.1366929026281
 31
0.0
  0
LINE
  5
DC
  8
1
  6
CONTINUOUS
 62
     7
 10
-1922.874108259114
 20
-144.7866929026278
 30
0.0
 11
-1922.874108259114
 21
-146.3866929026278
 31
0.0
  0
LINE
  5
DD
  8
1
  6
CONTINUOUS
 62
     7
 10
-1914.874108259114
 20
-146.3866929026278
 30
0.0
 11
-1914.874108259114
 21
-144.7866929026278
 31
0.0
  0
LINE
  5
DE
  8
1
  6
CONTINUOUS
 62
     7
 10
-1920.874108259114
 20
-133.1366929026278
 30
0.0
 11
-1920.874108259114
 21
-138.2866929026278
 31
0.0
  0
LINE
  5
DF
  8
1
  6
CONTINUOUS
 62
     7
 10
-1916.874108259114
 20
-138.2866929026278
 30
0.0
 11
-1916.874108259114
 21
-133.1366929026278
 31
0.0
  0
LINE
  5
E0
  8
1
  6
CONTINUOUS
 62
     7
 10
-1916.874108259114
 20
-133.1366929026278
 30
0.0
 11
-1917.224108259114
 21
-132.7866929026278
 31
0.0
  0
LINE
  5
E1
  8
1
  6
CONTINUOUS
 62
     7
 10
-1920.524108259114
 20
-132.7866929026278
 30
0.0
 11
-1920.874108259114
 21
-133.1366929026278
 31
0.0
  0
LINE
  5
E2
  8
1
  6
CONTINUOUS
 62
     7
 10
-1980.530506783825
 20
-143.7866929026278
 30
0.0
 11
-1980.530506783825
 21
-144.7866929026281
 31
0.0
  0
LINE
  5
E3
  8
1
  6
CONTINUOUS
 62
     7
 10
-1972.930506783822
 20
-144.7866929026281
 30
0.0
 11
-1972.930506783822
 21
-143.7866929026278
 31
0.0
  0
LINE
  5
E4
  8
1
  6
CONTINUOUS
 62
     7
 10
-1922.674108259114
 20
-143.7866929026278
 30
0.0
 11
-1922.674108259114
 21
-144.7866929026278
 31
0.0
  0
LINE
  5
E5
  8
1
  6
CONTINUOUS
 62
     7
 10
-1915.074108259114
 20
-144.7866929026278
 30
0.0
 11
-1915.074108259114
 21
-143.7866929026278
 31
0.0
  0
LINE
  5
E6
  8
1
  6
CONTINUOUS
 62
     7
 10
-1923.374108259114
 20
-142.9866929026278
 30
0.0
 11
-1923.374108259114
 21
-143.7866929026278
 31
0.0
  0
LINE
  5
E7
  8
1
  6
CONTINUOUS
 62
     7
 10
-1914.374108259114
 20
-143.7866929026278
 30
0.0
 11
-1914.374108259114
 21
-142.9866929026278
 31
0.0
  0
LINE
  5
E8
  8
1
  6
CONTINUOUS
 62
     7
 10
-1981.230506783823
 20
-142.9866929026278
 30
0.0
 11
-1981.230506783823
 21
-143.7866929026278
 31
0.0
  0
LINE
  5
E9
  8
1
  6
CONTINUOUS
 62
     7
 10
-1972.230506783823
 20
-143.7866929026278
 30
0.0
 11
-1972.230506783823
 21
-142.9866929026278
 31
0.0
  0
ARC
  5
EA
  8
1
  6
CONTINUOUS
 62
     7
 10
-1921.902307521468
 20
-139.2866929026278
 30
0.0
 40
0.4999999999999449
 50
270.0
 51
359.9999999999991
  0
ARC
  5
EB
  8
1
  6
CONTINUOUS
 62
     7
 10
-1915.702307521468
 20
-139.2866929026278
 30
0.0
 40
0.5000000000000004
 50
180.0000000000009
 51
270.0
  0
ARC
  5
EC
  8
1
  6
CONTINUOUS
 62
     7
 10
-1979.902307521467
 20
-139.2866929026279
 30
0.0
 40
0.500000000000167
 50
269.9999999999857
 51
359.9999999999991
  0
ARC
  5
ED
  8
1
  6
CONTINUOUS
 62
     7
 10
-1973.702307521467
 20
-139.2866929026279
 30
0.0
 40
0.5000000000000004
 50
180.0000000000009
 51
270.0000000000139
  0
LINE
  5
EE
  8
1
  6
CONTINUOUS
 62
     7
 10
-1921.402307521468
 20
-138.2866929026279
 30
0.0
 11
-1921.402307521468
 21
-139.2866929026279
 31
0.0
  0
LINE
  5
EF
  8
1
  6
CONTINUOUS
 62
     7
 10
-1916.202307521468
 20
-139.2866929026279
 30
0.0
 11
-1916.202307521468
 21
-138.2866929026279
 31
0.0
  0
LINE
  5
F0
  8
1
  6
CONTINUOUS
 62
     7
 10
-1979.402307521467
 20
-138.2866929026287
 30
0.0
 11
-1979.402307521467
 21
-139.2866929026287
 31
0.0
  0
LINE
  5
F1
  8
1
  6
CONTINUOUS
 62
     7
 10
-1974.202307521467
 20
-139.2866929026287
 30
0.0
 11
-1974.202307521467
 21
-138.2866929026287
 31
0.0
  0
LINE
  5
F2
  8
1
  6
CONTINUOUS
 62
     7
 10
-2022.802307521468
 20
-146.3866929026278
 30
0.0
 11
-2022.802307521468
 21
-147.9866929026278
 31
0.0
  0
LINE
  5
F3
  8
1
  6
CONTINUOUS
 62
     7
 10
-1872.802307521468
 20
-147.9866929026278
 30
0.0
 11
-1872.802307521468
 21
-146.3866929026278
 31
0.0
  0
ENDBLK
  8
0
  0
BLOCK
  8
0
  2
D_FRAME_VIEW_5019
 70
     0
 10
0.0
 20
0.0
 30
0.0
  0
LINE
  5
F9
  8
1
  6
CONTINUOUS
 62
     7
 10
-1804.302307521468
 20
-278.6366929026279
 30
0.0
 11
-1804.302307521468
 21
-274.6366929026279
 31
0.0
  0
LINE
  5
FA
  8
1
  6
CONTINUOUS
 62
     7
 10
-1803.952307521468
 20
-274.9866929026279
 30
0.0
 11
-1803.952307521468
 21
-278.2866929026279
 31
0.0
  0
LINE
  5
FB
  8
1
  6
CONTINUOUS
 62
     9
 10
-1810.952307521468
 20
-279.7499415566797
 30
0.0
 11
-1812.552307521468
 21
-279.7499415566797
 31
0.0
  0
LINE
  5
FC
  8
1
  6
CONTINUOUS
 62
     9
 10
-1810.952307521468
 20
-284.0800685756019
 30
0.0
 11
-1812.552307521468
 21
-284.0800685756019
 31
0.0
  0
LINE
  5
FD
  8
1
  6
CONTINUOUS
 62
     7
 10
-1812.552307521468
 20
-283.6366929026279
 30
0.0
 11
-1812.552307521468
 21
-284.0800685756019
 31
0.0
  0
LINE
  5
FE
  8
1
  6
CONTINUOUS
 62
     7
 10
-1810.952307521468
 20
-279.7499415566797
 30
0.0
 11
-1810.952307521468
 21
-284.0800685756019
 31
0.0
  0
LINE
  5
FF
  8
1
  6
CONTINUOUS
 62
     9
 10
-1810.952307521468
 20
-273.523444248576
 30
0.0
 11
-1812.552307521468
 21
-273.523444248576
 31
0.0
  0
LINE
  5
100
  8
1
  6
CONTINUOUS
 62
     7
 10
-1810.952307521468
 20
-273.523444248576
 30
0.0
 11
-1810.952307521468
 21
-279.7499415566797
 31
0.0
  0
LINE
  5
101
  8
1
  6
CONTINUOUS
 62
     9
 10
-1810.952307521468
 20
-269.1933172296538
 30
0.0
 11
-1812.552307521468
 21
-269.1933172296538
 31
0.0
  0
LINE
  5
102
  8
1
  6
CONTINUOUS
 62
     7
 10
-1812.552307521468
 20
-269.1933172296538
 30
0.0
 11
-1812.552307521468
 21
-269.6366929026279
 31
0.0
  0
LINE
  5
103
  8
1
  6
CONTINUOUS
 62
     7
 10
-1810.952307521468
 20
-269.1933172296538
 30
0.0
 11
-1810.952307521468
 21
-273.523444248576
 31
0.0
  0
LINE
  5
104
  8
1
  6
CONTINUOUS
 62
     9
 10
-1810.952307521468
 20
-264.8065658837057
 30
0.0
 11
-1812.552307521468
 21
-264.8065658837057
 31
0.0
  0
LINE
  5
105
  8
1
  6
CONTINUOUS
 62
     7
 10
-1812.552307521468
 20
-264.8065658837057
 30
0.0
 11
-1812.552307521468
 21
-269.1933172296538
 31
0.0
  0
LINE
  5
106
  8
1
  6
CONTINUOUS
 62
     7
 10
-1810.952307521468
 20
-264.8065658837057
 30
0.0
 11
-1810.952307521468
 21
-269.1933172296538
 31
0.0
  0
LINE
  5
107
  8
1
  6
CONTINUOUS
 62
     9
 10
-1810.952307521468
 20
-288.4668199215501
 30
0.0
 11
-1812.552307521468
 21
-288.4668199215501
 31
0.0
  0
LINE
  5
108
  8
1
  6
CONTINUOUS
 62
     7
 10
-1812.552307521468
 20
-284.0800685756019
 30
0.0
 11
-1812.552307521468
 21
-288.4668199215501
 31
0.0
  0
LINE
  5
109
  8
1
  6
CONTINUOUS
 62
     7
 10
-1810.952307521468
 20
-284.0800685756019
 30
0.0
 11
-1810.952307521468
 21
-288.4668199215501
 31
0.0
  0
LINE
  5
10A
  8
1
  6
CONTINUOUS
 62
     9
 10
-1810.452307521468
 20
-274.0366929026279
 30
0.0
 11
-1810.452307521468
 21
-279.2366929026279
 31
0.0
  0
LINE
  5
10B
  8
1
  6
CONTINUOUS
 62
     7
 10
-1809.452307521468
 20
-274.0366929026279
 30
0.0
 11
-1809.452307521468
 21
-279.2366929026279
 31
0.0
  0
LINE
  5
10C
  8
1
  6
CONTINUOUS
 62
     7
 10
-1810.952307521468
 20
-264.1406178617087
 30
0.0
 11
-1810.942474804511
 21
-264.1366929026279
 31
0.0
  0
LINE
  5
10D
  8
1
  6
CONTINUOUS
 62
     7
 10
-1812.546854198658
 20
-264.1366929026279
 30
0.0
 11
-1812.552307521468
 21
-264.1406178617087
 31
0.0
  0
LINE
  5
10E
  8
1
  6
CONTINUOUS
 62
     7
 10
-1810.942474804511
 20
-264.1366929026279
 30
0.0
 11
-1812.546854198658
 21
-264.1366929026279
 31
0.0
  0
LINE
  5
10F
  8
1
  6
CONTINUOUS
 62
     7
 10
-1812.552307521468
 20
-264.1406178617087
 30
0.0
 11
-1812.552307521468
 21
-264.8065658837057
 31
0.0
  0
LINE
  5
110
  8
1
  6
CONTINUOUS
 62
     7
 10
-1810.952307521468
 20
-264.1406178617087
 30
0.0
 11
-1810.952307521468
 21
-264.8065658837057
 31
0.0
  0
LINE
  5
111
  8
1
  6
CONTINUOUS
 62
     7
 10
-1810.942474804511
 20
-289.1366929026278
 30
0.0
 11
-1810.952307521468
 21
-289.1327679435471
 31
0.0
  0
LINE
  5
112
  8
1
  6
CONTINUOUS
 62
     7
 10
-1810.942474804511
 20
-289.1366929026278
 30
0.0
 11
-1812.546854198658
 21
-289.1366929026278
 31
0.0
  0
LINE
  5
113
  8
1
  6
CONTINUOUS
 62
     7
 10
-1812.552307521468
 20
-289.1327679435471
 30
0.0
 11
-1812.546854198658
 21
-289.1366929026278
 31
0.0
  0
LINE
  5
114
  8
1
  6
CONTINUOUS
 62
     7
 10
-1812.552307521468
 20
-288.46681992155
 30
0.0
 11
-1812.552307521468
 21
-289.1327679435471
 31
0.0
  0
LINE
  5
115
  8
1
  6
CONTINUOUS
 62
     7
 10
-1810.952307521468
 20
-288.46681992155
 30
0.0
 11
-1810.952307521468
 21
-289.1327679435471
 31
0.0
  0
LINE
  5
116
  8
1
  6
CONTINUOUS
 62
     7
 10
-1808.952307521468
 20
-264.1366929026279
 30
0.0
 11
-1810.942474804511
 21
-264.1366929026279
 31
0.0
  0
LINE
  5
117
  8
1
  6
CONTINUOUS
 62
     9
 10
-1808.952307521468
 20
-264.1366929026279
 30
0.0
 11
-1808.952307521468
 21
-274.6366929026279
 31
0.0
  0
LINE
  5
118
  8
1
  6
CONTINUOUS
 62
     9
 10
-1808.952307521468
 20
-278.6366929026279
 30
0.0
 11
-1808.952307521468
 21
-289.1366929026278
 31
0.0
  0
LINE
  5
119
  8
1
  6
CONTINUOUS
 62
     7
 10
-1810.942474804511
 20
-289.1366929026279
 30
0.0
 11
-1808.952307521468
 21
-289.1366929026279
 31
0.0
  0
LINE
  5
11A
  8
1
  6
CONTINUOUS
 62
     9
 10
-1789.052307521468
 20
-289.1366929026278
 30
0.0
 11
-1789.052307521468
 21
-264.1366929026279
 31
0.0
  0
LINE
  5
11B
  8
1
  6
CONTINUOUS
 62
     7
 10
-1808.952307521468
 20
-264.1366929026279
 30
0.0
 11
-1789.052307521468
 21
-264.1366929026279
 31
0.0
  0
LINE
  5
11C
  8
1
  6
CONTINUOUS
 62
     7
 10
-1808.952307521468
 20
-289.1366929026278
 30
0.0
 11
-1789.052307521468
 21
-289.1366929026278
 31
0.0
  0
LINE
  5
11D
  8
1
  6
CONTINUOUS
 62
     7
 10
-1786.452307521468
 20
-264.136692902628
 30
0.0
 11
-1786.452307521468
 21
-289.1366929026281
 31
0.0
  0
LINE
  5
11E
  8
1
  6
CONTINUOUS
 62
     7
 10
-1789.052307521468
 20
-264.1366929026279
 30
0.0
 11
-1786.452307521468
 21
-264.1366929026279
 31
0.0
  0
LINE
  5
11F
  8
1
  6
CONTINUOUS
 62
     7
 10
-1786.452307521468
 20
-289.1366929026281
 30
0.0
 11
-1789.052307521468
 21
-289.1366929026279
 31
0.0
  0
LINE
  5
120
  8
1
  6
CONTINUOUS
 62
     7
 10
-1819.152307521468
 20
-201.6366929026279
 30
0.0
 11
-1819.152307521468
 21
-351.6366929026279
 31
0.0
  0
LINE
  5
121
  8
1
  6
CONTINUOUS
 62
     7
 10
-1817.552307521468
 20
-201.6366929026279
 30
0.0
 11
-1817.552307521468
 21
-351.6366929026279
 31
0.0
  0
POLYLINE
  5
122
  8
1
  6
CONTINUOUS
 62
     7
 66
     1
 10
0.0
 20
0.0
 30
0.0
  0
VERTEX
  5
268
  8
1
  6
CONTINUOUS
 62
     7
 10
-1817.552307521468
 20
-269.3800399213472
 30
0.0
  0
VERTEX
  5
269
  8
1
  6
CONTINUOUS
 62
     7
 10
-1817.551796223565
 20
-269.4010299453265
 30
0.0
  0
VERTEX
  5
26A
  8
1
  6
CONTINUOUS
 62
     7
 10
-1817.550222497605
 20
-269.4212398436458
 30
0.0
  0
VERTEX
  5
26B
  8
1
  6
CONTINUOUS
 62
     7
 10
-1817.547532084453
 20
-269.4406084826269
 30
0.0
  0
VERTEX
  5
26C
  8
1
  6
CONTINUOUS
 62
     7
 10
-1817.54362929886
 20
-269.459282383054
 30
0.0
  0
VERTEX
  5
26D
  8
1
  6
CONTINUOUS
 62
     7
 10
-1817.538483439445
 20
-269.4770418304489
 30
0.0
  0
VERTEX
  5
26E
  8
1
  6
CONTINUOUS
 62
     7
 10
-1817.531975553516
 20
-269.4940250811842
 30
0.0
  0
VERTEX
  5
26F
  8
1
  6
CONTINUOUS
 62
     7
 10
-1817.524105870527
 20
-269.5100267100734
 30
0.0
  0
VERTEX
  5
270
  8
1
  6
CONTINUOUS
 62
     7
 10
-1817.514816375871
 20
-269.5250542011012
 30
0.0
  0
VERTEX
  5
271
  8
1
  6
CONTINUOUS
 62
     7
 10
-1817.504495520837
 20
-269.538579129773
 30
0.0
  0
VERTEX
  5
272
  8
1
  6
CONTINUOUS
 62
     7
 10
-1817.492787857203
 20
-269.5511708695594
 30
0.0
  0
VERTEX
  5
273
  8
1
  6
CONTINUOUS
 62
     7
 10
-1817.47969378081
 20
-269.5627995642918
 30
0.0
  0
VERTEX
  5
274
  8
1
  6
CONTINUOUS
 62
     7
 10
-1817.465017798253
 20
-269.5735910824503
 30
0.0
  0
VERTEX
  5
275
  8
1
  6
CONTINUOUS
 62
     7
 10
-1817.44890450261
 20
-269.5834078709128
 30
0.0
  0
VERTEX
  5
276
  8
1
  6
CONTINUOUS
 62
     7
 10
-1817.431133406133
 20
-269.5923670112094
 30
0.0
  0
VERTEX
  5
277
  8
1
  6
CONTINUOUS
 62
     7
 10
-1817.411900700234
 20
-269.6003652941646
 30
0.0
  0
VERTEX
  5
278
  8
1
  6
CONTINUOUS
 62
     7
 10
-1817.391177966345
 20
-269.6074449311587
 30
0.0
  0
VERTEX
  5
279
  8
1
  6
CONTINUOUS
 62
     7
 10
-1817.376248207989
 20
-269.611747173542
 30
0.0
  0
VERTEX
  5
27A
  8
1
  6
CONTINUOUS
 62
     7
 10
-1817.360686767399
 20
-269.6156388150343
 30
0.0
  0
VERTEX
  5
27B
  8
1
  6
CONTINUOUS
 62
     7
 10
-1817.344443755387
 20
-269.6191472104454
 30
0.0
  0
VERTEX
  5
27C
  8
1
  6
CONTINUOUS
 62
     7
 10
-1817.327589974849
 20
-269.6222735969916
 30
0.0
  0
VERTEX
  5
27D
  8
1
  6
CONTINUOUS
 62
     7
 10
-1817.30390542064
 20
-269.6259167342778
 30
0.0
  0
VERTEX
  5
27E
  8
1
  6
CONTINUOUS
 62
     7
 10
-1817.279129792877
 20
-269.62894375795
 30
0.0
  0
VERTEX
  5
27F
  8
1
  6
CONTINUOUS
 62
     7
 10
-1817.259648162684
 20
-269.6308535213312
 30
0.0
  0
VERTEX
  5
280
  8
1
  6
CONTINUOUS
 62
     7
 10
-1817.239599708132
 20
-269.6324517483699
 30
0.0
  0
VERTEX
  5
281
  8
1
  6
CONTINUOUS
 62
     7
 10
-1817.21892713782
 20
-269.633763355434
 30
0.0
  0
VERTEX
  5
282
  8
1
  6
CONTINUOUS
 62
     7
 10
-1817.197720010793
 20
-269.634803418636
 30
0.0
  0
VERTEX
  5
283
  8
1
  6
CONTINUOUS
 62
     7
 10
-1817.173324577901
 20
-269.6356730789849
 30
0.0
  0
VERTEX
  5
284
  8
1
  6
CONTINUOUS
 62
     7
 10
-1817.148306914644
 20
-269.6362580812745
 30
0.0
  0
VERTEX
  5
285
  8
1
  6
CONTINUOUS
 62
     7
 10
-1817.12258264961
 20
-269.6365891083896
 30
0.0
  0
VERTEX
  5
286
  8
1
  6
CONTINUOUS
 62
     7
 10
-1817.0962852866
 20
-269.6366929026279
 30
0.0
  0
SEQEND
  5
2AA
  8
1
  6
CONTINUOUS
 62
     7
  0
POLYLINE
  5
123
  8
1
  6
CONTINUOUS
 62
     7
 66
     1
 10
0.0
 20
0.0
 30
0.0
  0
VERTEX
  5
287
  8
1
  6
CONTINUOUS
 62
     7
 10
-1817.0962852866
 20
-283.6366929026279
 30
0.0
  0
VERTEX
  5
288
  8
1
  6
CONTINUOUS
 62
     7
 10
-1817.128076641101
 20
-283.6368468119058
 30
0.0
  0
VERTEX
  5
289
  8
1
  6
CONTINUOUS
 62
     7
 10
-1817.159065271605
 20
-283.6373446355481
 30
0.0
  0
VERTEX
  5
28A
  8
1
  6
CONTINUOUS
 62
     7
 10
-1817.189372345756
 20
-283.638248189735
 30
0.0
  0
VERTEX
  5
28B
  8
1
  6
CONTINUOUS
 62
     7
 10
-1817.218762152257
 20
-283.6396131982801
 30
0.0
  0
VERTEX
  5
28C
  8
1
  6
CONTINUOUS
 62
     7
 10
-1817.247465837739
 20
-283.6415201263769
 30
0.0
  0
VERTEX
  5
28D
  8
1
  6
CONTINUOUS
 62
     7
 10
-1817.275126282773
 20
-283.6440182392424
 30
0.0
  0
VERTEX
  5
28E
  8
1
  6
CONTINUOUS
 62
     7
 10
-1817.30184660423
 20
-283.6471890981134
 30
0.0
  0
VERTEX
  5
28F
  8
1
  6
CONTINUOUS
 62
     7
 10
-1817.327404320158
 20
-283.6510804080141
 30
0.0
  0
VERTEX
  5
290
  8
1
  6
CONTINUOUS
 62
     7
 10
-1817.350919524396
 20
-283.6555748055785
 30
0.0
  0
VERTEX
  5
291
  8
1
  6
CONTINUOUS
 62
     7
 10
-1817.37325811257
 20
-283.6608466444252
 30
0.0
  0
VERTEX
  5
292
  8
1
  6
CONTINUOUS
 62
     7
 10
-1817.394519636239
 20
-283.6669895275347
 30
0.0
  0
VERTEX
  5
293
  8
1
  6
CONTINUOUS
 62
     7
 10
-1817.414507482371
 20
-283.6740163243797
 30
0.0
  0
VERTEX
  5
294
  8
1
  6
CONTINUOUS
 62
     7
 10
-1817.433402174517
 20
-283.6820702366706
 30
0.0
  0
VERTEX
  5
295
  8
1
  6
CONTINUOUS
 62
     7
 10
-1817.450925995257
 20
-283.6911117351025
 30
0.0
  0
VERTEX
  5
296
  8
1
  6
CONTINUOUS
 62
     7
 10
-1817.467162061371
 20
-283.7012487461897
 30
0.0
  0
VERTEX
  5
297
  8
1
  6
CONTINUOUS
 62
     7
 10
-1817.481962992969
 20
-283.7124491915195
 30
0.0
  0
VERTEX
  5
298
  8
1
  6
CONTINUOUS
 62
     7
 10
-1817.491256002925
 20
-283.7207361392391
 30
0.0
  0
VERTEX
  5
299
  8
1
  6
CONTINUOUS
 62
     7
 10
-1817.499865853675
 20
-283.7295318141984
 30
0.0
  0
VERTEX
  5
29A
  8
1
  6
CONTINUOUS
 62
     7
 10
-1817.512769494497
 20
-283.7454242415369
 30
0.0
  0
VERTEX
  5
29B
  8
1
  6
CONTINUOUS
 62
     7
 10
-1817.523782762833
 20
-283.7627766714678
 30
0.0
  0
VERTEX
  5
29C
  8
1
  6
CONTINUOUS
 62
     7
 10
-1817.533021104952
 20
-283.7818070422803
 30
0.0
  0
VERTEX
  5
29D
  8
1
  6
CONTINUOUS
 62
     7
 10
-1817.540386281185
 20
-283.8023132999249
 30
0.0
  0
VERTEX
  5
29E
  8
1
  6
CONTINUOUS
 62
     7
 10
-1817.543941923198
 20
-283.8153792604377
 30
0.0
  0
VERTEX
  5
29F
  8
1
  6
CONTINUOUS
 62
     7
 10
-1817.546846151898
 20
-283.8289578103673
 30
0.0
  0
VERTEX
  5
2A0
  8
1
  6
CONTINUOUS
 62
     7
 10
-1817.549268732981
 20
-283.8441858565151
 30
0.0
  0
VERTEX
  5
2A1
  8
1
  6
CONTINUOUS
 62
     7
 10
-1817.55097128948
 20
-283.859990849955
 30
0.0
  0
VERTEX
  5
2A2
  8
1
  6
CONTINUOUS
 62
     7
 10
-1817.551977574844
 20
-283.8763918666606
 30
0.0
  0
VERTEX
  5
2A3
  8
1
  6
CONTINUOUS
 62
     7
 10
-1817.552307521468
 20
-283.8933458839086
 30
0.0
  0
SEQEND
  5
2AB
  8
1
  6
CONTINUOUS
 62
     7
  0
LINE
  5
124
  8
1
  6
CONTINUOUS
 62
     7
 10
-1816.725955699135
 20
-269.6366929026279
 30
0.0
 11
-1817.0962852866
 21
-269.6366929026279
 31
0.0
  0
LINE
  5
125
  8
1
  6
CONTINUOUS
 62
     9
 10
-1816.725955699135
 20
-269.6366929026279
 30
0.0
 11
-1816.725955699135
 21
-283.6366929026279
 31
0.0
  0
LINE
  5
126
  8
1
  6
CONTINUOUS
 62
     7
 10
-1817.0962852866
 20
-283.6366929026279
 30
0.0
 11
-1816.725955699135
 21
-283.6366929026279
 31
0.0
  0
LINE
  5
127
  8
1
  6
CONTINUOUS
 62
     9
 10
-1815.527174081868
 20
-283.6366929026279
 30
0.0
 11
-1815.527174081868
 21
-269.6366929026279
 31
0.0
  0
LINE
  5
128
  8
1
  6
CONTINUOUS
 62
     7
 10
-1816.725955699135
 20
-283.6366929026279
 30
0.0
 11
-1815.527174081868
 21
-283.6366929026279
 31
0.0
  0
LINE
  5
129
  8
1
  6
CONTINUOUS
 62
     7
 10
-1816.725955699135
 20
-269.6366929026279
 30
0.0
 11
-1815.527174081868
 21
-269.6366929026279
 31
0.0
  0
LINE
  5
12A
  8
1
  6
CONTINUOUS
 62
     7
 10
-1812.552307521468
 20
-269.6366929026279
 30
0.0
 11
-1812.552307521468
 21
-283.6366929026279
 31
0.0
  0
LINE
  5
12B
  8
1
  6
CONTINUOUS
 62
     7
 10
-1812.552307521468
 20
-283.6366929026279
 30
0.0
 11
-1815.527174081868
 21
-283.6366929026279
 31
0.0
  0
LINE
  5
12C
  8
1
  6
CONTINUOUS
 62
     7
 10
-1815.527174081868
 20
-269.6366929026279
 30
0.0
 11
-1812.552307521468
 21
-269.6366929026279
 31
0.0
  0
LINE
  5
12D
  8
1
  6
CONTINUOUS
 62
     7
 10
-1804.302307521468
 20
-274.6366929026279
 30
0.0
 11
-1809.452307521468
 21
-274.6366929026279
 31
0.0
  0
LINE
  5
12E
  8
1
  6
CONTINUOUS
 62
     7
 10
-1809.452307521468
 20
-278.6366929026279
 30
0.0
 11
-1804.302307521468
 21
-278.6366929026279
 31
0.0
  0
LINE
  5
12F
  8
1
  6
CONTINUOUS
 62
     7
 10
-1804.302307521468
 20
-278.6366929026279
 30
0.0
 11
-1803.952307521468
 21
-278.2866929026279
 31
0.0
  0
LINE
  5
130
  8
1
  6
CONTINUOUS
 62
     7
 10
-1803.952307521468
 20
-274.9866929026279
 30
0.0
 11
-1804.302307521468
 21
-274.6366929026279
 31
0.0
  0
ARC
  5
131
  8
1
  6
CONTINUOUS
 62
     7
 10
-1810.452307521468
 20
-273.5366929026279
 30
0.0
 40
0.5000000000000004
 50
179.9999999999999
 51
269.9999999999991
  0
ARC
  5
132
  8
1
  6
CONTINUOUS
 62
     7
 10
-1810.452307521468
 20
-279.7366929026279
 30
0.0
 40
0.500000000000167
 50
90.0000000000009
 51
180.0000000000001
  0
LINE
  5
133
  8
1
  6
CONTINUOUS
 62
     7
 10
-1809.452307521468
 20
-274.0366929026279
 30
0.0
 11
-1810.452307521468
 21
-274.0366929026279
 31
0.0
  0
LINE
  5
134
  8
1
  6
CONTINUOUS
 62
     7
 10
-1810.452307521468
 20
-279.2366929026279
 30
0.0
 11
-1809.452307521468
 21
-279.2366929026279
 31
0.0
  0
LINE
  5
135
  8
1
  6
CONTINUOUS
 62
     7
 10
-1817.552307521468
 20
-201.6366929026279
 30
0.0
 11
-1819.152307521468
 21
-201.6366929026279
 31
0.0
  0
LINE
  5
136
  8
1
  6
CONTINUOUS
 62
     7
 10
-1819.152307521468
 20
-351.6366929026279
 30
0.0
 11
-1817.552307521468
 21
-351.6366929026279
 31
0.0
  0
ENDBLK
  8
0
  0
BLOCK
  8
0
  2
D_FRAME_VIEW_4472
 70
     0
 10
0.0
 20
0.0
 30
0.0
  0
LINE
  5
13D
  8
1
  6
CONTINUOUS
 62
     7
 10
-1977.230506783823
 20
-278.7791214311911
 30
0.0
 11
-1977.230506783823
 21
-277.1366929026278
 31
0.0
  0
ARC
  5
13E
  8
1
  6
CONTINUOUS
 62
     7
 10
-1976.730506783823
 20
-276.6366929026279
 30
0.0
 40
2.200000000000001
 50
256.8634412130551
 51
283.1365587869449
  0
LINE
  5
13F
  8
1
  6
CONTINUOUS
 62
     7
 10
-1976.230506783823
 20
-277.136692902628
 30
0.0
 11
-1976.230506783823
 21
-278.7791214311913
 31
0.0
  0
LINE
  5
140
  8
1
  6
CONTINUOUS
 62
     7
 10
-1974.588078255259
 20
-277.1366929026279
 30
0.0
 11
-1976.230506783823
 21
-277.1366929026279
 31
0.0
  0
ARC
  5
141
  8
1
  6
CONTINUOUS
 62
     7
 10
-1976.730506783823
 20
-276.6366929026279
 30
0.0
 40
2.200000000000001
 50
346.8634412130552
 51
13.13655878695687
  0
LINE
  5
142
  8
1
  6
CONTINUOUS
 62
     7
 10
-1976.230506783823
 20
-276.1366929026278
 30
0.0
 11
-1974.588078255259
 21
-276.1366929026278
 31
0.0
  0
LINE
  5
143
  8
1
  6
CONTINUOUS
 62
     7
 10
-1976.230506783823
 20
-274.4942643740645
 30
0.0
 11
-1976.230506783823
 21
-276.1366929026279
 31
0.0
  0
ARC
  5
144
  8
1
  6
CONTINUOUS
 62
     7
 10
-1976.730506783823
 20
-276.6366929026279
 30
0.0
 40
2.200000000000001
 50
76.86344121305513
 51
103.1365587869569
  0
LINE
  5
145
  8
1
  6
CONTINUOUS
 62
     7
 10
-1977.230506783823
 20
-276.1366929026278
 30
0.0
 11
-1977.230506783823
 21
-274.4942643740645
 31
0.0
  0
LINE
  5
146
  8
1
  6
CONTINUOUS
 62
     7
 10
-1978.872935312386
 20
-276.1366929026278
 30
0.0
 11
-1977.230506783823
 21
-276.1366929026278
 31
0.0
  0
ARC
  5
147
  8
1
  6
CONTINUOUS
 62
     7
 10
-1976.730506783823
 20
-276.6366929026279
 30
0.0
 40
2.200000000000001
 50
166.8634412130551
 51
193.1365587869569
  0
LINE
  5
148
  8
1
  6
CONTINUOUS
 62
     7
 10
-1977.230506783823
 20
-277.1366929026279
 30
0.0
 11
-1978.872935312386
 21
-277.1366929026279
 31
0.0
  0
CIRCLE
  5
149
  8
1
  6
CONTINUOUS
 62
     7
 10
-1976.730506783823
 20
-276.6366929026279
 30
0.0
 40
4.0
  0
ARC
  5
14A
  8
1
  6
CONTINUOUS
 62
     7
 10
-1976.730506783823
 20
-276.6366929026279
 30
0.0
 40
1.21654992179303
 50
155.7324355160329
 51
204.2675644839671
  0
ARC
  5
14B
  8
1
  6
CONTINUOUS
 62
     7
 10
-1976.730506783823
 20
-276.6366929026279
 30
0.0
 40
1.216549921793029
 50
245.7324355160328
 51
294.2675644839671
  0
ARC
  5
14C
  8
1
  6
CONTINUOUS
 62
     7
 10
-1976.730506783823
 20
-276.6366929026279
 30
0.0
 40
1.21654992179303
 50
335.7324355160329
 51
24.26756448396713
  0
ARC
  5
14D
  8
1
  6
CONTINUOUS
 62
     7
 10
-1976.730506783823
 20
-276.6366929026279
 30
0.0
 40
1.216549921793029
 50
65.73243551603288
 51
114.2675644839671
  0
ARC
  5
14E
  8
1
  6
CONTINUOUS
 62
     7
 10
-1918.874108259114
 20
-276.6366929026279
 30
0.0
 40
2.200000000000001
 50
256.8634412130551
 51
283.1365587869449
  0
LINE
  5
14F
  8
1
  6
CONTINUOUS
 62
     7
 10
-1918.374108259114
 20
-277.1366929026279
 30
0.0
 11
-1918.374108259114
 21
-278.7791214311907
 31
0.0
  0
LINE
  5
150
  8
1
  6
CONTINUOUS
 62
     7
 10
-1916.731679730551
 20
-277.1366929026279
 30
0.0
 11
-1918.374108259114
 21
-277.1366929026279
 31
0.0
  0
ARC
  5
151
  8
1
  6
CONTINUOUS
 62
     7
 10
-1918.874108259114
 20
-276.6366929026279
 30
0.0
 40
2.200000000000001
 50
346.8634412130552
 51
13.13655878695687
  0
LINE
  5
152
  8
1
  6
CONTINUOUS
 62
     7
 10
-1918.374108259114
 20
-276.1366929026279
 30
0.0
 11
-1916.731679730551
 21
-276.1366929026279
 31
0.0
  0
LINE
  5
153
  8
1
  6
CONTINUOUS
 62
     7
 10
-1918.374108259114
 20
-274.494264374065
 30
0.0
 11
-1918.374108259114
 21
-276.1366929026279
 31
0.0
  0
ARC
  5
154
  8
1
  6
CONTINUOUS
 62
     7
 10
-1918.874108259114
 20
-276.6366929026279
 30
0.0
 40
2.200000000000001
 50
76.86344121305513
 51
103.1365587869569
  0
LINE
  5
155
  8
1
  6
CONTINUOUS
 62
     7
 10
-1919.374108259114
 20
-276.1366929026279
 30
0.0
 11
-1919.374108259114
 21
-274.4942643740652
 31
0.0
  0
LINE
  5
156
  8
1
  6
CONTINUOUS
 62
     7
 10
-1921.016536787677
 20
-276.1366929026279
 30
0.0
 11
-1919.374108259114
 21
-276.1366929026279
 31
0.0
  0
ARC
  5
157
  8
1
  6
CONTINUOUS
 62
     7
 10
-1918.874108259114
 20
-276.6366929026279
 30
0.0
 40
2.200000000000001
 50
166.8634412130551
 51
193.1365587869569
  0
LINE
  5
158
  8
1
  6
CONTINUOUS
 62
     7
 10
-1919.374108259114
 20
-277.1366929026279
 30
0.0
 11
-1921.016536787677
 21
-277.1366929026279
 31
0.0
  0
CIRCLE
  5
159
  8
1
  6
CONTINUOUS
 62
     7
 10
-1918.874108259114
 20
-276.6366929026279
 30
0.0
 40
4.0
  0
LINE
  5
15A
  8
1
  6
CONTINUOUS
 62
     7
 10
-1919.374108259114
 20
-278.7791214311907
 30
0.0
 11
-1919.374108259114
 21
-277.1366929026279
 31
0.0
  0
ARC
  5
15B
  8
1
  6
CONTINUOUS
 62
     7
 10
-1918.874108259114
 20
-276.6366929026279
 30
0.0
 40
1.21654992179303
 50
155.7324355160329
 51
204.2675644839671
  0
ARC
  5
15C
  8
1
  6
CONTINUOUS
 62
     7
 10
-1918.874108259114
 20
-276.6366929026279
 30
0.0
 40
1.21654992179303
 50
335.732435516033
 51
24.26756448396708
  0
ARC
  5
15D
  8
1
  6
CONTINUOUS
 62
     7
 10
-1918.874108259114
 20
-276.6366929026279
 30
0.0
 40
1.216549921793029
 50
245.7324355160328
 51
294.2675644839671
  0
ARC
  5
15E
  8
1
  6
CONTINUOUS
 62
     7
 10
-1918.874108259114
 20
-276.6366929026279
 30
0.0
 40
1.216549921793029
 50
65.73243551603288
 51
114.2675644839671
  0
CIRCLE
  5
15F
  8
1
  6
CONTINUOUS
 62
     7
 10
-1918.874108259114
 20
-276.6366929026279
 30
0.0
 40
4.5
  0
CIRCLE
  5
160
  8
1
  6
CONTINUOUS
 62
     7
 10
-1976.730506783823
 20
-276.6366929026279
 30
0.0
 40
4.500000000000004
  0
LINE
  5
161
  8
1
  6
CONTINUOUS
 62
     9
 10
-1971.902307521468
 20
-286.9366929026278
 30
0.0
 11
-1971.902307521468
 21
-283.6366929026278
 31
0.0
  0
LINE
  5
162
  8
1
  6
CONTINUOUS
 62
     9
 10
-1971.902307521468
 20
-269.6366929026279
 30
0.0
 11
-1971.902307521468
 21
-266.3366929026278
 31
0.0
  0
LINE
  5
163
  8
1
  6
CONTINUOUS
 62
     7
 10
-1968.302307521468
 20
-266.3366929026278
 30
0.0
 11
-1968.302307521468
 21
-269.6366929026279
 31
0.0
  0
LINE
  5
164
  8
1
  6
CONTINUOUS
 62
     7
 10
-1968.302307521468
 20
-283.6366929026279
 30
0.0
 11
-1968.302307521468
 21
-286.9366929026279
 31
0.0
  0
ARC
  5
165
  8
1
  6
CONTINUOUS
 62
     7
 10
-1979.302307521467
 20
-279.7499415566797
 30
0.0
 40
4.999999999999899
 50
231.0186047021868
 51
240.0000000000005
  0
ARC
  5
166
  8
1
  6
CONTINUOUS
 62
     7
 10
-1979.302307521467
 20
-273.523444248576
 30
0.0
 40
4.999999999999898
 50
119.9999999999998
 51
128.9813952978146
  0
LINE
  5
167
  8
1
  6
CONTINUOUS
 62
     7
 10
-1976.854489048921
 20
-266.3366929026278
 30
0.0
 11
-1981.802307521467
 21
-269.1933172296539
 31
0.0
  0
LINE
  5
168
  8
1
  6
CONTINUOUS
 62
     7
 10
-1981.802307521467
 20
-284.0800685756018
 30
0.0
 11
-1976.854489048921
 21
-286.9366929026278
 31
0.0
  0
LINE
  5
169
  8
1
  6
CONTINUOUS
 62
     7
 10
-1927.302307521468
 20
-286.9366929026278
 30
0.0
 11
-1927.302307521468
 21
-283.6366929026278
 31
0.0
  0
LINE
  5
16A
  8
1
  6
CONTINUOUS
 62
     7
 10
-1927.302307521468
 20
-269.6366929026279
 30
0.0
 11
-1927.302307521468
 21
-266.3366929026278
 31
0.0
  0
LINE
  5
16B
  8
1
  6
CONTINUOUS
 62
     9
 10
-1923.702307521468
 20
-266.3366929026278
 30
0.0
 11
-1923.702307521468
 21
-269.6366929026279
 31
0.0
  0
LINE
  5
16C
  8
1
  6
CONTINUOUS
 62
     9
 10
-1923.702307521468
 20
-283.6366929026279
 30
0.0
 11
-1923.702307521468
 21
-286.9366929026279
 31
0.0
  0
LINE
  5
16D
  8
1
  6
CONTINUOUS
 62
     7
 10
-1918.750125994015
 20
-266.3366929026278
 30
0.0
 11
-1913.802307521468
 21
-269.1933172296538
 31
0.0
  0
ARC
  5
16E
  8
1
  6
CONTINUOUS
 62
     7
 10
-1916.302307521468
 20
-273.523444248576
 30
0.0
 40
4.999999999999996
 50
51.01860470218407
 51
59.99999999999954
  0
ARC
  5
16F
  8
1
  6
CONTINUOUS
 62
     7
 10
-1916.302307521468
 20
-279.7499415566797
 30
0.0
 40
4.999999999999997
 50
300.0
 51
308.9813952978159
  0
LINE
  5
170
  8
1
  6
CONTINUOUS
 62
     7
 10
-1913.802307521468
 20
-284.0800685756019
 30
0.0
 11
-1918.750125994015
 21
-286.9366929026278
 31
0.0
  0
LINE
  5
171
  8
1
  6
CONTINUOUS
 62
     9
 10
-1967.302307521468
 20
-266.5376547969515
 30
0.0
 11
-1967.302307521468
 21
-269.4355846866766
 31
0.0
  0
LINE
  5
172
  8
1
  6
CONTINUOUS
 62
     9
 10
-1967.302307521468
 20
-283.8377947300822
 30
0.0
 11
-1967.302307521468
 21
-286.7357310083042
 31
0.0
  0
LINE
  5
173
  8
1
  6
CONTINUOUS
 62
     9
 10
-1928.302307521468
 20
-286.7357310083046
 30
0.0
 11
-1928.302307521468
 21
-283.8377947300822
 31
0.0
  0
LINE
  5
174
  8
1
  6
CONTINUOUS
 62
     9
 10
-1928.302307521468
 20
-269.4355876114616
 30
0.0
 11
-1928.302307521468
 21
-266.5376547969512
 31
0.0
  0
CIRCLE
  5
175
  8
1
  6
CONTINUOUS
 62
     7
 10
-1936.802307521468
 20
-276.6366929026279
 30
0.0
 40
2.249999999999999
  0
CIRCLE
  5
176
  8
1
  6
CONTINUOUS
 62
     7
 10
-1947.802307521468
 20
-276.6366929026279
 30
0.0
 40
5.100000000000044
  0
CIRCLE
  5
177
  8
1
  6
CONTINUOUS
 62
     7
 10
-1958.802307521468
 20
-276.6366929026279
 30
0.0
 40
2.249999999999938
  0
LINE
  5
178
  8
1
  6
CONTINUOUS
 62
     7
 10
-1934.413312222447
 20
-289.1366929026281
 30
0.0
 11
-1953.151672426857
 21
-289.1366929026281
 31
0.0
  0
LINE
  5
179
  8
1
  6
CONTINUOUS
 62
     7
 10
-1952.901327035062
 20
-264.136692902628
 30
0.0
 11
-1942.703288007875
 21
-264.136692902628
 31
0.0
  0
ARC
  5
17A
  8
1
  6
CONTINUOUS
 62
     7
 10
-1935.087218298433
 20
-308.6366929026278
 30
0.0
 40
2.000000000000002
 50
24.99999999999983
 51
90.0
  0
LINE
  5
17B
  8
1
  6
CONTINUOUS
 62
     7
 10
-1935.087218298433
 20
-306.6366929026278
 30
0.0
 11
-1938.202307521468
 21
-306.6366929026278
 31
0.0
  0
ARC
  5
17C
  8
1
  6
CONTINUOUS
 62
     7
 10
-1938.202307521468
 20
-308.6366929026278
 30
0.0
 40
1.999999999999999
 50
90.0
 51
180.0
  0
LINE
  5
17D
  8
1
  6
CONTINUOUS
 62
     7
 10
-1940.202307521468
 20
-308.6366929026278
 30
0.0
 11
-1940.202307521468
 21
-309.1366929026278
 31
0.0
  0
ARC
  5
17E
  8
1
  6
CONTINUOUS
 62
     7
 10
-1947.802307521468
 20
-309.1366929026279
 30
0.0
 40
7.600000000000001
 50
179.9999999999999
 51
0.0000000000001137
  0
LINE
  5
17F
  8
1
  6
CONTINUOUS
 62
     7
 10
-1955.402307521468
 20
-309.1366929026279
 30
0.0
 11
-1955.402307521468
 21
-308.6366929026279
 31
0.0
  0
ARC
  5
180
  8
1
  6
CONTINUOUS
 62
     7
 10
-1957.402307521468
 20
-308.6366929026278
 30
0.0
 40
2.000000000000002
 50
0.0
 51
90.0
  0
LINE
  5
181
  8
1
  6
CONTINUOUS
 62
     7
 10
-1957.402307521468
 20
-306.6366929026278
 30
0.0
 11
-1960.517396744503
 21
-306.6366929026278
 31
0.0
  0
ARC
  5
182
  8
1
  6
CONTINUOUS
 62
     7
 10
-1960.517396744503
 20
-308.6366929026278
 30
0.0
 40
2.0
 50
90.0
 51
155.0000000000002
  0
LINE
  5
183
  8
1
  6
CONTINUOUS
 62
     7
 10
-1962.330012318577
 20
-307.7914563791465
 30
0.0
 11
-1964.05090816259
 21
-311.4819294261093
 31
0.0
  0
ARC
  5
184
  8
1
  6
CONTINUOUS
 62
     7
 10
-1965.863523736663
 20
-310.6366929026278
 30
0.0
 40
2.000000000000002
 50
270.0
 51
334.9999999999998
  0
LINE
  5
185
  8
1
  6
CONTINUOUS
 62
     7
 10
-1965.863523736663
 20
-312.6366929026278
 30
0.0
 11
-1968.831744772991
 21
-312.6366929026278
 31
0.0
  0
ARC
  5
186
  8
1
  6
CONTINUOUS
 62
     7
 10
-1968.831744772991
 20
-314.6366929026278
 30
0.0
 40
2.000000000000003
 50
90.0
 51
135.0
  0
LINE
  5
187
  8
1
  6
CONTINUOUS
 62
     7
 10
-1970.245958335364
 20
-313.2224793402548
 30
0.0
 11
-1981.81043152249
 21
-324.7869525273808
 31
0.0
  0
ARC
  5
188
  8
1
  6
CONTINUOUS
 62
     7
 10
-1978.274897616558
 20
-328.3224864333135
 30
0.0
 40
4.999999999999998
 50
134.9999999999999
 51
239.47751218593
  0
ARC
  5
189
  8
1
  6
CONTINUOUS
 62
     7
 10
-1947.802307521468
 20
-276.6366929026279
 30
0.0
 40
64.99999999999999
 50
239.47751218593
 51
248.8119442486778
  0
ARC
  5
18A
  8
1
  6
CONTINUOUS
 62
     7
 10
-1972.018131187968
 20
-339.1074371286493
 30
0.0
 40
2.000000000000001
 50
350.0000000000001
 51
68.81194424867765
  0
LINE
  5
18B
  8
1
  6
CONTINUOUS
 62
     7
 10
-1970.048515681944
 20
-339.4547334839831
 30
0.0
 11
-1971.108886658965
 21
-345.4683961280138
 31
0.0
  0
ARC
  5
18C
  8
1
  6
CONTINUOUS
 62
     7
 10
-1973.078502164989
 20
-345.1210997726799
 30
0.0
 40
2.000000000000002
 50
249.7419272145152
 51
349.9999999999997
  0
ARC
  5
18D
  8
1
  6
CONTINUOUS
 62
     7
 10
-1947.802307521468
 20
-276.6366929026279
 30
0.0
 40
75.0
 50
261.5699438282613
 51
249.7419272145153
  0
ARC
  5
18E
  8
1
  6
CONTINUOUS
 62
     7
 10
-1958.504250607721
 20
-348.8479691285651
 30
0.0
 40
2.0
 50
170.0000000000006
 51
261.5699438282612
  0
LINE
  5
18F
  8
1
  6
CONTINUOUS
 62
     7
 10
-1960.473866113746
 20
-348.5006727732312
 30
0.0
 11
-1959.431550742229
 21
-342.5894085564385
 31
0.0
  0
ARC
  5
190
  8
1
  6
CONTINUOUS
 62
     7
 10
-1957.461935236204
 20
-342.9367049117724
 30
0.0
 40
2.000000000000004
 50
81.71057588031117
 51
170.0000000000005
  0
ARC
  5
191
  8
1
  6
CONTINUOUS
 62
     7
 10
-1947.802307521468
 20
-276.6366929026279
 30
0.0
 40
65.0
 50
261.7105758803111
 51
269.3580321112592
  0
ARC
  5
192
  8
1
  6
CONTINUOUS
 62
     7
 10
-1947.802307521468
 20
-339.1366929026279
 30
0.0
 40
2.599999999999993
 50
253.7335002378259
 51
286.2664997621739
  0
ARC
  5
193
  8
1
  6
CONTINUOUS
 62
     7
 10
-1947.802307521468
 20
-276.6366929026279
 30
0.0
 40
65.0
 50
270.6419678887409
 51
300.5224878140702
  0
ARC
  5
194
  8
1
  6
CONTINUOUS
 62
     7
 10
-1917.329717426379
 20
-328.3224864333135
 30
0.0
 40
5.000000000000004
 50
300.5224878140702
 51
45.0
  0
LINE
  5
195
  8
1
  6
CONTINUOUS
 62
     7
 10
-1913.794183520446
 20
-324.7869525273808
 30
0.0
 11
-1925.358656707572
 21
-313.2224793402548
 31
0.0
  0
ARC
  5
196
  8
1
  6
CONTINUOUS
 62
     7
 10
-1926.772870269945
 20
-314.6366929026278
 30
0.0
 40
2.000000000000002
 50
45.0
 51
90.0
  0
LINE
  5
197
  8
1
  6
CONTINUOUS
 62
     7
 10
-1926.772870269945
 20
-312.6366929026278
 30
0.0
 11
-1929.741091306273
 21
-312.6366929026278
 31
0.0
  0
ARC
  5
198
  8
1
  6
CONTINUOUS
 62
     7
 10
-1929.741091306273
 20
-310.6366929026278
 30
0.0
 40
1.999999999999998
 50
205.0000000000002
 51
270.0
  0
LINE
  5
199
  8
1
  6
CONTINUOUS
 62
     7
 10
-1931.553706880347
 20
-311.4819294261093
 30
0.0
 11
-1933.27460272436
 21
-307.7914563791465
 31
0.0
  0
ARC
  5
19A
  8
1
  6
CONTINUOUS
 62
     7
 10
-1947.802307521468
 20
-276.6366929026279
 30
0.0
 40
13.5
 50
0.000000000000007
 51
240.0000000000002
  0
LINE
  5
19B
  8
1
  6
CONTINUOUS
 62
     7
 10
-1954.552307521468
 20
-288.3280358537178
 30
0.0
 11
-1944.802307521468
 21
-293.9572009783166
 31
0.0
  0
ARC
  5
19C
  8
1
  6
CONTINUOUS
 62
     7
 10
-1941.302307521468
 20
-287.8950231518256
 30
0.0
 40
7.000000000000002
 50
240.0
 51
359.9999999999998
  0
LINE
  5
19D
  8
1
  6
CONTINUOUS
 62
     7
 10
-1934.302307521468
 20
-287.8950231518256
 30
0.0
 11
-1934.302307521468
 21
-276.6366929026279
 31
0.0
  0
LINE
  5
19E
  8
1
  6
CONTINUOUS
 62
     7
 10
-1945.202307521468
 20
-251.6366929026279
 30
0.0
 11
-1945.202307521468
 21
-214.1366929026279
 31
0.0
  0
ARC
  5
19F
  8
1
  6
CONTINUOUS
 62
     7
 10
-1947.802307521468
 20
-214.1366929026279
 30
0.0
 40
2.599999999999998
 50
0.000000000000007
 51
179.9999999999997
  0
LINE
  5
1A0
  8
1
  6
CONTINUOUS
 62
     7
 10
-1950.402307521468
 20
-251.6366929026279
 30
0.0
 11
-1950.402307521468
 21
-214.1366929026279
 31
0.0
  0
ARC
  5
1A1
  8
1
  6
CONTINUOUS
 62
     7
 10
-1947.802307521468
 20
-251.6366929026279
 30
0.0
 40
2.599999999999998
 50
180.0
 51
359.9999999999998
  0
ARC
  5
1A2
  8
1
  6
CONTINUOUS
 62
     7
 10
-1903.608133697309
 20
-232.4425190784686
 30
0.0
 40
2.599999999999998
 50
315.0
 51
135.0
  0
LINE
  5
1A3
  8
1
  6
CONTINUOUS
 62
     7
 10
-1905.446611328394
 20
-230.6040414473836
 30
0.0
 11
-1926.659814763991
 21
-251.8172448829801
 31
0.0
  0
ARC
  5
1A4
  8
1
  6
CONTINUOUS
 62
     7
 10
-1924.821337132905
 20
-253.6557225140651
 30
0.0
 40
2.599999999999998
 50
135.0
 51
315.0
  0
LINE
  5
1A5
  8
1
  6
CONTINUOUS
 62
     7
 10
-1922.98285950182
 20
-255.4942001451501
 30
0.0
 11
-1901.769656066224
 21
-234.2809967095537
 31
0.0
  0
ARC
  5
1A6
  8
1
  6
CONTINUOUS
 62
     7
 10
-1893.675719784941
 20
-245.3866929026279
 30
0.0
 40
2.599999999999998
 50
299.9999999999998
 51
120.0000000000001
  0
LINE
  5
1A7
  8
1
  6
CONTINUOUS
 62
     7
 10
-1894.975719784941
 20
-243.1350268527883
 30
0.0
 11
-1920.956481898474
 21
-258.1350268527883
 31
0.0
  0
ARC
  5
1A8
  8
1
  6
CONTINUOUS
 62
     7
 10
-1919.656481898474
 20
-260.3866929026279
 30
0.0
 40
2.599999999999999
 50
120.0000000000003
 51
300.0000000000001
  0
LINE
  5
1A9
  8
1
  6
CONTINUOUS
 62
     7
 10
-1918.356481898474
 20
-262.6383589524674
 30
0.0
 11
-1892.375719784941
 21
-247.6383589524674
 31
0.0
  0
ARC
  5
1AA
  8
1
  6
CONTINUOUS
 62
     7
 10
-1903.608133697309
 20
-320.8308667267871
 30
0.0
 40
2.600000000000003
 50
225.0000000000001
 51
44.99999999999965
  0
LINE
  5
1AB
  8
1
  6
CONTINUOUS
 62
     7
 10
-1901.769656066224
 20
-318.9923890957021
 30
0.0
 11
-1922.98285950182
 21
-297.7791856601056
 31
0.0
  0
ARC
  5
1AC
  8
1
  6
CONTINUOUS
 62
     7
 10
-1924.821337132905
 20
-299.6176632911906
 30
0.0
 40
2.599999999999996
 50
45.00000000000008
 51
225.0000000000001
  0
LINE
  5
1AD
  8
1
  6
CONTINUOUS
 62
     7
 10
-1926.659814763991
 20
-301.4561409222757
 30
0.0
 11
-1905.446611328394
 21
-322.6693443578721
 31
0.0
  0
LINE
  5
1AE
  8
1
  6
CONTINUOUS
 62
     7
 10
-1905.052307521468
 20
-268.1366929026279
 30
0.0
 11
-1905.052307521468
 21
-267.8366929026279
 31
0.0
  0
ARC
  5
1AF
  8
1
  6
CONTINUOUS
 62
     7
 10
-1906.552307521468
 20
-267.8366929026278
 30
0.0
 40
1.500000000000001
 50
0.0000000000001395
 51
90.0000000000003
  0
LINE
  5
1B0
  8
1
  6
CONTINUOUS
 62
     7
 10
-1906.552307521468
 20
-266.3366929026278
 30
0.0
 11
-1927.552307521468
 21
-266.3366929026278
 31
0.0
  0
ARC
  5
1B1
  8
1
  6
CONTINUOUS
 62
     7
 10
-1927.552307521468
 20
-267.8366929026278
 30
0.0
 40
1.500000000000001
 50
90.00000000000016
 51
180.0000000000003
  0
LINE
  5
1B2
  8
1
  6
CONTINUOUS
 62
     7
 10
-1929.052307521468
 20
-267.8366929026279
 30
0.0
 11
-1929.052307521468
 21
-268.1366929026279
 31
0.0
  0
ARC
  5
1B3
  8
1
  6
CONTINUOUS
 62
     7
 10
-1927.552307521468
 20
-268.1366929026279
 30
0.0
 40
1.500000000000001
 50
179.9999999999999
 51
224.8575490510887
  0
LINE
  5
1B4
  8
1
  6
CONTINUOUS
 62
     9
 10
-1928.615601466071
 20
-284.0786730600115
 30
0.0
 11
-1928.615601466071
 21
-269.1947127452443
 31
0.0
  0
ARC
  5
1B5
  8
1
  6
CONTINUOUS
 62
     7
 10
-1927.552307521468
 20
-285.1366929026279
 30
0.0
 40
1.499999999999998
 50
135.1424509489116
 51
180.0
  0
LINE
  5
1B6
  8
1
  6
CONTINUOUS
 62
     7
 10
-1929.052307521468
 20
-285.4366929026279
 30
0.0
 11
-1929.052307521468
 21
-285.1366929026279
 31
0.0
  0
ARC
  5
1B7
  8
1
  6
CONTINUOUS
 62
     7
 10
-1927.552307521468
 20
-285.4366929026278
 30
0.0
 40
1.500000000000001
 50
180.0000000000002
 51
270.0000000000001
  0
LINE
  5
1B8
  8
1
  6
CONTINUOUS
 62
     7
 10
-1906.552307521468
 20
-286.9366929026278
 30
0.0
 11
-1927.552307521468
 21
-286.9366929026278
 31
0.0
  0
ARC
  5
1B9
  8
1
  6
CONTINUOUS
 62
     7
 10
-1906.552307521468
 20
-285.4366929026278
 30
0.0
 40
1.500000000000001
 50
269.9999999999997
 51
0.0
  0
LINE
  5
1BA
  8
1
  6
CONTINUOUS
 62
     7
 10
-1905.052307521468
 20
-285.1366929026279
 30
0.0
 11
-1905.052307521468
 21
-285.4366929026278
 31
0.0
  0
ARC
  5
1BB
  8
1
  6
CONTINUOUS
 62
     7
 10
-1906.552307521468
 20
-285.1366929026279
 30
0.0
 40
1.500000000000001
 50
0.0
 51
44.85754905108814
  0
LINE
  5
1BC
  8
1
  6
CONTINUOUS
 62
     9
 10
-1905.489013576865
 20
-269.1947127452443
 30
0.0
 11
-1905.489013576865
 21
-284.0786730600115
 31
0.0
  0
ARC
  5
1BD
  8
1
  6
CONTINUOUS
 62
     7
 10
-1906.552307521468
 20
-268.1366929026279
 30
0.0
 40
1.500000000000002
 50
315.1424509489118
 51
0.0000000000001705
  0
ARC
  5
1BE
  8
1
  6
CONTINUOUS
 62
     7
 10
-1947.802307521468
 20
-301.6366929026278
 30
0.0
 40
2.599999999999998
 50
0.000000000000007
 51
180.0000000000002
  0
LINE
  5
1BF
  8
1
  6
CONTINUOUS
 62
     7
 10
-1950.402307521468
 20
-309.1366929026279
 30
0.0
 11
-1950.402307521468
 21
-301.6366929026279
 31
0.0
  0
ARC
  5
1C0
  8
1
  6
CONTINUOUS
 62
     7
 10
-1947.802307521468
 20
-309.1366929026279
 30
0.0
 40
2.6
 50
180.0000000000003
 51
0.0
  0
LINE
  5
1C1
  8
1
  6
CONTINUOUS
 62
     7
 10
-1945.202307521468
 20
-309.1366929026279
 30
0.0
 11
-1945.202307521468
 21
-301.6366929026279
 31
0.0
  0
ARC
  5
1C2
  8
1
  6
CONTINUOUS
 62
     7
 10
-1970.783277910031
 20
-253.6557225140651
 30
0.0
 40
2.599999999999996
 50
225.0
 51
45.00000000000006
  0
LINE
  5
1C3
  8
1
  6
CONTINUOUS
 62
     7
 10
-1990.158003714542
 20
-230.6040414473836
 30
0.0
 11
-1968.944800278946
 21
-251.81724488298
 31
0.0
  0
ARC
  5
1C4
  8
1
  6
CONTINUOUS
 62
     7
 10
-1991.996481345627
 20
-232.4425190784686
 30
0.0
 40
2.599999999999998
 50
45.0
 51
225.0
  0
LINE
  5
1C5
  8
1
  6
CONTINUOUS
 62
     7
 10
-1972.621755541116
 20
-255.4942001451501
 30
0.0
 11
-1993.834958976713
 21
-234.2809967095537
 31
0.0
  0
ARC
  5
1C6
  8
1
  6
CONTINUOUS
 62
     7
 10
-1975.948133144463
 20
-260.3866929026278
 30
0.0
 40
2.599999999999999
 50
239.9999999999999
 51
59.99999999999977
  0
LINE
  5
1C7
  8
1
  6
CONTINUOUS
 62
     7
 10
-2000.628895257996
 20
-243.1350268527883
 30
0.0
 11
-1974.648133144462
 21
-258.1350268527883
 31
0.0
  0
ARC
  5
1C8
  8
1
  6
CONTINUOUS
 62
     7
 10
-2001.928895257996
 20
-245.3866929026278
 30
0.0
 40
2.599999999999998
 50
59.99999999999983
 51
240.0000000000001
  0
LINE
  5
1C9
  8
1
  6
CONTINUOUS
 62
     7
 10
-1977.248133144463
 20
-262.6383589524674
 30
0.0
 11
-2003.228895257996
 21
-247.6383589524674
 31
0.0
  0
ARC
  5
1CA
  8
1
  6
CONTINUOUS
 62
     7
 10
-1970.783277910031
 20
-299.6176632911906
 30
0.0
 40
2.599999999999996
 50
314.9999999999998
 51
134.9999999999999
  0
LINE
  5
1CB
  8
1
  6
CONTINUOUS
 62
     7
 10
-1993.834958976713
 20
-318.9923890957021
 30
0.0
 11
-1972.621755541116
 21
-297.7791856601057
 31
0.0
  0
ARC
  5
1CC
  8
1
  6
CONTINUOUS
 62
     7
 10
-1991.996481345627
 20
-320.8308667267871
 30
0.0
 40
2.600000000000003
 50
135.0000000000003
 51
314.9999999999998
  0
LINE
  5
1CD
  8
1
  6
CONTINUOUS
 62
     7
 10
-1968.944800278946
 20
-301.4561409222757
 30
0.0
 11
-1990.158003714542
 21
-322.6693443578721
 31
0.0
  0
LINE
  5
1CE
  8
1
  6
CONTINUOUS
 62
     9
 10
-1990.115601466071
 20
-269.1947127452443
 30
0.0
 11
-1990.115601466071
 21
-284.0786730600115
 31
0.0
  0
ARC
  5
1CF
  8
1
  6
CONTINUOUS
 62
     7
 10
-1989.052307521468
 20
-285.1366929026279
 30
0.0
 40
1.500000000000001
 50
135.1424509489119
 51
180.0
  0
LINE
  5
1D0
  8
1
  6
CONTINUOUS
 62
     7
 10
-1990.552307521468
 20
-285.1366929026279
 30
0.0
 11
-1990.552307521468
 21
-285.4366929026278
 31
0.0
  0
ARC
  5
1D1
  8
1
  6
CONTINUOUS
 62
     7
 10
-1989.052307521468
 20
-285.4366929026278
 30
0.0
 40
1.500000000000001
 50
180.0
 51
270.0000000000002
  0
LINE
  5
1D2
  8
1
  6
CONTINUOUS
 62
     7
 10
-1989.052307521468
 20
-286.9366929026278
 30
0.0
 11
-1968.052307521468
 21
-286.9366929026278
 31
0.0
  0
ARC
  5
1D3
  8
1
  6
CONTINUOUS
 62
     7
 10
-1968.052307521468
 20
-285.4366929026278
 30
0.0
 40
1.500000000000001
 50
269.9999999999999
 51
359.9999999999998
  0
LINE
  5
1D4
  8
1
  6
CONTINUOUS
 62
     7
 10
-1966.552307521468
 20
-285.4366929026278
 30
0.0
 11
-1966.552307521468
 21
-285.1366929026278
 31
0.0
  0
ARC
  5
1D5
  8
1
  6
CONTINUOUS
 62
     7
 10
-1968.052307521468
 20
-285.1366929026279
 30
0.0
 40
1.499999999999998
 50
0.000000000000007
 51
44.85754905108825
  0
LINE
  5
1D6
  8
1
  6
CONTINUOUS
 62
     9
 10
-1966.989013576865
 20
-284.0786730600115
 30
0.0
 11
-1966.989013576865
 21
-269.1947127452443
 31
0.0
  0
ARC
  5
1D7
  8
1
  6
CONTINUOUS
 62
     7
 10
-1968.052307521468
 20
-268.1366929026279
 30
0.0
 40
1.500000000000001
 50
315.1424509489112
 51
0.0000000000000568
  0
LINE
  5
1D8
  8
1
  6
CONTINUOUS
 62
     7
 10
-1966.552307521468
 20
-267.8366929026278
 30
0.0
 11
-1966.552307521468
 21
-268.1366929026278
 31
0.0
  0
ARC
  5
1D9
  8
1
  6
CONTINUOUS
 62
     7
 10
-1968.052307521468
 20
-267.8366929026278
 30
0.0
 40
1.500000000000001
 50
359.9999999999997
 51
89.9999999999999
  0
LINE
  5
1DA
  8
1
  6
CONTINUOUS
 62
     7
 10
-1989.052307521468
 20
-266.3366929026278
 30
0.0
 11
-1968.052307521468
 21
-266.3366929026278
 31
0.0
  0
ARC
  5
1DB
  8
1
  6
CONTINUOUS
 62
     7
 10
-1989.052307521468
 20
-267.8366929026278
 30
0.0
 40
1.500000000000001
 50
89.99999999999977
 51
179.9999999999999
  0
LINE
  5
1DC
  8
1
  6
CONTINUOUS
 62
     7
 10
-1990.552307521468
 20
-268.1366929026279
 30
0.0
 11
-1990.552307521468
 21
-267.8366929026279
 31
0.0
  0
ARC
  5
1DD
  8
1
  6
CONTINUOUS
 62
     7
 10
-1989.052307521468
 20
-268.1366929026279
 30
0.0
 40
1.500000000000002
 50
179.9999999999999
 51
224.8575490510882
  0
CIRCLE
  5
1DE
  8
1
  6
CONTINUOUS
 62
     7
 10
-1927.802307521468
 20
-306.6366929026278
 30
0.0
 40
2.600000000000001
  0
CIRCLE
  5
1DF
  8
1
  6
CONTINUOUS
 62
     7
 10
-1967.802307521468
 20
-306.6366929026279
 30
0.0
 40
2.600000000000001
  0
CIRCLE
  5
1E0
  8
1
  6
CONTINUOUS
 62
     7
 10
-1967.802307521468
 20
-246.6366929026279
 30
0.0
 40
2.600000000000001
  0
CIRCLE
  5
1E1
  8
1
  6
CONTINUOUS
 62
     7
 10
-1927.802307521468
 20
-246.6366929026279
 30
0.0
 40
2.600000000000001
  0
LINE
  5
1E2
  8
1
  6
CONTINUOUS
 62
     9
 10
-1987.55510130824
 20
-283.6366929026279
 30
0.0
 11
-1987.55510130824
 21
-269.6366929026279
 31
0.0
  0
LINE
  5
1E3
  8
1
  6
CONTINUOUS
 62
     7
 10
-1989.052307521468
 20
-283.6366929026279
 30
0.0
 11
-1987.55510130824
 21
-283.6366929026279
 31
0.0
  0
ARC
  5
1E4
  8
1
  6
CONTINUOUS
 62
     7
 10
-1989.052294774554
 20
-285.136723568522
 30
0.0
 40
1.500030665948364
 50
90.00048688630541
 51
135.1419640626064
  0
ARC
  5
1E5
  8
1
  6
CONTINUOUS
 62
     7
 10
-1989.052294738877
 20
-268.1366621509041
 30
0.0
 40
1.5000307517782
 50
224.858037300092
 51
269.9995117509961
  0
LINE
  5
1E6
  8
1
  6
CONTINUOUS
 62
     7
 10
-1987.55510130824
 20
-269.6366929026279
 30
0.0
 11
-1989.052307521468
 21
-269.6366929026279
 31
0.0
  0
LINE
  5
1E7
  8
1
  6
CONTINUOUS
 62
     9
 10
-1969.549513734697
 20
-269.6366929026279
 30
0.0
 11
-1969.549513734697
 21
-283.6366929026279
 31
0.0
  0
LINE
  5
1E8
  8
1
  6
CONTINUOUS
 62
     7
 10
-1968.052307521468
 20
-269.6366929026279
 30
0.0
 11
-1969.549513734697
 21
-269.6366929026279
 31
0.0
  0
ARC
  5
1E9
  8
1
  6
CONTINUOUS
 62
     7
 10
-1968.052313877897
 20
-268.1366776106473
 30
0.0
 40
1.500015291993981
 50
270.0002427952097
 51
315.142208153702
  0
ARC
  5
1EA
  8
1
  6
CONTINUOUS
 62
     7
 10
-1968.052320304059
 20
-285.1367236543516
 30
0.0
 40
1.500030751778174
 50
44.85803730009184
 51
89.99951175099602
  0
LINE
  5
1EB
  8
1
  6
CONTINUOUS
 62
     7
 10
-1969.549513734697
 20
-283.6366929026279
 30
0.0
 11
-1968.052307521468
 21
-283.6366929026279
 31
0.0
  0
ARC
  5
1EC
  8
1
  6
CONTINUOUS
 62
     7
 10
-1927.552294738877
 20
-285.1367236543516
 30
0.0
 40
1.500030751778183
 50
90.00048824900412
 51
135.141962699908
  0
ARC
  5
1ED
  8
1
  6
CONTINUOUS
 62
     7
 10
-1927.552294774554
 20
-268.1366622367336
 30
0.0
 40
1.500030665948381
 50
224.8580359373942
 51
269.9995131136939
  0
LINE
  5
1EE
  8
1
  6
CONTINUOUS
 62
     7
 10
-1927.552307521468
 20
-269.6366929026279
 30
0.0
 11
-1926.05510130824
 21
-269.6366929026279
 31
0.0
  0
LINE
  5
1EF
  8
1
  6
CONTINUOUS
 62
     9
 10
-1926.05510130824
 20
-269.6366929026279
 30
0.0
 11
-1926.05510130824
 21
-283.6366929026279
 31
0.0
  0
LINE
  5
1F0
  8
1
  6
CONTINUOUS
 62
     7
 10
-1926.05510130824
 20
-283.6366929026279
 30
0.0
 11
-1927.552307521468
 21
-283.6366929026279
 31
0.0
  0
ARC
  5
1F1
  8
1
  6
CONTINUOUS
 62
     7
 10
-1906.552313888483
 20
-268.1366775851786
 30
0.0
 40
1.500015317462841
 50
270.000243199581
 51
315.1422077493307
  0
ARC
  5
1F2
  8
1
  6
CONTINUOUS
 62
     7
 10
-1906.552320268383
 20
-285.1367235685221
 30
0.0
 40
1.500030665948368
 50
44.85803593739372
 51
89.99951311369459
  0
LINE
  5
1F3
  8
1
  6
CONTINUOUS
 62
     7
 10
-1906.552307521468
 20
-283.6366929026279
 30
0.0
 11
-1908.049513734697
 21
-283.6366929026279
 31
0.0
  0
LINE
  5
1F4
  8
1
  6
CONTINUOUS
 62
     9
 10
-1908.049513734697
 20
-283.6366929026279
 30
0.0
 11
-1908.049513734697
 21
-269.6366929026279
 31
0.0
  0
LINE
  5
1F5
  8
1
  6
CONTINUOUS
 62
     7
 10
-1908.049513734697
 20
-269.6366929026279
 30
0.0
 11
-1906.552307521468
 21
-269.6366929026279
 31
0.0
  0
LINE
  5
1F6
  8
1
  6
CONTINUOUS
 62
     9
 10
-1987.343723765138
 20
-269.6366929026279
 30
0.0
 11
-1987.343723765138
 21
-283.6366929026279
 31
0.0
  0
LINE
  5
1F7
  8
1
  6
CONTINUOUS
 62
     7
 10
-1987.55510130824
 20
-283.6366929026279
 30
0.0
 11
-1987.343723765138
 21
-283.6366929026279
 31
0.0
  0
LINE
  5
1F8
  8
1
  6
CONTINUOUS
 62
     7
 10
-1987.55510130824
 20
-269.6366929026279
 30
0.0
 11
-1987.343723765138
 21
-269.6366929026279
 31
0.0
  0
LINE
  5
1F9
  8
1
  6
CONTINUOUS
 62
     9
 10
-1969.760891277798
 20
-283.6366929026279
 30
0.0
 11
-1969.760891277798
 21
-269.6366929026279
 31
0.0
  0
LINE
  5
1FA
  8
1
  6
CONTINUOUS
 62
     7
 10
-1969.549513734697
 20
-283.6366929026279
 30
0.0
 11
-1969.760891277798
 21
-283.6366929026279
 31
0.0
  0
LINE
  5
1FB
  8
1
  6
CONTINUOUS
 62
     7
 10
-1969.549513734697
 20
-269.6366929026279
 30
0.0
 11
-1969.760891277798
 21
-269.6366929026279
 31
0.0
  0
LINE
  5
1FC
  8
1
  6
CONTINUOUS
 62
     9
 10
-1925.843723765138
 20
-283.6366929026279
 30
0.0
 11
-1925.843723765138
 21
-269.6366929026279
 31
0.0
  0
LINE
  5
1FD
  8
1
  6
CONTINUOUS
 62
     7
 10
-1926.05510130824
 20
-283.6366929026279
 30
0.0
 11
-1925.843723765138
 21
-283.6366929026279
 31
0.0
  0
LINE
  5
1FE
  8
1
  6
CONTINUOUS
 62
     7
 10
-1926.05510130824
 20
-269.6366929026279
 30
0.0
 11
-1925.843723765138
 21
-269.6366929026279
 31
0.0
  0
LINE
  5
1FF
  8
1
  6
CONTINUOUS
 62
     9
 10
-1908.260891277798
 20
-269.6366929026279
 30
0.0
 11
-1908.260891277798
 21
-283.6366929026279
 31
0.0
  0
LINE
  5
200
  8
1
  6
CONTINUOUS
 62
     7
 10
-1908.049513734697
 20
-283.6366929026279
 30
0.0
 11
-1908.260891277798
 21
-283.6366929026279
 31
0.0
  0
LINE
  5
201
  8
1
  6
CONTINUOUS
 62
     7
 10
-1908.049513734697
 20
-269.6366929026279
 30
0.0
 11
-1908.260891277798
 21
-269.6366929026279
 31
0.0
  0
LINE
  5
202
  8
1
  6
CONTINUOUS
 62
     9
 10
-1985.374108259114
 20
-283.6366929026279
 30
0.0
 11
-1985.374108259114
 21
-269.6366929026279
 31
0.0
  0
LINE
  5
203
  8
1
  6
CONTINUOUS
 62
     7
 10
-1985.374108259114
 20
-283.6366929026279
 30
0.0
 11
-1987.343723765138
 21
-283.6366929026279
 31
0.0
  0
LINE
  5
204
  8
1
  6
CONTINUOUS
 62
     7
 10
-1987.343723765138
 20
-269.6366929026279
 30
0.0
 11
-1985.374108259114
 21
-269.6366929026279
 31
0.0
  0
LINE
  5
205
  8
1
  6
CONTINUOUS
 62
     9
 10
-1971.730506783823
 20
-269.6366929026279
 30
0.0
 11
-1971.730506783823
 21
-283.6366929026279
 31
0.0
  0
LINE
  5
206
  8
1
  6
CONTINUOUS
 62
     7
 10
-1969.760891277798
 20
-283.6366929026279
 30
0.0
 11
-1971.730506783823
 21
-283.6366929026279
 31
0.0
  0
LINE
  5
207
  8
1
  6
CONTINUOUS
 62
     7
 10
-1971.730506783823
 20
-269.6366929026279
 30
0.0
 11
-1969.760891277798
 21
-269.6366929026279
 31
0.0
  0
LINE
  5
208
  8
1
  6
CONTINUOUS
 62
     9
 10
-1923.874108259114
 20
-269.6366929026279
 30
0.0
 11
-1923.874108259114
 21
-283.6366929026279
 31
0.0
  0
LINE
  5
209
  8
1
  6
CONTINUOUS
 62
     7
 10
-1925.843723765138
 20
-283.6366929026279
 30
0.0
 11
-1923.874108259114
 21
-283.6366929026279
 31
0.0
  0
LINE
  5
20A
  8
1
  6
CONTINUOUS
 62
     7
 10
-1923.874108259114
 20
-269.6366929026279
 30
0.0
 11
-1925.843723765138
 21
-269.6366929026279
 31
0.0
  0
LINE
  5
20B
  8
1
  6
CONTINUOUS
 62
     9
 10
-1910.230506783823
 20
-283.6366929026279
 30
0.0
 11
-1910.230506783823
 21
-269.6366929026279
 31
0.0
  0
LINE
  5
20C
  8
1
  6
CONTINUOUS
 62
     7
 10
-1910.230506783823
 20
-283.6366929026279
 30
0.0
 11
-1908.260891277798
 21
-283.6366929026279
 31
0.0
  0
LINE
  5
20D
  8
1
  6
CONTINUOUS
 62
     7
 10
-1908.260891277798
 20
-269.6366929026279
 30
0.0
 11
-1910.230506783823
 21
-269.6366929026279
 31
0.0
  0
ARC
  5
20E
  8
1
  6
CONTINUOUS
 62
     7
 10
-1981.302307521468
 20
-276.6366929026279
 30
0.0
 40
2.5
 50
90.00000000000001
 51
270.0
  0
LINE
  5
20F
  8
1
  6
CONTINUOUS
 62
     7
 10
-1981.302307521468
 20
-279.1366929026279
 30
0.0
 11
-1980.472164170597
 21
-279.1366929026279
 31
0.0
  0
LINE
  5
210
  8
1
  6
CONTINUOUS
 62
     7
 10
-1980.472164170597
 20
-274.1366929026279
 30
0.0
 11
-1981.302307521468
 21
-274.1366929026279
 31
0.0
  0
LINE
  5
211
  8
1
  6
CONTINUOUS
 62
     7
 10
-1985.374108259114
 20
-283.6366929026279
 30
0.0
 11
-1971.730506783823
 21
-283.6366929026279
 31
0.0
  0
LINE
  5
212
  8
1
  6
CONTINUOUS
 62
     7
 10
-1971.730506783823
 20
-269.6366929026279
 30
0.0
 11
-1985.374108259114
 21
-269.6366929026279
 31
0.0
  0
LINE
  5
213
  8
1
  6
CONTINUOUS
 62
     7
 10
-1914.302307521468
 20
-279.1366929026279
 30
0.0
 11
-1915.13245087234
 21
-279.1366929026279
 31
0.0
  0
ARC
  5
214
  8
1
  6
CONTINUOUS
 62
     7
 10
-1914.302307521468
 20
-276.6366929026279
 30
0.0
 40
2.5
 50
270.0
 51
90.0
  0
LINE
  5
215
  8
1
  6
CONTINUOUS
 62
     7
 10
-1915.13245087234
 20
-274.1366929026279
 30
0.0
 11
-1914.302307521468
 21
-274.1366929026279
 31
0.0
  0
LINE
  5
216
  8
1
  6
CONTINUOUS
 62
     7
 10
-1910.230506783823
 20
-283.6366929026279
 30
0.0
 11
-1923.874108259114
 21
-283.6366929026279
 31
0.0
  0
LINE
  5
217
  8
1
  6
CONTINUOUS
 62
     7
 10
-1923.874108259114
 20
-269.6366929026279
 30
0.0
 11
-1910.230506783823
 21
-269.6366929026279
 31
0.0
  0
ENDBLK
  8
0
  0
ENDSEC
  0
SECTION
  2
ENTITIES
  0
TEXT
  5
70
  8
1
  6
CONTINUOUS
 62
     7
 10
-1839.725819463447
 20
-368.3082728701157
 30
0.0
 40
3.0
  1
SG-VK1AL
  0
LINE
  5
71
  8
1
  6
CONTINUOUS
 62
     2
 10
-1839.640943885105
 20
-368.8662383571734
 30
0.0
 11
-1825.963671157832
 21
-368.8662383571734
 31
0.0
  0
LINE
  5
72
  8
1
  6
CENTER
 62
     1
 10
-1827.802307521468
 20
-276.6366929026278
 30
0.0
 11
-1772.802307521468
 21
-276.6366929026278
 31
0.0
  0
LINE
  5
74
  8
1
  6
CENTER
 62
     1
 10
-1947.802307521468
 20
-156.6366929026279
 30
0.0
 11
-1947.802307521468
 21
-106.6366929026279
 31
0.0
  0
INSERT
  5
F4
  8
1
  6
DOT
 62
     7
  2
D_FRAME_VIEW_4955
 10
0.0
 20
0.0
 30
0.0
  0
INSERT
  5
137
  8
1
  6
DOT
 62
     7
  2
D_FRAME_VIEW_5019
 10
0.0
 20
0.0
 30
0.0
  0
LINE
  5
138
  8
1
  6
CENTER
 62
     1
 10
-2024.802307521468
 20
-276.6366929026279
 30
0.0
 11
-1870.802307521468
 21
-276.6366929026279
 31
0.0
  0
LINE
  5
139
  8
1
  6
CENTER
 62
     1
 10
-1947.802307521468
 20
-353.6366929026279
 30
0.0
 11
-1947.802307521468
 21
-199.6366929026279
 31
0.0
  0
INSERT
  5
218
  8
1
  6
DOT
 62
     7
  2
D_FRAME_VIEW_4472
 10
0.0
 20
0.0
 30
0.0
  0
POINT
  5
219
  8
1
 62
     7
 10
-1942.802307521468
 20
-156.6366929026279
 30
0.0
  0
POINT
  5
21A
  8
1
 62
     7
 10
-1772.802307521468
 20
-281.6366929026279
 30
0.0
  0
POINT
  5
21B
  8
1
 62
     7
 10
-1937.802307521468
 20
-106.6366929026279
 30
0.0
  0
POINT
  5
21C
  8
1
 62
     7
 10
-1827.802307521468
 20
-281.6366929026279
 30
0.0
  0
ENDSEC
  0
EOF
