  0
SECTION
  2
HEADER
  9
$ACADVER
  1
AC1006
  9
$DWGCODEPAGE
  3
ansi_932
  9
$INSBASE
 10
0.0
 20
0.0
 30
0.0
  9
$EXTMIN
 10
-2564.802307521468
 20
201.1337616428267
  9
$EXTMAX
 10
-2307.802307521468
 20
443.3633070973721
  9
$LIMMIN
 10
0.0
 20
0.0
  9
$LIMMAX
 10
12.0
 20
9.0
  9
$ORTHOMODE
 70
     0
  9
$REGENMODE
 70
     1
  9
$FILLMODE
 70
     1
  9
$QTEXTMODE
 70
     0
  9
$MIRRTEXT
 70
     1
  9
$DRAGMODE
 70
     2
  9
$LTSCALE
 40
1.0
  9
$OSMODE
 70
    37
  9
$ATTMODE
 70
     1
  9
$TEXTSIZE
 40
0.2
  9
$TRACEWID
 40
0.05
  9
$TEXTSTYLE
  7
STANDARD
  9
$CLAYER
  8
0
  9
$CELTYPE
  6
BYLAYER
  9
$CECOLOR
 62
   256
  9
$DIMSCALE
 40
1.0
  9
$DIMASZ
 40
3.0
  9
$DIMEXO
 40
0.0625
  9
$DIMDLI
 40
0.38
  9
$DIMRND
 40
0.0
  9
$DIMDLE
 40
0.0
  9
$DIMEXE
 40
1.5
  9
$DIMTP
 40
0.0
  9
$DIMTM
 40
0.0
  9
$DIMTXT
 40
3.0
  9
$DIMCEN
 40
0.09
  9
$DIMTSZ
 40
0.0
  9
$DIMTOL
 70
     0
  9
$DIMLIM
 70
     0
  9
$DIMTIH
 70
     1
  9
$DIMTOH
 70
     1
  9
$DIMSE1
 70
     0
  9
$DIMSE2
 70
     0
  9
$DIMTAD
 70
     1
  9
$DIMZIN
 70
     0
  9
$DIMBLK
  1

  9
$DIMASO
 70
     1
  9
$DIMSHO
 70
     1
  9
$DIMPOST
  1

  9
$DIMAPOST
  1

  9
$DIMALT
 70
     0
  9
$DIMALTD
 70
     2
  9
$DIMALTF
 40
25.4
  9
$DIMLFAC
 40
1.0
  9
$DIMTOFL
 70
     0
  9
$DIMTVP
 40
0.0
  9
$DIMTIX
 70
     0
  9
$DIMSOXD
 70
     0
  9
$DIMSAH
 70
     0
  9
$DIMBLK1
  1

  9
$DIMBLK2
  1

  9
$LUNITS
 70
     2
  9
$LUPREC
 70
     4
  9
$SKETCHINC
 40
0.1
  9
$FILLETRAD
 40
0.5
  9
$AUNITS
 70
     0
  9
$AUPREC
 70
     0
  9
$MENU
  1
.
  9
$ELEVATION
 40
0.0
  9
$THICKNESS
 40
0.0
  9
$LIMCHECK
 70
     0
  9
$CHAMFERA
 40
0.0
  9
$CHAMFERB
 40
0.0
  9
$SKPOLY
 70
     0
  9
$TDCREATE
 40
2460529.664416458
  9
$TDUPDATE
 40
2460529.664416678
  9
$TDINDWG
 40
0.0000000116
  9
$TDUSRTIMER
 40
0.0000000116
  9
$USRTIMER
 70
     1
  9
$ANGBASE
 50
0.0
  9
$ANGDIR
 70
     0
  9
$PDMODE
 70
     0
  9
$PDSIZE
 40
0.0
  9
$PLINEWID
 40
0.0
  9
$COORDS
 70
     1
  9
$SPLFRAME
 70
     0
  9
$SPLINETYPE
 70
     6
  9
$SPLINESEGS
 70
     8
  9
$ATTDIA
 70
     0
  9
$ATTREQ
 70
     1
  9
$HANDLING
 70
     1
  9
$HANDSEED
  5
2DD
  9
$SURFTAB1
 70
     6
  9
$SURFTAB2
 70
     6
  9
$SURFTYPE
 70
     6
  9
$SURFU
 70
     6
  9
$SURFV
 70
     6
  9
$UCSNAME
  2

  9
$UCSORG
 10
0.0
 20
0.0
 30
0.0
  9
$UCSXDIR
 10
1.0
 20
0.0
 30
0.0
  9
$UCSYDIR
 10
0.0
 20
1.0
 30
0.0
  9
$USERI1
 70
     0
  9
$USERI2
 70
     0
  9
$USERI3
 70
     0
  9
$USERI4
 70
     0
  9
$USERI5
 70
     0
  9
$USERR1
 40
0.0
  9
$USERR2
 40
0.0
  9
$USERR3
 40
0.0
  9
$USERR4
 40
0.0
  9
$USERR5
 40
0.0
  9
$WORLDVIEW
 70
     1
  0
ENDSEC
  0
SECTION
  2
TABLES
  0
TABLE
  2
VPORT
 70
     1
  0
VPORT
  2
*ACTIVE
 70
     0
 10
0.0
 20
0.0
 11
1.0
 21
1.0
 12
-2436.302307521468
 22
322.2485343700994
 13
0.0
 23
0.0
 14
0.5
 24
0.5
 15
0.5
 25
0.5
 16
0.0
 26
0.0
 36
1.0
 17
0.0
 27
0.0
 37
0.0
 40
242.2295454545453
 41
1.6
 42
50.0
 43
0.0
 44
0.0
 50
0.0
 51
0.0
 71
     0
 72
   100
 73
     1
 74
     3
 75
     0
 76
     0
 77
     0
 78
     0
  0
ENDTAB
  0
TABLE
  2
LTYPE
 70
     3
  0
LTYPE
  2
CONTINUOUS
 70
     0
  3
Solid line
 72
    65
 73
     0
 40
0.0
  0
LTYPE
  2
CENTER
 70
     0
  3

 72
    65
 73
     0
 40
0.0
  0
LTYPE
  2
DOT
 70
     0
  3

 72
    65
 73
     0
 40
0.0
  0
ENDTAB
  0
TABLE
  2
LAYER
 70
     2
  0
LAYER
  2
0
 70
     0
 62
     7
  6
CONTINUOUS
  0
LAYER
  2
1
 70
     0
 62
     7
  6
CONTINUOUS
  0
ENDTAB
  0
TABLE
  2
STYLE
 70
     2
  0
STYLE
  2
STANDARD
 70
     0
 40
0.0
 41
1.0
 50
0.0
 71
     0
 42
0.2
  3
txt
  4

  0
STYLE
  2
ＭＳ_ゴシック
 70
     0
 40
0.0
 41
1.0
 50
0.0
 71
     0
 42
0.2
  3
ＭＳ ゴシック.shx
  4

  0
ENDTAB
  0
TABLE
  2
VIEW
 70
     0
  0
ENDTAB
  0
TABLE
  2
UCS
 70
     0
  0
ENDTAB
  0
ENDSEC
  0
SECTION
  2
BLOCKS
  0
BLOCK
  8
0
  2
D_FRAME_VIEW_5561
 70
     0
 10
0.0
 20
0.0
 30
0.0
  0
LINE
  5
74
  8
1
  6
CONTINUOUS
 62
     9
 10
-2323.452307521468
 20
290.2500584433203
 30
0.0
 11
-2325.052307521468
 21
290.2500584433203
 31
0.0
  0
LINE
  5
75
  8
1
  6
CONTINUOUS
 62
     7
 10
-2323.452307521468
 20
290.2500584433203
 30
0.0
 11
-2323.452307521468
 21
285.9199314243982
 31
0.0
  0
LINE
  5
76
  8
1
  6
CONTINUOUS
 62
     9
 10
-2323.452307521468
 20
285.9199314243982
 30
0.0
 11
-2325.052307521468
 21
285.9199314243982
 31
0.0
  0
LINE
  5
77
  8
1
  6
CONTINUOUS
 62
     7
 10
-2325.052307521468
 20
286.3633070973722
 30
0.0
 11
-2325.052307521468
 21
285.9199314243982
 31
0.0
  0
LINE
  5
78
  8
1
  6
CONTINUOUS
 62
     9
 10
-2323.452307521468
 20
296.4765557514241
 30
0.0
 11
-2325.052307521468
 21
296.4765557514241
 31
0.0
  0
LINE
  5
79
  8
1
  6
CONTINUOUS
 62
     7
 10
-2323.452307521468
 20
296.4765557514241
 30
0.0
 11
-2323.452307521468
 21
290.2500584433203
 31
0.0
  0
LINE
  5
7A
  8
1
  6
CONTINUOUS
 62
     9
 10
-2323.452307521468
 20
300.8066827703462
 30
0.0
 11
-2325.052307521468
 21
300.8066827703462
 31
0.0
  0
LINE
  5
7B
  8
1
  6
CONTINUOUS
 62
     7
 10
-2325.052307521468
 20
300.8066827703462
 30
0.0
 11
-2325.052307521468
 21
300.3633070973722
 31
0.0
  0
LINE
  5
7C
  8
1
  6
CONTINUOUS
 62
     7
 10
-2323.452307521468
 20
300.8066827703462
 30
0.0
 11
-2323.452307521468
 21
296.4765557514241
 31
0.0
  0
LINE
  5
7D
  8
1
  6
CONTINUOUS
 62
     9
 10
-2323.452307521468
 20
305.1934341162943
 30
0.0
 11
-2325.052307521468
 21
305.1934341162943
 31
0.0
  0
LINE
  5
7E
  8
1
  6
CONTINUOUS
 62
     7
 10
-2325.052307521468
 20
305.1934341162943
 30
0.0
 11
-2325.052307521468
 21
300.8066827703462
 31
0.0
  0
LINE
  5
7F
  8
1
  6
CONTINUOUS
 62
     7
 10
-2323.452307521468
 20
305.1934341162943
 30
0.0
 11
-2323.452307521468
 21
300.8066827703462
 31
0.0
  0
LINE
  5
80
  8
1
  6
CONTINUOUS
 62
     9
 10
-2323.452307521468
 20
281.53318007845
 30
0.0
 11
-2325.052307521468
 21
281.53318007845
 31
0.0
  0
LINE
  5
81
  8
1
  6
CONTINUOUS
 62
     7
 10
-2325.052307521468
 20
285.9199314243982
 30
0.0
 11
-2325.052307521468
 21
281.53318007845
 31
0.0
  0
LINE
  5
82
  8
1
  6
CONTINUOUS
 62
     7
 10
-2323.452307521468
 20
285.9199314243982
 30
0.0
 11
-2323.452307521468
 21
281.53318007845
 31
0.0
  0
LINE
  5
83
  8
1
  6
CONTINUOUS
 62
     9
 10
-2322.952307521468
 20
295.9633070973722
 30
0.0
 11
-2322.952307521468
 21
290.7633070973722
 31
0.0
  0
LINE
  5
84
  8
1
  6
CONTINUOUS
 62
     7
 10
-2321.952307521468
 20
295.9633070973722
 30
0.0
 11
-2321.952307521468
 21
290.7633070973722
 31
0.0
  0
LINE
  5
85
  8
1
  6
CONTINUOUS
 62
     7
 10
-2323.452307521468
 20
305.8593821382914
 30
0.0
 11
-2323.442474804511
 21
305.8633070973722
 31
0.0
  0
LINE
  5
86
  8
1
  6
CONTINUOUS
 62
     7
 10
-2325.046854198658
 20
305.8633070973722
 30
0.0
 11
-2325.052307521468
 21
305.8593821382914
 31
0.0
  0
LINE
  5
87
  8
1
  6
CONTINUOUS
 62
     7
 10
-2323.442474804511
 20
305.8633070973722
 30
0.0
 11
-2325.046854198658
 21
305.8633070973722
 31
0.0
  0
LINE
  5
88
  8
1
  6
CONTINUOUS
 62
     7
 10
-2325.052307521468
 20
305.8593821382914
 30
0.0
 11
-2325.052307521468
 21
305.1934341162943
 31
0.0
  0
LINE
  5
89
  8
1
  6
CONTINUOUS
 62
     7
 10
-2323.452307521468
 20
305.8593821382914
 30
0.0
 11
-2323.452307521468
 21
305.1934341162943
 31
0.0
  0
LINE
  5
8A
  8
1
  6
CONTINUOUS
 62
     7
 10
-2323.442474804511
 20
280.8633070973722
 30
0.0
 11
-2323.452307521468
 21
280.867232056453
 31
0.0
  0
LINE
  5
8B
  8
1
  6
CONTINUOUS
 62
     7
 10
-2323.442474804511
 20
280.8633070973722
 30
0.0
 11
-2325.046854198658
 21
280.8633070973722
 31
0.0
  0
LINE
  5
8C
  8
1
  6
CONTINUOUS
 62
     7
 10
-2325.052307521468
 20
280.867232056453
 30
0.0
 11
-2325.046854198658
 21
280.8633070973722
 31
0.0
  0
LINE
  5
8D
  8
1
  6
CONTINUOUS
 62
     7
 10
-2325.052307521468
 20
281.53318007845
 30
0.0
 11
-2325.052307521468
 21
280.867232056453
 31
0.0
  0
LINE
  5
8E
  8
1
  6
CONTINUOUS
 62
     7
 10
-2323.452307521468
 20
281.53318007845
 30
0.0
 11
-2323.452307521468
 21
280.867232056453
 31
0.0
  0
LINE
  5
8F
  8
1
  6
CONTINUOUS
 62
     7
 10
-2321.452307521468
 20
305.8633070973722
 30
0.0
 11
-2323.442474804511
 21
305.8633070973722
 31
0.0
  0
LINE
  5
90
  8
1
  6
CONTINUOUS
 62
     9
 10
-2321.452307521468
 20
305.8633070973722
 30
0.0
 11
-2321.452307521468
 21
295.3633070973722
 31
0.0
  0
LINE
  5
91
  8
1
  6
CONTINUOUS
 62
     9
 10
-2321.452307521468
 20
291.3633070973722
 30
0.0
 11
-2321.452307521468
 21
280.8633070973722
 31
0.0
  0
LINE
  5
92
  8
1
  6
CONTINUOUS
 62
     7
 10
-2323.442474804511
 20
280.8633070973722
 30
0.0
 11
-2321.452307521468
 21
280.8633070973722
 31
0.0
  0
LINE
  5
93
  8
1
  6
CONTINUOUS
 62
     9
 10
-2316.552307521468
 20
280.8633070973722
 30
0.0
 11
-2316.552307521468
 21
291.6133070973721
 31
0.0
  0
LINE
  5
94
  8
1
  6
CONTINUOUS
 62
     9
 10
-2316.552307521468
 20
295.1133070973723
 30
0.0
 11
-2316.552307521468
 21
305.8633070973722
 31
0.0
  0
LINE
  5
95
  8
1
  6
CONTINUOUS
 62
     7
 10
-2321.452307521468
 20
305.8633070973722
 30
0.0
 11
-2316.552307521468
 21
305.8633070973722
 31
0.0
  0
LINE
  5
96
  8
1
  6
CONTINUOUS
 62
     7
 10
-2321.452307521468
 20
280.8633070973722
 30
0.0
 11
-2316.552307521468
 21
280.8633070973722
 31
0.0
  0
LINE
  5
97
  8
1
  6
CONTINUOUS
 62
     7
 10
-2313.952307521468
 20
305.8633070973721
 30
0.0
 11
-2313.952307521468
 21
280.8633070973721
 31
0.0
  0
LINE
  5
98
  8
1
  6
CONTINUOUS
 62
     7
 10
-2316.552307521468
 20
305.8633070973722
 30
0.0
 11
-2313.952307521468
 21
305.8633070973722
 31
0.0
  0
LINE
  5
99
  8
1
  6
CONTINUOUS
 62
     7
 10
-2313.952307521468
 20
280.863307097372
 30
0.0
 11
-2316.552307521468
 21
280.8633070973722
 31
0.0
  0
LINE
  5
9A
  8
1
  6
CONTINUOUS
 62
     7
 10
-2316.802307521468
 20
291.3633070973722
 30
0.0
 11
-2316.802307521468
 21
295.3633070973722
 31
0.0
  0
LINE
  5
9B
  8
1
  6
CONTINUOUS
 62
     7
 10
-2316.452307521468
 20
295.0133070973721
 30
0.0
 11
-2316.452307521468
 21
291.7133070973722
 31
0.0
  0
LINE
  5
9C
  8
1
  6
CONTINUOUS
 62
     7
 10
-2331.652307521468
 20
368.3633070973722
 30
0.0
 11
-2331.652307521468
 21
218.3633070973722
 31
0.0
  0
LINE
  5
9D
  8
1
  6
CONTINUOUS
 62
     7
 10
-2330.052307521468
 20
368.3633070973722
 30
0.0
 11
-2330.052307521468
 21
218.3633070973722
 31
0.0
  0
POLYLINE
  5
9E
  8
1
  6
CONTINUOUS
 62
     7
 66
     1
 10
0.0
 20
0.0
 30
0.0
  0
VERTEX
  5
223
  8
1
  6
CONTINUOUS
 62
     7
 10
-2330.052307521468
 20
300.6199600786529
 30
0.0
  0
VERTEX
  5
224
  8
1
  6
CONTINUOUS
 62
     7
 10
-2330.05179546507
 20
300.5989549245508
 30
0.0
  0
VERTEX
  5
225
  8
1
  6
CONTINUOUS
 62
     7
 10
-2330.050222497604
 20
300.5787601563542
 30
0.0
  0
VERTEX
  5
226
  8
1
  6
CONTINUOUS
 62
     7
 10
-2330.047516230762
 20
300.5592996886861
 30
0.0
  0
VERTEX
  5
227
  8
1
  6
CONTINUOUS
 62
     7
 10
-2330.04362929886
 20
300.5407176169461
 30
0.0
  0
VERTEX
  5
228
  8
1
  6
CONTINUOUS
 62
     7
 10
-2330.038454466704
 20
300.5228715992163
 30
0.0
  0
VERTEX
  5
229
  8
1
  6
CONTINUOUS
 62
     7
 10
-2330.031975553516
 20
300.5059749188159
 30
0.0
  0
VERTEX
  5
22A
  8
1
  6
CONTINUOUS
 62
     7
 10
-2330.024098013456
 20
300.4899590676178
 30
0.0
  0
VERTEX
  5
22B
  8
1
  6
CONTINUOUS
 62
     7
 10
-2330.014816375871
 20
300.4749457988988
 30
0.0
  0
VERTEX
  5
22C
  8
1
  6
CONTINUOUS
 62
     7
 10
-2330.004484949843
 20
300.4614083312975
 30
0.0
  0
VERTEX
  5
22D
  8
1
  6
CONTINUOUS
 62
     7
 10
-2329.992787857203
 20
300.4488291304406
 30
0.0
  0
VERTEX
  5
22E
  8
1
  6
CONTINUOUS
 62
     7
 10
-2329.979610392429
 20
300.4371330726347
 30
0.0
  0
VERTEX
  5
22F
  8
1
  6
CONTINUOUS
 62
     7
 10
-2329.965017798253
 20
300.4264089175498
 30
0.0
  0
VERTEX
  5
230
  8
1
  6
CONTINUOUS
 62
     7
 10
-2329.948802089489
 20
300.416535369546
 30
0.0
  0
VERTEX
  5
231
  8
1
  6
CONTINUOUS
 62
     7
 10
-2329.931133406133
 20
300.4076329887906
 30
0.0
  0
VERTEX
  5
232
  8
1
  6
CONTINUOUS
 62
     7
 10
-2329.911879949583
 20
300.3996268811498
 30
0.0
  0
VERTEX
  5
233
  8
1
  6
CONTINUOUS
 62
     7
 10
-2329.891177966345
 20
300.3925550688414
 30
0.0
  0
VERTEX
  5
234
  8
1
  6
CONTINUOUS
 62
     7
 10
-2329.876255481992
 20
300.3882546815286
 30
0.0
  0
VERTEX
  5
235
  8
1
  6
CONTINUOUS
 62
     7
 10
-2329.860686767399
 20
300.3843611849658
 30
0.0
  0
VERTEX
  5
236
  8
1
  6
CONTINUOUS
 62
     7
 10
-2329.833175893314
 20
300.3787092026282
 30
0.0
  0
VERTEX
  5
237
  8
1
  6
CONTINUOUS
 62
     7
 10
-2329.80390542064
 20
300.3740832657223
 30
0.0
  0
VERTEX
  5
238
  8
1
  6
CONTINUOUS
 62
     7
 10
-2329.772588969665
 20
300.3703725055673
 30
0.0
  0
VERTEX
  5
239
  8
1
  6
CONTINUOUS
 62
     7
 10
-2329.739599708132
 20
300.3675482516301
 30
0.0
  0
VERTEX
  5
23A
  8
1
  6
CONTINUOUS
 62
     7
 10
-2329.718936437117
 20
300.3662371393029
 30
0.0
  0
VERTEX
  5
23B
  8
1
  6
CONTINUOUS
 62
     7
 10
-2329.697720010793
 20
300.3651965813641
 30
0.0
  0
VERTEX
  5
23C
  8
1
  6
CONTINUOUS
 62
     7
 10
-2329.673337954589
 20
300.3643272935975
 30
0.0
  0
VERTEX
  5
23D
  8
1
  6
CONTINUOUS
 62
     7
 10
-2329.648306914643
 20
300.3637419187256
 30
0.0
  0
VERTEX
  5
23E
  8
1
  6
CONTINUOUS
 62
     7
 10
-2329.622596448155
 20
300.363411005962
 30
0.0
  0
VERTEX
  5
23F
  8
1
  6
CONTINUOUS
 62
     7
 10
-2329.5962852866
 20
300.3633070973722
 30
0.0
  0
SEQEND
  5
2D7
  8
1
  6
CONTINUOUS
 62
     7
  0
POLYLINE
  5
9F
  8
1
  6
CONTINUOUS
 62
     7
 66
     1
 10
0.0
 20
0.0
 30
0.0
  0
VERTEX
  5
240
  8
1
  6
CONTINUOUS
 62
     7
 10
-2329.5962852866
 20
286.3633070973722
 30
0.0
  0
VERTEX
  5
241
  8
1
  6
CONTINUOUS
 62
     7
 10
-2329.628122350355
 20
286.3631527265733
 30
0.0
  0
VERTEX
  5
242
  8
1
  6
CONTINUOUS
 62
     7
 10
-2329.659154344536
 20
286.3626533577349
 30
0.0
  0
VERTEX
  5
243
  8
1
  6
CONTINUOUS
 62
     7
 10
-2329.689491400425
 20
286.361747322016
 30
0.0
  0
VERTEX
  5
244
  8
1
  6
CONTINUOUS
 62
     7
 10
-2329.71890902724
 20
286.3603785896273
 30
0.0
  0
VERTEX
  5
245
  8
1
  6
CONTINUOUS
 62
     7
 10
-2329.747579107366
 20
286.3584710592646
 30
0.0
  0
VERTEX
  5
246
  8
1
  6
CONTINUOUS
 62
     7
 10
-2329.775207791911
 20
286.3559733003763
 30
0.0
  0
VERTEX
  5
247
  8
1
  6
CONTINUOUS
 62
     7
 10
-2329.801885698945
 20
286.352805636439
 30
0.0
  0
VERTEX
  5
248
  8
1
  6
CONTINUOUS
 62
     7
 10
-2329.827404320158
 20
286.348919591986
 30
0.0
  0
VERTEX
  5
249
  8
1
  6
CONTINUOUS
 62
     7
 10
-2329.850958910363
 20
286.3444168211875
 30
0.0
  0
VERTEX
  5
24A
  8
1
  6
CONTINUOUS
 62
     7
 10
-2329.873332834812
 20
286.3391338329486
 30
0.0
  0
VERTEX
  5
24B
  8
1
  6
CONTINUOUS
 62
     7
 10
-2329.894616474892
 20
286.3329795846249
 30
0.0
  0
VERTEX
  5
24C
  8
1
  6
CONTINUOUS
 62
     7
 10
-2329.914623048977
 20
286.3259389315354
 30
0.0
  0
VERTEX
  5
24D
  8
1
  6
CONTINUOUS
 62
     7
 10
-2329.933487998818
 20
286.3178894969664
 30
0.0
  0
VERTEX
  5
24E
  8
1
  6
CONTINUOUS
 62
     7
 10
-2329.950985171927
 20
286.3088546841522
 30
0.0
  0
VERTEX
  5
24F
  8
1
  6
CONTINUOUS
 62
     7
 10
-2329.967189189254
 20
286.2987326110303
 30
0.0
  0
VERTEX
  5
250
  8
1
  6
CONTINUOUS
 62
     7
 10
-2329.981962992969
 20
286.2875508084806
 30
0.0
  0
VERTEX
  5
251
  8
1
  6
CONTINUOUS
 62
     7
 10
-2329.990523484218
 20
286.2799589081254
 30
0.0
  0
VERTEX
  5
252
  8
1
  6
CONTINUOUS
 62
     7
 10
-2329.998507150671
 20
286.2719387337443
 30
0.0
  0
VERTEX
  5
253
  8
1
  6
CONTINUOUS
 62
     7
 10
-2330.005629662308
 20
286.2638339079398
 30
0.0
  0
VERTEX
  5
254
  8
1
  6
CONTINUOUS
 62
     7
 10
-2330.012217942691
 20
286.2553382512985
 30
0.0
  0
VERTEX
  5
255
  8
1
  6
CONTINUOUS
 62
     7
 10
-2330.018293006418
 20
286.2464250958989
 30
0.0
  0
VERTEX
  5
256
  8
1
  6
CONTINUOUS
 62
     7
 10
-2330.023839691711
 20
286.2371210720462
 30
0.0
  0
VERTEX
  5
257
  8
1
  6
CONTINUOUS
 62
     7
 10
-2330.028916337959
 20
286.2273191081381
 30
0.0
  0
VERTEX
  5
258
  8
1
  6
CONTINUOUS
 62
     7
 10
-2330.033466238909
 20
286.2171232284548
 30
0.0
  0
VERTEX
  5
259
  8
1
  6
CONTINUOUS
 62
     7
 10
-2330.037508123593
 20
286.2065061328874
 30
0.0
  0
VERTEX
  5
25A
  8
1
  6
CONTINUOUS
 62
     7
 10
-2330.041037491312
 20
286.1955014391827
 30
0.0
  0
VERTEX
  5
25B
  8
1
  6
CONTINUOUS
 62
     7
 10
-2330.044214072395
 20
286.1834856698189
 30
0.0
  0
VERTEX
  5
25C
  8
1
  6
CONTINUOUS
 62
     7
 10
-2330.046846151898
 20
286.1710421896327
 30
0.0
  0
VERTEX
  5
25D
  8
1
  6
CONTINUOUS
 62
     7
 10
-2330.049268732981
 20
286.1558141434849
 30
0.0
  0
VERTEX
  5
25E
  8
1
  6
CONTINUOUS
 62
     7
 10
-2330.050971289479
 20
286.1400091500451
 30
0.0
  0
VERTEX
  5
25F
  8
1
  6
CONTINUOUS
 62
     7
 10
-2330.051977574843
 20
286.1236081333395
 30
0.0
  0
VERTEX
  5
260
  8
1
  6
CONTINUOUS
 62
     7
 10
-2330.052307521468
 20
286.1066541160915
 30
0.0
  0
SEQEND
  5
2D8
  8
1
  6
CONTINUOUS
 62
     7
  0
LINE
  5
A0
  8
1
  6
CONTINUOUS
 62
     7
 10
-2329.225955699135
 20
300.3633070973722
 30
0.0
 11
-2329.5962852866
 21
300.3633070973722
 31
0.0
  0
LINE
  5
A1
  8
1
  6
CONTINUOUS
 62
     9
 10
-2329.225955699135
 20
300.3633070973722
 30
0.0
 11
-2329.225955699135
 21
286.3633070973722
 31
0.0
  0
LINE
  5
A2
  8
1
  6
CONTINUOUS
 62
     7
 10
-2329.5962852866
 20
286.3633070973722
 30
0.0
 11
-2329.225955699135
 21
286.3633070973722
 31
0.0
  0
LINE
  5
A3
  8
1
  6
CONTINUOUS
 62
     9
 10
-2328.027174081867
 20
286.3633070973722
 30
0.0
 11
-2328.027174081867
 21
300.3633070973722
 31
0.0
  0
LINE
  5
A4
  8
1
  6
CONTINUOUS
 62
     7
 10
-2329.225955699135
 20
286.3633070973722
 30
0.0
 11
-2328.027174081867
 21
286.3633070973722
 31
0.0
  0
LINE
  5
A5
  8
1
  6
CONTINUOUS
 62
     7
 10
-2329.225955699135
 20
300.3633070973722
 30
0.0
 11
-2328.027174081867
 21
300.3633070973722
 31
0.0
  0
LINE
  5
A6
  8
1
  6
CONTINUOUS
 62
     7
 10
-2325.052307521468
 20
300.3633070973722
 30
0.0
 11
-2325.052307521468
 21
286.3633070973722
 31
0.0
  0
LINE
  5
A7
  8
1
  6
CONTINUOUS
 62
     7
 10
-2325.052307521468
 20
286.3633070973722
 30
0.0
 11
-2328.027174081867
 21
286.3633070973722
 31
0.0
  0
LINE
  5
A8
  8
1
  6
CONTINUOUS
 62
     7
 10
-2328.027174081867
 20
300.3633070973722
 30
0.0
 11
-2325.052307521468
 21
300.3633070973722
 31
0.0
  0
ARC
  5
A9
  8
1
  6
CONTINUOUS
 62
     7
 10
-2322.952307521468
 20
296.4633070973722
 30
0.0
 40
0.5000000000000004
 50
179.9999999999999
 51
270.0000000000007
  0
ARC
  5
AA
  8
1
  6
CONTINUOUS
 62
     7
 10
-2322.952307521468
 20
290.2633070973722
 30
0.0
 40
0.4999999999997229
 50
89.9999999999993
 51
180.0000000000001
  0
LINE
  5
AB
  8
1
  6
CONTINUOUS
 62
     7
 10
-2321.952307521468
 20
295.9633070973722
 30
0.0
 11
-2322.952307521468
 21
295.9633070973722
 31
0.0
  0
LINE
  5
AC
  8
1
  6
CONTINUOUS
 62
     7
 10
-2322.952307521468
 20
290.7633070973722
 30
0.0
 11
-2321.952307521468
 21
290.7633070973722
 31
0.0
  0
LINE
  5
AD
  8
1
  6
CONTINUOUS
 62
     7
 10
-2316.802307521468
 20
295.3633070973722
 30
0.0
 11
-2321.952307521468
 21
295.3633070973722
 31
0.0
  0
LINE
  5
AE
  8
1
  6
CONTINUOUS
 62
     7
 10
-2321.952307521468
 20
291.3633070973722
 30
0.0
 11
-2316.802307521468
 21
291.3633070973722
 31
0.0
  0
LINE
  5
AF
  8
1
  6
CONTINUOUS
 62
     7
 10
-2316.802307521468
 20
291.3633070973722
 30
0.0
 11
-2316.452307521468
 21
291.7133070973722
 31
0.0
  0
LINE
  5
B0
  8
1
  6
CONTINUOUS
 62
     7
 10
-2316.452307521468
 20
295.0133070973721
 30
0.0
 11
-2316.802307521468
 21
295.3633070973722
 31
0.0
  0
LINE
  5
B1
  8
1
  6
CONTINUOUS
 62
     7
 10
-2330.052307521468
 20
368.3633070973722
 30
0.0
 11
-2331.652307521468
 21
368.3633070973722
 31
0.0
  0
LINE
  5
B2
  8
1
  6
CONTINUOUS
 62
     7
 10
-2331.652307521468
 20
218.3633070973722
 30
0.0
 11
-2330.052307521468
 21
218.3633070973722
 31
0.0
  0
ENDBLK
  8
0
  0
BLOCK
  8
0
  2
D_FRAME_VIEW_5495
 70
     0
 10
0.0
 20
0.0
 30
0.0
  0
LINE
  5
B8
  8
1
  6
CONTINUOUS
 62
     9
 10
-2463.900383732821
 20
427.7231398143288
 30
0.0
 11
-2463.900383732821
 21
426.1187604201824
 31
0.0
  0
ARC
  5
B9
  8
1
  6
CONTINUOUS
 62
     7
 10
-2463.702307521468
 20
429.7133070973721
 30
0.0
 40
3.600000000000048
 50
180.0
 51
266.845926415137
  0
LINE
  5
BA
  8
1
  6
CONTINUOUS
 62
     7
 10
-2467.302307521468
 20
434.6133070973721
 30
0.0
 11
-2467.302307521468
 21
429.7133070973721
 31
0.0
  0
ARC
  5
BB
  8
1
  6
CONTINUOUS
 62
     7
 10
-2468.302307521468
 20
434.6133070973721
 30
0.0
 40
1.000000000000001
 50
359.9999999999998
 51
89.99999999998408
  0
LINE
  5
BC
  8
1
  6
CONTINUOUS
 62
     7
 10
-2507.302307521468
 20
435.6133070973721
 30
0.0
 11
-2468.302307521468
 21
435.6133070973721
 31
0.0
  0
ARC
  5
BD
  8
1
  6
CONTINUOUS
 62
     7
 10
-2507.302307521467
 20
434.6133070973721
 30
0.0
 40
0.9999999999998899
 50
90.00000000001593
 51
180.0000000000026
  0
LINE
  5
BE
  8
1
  6
CONTINUOUS
 62
     7
 10
-2508.302307521467
 20
434.613307097372
 30
0.0
 11
-2508.302307521467
 21
429.713307097372
 31
0.0
  0
ARC
  5
BF
  8
1
  6
CONTINUOUS
 62
     7
 10
-2511.902307521467
 20
429.713307097372
 30
0.0
 40
3.600000000000028
 50
273.1540735848641
 51
359.9999999999998
  0
LINE
  5
C0
  8
1
  6
CONTINUOUS
 62
     9
 10
-2511.704231310114
 20
427.7231398143286
 30
0.0
 11
-2511.704231310114
 21
426.1187604201822
 31
0.0
  0
ARC
  5
C1
  8
1
  6
CONTINUOUS
 62
     7
 10
-2511.902307521467
 20
429.7133070973719
 30
0.0
 40
1.99999999999978
 50
275.6837830276802
 51
359.9999999999945
  0
LINE
  5
C2
  8
1
  6
CONTINUOUS
 62
     7
 10
-2509.902307521468
 20
429.7133070973717
 30
0.0
 11
-2509.902307521468
 21
434.6133070973718
 31
0.0
  0
ARC
  5
C3
  8
1
  6
CONTINUOUS
 62
     7
 10
-2507.302307521467
 20
434.6133070973721
 30
0.0
 40
2.599999999999991
 50
90.00000000000611
 51
180.0000000000052
  0
LINE
  5
C4
  8
1
  6
CONTINUOUS
 62
     7
 10
-2507.302307521468
 20
437.213307097372
 30
0.0
 11
-2468.302307521468
 21
437.213307097372
 31
0.0
  0
LINE
  5
C5
  8
1
  6
CONTINUOUS
 62
     7
 10
-2465.702307521468
 20
429.713307097372
 30
0.0
 11
-2465.702307521468
 21
434.613307097372
 31
0.0
  0
ARC
  5
C6
  8
1
  6
CONTINUOUS
 62
     7
 10
-2463.702307521468
 20
429.7133070973721
 30
0.0
 40
2.000000000000012
 50
180.0000000000011
 51
264.3162169723207
  0
ARC
  5
C7
  8
1
  6
CONTINUOUS
 62
     7
 10
-2468.302307521468
 20
434.6133070973721
 30
0.0
 40
2.600000000000158
 50
359.9999999999987
 51
89.99999999999386
  0
LINE
  5
C8
  8
1
  6
CONTINUOUS
 62
     7
 10
-2463.702307521468
 20
427.7133070973721
 30
0.0
 11
-2461.400383732821
 21
427.7133070973721
 31
0.0
  0
LINE
  5
C9
  8
1
  6
CONTINUOUS
 62
     9
 10
-2461.400383732821
 20
427.7133070973721
 30
0.0
 11
-2461.400383732821
 21
426.1133070973721
 31
0.0
  0
LINE
  5
CA
  8
1
  6
CONTINUOUS
 62
     7
 10
-2463.702307521468
 20
426.1133070973721
 30
0.0
 11
-2461.400383732821
 21
426.1133070973721
 31
0.0
  0
LINE
  5
CB
  8
1
  6
CONTINUOUS
 62
     7
 10
-2463.900383732821
 20
426.1187604201824
 30
0.0
 11
-2463.702307521468
 21
426.1133070973721
 31
0.0
  0
LINE
  5
CC
  8
1
  6
CONTINUOUS
 62
     7
 10
-2463.702307521468
 20
427.7133070973721
 30
0.0
 11
-2463.900383732821
 21
427.7231398143288
 31
0.0
  0
LINE
  5
CD
  8
1
  6
CONTINUOUS
 62
     9
 10
-2514.204231310114
 20
427.7133070973719
 30
0.0
 11
-2514.204231310114
 21
426.113307097372
 31
0.0
  0
LINE
  5
CE
  8
1
  6
CONTINUOUS
 62
     7
 10
-2511.902307521467
 20
427.7133070973719
 30
0.0
 11
-2514.204231310114
 21
427.7133070973719
 31
0.0
  0
LINE
  5
CF
  8
1
  6
CONTINUOUS
 62
     7
 10
-2511.902307521467
 20
426.113307097372
 30
0.0
 11
-2511.704231310114
 21
426.1187604201822
 31
0.0
  0
LINE
  5
D0
  8
1
  6
CONTINUOUS
 62
     7
 10
-2511.902307521467
 20
426.113307097372
 30
0.0
 11
-2514.204231310114
 21
426.113307097372
 31
0.0
  0
LINE
  5
D1
  8
1
  6
CONTINUOUS
 62
     7
 10
-2511.704231310114
 20
427.7231398143286
 30
0.0
 11
-2511.902307521467
 21
427.7133070973719
 31
0.0
  0
LINE
  5
D2
  8
1
  6
CONTINUOUS
 62
     9
 10
-2453.802307521468
 20
427.7133070973721
 30
0.0
 11
-2453.802307521468
 21
426.1133070973721
 31
0.0
  0
LINE
  5
D3
  8
1
  6
CONTINUOUS
 62
     7
 10
-2461.400383732821
 20
426.1133070973721
 30
0.0
 11
-2453.802307521468
 21
426.1133070973721
 31
0.0
  0
LINE
  5
D4
  8
1
  6
CONTINUOUS
 62
     7
 10
-2461.400383732821
 20
427.7133070973721
 30
0.0
 11
-2453.802307521468
 21
427.7133070973721
 31
0.0
  0
LINE
  5
D5
  8
1
  6
CONTINUOUS
 62
     9
 10
-2521.802307521467
 20
427.7133070973719
 30
0.0
 11
-2521.802307521467
 21
426.113307097372
 31
0.0
  0
LINE
  5
D6
  8
1
  6
CONTINUOUS
 62
     7
 10
-2514.204231310114
 20
426.113307097372
 30
0.0
 11
-2521.802307521467
 21
426.113307097372
 31
0.0
  0
LINE
  5
D7
  8
1
  6
CONTINUOUS
 62
     7
 10
-2514.204231310114
 20
427.7133070973719
 30
0.0
 11
-2521.802307521467
 21
427.7133070973719
 31
0.0
  0
LINE
  5
D8
  8
1
  6
CONTINUOUS
 62
     7
 10
-2451.302307521468
 20
427.7133070973721
 30
0.0
 11
-2451.302307521468
 21
426.1133070973721
 31
0.0
  0
LINE
  5
D9
  8
1
  6
CONTINUOUS
 62
     7
 10
-2453.802307521468
 20
426.1133070973721
 30
0.0
 11
-2453.156967480269
 21
426.1133070973721
 31
0.0
  0
LINE
  5
DA
  8
1
  6
CONTINUOUS
 62
     7
 10
-2453.802307521468
 20
427.7133070973721
 30
0.0
 11
-2451.302307521468
 21
427.7133070973721
 31
0.0
  0
LINE
  5
DB
  8
1
  6
CONTINUOUS
 62
     7
 10
-2524.302307521467
 20
427.7133070973719
 30
0.0
 11
-2524.302307521467
 21
426.113307097372
 31
0.0
  0
LINE
  5
DC
  8
1
  6
CONTINUOUS
 62
     7
 10
-2521.802307521467
 20
426.113307097372
 30
0.0
 11
-2522.447647562666
 21
426.113307097372
 31
0.0
  0
LINE
  5
DD
  8
1
  6
CONTINUOUS
 62
     7
 10
-2521.802307521467
 20
427.7133070973719
 30
0.0
 11
-2524.302307521467
 21
427.7133070973719
 31
0.0
  0
LINE
  5
DE
  8
1
  6
CONTINUOUS
 62
     9
 10
-2461.402307521468
 20
428.2133070973721
 30
0.0
 11
-2456.202307521468
 21
428.2133070973721
 31
0.0
  0
LINE
  5
DF
  8
1
  6
CONTINUOUS
 62
     9
 10
-2514.202307521467
 20
428.2133070973719
 30
0.0
 11
-2519.402307521467
 21
428.2133070973719
 31
0.0
  0
LINE
  5
E0
  8
1
  6
CONTINUOUS
 62
     7
 10
-2461.402307521468
 20
429.2133070973721
 30
0.0
 11
-2456.202307521468
 21
429.2133070973721
 31
0.0
  0
LINE
  5
E1
  8
1
  6
CONTINUOUS
 62
     7
 10
-2514.202307521467
 20
429.2133070973719
 30
0.0
 11
-2519.402307521467
 21
429.2133070973719
 31
0.0
  0
LINE
  5
E2
  8
1
  6
CONTINUOUS
 62
     7
 10
-2520.730506783823
 20
422.7133070973717
 30
0.0
 11
-2512.730506783823
 21
422.7133070973717
 31
0.0
  0
LINE
  5
E3
  8
1
  6
CONTINUOUS
 62
     7
 10
-2514.730506783823
 20
434.3633070973718
 30
0.0
 11
-2518.730506783823
 21
434.3633070973718
 31
0.0
  0
LINE
  5
E4
  8
1
  6
CONTINUOUS
 62
     7
 10
-2518.380506783823
 20
434.7133070973717
 30
0.0
 11
-2515.080506783823
 21
434.7133070973717
 31
0.0
  0
LINE
  5
E5
  8
1
  6
CONTINUOUS
 62
     7
 10
-2462.874108259113
 20
422.7133070973721
 30
0.0
 11
-2454.874108259113
 21
422.7133070973721
 31
0.0
  0
LINE
  5
E6
  8
1
  6
CONTINUOUS
 62
     7
 10
-2456.874108259114
 20
434.3633070973721
 30
0.0
 11
-2460.874108259114
 21
434.3633070973721
 31
0.0
  0
LINE
  5
E7
  8
1
  6
CONTINUOUS
 62
     7
 10
-2460.524108259114
 20
434.7133070973721
 30
0.0
 11
-2457.224108259114
 21
434.7133070973721
 31
0.0
  0
LINE
  5
E8
  8
1
  6
CONTINUOUS
 62
     7
 10
-2516.778506783823
 20
422.7133070973712
 30
0.0
 11
-2516.648506783823
 21
423.7133070973729
 31
0.0
  0
LINE
  5
E9
  8
1
  6
CONTINUOUS
 62
     7
 10
-2516.812506783823
 20
423.7133070973712
 30
0.0
 11
-2516.942506783823
 21
422.7133070973696
 31
0.0
  0
LINE
  5
EA
  8
1
  6
CONTINUOUS
 62
     7
 10
-2458.922108259113
 20
422.7133070973721
 30
0.0
 11
-2458.792108259113
 21
423.7133070973721
 31
0.0
  0
LINE
  5
EB
  8
1
  6
CONTINUOUS
 62
     7
 10
-2458.956108259114
 20
423.7133070973721
 30
0.0
 11
-2459.086108259114
 21
422.7133070973721
 31
0.0
  0
LINE
  5
EC
  8
1
  6
CONTINUOUS
 62
     7
 10
-2454.374108259114
 20
423.7133070973721
 30
0.0
 11
-2463.374108259114
 21
423.7133070973721
 31
0.0
  0
LINE
  5
ED
  8
1
  6
CONTINUOUS
 62
     7
 10
-2512.230506783822
 20
423.7133070973721
 30
0.0
 11
-2521.230506783823
 21
423.7133070973721
 31
0.0
  0
LINE
  5
EE
  8
1
  6
CONTINUOUS
 62
     7
 10
-2562.802307521468
 20
419.5133070973721
 30
0.0
 11
-2412.802307521468
 21
419.5133070973721
 31
0.0
  0
LINE
  5
EF
  8
1
  6
CONTINUOUS
 62
     7
 10
-2562.802307521468
 20
421.1133070973721
 30
0.0
 11
-2412.802307521468
 21
421.1133070973721
 31
0.0
  0
POLYLINE
  5
F0
  8
1
  6
CONTINUOUS
 62
     7
 66
     1
 10
0.0
 20
0.0
 30
0.0
  0
VERTEX
  5
261
  8
1
  6
CONTINUOUS
 62
     7
 10
-2529.891407152646
 20
421.1133070973721
 30
0.0
  0
VERTEX
  5
262
  8
1
  6
CONTINUOUS
 62
     7
 10
-2529.859386476733
 20
421.1138200922696
 30
0.0
  0
VERTEX
  5
263
  8
1
  6
CONTINUOUS
 62
     7
 10
-2529.826864915288
 20
421.1153921212359
 30
0.0
  0
VERTEX
  5
264
  8
1
  6
CONTINUOUS
 62
     7
 10
-2529.793607128669
 20
421.1181012819171
 30
0.0
  0
VERTEX
  5
265
  8
1
  6
CONTINUOUS
 62
     7
 10
-2529.75994942686
 20
421.1219853199803
 30
0.0
  0
VERTEX
  5
266
  8
1
  6
CONTINUOUS
 62
     7
 10
-2529.725502379811
 20
421.1271656788929
 30
0.0
  0
VERTEX
  5
267
  8
1
  6
CONTINUOUS
 62
     7
 10
-2529.690781762965
 20
421.1336390653246
 30
0.0
  0
VERTEX
  5
268
  8
1
  6
CONTINUOUS
 62
     7
 10
-2529.655527288061
 20
421.1415253256634
 30
0.0
  0
VERTEX
  5
269
  8
1
  6
CONTINUOUS
 62
     7
 10
-2529.620156889612
 20
421.150798242969
 30
0.0
  0
VERTEX
  5
26A
  8
1
  6
CONTINUOUS
 62
     7
 10
-2529.585829035519
 20
421.1611405492694
 30
0.0
  0
VERTEX
  5
26B
  8
1
  6
CONTINUOUS
 62
     7
 10
-2529.551559042312
 20
421.1728267616377
 30
0.0
  0
VERTEX
  5
26C
  8
1
  6
CONTINUOUS
 62
     7
 10
-2529.51706130191
 20
421.1860184719949
 30
0.0
  0
VERTEX
  5
26D
  8
1
  6
CONTINUOUS
 62
     7
 10
-2529.482799822007
 20
421.2005968205874
 30
0.0
  0
VERTEX
  5
26E
  8
1
  6
CONTINUOUS
 62
     7
 10
-2529.448317429848
 20
421.2168304317244
 30
0.0
  0
VERTEX
  5
26F
  8
1
  6
CONTINUOUS
 62
     7
 10
-2529.414264548759
 20
421.2344812127074
 30
0.0
  0
VERTEX
  5
270
  8
1
  6
CONTINUOUS
 62
     7
 10
-2529.380358746936
 20
421.2537558137008
 30
0.0
  0
VERTEX
  5
271
  8
1
  6
CONTINUOUS
 62
     7
 10
-2529.347076024827
 20
421.2744366524951
 30
0.0
  0
VERTEX
  5
272
  8
1
  6
CONTINUOUS
 62
     7
 10
-2529.324731309449
 20
421.2893664108511
 30
0.0
  0
VERTEX
  5
273
  8
1
  6
CONTINUOUS
 62
     7
 10
-2529.302745114845
 20
421.3049278514409
 30
0.0
  0
VERTEX
  5
274
  8
1
  6
CONTINUOUS
 62
     7
 10
-2529.266666552914
 20
421.3324758442439
 30
0.0
  0
VERTEX
  5
275
  8
1
  6
CONTINUOUS
 62
     7
 10
-2529.231785596023
 20
421.3617091982003
 30
0.0
  0
VERTEX
  5
276
  8
1
  6
CONTINUOUS
 62
     7
 10
-2529.197683813803
 20
421.3930666681559
 30
0.0
  0
VERTEX
  5
277
  8
1
  6
CONTINUOUS
 62
     7
 10
-2529.165026088636
 20
421.4260149107087
 30
0.0
  0
VERTEX
  5
278
  8
1
  6
CONTINUOUS
 62
     7
 10
-2529.146009214451
 20
421.4466874810198
 30
0.0
  0
VERTEX
  5
279
  8
1
  6
CONTINUOUS
 62
     7
 10
-2529.127572930694
 20
421.4678946080475
 30
0.0
  0
VERTEX
  5
27A
  8
1
  6
CONTINUOUS
 62
     7
 10
-2529.107610290607
 20
421.4922900409389
 30
0.0
  0
VERTEX
  5
27B
  8
1
  6
CONTINUOUS
 62
     7
 10
-2529.088422269018
 20
421.5173077041968
 30
0.0
  0
VERTEX
  5
27C
  8
1
  6
CONTINUOUS
 62
     7
 10
-2529.069953563708
 20
421.5430319692305
 30
0.0
  0
VERTEX
  5
27D
  8
1
  6
CONTINUOUS
 62
     7
 10
-2529.052307521468
 20
421.5693293322399
 30
0.0
  0
SEQEND
  5
2D9
  8
1
  6
CONTINUOUS
 62
     7
  0
LINE
  5
F1
  8
1
  6
CONTINUOUS
 62
     9
 10
-2529.052307521468
 20
421.5693293322399
 30
0.0
 11
-2529.052307521468
 21
421.1133070973721
 31
0.0
  0
LINE
  5
F2
  8
1
  6
CONTINUOUS
 62
     9
 10
-2508.052307521468
 20
421.5693293322399
 30
0.0
 11
-2508.052307521468
 21
421.1133070973721
 31
0.0
  0
POLYLINE
  5
F3
  8
1
  6
CONTINUOUS
 62
     7
 66
     1
 10
0.0
 20
0.0
 30
0.0
  0
VERTEX
  5
27E
  8
1
  6
CONTINUOUS
 62
     7
 10
-2508.052307521468
 20
421.5693293322399
 30
0.0
  0
VERTEX
  5
27F
  8
1
  6
CONTINUOUS
 62
     7
 10
-2508.030802776597
 20
421.5375137373472
 30
0.0
  0
VERTEX
  5
280
  8
1
  6
CONTINUOUS
 62
     7
 10
-2508.008094695219
 20
421.5065493472356
 30
0.0
  0
VERTEX
  5
281
  8
1
  6
CONTINUOUS
 62
     7
 10
-2507.9839976142
 20
421.4762180043871
 30
0.0
  0
VERTEX
  5
282
  8
1
  6
CONTINUOUS
 62
     7
 10
-2507.958753479172
 20
421.446852466583
 30
0.0
  0
VERTEX
  5
283
  8
1
  6
CONTINUOUS
 62
     7
 10
-2507.932040315549
 20
421.4181242870451
 30
0.0
  0
VERTEX
  5
284
  8
1
  6
CONTINUOUS
 62
     7
 10
-2507.904245543611
 20
421.3904883360672
 30
0.0
  0
VERTEX
  5
285
  8
1
  6
CONTINUOUS
 62
     7
 10
-2507.875139931853
 20
421.3637438603625
 30
0.0
  0
VERTEX
  5
286
  8
1
  6
CONTINUOUS
 62
     7
 10
-2507.845050396506
 20
421.3382102986824
 30
0.0
  0
VERTEX
  5
287
  8
1
  6
CONTINUOUS
 62
     7
 10
-2507.815025931602
 20
421.3146744196774
 30
0.0
  0
VERTEX
  5
288
  8
1
  6
CONTINUOUS
 62
     7
 10
-2507.784207125815
 20
421.2923565062703
 30
0.0
  0
VERTEX
  5
289
  8
1
  6
CONTINUOUS
 62
     7
 10
-2507.752322715936
 20
421.2710754114769
 30
0.0
  0
VERTEX
  5
28A
  8
1
  6
CONTINUOUS
 62
     7
 10
-2507.719775977935
 20
421.2511071364696
 30
0.0
  0
VERTEX
  5
28B
  8
1
  6
CONTINUOUS
 62
     7
 10
-2507.686112926533
 20
421.2321943151614
 30
0.0
  0
VERTEX
  5
28C
  8
1
  6
CONTINUOUS
 62
     7
 10
-2507.651938831264
 20
421.214688623584
 30
0.0
  0
VERTEX
  5
28D
  8
1
  6
CONTINUOUS
 62
     7
 10
-2507.61695433059
 20
421.1984367891758
 30
0.0
  0
VERTEX
  5
28E
  8
1
  6
CONTINUOUS
 62
     7
 10
-2507.581637943772
 20
421.1836516258713
 30
0.0
  0
VERTEX
  5
28F
  8
1
  6
CONTINUOUS
 62
     7
 10
-2507.557253671077
 20
421.1743543507446
 30
0.0
  0
VERTEX
  5
290
  8
1
  6
CONTINUOUS
 62
     7
 10
-2507.532790754453
 20
421.1657487651655
 30
0.0
  0
VERTEX
  5
291
  8
1
  6
CONTINUOUS
 62
     7
 10
-2507.491563688489
 20
421.1528299782984
 30
0.0
  0
VERTEX
  5
292
  8
1
  6
CONTINUOUS
 62
     7
 10
-2507.450348893525
 20
421.1418318560072
 30
0.0
  0
VERTEX
  5
293
  8
1
  6
CONTINUOUS
 62
     7
 10
-2507.408604294105
 20
421.1325835506385
 30
0.0
  0
VERTEX
  5
294
  8
1
  6
CONTINUOUS
 62
     7
 10
-2507.367157117622
 20
421.125228337655
 30
0.0
  0
VERTEX
  5
295
  8
1
  6
CONTINUOUS
 62
     7
 10
-2507.342275242269
 20
421.1216713553621
 30
0.0
  0
VERTEX
  5
296
  8
1
  6
CONTINUOUS
 62
     7
 10
-2507.317577007286
 20
421.1187684669421
 30
0.0
  0
VERTEX
  5
297
  8
1
  6
CONTINUOUS
 62
     7
 10
-2507.291094718065
 20
421.1163449901073
 30
0.0
  0
VERTEX
  5
298
  8
1
  6
CONTINUOUS
 62
     7
 10
-2507.264886497682
 20
421.114643329361
 30
0.0
  0
VERTEX
  5
299
  8
1
  6
CONTINUOUS
 62
     7
 10
-2507.238882526385
 20
421.1136368267312
 30
0.0
  0
VERTEX
  5
29A
  8
1
  6
CONTINUOUS
 62
     7
 10
-2507.213207890291
 20
421.1133070973721
 30
0.0
  0
SEQEND
  5
2DA
  8
1
  6
CONTINUOUS
 62
     7
  0
POLYLINE
  5
F4
  8
1
  6
CONTINUOUS
 62
     7
 66
     1
 10
0.0
 20
0.0
 30
0.0
  0
VERTEX
  5
29B
  8
1
  6
CONTINUOUS
 62
     7
 10
-2445.713207890291
 20
421.1133070973721
 30
0.0
  0
VERTEX
  5
29C
  8
1
  6
CONTINUOUS
 62
     7
 10
-2445.745228566203
 20
421.1138200922697
 30
0.0
  0
VERTEX
  5
29D
  8
1
  6
CONTINUOUS
 62
     7
 10
-2445.777750127648
 20
421.1153921212359
 30
0.0
  0
VERTEX
  5
29E
  8
1
  6
CONTINUOUS
 62
     7
 10
-2445.811007914267
 20
421.1181012819171
 30
0.0
  0
VERTEX
  5
29F
  8
1
  6
CONTINUOUS
 62
     7
 10
-2445.844665616077
 20
421.1219853199803
 30
0.0
  0
VERTEX
  5
2A0
  8
1
  6
CONTINUOUS
 62
     7
 10
-2445.879112663125
 20
421.1271656788929
 30
0.0
  0
VERTEX
  5
2A1
  8
1
  6
CONTINUOUS
 62
     7
 10
-2445.913833279971
 20
421.1336390653246
 30
0.0
  0
VERTEX
  5
2A2
  8
1
  6
CONTINUOUS
 62
     7
 10
-2445.949087754876
 20
421.1415253256634
 30
0.0
  0
VERTEX
  5
2A3
  8
1
  6
CONTINUOUS
 62
     7
 10
-2445.984458153324
 20
421.150798242969
 30
0.0
  0
VERTEX
  5
2A4
  8
1
  6
CONTINUOUS
 62
     7
 10
-2446.018786007418
 20
421.1611405492694
 30
0.0
  0
VERTEX
  5
2A5
  8
1
  6
CONTINUOUS
 62
     7
 10
-2446.053056000624
 20
421.1728267616378
 30
0.0
  0
VERTEX
  5
2A6
  8
1
  6
CONTINUOUS
 62
     7
 10
-2446.087553741026
 20
421.186018471995
 30
0.0
  0
VERTEX
  5
2A7
  8
1
  6
CONTINUOUS
 62
     7
 10
-2446.121815220929
 20
421.2005968205874
 30
0.0
  0
VERTEX
  5
2A8
  8
1
  6
CONTINUOUS
 62
     7
 10
-2446.156297613089
 20
421.2168304317244
 30
0.0
  0
VERTEX
  5
2A9
  8
1
  6
CONTINUOUS
 62
     7
 10
-2446.190350494177
 20
421.2344812127074
 30
0.0
  0
VERTEX
  5
2AA
  8
1
  6
CONTINUOUS
 62
     7
 10
-2446.224256296
 20
421.2537558137008
 30
0.0
  0
VERTEX
  5
2AB
  8
1
  6
CONTINUOUS
 62
     7
 10
-2446.257539018109
 20
421.2744366524951
 30
0.0
  0
VERTEX
  5
2AC
  8
1
  6
CONTINUOUS
 62
     7
 10
-2446.279883733487
 20
421.2893664108511
 30
0.0
  0
VERTEX
  5
2AD
  8
1
  6
CONTINUOUS
 62
     7
 10
-2446.301869928091
 20
421.3049278514409
 30
0.0
  0
VERTEX
  5
2AE
  8
1
  6
CONTINUOUS
 62
     7
 10
-2446.337948490022
 20
421.3324758442439
 30
0.0
  0
VERTEX
  5
2AF
  8
1
  6
CONTINUOUS
 62
     7
 10
-2446.372829446913
 20
421.3617091982003
 30
0.0
  0
VERTEX
  5
2B0
  8
1
  6
CONTINUOUS
 62
     7
 10
-2446.406931229133
 20
421.3930666681559
 30
0.0
  0
VERTEX
  5
2B1
  8
1
  6
CONTINUOUS
 62
     7
 10
-2446.4395889543
 20
421.4260149107087
 30
0.0
  0
VERTEX
  5
2B2
  8
1
  6
CONTINUOUS
 62
     7
 10
-2446.458605828485
 20
421.4466874810198
 30
0.0
  0
VERTEX
  5
2B3
  8
1
  6
CONTINUOUS
 62
     7
 10
-2446.477042112242
 20
421.4678946080475
 30
0.0
  0
VERTEX
  5
2B4
  8
1
  6
CONTINUOUS
 62
     7
 10
-2446.497004752329
 20
421.4922900409389
 30
0.0
  0
VERTEX
  5
2B5
  8
1
  6
CONTINUOUS
 62
     7
 10
-2446.516192773919
 20
421.5173077041968
 30
0.0
  0
VERTEX
  5
2B6
  8
1
  6
CONTINUOUS
 62
     7
 10
-2446.534661479228
 20
421.5430319692305
 30
0.0
  0
VERTEX
  5
2B7
  8
1
  6
CONTINUOUS
 62
     7
 10
-2446.552307521468
 20
421.5693293322399
 30
0.0
  0
SEQEND
  5
2DB
  8
1
  6
CONTINUOUS
 62
     7
  0
LINE
  5
F5
  8
1
  6
CONTINUOUS
 62
     9
 10
-2446.552307521468
 20
421.5693293322399
 30
0.0
 11
-2446.552307521468
 21
421.1133070973721
 31
0.0
  0
POLYLINE
  5
F6
  8
1
  6
CONTINUOUS
 62
     7
 66
     1
 10
0.0
 20
0.0
 30
0.0
  0
VERTEX
  5
2B8
  8
1
  6
CONTINUOUS
 62
     7
 10
-2467.552307521468
 20
421.5693293322399
 30
0.0
  0
VERTEX
  5
2B9
  8
1
  6
CONTINUOUS
 62
     7
 10
-2467.573812266339
 20
421.5375137373472
 30
0.0
  0
VERTEX
  5
2BA
  8
1
  6
CONTINUOUS
 62
     7
 10
-2467.596520347717
 20
421.5065493472356
 30
0.0
  0
VERTEX
  5
2BB
  8
1
  6
CONTINUOUS
 62
     7
 10
-2467.620617428736
 20
421.4762180043871
 30
0.0
  0
VERTEX
  5
2BC
  8
1
  6
CONTINUOUS
 62
     7
 10
-2467.645861563764
 20
421.446852466583
 30
0.0
  0
VERTEX
  5
2BD
  8
1
  6
CONTINUOUS
 62
     7
 10
-2467.672574727387
 20
421.4181242870451
 30
0.0
  0
VERTEX
  5
2BE
  8
1
  6
CONTINUOUS
 62
     7
 10
-2467.700369499325
 20
421.3904883360672
 30
0.0
  0
VERTEX
  5
2BF
  8
1
  6
CONTINUOUS
 62
     7
 10
-2467.729475111083
 20
421.3637438603625
 30
0.0
  0
VERTEX
  5
2C0
  8
1
  6
CONTINUOUS
 62
     7
 10
-2467.75956464643
 20
421.3382102986824
 30
0.0
  0
VERTEX
  5
2C1
  8
1
  6
CONTINUOUS
 62
     7
 10
-2467.789589111334
 20
421.3146744196774
 30
0.0
  0
VERTEX
  5
2C2
  8
1
  6
CONTINUOUS
 62
     7
 10
-2467.820407917121
 20
421.2923565062703
 30
0.0
  0
VERTEX
  5
2C3
  8
1
  6
CONTINUOUS
 62
     7
 10
-2467.852292327
 20
421.2710754114769
 30
0.0
  0
VERTEX
  5
2C4
  8
1
  6
CONTINUOUS
 62
     7
 10
-2467.884839065001
 20
421.2511071364696
 30
0.0
  0
VERTEX
  5
2C5
  8
1
  6
CONTINUOUS
 62
     7
 10
-2467.918502116403
 20
421.2321943151615
 30
0.0
  0
VERTEX
  5
2C6
  8
1
  6
CONTINUOUS
 62
     7
 10
-2467.952676211673
 20
421.2146886235841
 30
0.0
  0
VERTEX
  5
2C7
  8
1
  6
CONTINUOUS
 62
     7
 10
-2467.987660712346
 20
421.1984367891758
 30
0.0
  0
VERTEX
  5
2C8
  8
1
  6
CONTINUOUS
 62
     7
 10
-2468.022977099164
 20
421.1836516258713
 30
0.0
  0
VERTEX
  5
2C9
  8
1
  6
CONTINUOUS
 62
     7
 10
-2468.04736137186
 20
421.1743543507446
 30
0.0
  0
VERTEX
  5
2CA
  8
1
  6
CONTINUOUS
 62
     7
 10
-2468.071824288483
 20
421.1657487651655
 30
0.0
  0
VERTEX
  5
2CB
  8
1
  6
CONTINUOUS
 62
     7
 10
-2468.113051354447
 20
421.1528299782984
 30
0.0
  0
VERTEX
  5
2CC
  8
1
  6
CONTINUOUS
 62
     7
 10
-2468.154266149411
 20
421.1418318560072
 30
0.0
  0
VERTEX
  5
2CD
  8
1
  6
CONTINUOUS
 62
     7
 10
-2468.196010748831
 20
421.1325835506385
 30
0.0
  0
VERTEX
  5
2CE
  8
1
  6
CONTINUOUS
 62
     7
 10
-2468.237457925314
 20
421.125228337655
 30
0.0
  0
VERTEX
  5
2CF
  8
1
  6
CONTINUOUS
 62
     7
 10
-2468.262339800667
 20
421.1216713553621
 30
0.0
  0
VERTEX
  5
2D0
  8
1
  6
CONTINUOUS
 62
     7
 10
-2468.28703803565
 20
421.1187684669421
 30
0.0
  0
VERTEX
  5
2D1
  8
1
  6
CONTINUOUS
 62
     7
 10
-2468.313520324871
 20
421.1163449901073
 30
0.0
  0
VERTEX
  5
2D2
  8
1
  6
CONTINUOUS
 62
     7
 10
-2468.339728545255
 20
421.114643329361
 30
0.0
  0
VERTEX
  5
2D3
  8
1
  6
CONTINUOUS
 62
     7
 10
-2468.365732516551
 20
421.1136368267312
 30
0.0
  0
VERTEX
  5
2D4
  8
1
  6
CONTINUOUS
 62
     7
 10
-2468.391407152645
 20
421.1133070973721
 30
0.0
  0
SEQEND
  5
2DC
  8
1
  6
CONTINUOUS
 62
     7
  0
LINE
  5
F7
  8
1
  6
CONTINUOUS
 62
     9
 10
-2467.552307521468
 20
421.5693293322399
 30
0.0
 11
-2467.552307521468
 21
421.1133070973721
 31
0.0
  0
ARC
  5
F8
  8
1
  6
CONTINUOUS
 62
     7
 10
-2511.954701097248
 20
422.5133070973721
 30
0.0
 40
3.599999999999992
 50
88.49426465826161
 51
90.0
  0
ARC
  5
F9
  8
1
  6
CONTINUOUS
 62
     7
 10
-2511.954701097248
 20
422.5133070973721
 30
0.0
 40
3.599999999999981
 50
10.0
 51
88.49426465826161
  0
LINE
  5
FA
  8
1
  6
CONTINUOUS
 62
     7
 10
-2508.198015643303
 20
421.9396589197052
 30
0.0
 11
-2508.409393186404
 21
423.138440536973
 31
0.0
  0
LINE
  5
FB
  8
1
  6
CONTINUOUS
 62
     7
 10
-2509.549513734697
 20
421.6618218354381
 30
0.0
 11
-2509.760891277798
 21
422.860603452706
 31
0.0
  0
ARC
  5
FC
  8
1
  6
CONTINUOUS
 62
     7
 10
-2511.730506783822
 20
422.5133070973721
 30
0.0
 40
1.999999999999846
 50
9.999999999999975
 51
90.0
  0
LINE
  5
FD
  8
1
  6
CONTINUOUS
 62
     7
 10
-2511.730506783822
 20
424.5133070973721
 30
0.0
 11
-2525.374108259113
 21
424.5133070973721
 31
0.0
  0
ARC
  5
FE
  8
1
  6
CONTINUOUS
 62
     7
 10
-2525.374108259113
 20
422.5133070973721
 30
0.0
 40
2.000000000000002
 50
90.0
 51
170.0000000000001
  0
LINE
  5
FF
  8
1
  6
CONTINUOUS
 62
     7
 10
-2527.55510130824
 20
421.6618218354381
 30
0.0
 11
-2527.343723765138
 21
422.8606034527059
 31
0.0
  0
LINE
  5
100
  8
1
  6
CONTINUOUS
 62
     7
 10
-2528.906599399633
 20
421.9396589197052
 30
0.0
 11
-2528.695221856532
 21
423.138440536973
 31
0.0
  0
ARC
  5
101
  8
1
  6
CONTINUOUS
 62
     7
 10
-2525.149913945687
 20
422.5133070973721
 30
0.0
 40
3.600000000000326
 50
90.0
 51
170.0
  0
LINE
  5
102
  8
1
  6
CONTINUOUS
 62
     7
 10
-2522.447647562666
 20
426.113307097372
 30
0.0
 11
-2525.149913945687
 21
426.1133070973721
 31
0.0
  0
ARC
  5
103
  8
1
  6
CONTINUOUS
 62
     7
 10
-2529.891407152646
 20
422.1133070973721
 30
0.0
 40
1.000000000000248
 50
327.045164673287
 51
350.0000000000001
  0
ARC
  5
104
  8
1
  6
CONTINUOUS
 62
     7
 10
-2507.213207890291
 20
422.1133070973721
 30
0.0
 40
1.000000000000137
 50
190.0000000000001
 51
212.9548353267156
  0
ARC
  5
105
  8
1
  6
CONTINUOUS
 62
     7
 10
-2530.115601466071
 20
422.1133070973721
 30
0.0
 40
2.600000000000189
 50
337.3801350519595
 51
349.9999999999999
  0
ARC
  5
106
  8
1
  6
CONTINUOUS
 62
     7
 10
-2506.989013576865
 20
422.1133070973721
 30
0.0
 40
2.600000000000166
 50
190.0000000000001
 51
202.6198649480405
  0
ARC
  5
107
  8
1
  6
CONTINUOUS
 62
     7
 10
-2450.454701097249
 20
422.5133070973721
 30
0.0
 40
3.600000000000335
 50
10.00000000000001
 51
90.0
  0
LINE
  5
108
  8
1
  6
CONTINUOUS
 62
     7
 10
-2446.698015643303
 20
421.9396589197052
 30
0.0
 11
-2446.909393186404
 21
423.1384405369731
 31
0.0
  0
LINE
  5
109
  8
1
  6
CONTINUOUS
 62
     7
 10
-2448.049513734697
 20
421.6618218354381
 30
0.0
 11
-2448.260891277798
 21
422.860603452706
 31
0.0
  0
ARC
  5
10A
  8
1
  6
CONTINUOUS
 62
     7
 10
-2450.230506783823
 20
422.5133070973721
 30
0.0
 40
2.000000000000002
 50
9.999999999999945
 51
90.0
  0
LINE
  5
10B
  8
1
  6
CONTINUOUS
 62
     7
 10
-2463.874108259114
 20
424.5133070973721
 30
0.0
 11
-2450.230506783823
 21
424.5133070973721
 31
0.0
  0
ARC
  5
10C
  8
1
  6
CONTINUOUS
 62
     7
 10
-2463.874108259114
 20
422.5133070973721
 30
0.0
 40
1.999999999999846
 50
90.0
 51
170.0
  0
LINE
  5
10D
  8
1
  6
CONTINUOUS
 62
     7
 10
-2466.05510130824
 20
421.6618218354381
 30
0.0
 11
-2465.843723765138
 21
422.860603452706
 31
0.0
  0
LINE
  5
10E
  8
1
  6
CONTINUOUS
 62
     7
 10
-2467.406599399633
 20
421.9396589197052
 30
0.0
 11
-2467.195221856532
 21
423.1384405369731
 31
0.0
  0
ARC
  5
10F
  8
1
  6
CONTINUOUS
 62
     7
 10
-2463.649913945688
 20
422.5133070973721
 30
0.0
 40
3.599999999999992
 50
90.0
 51
93.9045785512601
  0
ARC
  5
110
  8
1
  6
CONTINUOUS
 62
     7
 10
-2463.649913945688
 20
422.5133070973721
 30
0.0
 40
3.599999999999985
 50
93.90457855126002
 51
170.0
  0
LINE
  5
111
  8
1
  6
CONTINUOUS
 62
     7
 10
-2453.156967480269
 20
426.1133070973721
 30
0.0
 11
-2450.454701097249
 21
426.1133070973721
 31
0.0
  0
ARC
  5
112
  8
1
  6
CONTINUOUS
 62
     7
 10
-2445.713207890291
 20
422.1133070973721
 30
0.0
 40
1.000000000000248
 50
190.0
 51
212.954835326713
  0
ARC
  5
113
  8
1
  6
CONTINUOUS
 62
     7
 10
-2468.391407152645
 20
422.1133070973721
 30
0.0
 40
1.000000000000137
 50
327.0451646732844
 51
349.9999999999999
  0
ARC
  5
114
  8
1
  6
CONTINUOUS
 62
     7
 10
-2445.489013576865
 20
422.1133070973721
 30
0.0
 40
2.600000000000189
 50
190.0000000000001
 51
202.6198649480405
  0
ARC
  5
115
  8
1
  6
CONTINUOUS
 62
     7
 10
-2468.615601466071
 20
422.1133070973721
 30
0.0
 40
2.600000000000166
 50
337.3801350519595
 51
349.9999999999999
  0
ARC
  5
116
  8
1
  6
CONTINUOUS
 62
     7
 10
-2461.902307521468
 20
428.2133070973721
 30
0.0
 40
0.500000000000167
 50
270.0
 51
0.0000000000006821
  0
ARC
  5
117
  8
1
  6
CONTINUOUS
 62
     7
 10
-2455.702307521468
 20
428.2133070973721
 30
0.0
 40
0.5000000000000004
 50
179.9999999999993
 51
270.0
  0
ARC
  5
118
  8
1
  6
CONTINUOUS
 62
     7
 10
-2519.902307521467
 20
428.2133070973719
 30
0.0
 40
0.4999999999997229
 50
269.9999999999857
 51
0.0000000000006821
  0
ARC
  5
119
  8
1
  6
CONTINUOUS
 62
     7
 10
-2513.702307521467
 20
428.2133070973719
 30
0.0
 40
0.5000000000000004
 50
179.9999999999993
 51
270.0000000000139
  0
LINE
  5
11A
  8
1
  6
CONTINUOUS
 62
     7
 10
-2461.402307521468
 20
429.213307097372
 30
0.0
 11
-2461.402307521468
 21
428.2133070973721
 31
0.0
  0
LINE
  5
11B
  8
1
  6
CONTINUOUS
 62
     7
 10
-2456.202307521468
 20
428.2133070973721
 30
0.0
 11
-2456.202307521468
 21
429.213307097372
 31
0.0
  0
LINE
  5
11C
  8
1
  6
CONTINUOUS
 62
     7
 10
-2519.402307521467
 20
429.2133070973713
 30
0.0
 11
-2519.402307521467
 21
428.2133070973713
 31
0.0
  0
LINE
  5
11D
  8
1
  6
CONTINUOUS
 62
     7
 10
-2514.202307521467
 20
428.2133070973713
 30
0.0
 11
-2514.202307521467
 21
429.2133070973713
 31
0.0
  0
LINE
  5
11E
  8
1
  6
CONTINUOUS
 62
     7
 10
-2520.730506783823
 20
422.7133070973717
 30
0.0
 11
-2520.730506783823
 21
421.1133070973721
 31
0.0
  0
LINE
  5
11F
  8
1
  6
CONTINUOUS
 62
     7
 10
-2512.730506783822
 20
421.1133070973721
 30
0.0
 11
-2512.730506783822
 21
422.7133070973717
 31
0.0
  0
LINE
  5
120
  8
1
  6
CONTINUOUS
 62
     7
 10
-2518.730506783823
 20
434.3633070973718
 30
0.0
 11
-2518.730506783823
 21
429.2133070973719
 31
0.0
  0
LINE
  5
121
  8
1
  6
CONTINUOUS
 62
     7
 10
-2514.730506783822
 20
429.2133070973719
 30
0.0
 11
-2514.730506783822
 21
434.3633070973718
 31
0.0
  0
LINE
  5
122
  8
1
  6
CONTINUOUS
 62
     7
 10
-2514.730506783822
 20
434.3633070973718
 30
0.0
 11
-2515.080506783823
 21
434.7133070973717
 31
0.0
  0
LINE
  5
123
  8
1
  6
CONTINUOUS
 62
     7
 10
-2518.380506783823
 20
434.7133070973717
 30
0.0
 11
-2518.730506783823
 21
434.3633070973718
 31
0.0
  0
LINE
  5
124
  8
1
  6
CONTINUOUS
 62
     7
 10
-2462.874108259113
 20
422.7133070973721
 30
0.0
 11
-2462.874108259113
 21
421.1133070973721
 31
0.0
  0
LINE
  5
125
  8
1
  6
CONTINUOUS
 62
     7
 10
-2454.874108259113
 20
421.1133070973721
 30
0.0
 11
-2454.874108259113
 21
422.7133070973721
 31
0.0
  0
LINE
  5
126
  8
1
  6
CONTINUOUS
 62
     7
 10
-2460.874108259114
 20
434.3633070973721
 30
0.0
 11
-2460.874108259114
 21
429.2133070973721
 31
0.0
  0
LINE
  5
127
  8
1
  6
CONTINUOUS
 62
     7
 10
-2456.874108259114
 20
429.2133070973721
 30
0.0
 11
-2456.874108259114
 21
434.3633070973721
 31
0.0
  0
LINE
  5
128
  8
1
  6
CONTINUOUS
 62
     7
 10
-2456.874108259114
 20
434.3633070973721
 30
0.0
 11
-2457.224108259114
 21
434.7133070973721
 31
0.0
  0
LINE
  5
129
  8
1
  6
CONTINUOUS
 62
     7
 10
-2460.524108259114
 20
434.7133070973721
 30
0.0
 11
-2460.874108259114
 21
434.3633070973721
 31
0.0
  0
LINE
  5
12A
  8
1
  6
CONTINUOUS
 62
     7
 10
-2520.530506783824
 20
423.7133070973721
 30
0.0
 11
-2520.530506783824
 21
422.7133070973717
 31
0.0
  0
LINE
  5
12B
  8
1
  6
CONTINUOUS
 62
     7
 10
-2512.930506783821
 20
422.7133070973717
 30
0.0
 11
-2512.930506783821
 21
423.7133070973721
 31
0.0
  0
LINE
  5
12C
  8
1
  6
CONTINUOUS
 62
     7
 10
-2462.674108259113
 20
423.7133070973721
 30
0.0
 11
-2462.674108259113
 21
422.7133070973721
 31
0.0
  0
LINE
  5
12D
  8
1
  6
CONTINUOUS
 62
     7
 10
-2455.074108259113
 20
422.7133070973721
 30
0.0
 11
-2455.074108259113
 21
423.7133070973721
 31
0.0
  0
LINE
  5
12E
  8
1
  6
CONTINUOUS
 62
     7
 10
-2463.374108259114
 20
424.5133070973721
 30
0.0
 11
-2463.374108259114
 21
423.7133070973721
 31
0.0
  0
LINE
  5
12F
  8
1
  6
CONTINUOUS
 62
     7
 10
-2454.374108259114
 20
423.7133070973721
 30
0.0
 11
-2454.374108259114
 21
424.5133070973721
 31
0.0
  0
LINE
  5
130
  8
1
  6
CONTINUOUS
 62
     7
 10
-2521.230506783823
 20
424.5133070973721
 30
0.0
 11
-2521.230506783823
 21
423.7133070973721
 31
0.0
  0
LINE
  5
131
  8
1
  6
CONTINUOUS
 62
     7
 10
-2512.230506783822
 20
423.7133070973721
 30
0.0
 11
-2512.230506783822
 21
424.5133070973721
 31
0.0
  0
LINE
  5
132
  8
1
  6
CONTINUOUS
 62
     7
 10
-2562.802307521468
 20
421.1133070973721
 30
0.0
 11
-2562.802307521468
 21
419.5133070973721
 31
0.0
  0
LINE
  5
133
  8
1
  6
CONTINUOUS
 62
     7
 10
-2412.802307521468
 20
419.5133070973721
 30
0.0
 11
-2412.802307521468
 21
421.1133070973721
 31
0.0
  0
ENDBLK
  8
0
  0
BLOCK
  8
0
  2
D_FRAME_VIEW_5059
 70
     0
 10
0.0
 20
0.0
 30
0.0
  0
LINE
  5
138
  8
1
  6
CONTINUOUS
 62
     9
 10
-2511.902307521467
 20
283.0633070973722
 30
0.0
 11
-2511.902307521467
 21
286.3633070973722
 31
0.0
  0
LINE
  5
139
  8
1
  6
CONTINUOUS
 62
     9
 10
-2511.902307521467
 20
300.3633070973722
 30
0.0
 11
-2511.902307521467
 21
303.6633070973722
 31
0.0
  0
LINE
  5
13A
  8
1
  6
CONTINUOUS
 62
     7
 10
-2508.302307521467
 20
303.6633070973722
 30
0.0
 11
-2508.302307521467
 21
300.3633070973722
 31
0.0
  0
LINE
  5
13B
  8
1
  6
CONTINUOUS
 62
     7
 10
-2508.302307521467
 20
286.3633070973722
 30
0.0
 11
-2508.302307521467
 21
283.0633070973722
 31
0.0
  0
LINE
  5
13C
  8
1
  6
CONTINUOUS
 62
     7
 10
-2521.802307521467
 20
285.9199314243982
 30
0.0
 11
-2516.854489048921
 21
283.0633070973722
 31
0.0
  0
ARC
  5
13D
  8
1
  6
CONTINUOUS
 62
     7
 10
-2519.302307521467
 20
290.2500584433204
 30
0.0
 40
4.999999999999899
 50
231.0186047021868
 51
240.0000000000005
  0
ARC
  5
13E
  8
1
  6
CONTINUOUS
 62
     7
 10
-2519.302307521467
 20
296.4765557514241
 30
0.0
 40
4.999999999999898
 50
119.9999999999998
 51
128.9813952978146
  0
LINE
  5
13F
  8
1
  6
CONTINUOUS
 62
     7
 10
-2516.854489048921
 20
303.6633070973722
 30
0.0
 11
-2521.802307521467
 21
300.8066827703462
 31
0.0
  0
LINE
  5
140
  8
1
  6
CONTINUOUS
 62
     7
 10
-2458.750125994015
 20
303.6633070973722
 30
0.0
 11
-2453.802307521468
 21
300.8066827703462
 31
0.0
  0
ARC
  5
141
  8
1
  6
CONTINUOUS
 62
     7
 10
-2456.302307521468
 20
296.4765557514241
 30
0.0
 40
4.999999999999997
 50
51.01860470218407
 51
59.99999999999954
  0
ARC
  5
142
  8
1
  6
CONTINUOUS
 62
     7
 10
-2456.302307521468
 20
290.2500584433204
 30
0.0
 40
4.999999999999997
 50
300.0
 51
308.9813952978159
  0
LINE
  5
143
  8
1
  6
CONTINUOUS
 62
     9
 10
-2463.702307521468
 20
303.6633070973722
 30
0.0
 11
-2463.702307521468
 21
300.3633070973722
 31
0.0
  0
LINE
  5
144
  8
1
  6
CONTINUOUS
 62
     9
 10
-2463.702307521468
 20
286.3633070973722
 30
0.0
 11
-2463.702307521468
 21
283.0633070973722
 31
0.0
  0
LINE
  5
145
  8
1
  6
CONTINUOUS
 62
     7
 10
-2453.802307521468
 20
285.9199314243982
 30
0.0
 11
-2458.750125994015
 21
283.0633070973722
 31
0.0
  0
LINE
  5
146
  8
1
  6
CONTINUOUS
 62
     7
 10
-2467.302307521468
 20
283.0633070973722
 30
0.0
 11
-2467.302307521468
 21
286.3633070973722
 31
0.0
  0
LINE
  5
147
  8
1
  6
CONTINUOUS
 62
     7
 10
-2467.302307521468
 20
300.3633070973722
 30
0.0
 11
-2467.302307521468
 21
303.6633070973722
 31
0.0
  0
LINE
  5
148
  8
1
  6
CONTINUOUS
 62
     9
 10
-2507.302307521467
 20
303.4623452030485
 30
0.0
 11
-2507.302307521467
 21
300.5644129501102
 31
0.0
  0
LINE
  5
149
  8
1
  6
CONTINUOUS
 62
     9
 10
-2507.302307521467
 20
286.1622044695378
 30
0.0
 11
-2507.302307521467
 21
283.2642689916959
 31
0.0
  0
LINE
  5
14A
  8
1
  6
CONTINUOUS
 62
     9
 10
-2468.302307521468
 20
283.2642689916955
 30
0.0
 11
-2468.302307521468
 21
286.1622044695378
 31
0.0
  0
LINE
  5
14B
  8
1
  6
CONTINUOUS
 62
     9
 10
-2468.302307521468
 20
300.5644153133232
 30
0.0
 11
-2468.302307521468
 21
303.4623452030488
 31
0.0
  0
CIRCLE
  5
14C
  8
1
  6
CONTINUOUS
 62
     7
 10
-2476.802307521468
 20
293.3633070973722
 30
0.0
 40
2.249999999999999
  0
CIRCLE
  5
14D
  8
1
  6
CONTINUOUS
 62
     7
 10
-2487.802307521468
 20
293.3633070973722
 30
0.0
 40
5.099999999999994
  0
CIRCLE
  5
14E
  8
1
  6
CONTINUOUS
 62
     7
 10
-2498.802307521468
 20
293.3633070973722
 30
0.0
 40
2.249999999999938
  0
LINE
  5
14F
  8
1
  6
CONTINUOUS
 62
     7
 10
-2474.413312222447
 20
280.863307097372
 30
0.0
 11
-2493.151672426857
 21
280.863307097372
 31
0.0
  0
LINE
  5
150
  8
1
  6
CONTINUOUS
 62
     7
 10
-2492.901327035061
 20
305.8633070973721
 30
0.0
 11
-2482.703288007875
 21
305.8633070973721
 31
0.0
  0
LINE
  5
151
  8
1
  6
CONTINUOUS
 62
     7
 10
-2517.230506783823
 20
291.2208785688089
 30
0.0
 11
-2517.230506783823
 21
292.8633070973722
 31
0.0
  0
ARC
  5
152
  8
1
  6
CONTINUOUS
 62
     7
 10
-2516.730506783823
 20
293.3633070973722
 30
0.0
 40
2.200000000000001
 50
256.8634412130551
 51
283.1365587869449
  0
LINE
  5
153
  8
1
  6
CONTINUOUS
 62
     7
 10
-2516.230506783822
 20
292.8633070973721
 30
0.0
 11
-2516.230506783822
 21
291.2208785688088
 31
0.0
  0
LINE
  5
154
  8
1
  6
CONTINUOUS
 62
     7
 10
-2514.588078255259
 20
292.8633070973722
 30
0.0
 11
-2516.230506783822
 21
292.8633070973722
 31
0.0
  0
ARC
  5
155
  8
1
  6
CONTINUOUS
 62
     7
 10
-2516.730506783823
 20
293.3633070973722
 30
0.0
 40
2.200000000000001
 50
346.8634412130552
 51
13.13655878695687
  0
LINE
  5
156
  8
1
  6
CONTINUOUS
 62
     7
 10
-2516.230506783822
 20
293.8633070973722
 30
0.0
 11
-2514.588078255259
 21
293.8633070973722
 31
0.0
  0
LINE
  5
157
  8
1
  6
CONTINUOUS
 62
     7
 10
-2516.230506783822
 20
295.5057356259355
 30
0.0
 11
-2516.230506783822
 21
293.8633070973722
 31
0.0
  0
ARC
  5
158
  8
1
  6
CONTINUOUS
 62
     7
 10
-2516.730506783823
 20
293.3633070973722
 30
0.0
 40
2.200000000000001
 50
76.86344121305513
 51
103.1365587869569
  0
LINE
  5
159
  8
1
  6
CONTINUOUS
 62
     7
 10
-2517.230506783823
 20
293.8633070973723
 30
0.0
 11
-2517.230506783823
 21
295.5057356259355
 31
0.0
  0
LINE
  5
15A
  8
1
  6
CONTINUOUS
 62
     7
 10
-2518.872935312386
 20
293.8633070973722
 30
0.0
 11
-2517.230506783823
 21
293.8633070973722
 31
0.0
  0
ARC
  5
15B
  8
1
  6
CONTINUOUS
 62
     7
 10
-2516.730506783823
 20
293.3633070973722
 30
0.0
 40
2.200000000000001
 50
166.8634412130551
 51
193.1365587869569
  0
LINE
  5
15C
  8
1
  6
CONTINUOUS
 62
     7
 10
-2517.230506783823
 20
292.8633070973722
 30
0.0
 11
-2518.872935312386
 21
292.8633070973722
 31
0.0
  0
CIRCLE
  5
15D
  8
1
  6
CONTINUOUS
 62
     7
 10
-2516.730506783823
 20
293.3633070973722
 30
0.0
 40
4.0
  0
ARC
  5
15E
  8
1
  6
CONTINUOUS
 62
     7
 10
-2516.730506783823
 20
293.3633070973722
 30
0.0
 40
1.21654992179303
 50
155.7324355160329
 51
204.2675644839671
  0
ARC
  5
15F
  8
1
  6
CONTINUOUS
 62
     7
 10
-2516.730506783823
 20
293.3633070973722
 30
0.0
 40
1.216549921793029
 50
245.7324355160328
 51
294.2675644839671
  0
ARC
  5
160
  8
1
  6
CONTINUOUS
 62
     7
 10
-2516.730506783823
 20
293.3633070973722
 30
0.0
 40
1.21654992179303
 50
335.7324355160329
 51
24.26756448396713
  0
ARC
  5
161
  8
1
  6
CONTINUOUS
 62
     7
 10
-2516.730506783823
 20
293.3633070973722
 30
0.0
 40
1.216549921793029
 50
65.73243551603288
 51
114.2675644839671
  0
ARC
  5
162
  8
1
  6
CONTINUOUS
 62
     7
 10
-2458.874108259113
 20
293.3633070973722
 30
0.0
 40
2.200000000000001
 50
256.8634412130551
 51
283.1365587869449
  0
LINE
  5
163
  8
1
  6
CONTINUOUS
 62
     7
 10
-2456.73167973055
 20
292.8633070973722
 30
0.0
 11
-2458.374108259113
 21
292.8633070973722
 31
0.0
  0
ARC
  5
164
  8
1
  6
CONTINUOUS
 62
     7
 10
-2458.874108259113
 20
293.3633070973722
 30
0.0
 40
2.200000000000001
 50
346.8634412130552
 51
13.13655878695687
  0
LINE
  5
165
  8
1
  6
CONTINUOUS
 62
     7
 10
-2458.374108259114
 20
293.8633070973722
 30
0.0
 11
-2456.731679730551
 21
293.8633070973722
 31
0.0
  0
LINE
  5
166
  8
1
  6
CONTINUOUS
 62
     7
 10
-2458.374108259114
 20
295.505735625935
 30
0.0
 11
-2458.374108259114
 21
293.8633070973722
 31
0.0
  0
ARC
  5
167
  8
1
  6
CONTINUOUS
 62
     7
 10
-2458.874108259113
 20
293.3633070973722
 30
0.0
 40
2.200000000000001
 50
76.86344121305513
 51
103.1365587869569
  0
LINE
  5
168
  8
1
  6
CONTINUOUS
 62
     7
 10
-2459.374108259114
 20
293.8633070973722
 30
0.0
 11
-2459.374108259114
 21
295.5057356259349
 31
0.0
  0
LINE
  5
169
  8
1
  6
CONTINUOUS
 62
     7
 10
-2461.016536787676
 20
293.8633070973722
 30
0.0
 11
-2459.374108259114
 21
293.8633070973722
 31
0.0
  0
ARC
  5
16A
  8
1
  6
CONTINUOUS
 62
     7
 10
-2458.874108259113
 20
293.3633070973722
 30
0.0
 40
2.200000000000001
 50
166.8634412130551
 51
193.1365587869569
  0
LINE
  5
16B
  8
1
  6
CONTINUOUS
 62
     7
 10
-2459.374108259114
 20
292.8633070973722
 30
0.0
 11
-2461.016536787676
 21
292.8633070973722
 31
0.0
  0
CIRCLE
  5
16C
  8
1
  6
CONTINUOUS
 62
     7
 10
-2458.874108259113
 20
293.3633070973722
 30
0.0
 40
4.0
  0
LINE
  5
16D
  8
1
  6
CONTINUOUS
 62
     7
 10
-2458.374108259114
 20
292.8633070973722
 30
0.0
 11
-2458.374108259114
 21
291.2208785688093
 31
0.0
  0
LINE
  5
16E
  8
1
  6
CONTINUOUS
 62
     7
 10
-2459.374108259114
 20
291.2208785688093
 30
0.0
 11
-2459.374108259114
 21
292.8633070973722
 31
0.0
  0
ARC
  5
16F
  8
1
  6
CONTINUOUS
 62
     7
 10
-2458.874108259113
 20
293.3633070973722
 30
0.0
 40
1.21654992179303
 50
335.732435516033
 51
24.26756448396708
  0
ARC
  5
170
  8
1
  6
CONTINUOUS
 62
     7
 10
-2458.874108259113
 20
293.3633070973722
 30
0.0
 40
1.21654992179303
 50
155.7324355160329
 51
204.2675644839671
  0
ARC
  5
171
  8
1
  6
CONTINUOUS
 62
     7
 10
-2458.874108259113
 20
293.3633070973722
 30
0.0
 40
1.216549921793029
 50
245.7324355160328
 51
294.2675644839671
  0
ARC
  5
172
  8
1
  6
CONTINUOUS
 62
     7
 10
-2458.874108259113
 20
293.3633070973722
 30
0.0
 40
1.216549921793029
 50
65.73243551603288
 51
114.2675644839671
  0
CIRCLE
  5
173
  8
1
  6
CONTINUOUS
 62
     7
 10
-2458.874108259113
 20
293.3633070973722
 30
0.0
 40
4.5
  0
CIRCLE
  5
174
  8
1
  6
CONTINUOUS
 62
     7
 10
-2516.730506783823
 20
293.3633070973722
 30
0.0
 40
4.500000000000004
  0
ARC
  5
175
  8
1
  6
CONTINUOUS
 62
     7
 10
-2475.087218298434
 20
261.3633070973722
 30
0.0
 40
2.000000000000002
 50
24.99999999999983
 51
90.0
  0
LINE
  5
176
  8
1
  6
CONTINUOUS
 62
     7
 10
-2475.087218298434
 20
263.3633070973722
 30
0.0
 11
-2478.202307521468
 21
263.3633070973722
 31
0.0
  0
ARC
  5
177
  8
1
  6
CONTINUOUS
 62
     7
 10
-2478.202307521468
 20
261.3633070973722
 30
0.0
 40
1.999999999999999
 50
90.0
 51
180.0
  0
LINE
  5
178
  8
1
  6
CONTINUOUS
 62
     7
 10
-2480.202307521468
 20
261.3633070973722
 30
0.0
 11
-2480.202307521468
 21
260.8633070973722
 31
0.0
  0
ARC
  5
179
  8
1
  6
CONTINUOUS
 62
     7
 10
-2487.802307521468
 20
260.8633070973722
 30
0.0
 40
7.600000000000001
 50
179.9999999999999
 51
0.0000000000001137
  0
LINE
  5
17A
  8
1
  6
CONTINUOUS
 62
     7
 10
-2495.402307521468
 20
260.8633070973722
 30
0.0
 11
-2495.402307521468
 21
261.3633070973722
 31
0.0
  0
ARC
  5
17B
  8
1
  6
CONTINUOUS
 62
     7
 10
-2497.402307521468
 20
261.3633070973722
 30
0.0
 40
2.000000000000002
 50
0.0
 51
90.0
  0
LINE
  5
17C
  8
1
  6
CONTINUOUS
 62
     7
 10
-2497.402307521468
 20
263.3633070973722
 30
0.0
 11
-2500.517396744503
 21
263.3633070973722
 31
0.0
  0
ARC
  5
17D
  8
1
  6
CONTINUOUS
 62
     7
 10
-2500.517396744503
 20
261.3633070973722
 30
0.0
 40
2.0
 50
90.0
 51
155.0000000000002
  0
LINE
  5
17E
  8
1
  6
CONTINUOUS
 62
     7
 10
-2502.330012318576
 20
262.2085436208536
 30
0.0
 11
-2504.05090816259
 21
258.5180705738907
 31
0.0
  0
ARC
  5
17F
  8
1
  6
CONTINUOUS
 62
     7
 10
-2505.863523736663
 20
259.3633070973722
 30
0.0
 40
2.000000000000002
 50
270.0
 51
334.9999999999998
  0
LINE
  5
180
  8
1
  6
CONTINUOUS
 62
     7
 10
-2505.863523736663
 20
257.3633070973722
 30
0.0
 11
-2508.831744772991
 21
257.3633070973722
 31
0.0
  0
ARC
  5
181
  8
1
  6
CONTINUOUS
 62
     7
 10
-2508.831744772991
 20
255.3633070973722
 30
0.0
 40
2.000000000000003
 50
90.0
 51
135.0
  0
LINE
  5
182
  8
1
  6
CONTINUOUS
 62
     7
 10
-2510.245958335364
 20
256.7775206597453
 30
0.0
 11
-2521.81043152249
 21
245.2130474726192
 31
0.0
  0
ARC
  5
183
  8
1
  6
CONTINUOUS
 62
     7
 10
-2518.274897616557
 20
241.6775135666865
 30
0.0
 40
4.999999999999998
 50
134.9999999999999
 51
239.47751218593
  0
ARC
  5
184
  8
1
  6
CONTINUOUS
 62
     7
 10
-2487.802307521468
 20
293.3633070973722
 30
0.0
 40
64.99999999999999
 50
239.47751218593
 51
248.8119442486778
  0
ARC
  5
185
  8
1
  6
CONTINUOUS
 62
     7
 10
-2512.018131187968
 20
230.8925628713508
 30
0.0
 40
2.000000000000001
 50
350.0000000000001
 51
68.81194424867765
  0
LINE
  5
186
  8
1
  6
CONTINUOUS
 62
     7
 10
-2510.048515681944
 20
230.5452665160169
 30
0.0
 11
-2511.108886658965
 21
224.5316038719862
 31
0.0
  0
ARC
  5
187
  8
1
  6
CONTINUOUS
 62
     7
 10
-2513.078502164989
 20
224.8789002273201
 30
0.0
 40
2.000000000000002
 50
249.7419272145152
 51
349.9999999999997
  0
ARC
  5
188
  8
1
  6
CONTINUOUS
 62
     7
 10
-2487.802307521468
 20
293.3633070973722
 30
0.0
 40
75.0
 50
261.5699438282613
 51
249.7419272145153
  0
ARC
  5
189
  8
1
  6
CONTINUOUS
 62
     7
 10
-2498.504250607721
 20
221.152030871435
 30
0.0
 40
2.0
 50
170.0000000000006
 51
261.5699438282612
  0
LINE
  5
18A
  8
1
  6
CONTINUOUS
 62
     7
 10
-2500.473866113745
 20
221.4993272267689
 30
0.0
 11
-2499.431550742228
 21
227.4105914435615
 31
0.0
  0
ARC
  5
18B
  8
1
  6
CONTINUOUS
 62
     7
 10
-2497.461935236204
 20
227.0632950882277
 30
0.0
 40
2.000000000000004
 50
81.71057588031117
 51
170.0000000000005
  0
ARC
  5
18C
  8
1
  6
CONTINUOUS
 62
     7
 10
-2487.802307521468
 20
293.3633070973722
 30
0.0
 40
65.0
 50
261.7105758803111
 51
269.3580321112592
  0
ARC
  5
18D
  8
1
  6
CONTINUOUS
 62
     7
 10
-2487.802307521468
 20
230.8633070973722
 30
0.0
 40
2.599999999999993
 50
253.7335002378259
 51
286.2664997621739
  0
ARC
  5
18E
  8
1
  6
CONTINUOUS
 62
     7
 10
-2487.802307521468
 20
293.3633070973722
 30
0.0
 40
65.0
 50
270.6419678887409
 51
300.5224878140702
  0
ARC
  5
18F
  8
1
  6
CONTINUOUS
 62
     7
 10
-2457.329717426379
 20
241.6775135666865
 30
0.0
 40
5.000000000000004
 50
300.5224878140702
 51
45.0
  0
LINE
  5
190
  8
1
  6
CONTINUOUS
 62
     7
 10
-2453.794183520446
 20
245.2130474726192
 30
0.0
 11
-2465.358656707572
 21
256.7775206597453
 31
0.0
  0
ARC
  5
191
  8
1
  6
CONTINUOUS
 62
     7
 10
-2466.772870269945
 20
255.3633070973722
 30
0.0
 40
2.000000000000002
 50
45.0
 51
90.0
  0
LINE
  5
192
  8
1
  6
CONTINUOUS
 62
     7
 10
-2466.772870269945
 20
257.3633070973722
 30
0.0
 11
-2469.741091306273
 21
257.3633070973722
 31
0.0
  0
ARC
  5
193
  8
1
  6
CONTINUOUS
 62
     7
 10
-2469.741091306273
 20
259.3633070973722
 30
0.0
 40
1.999999999999998
 50
205.0000000000002
 51
270.0
  0
LINE
  5
194
  8
1
  6
CONTINUOUS
 62
     7
 10
-2471.553706880346
 20
258.5180705738907
 30
0.0
 11
-2473.27460272436
 21
262.2085436208536
 31
0.0
  0
ARC
  5
195
  8
1
  6
CONTINUOUS
 62
     7
 10
-2487.802307521468
 20
293.3633070973722
 30
0.0
 40
13.5
 50
0.000000000000007
 51
240.0000000000002
  0
LINE
  5
196
  8
1
  6
CONTINUOUS
 62
     7
 10
-2494.552307521468
 20
281.6719641462823
 30
0.0
 11
-2484.802307521468
 21
276.0427990216834
 31
0.0
  0
ARC
  5
197
  8
1
  6
CONTINUOUS
 62
     7
 10
-2481.302307521468
 20
282.1049768481745
 30
0.0
 40
7.0
 50
240.0
 51
359.9999999999998
  0
LINE
  5
198
  8
1
  6
CONTINUOUS
 62
     7
 10
-2474.302307521468
 20
282.1049768481744
 30
0.0
 11
-2474.302307521468
 21
293.3633070973722
 31
0.0
  0
LINE
  5
199
  8
1
  6
CONTINUOUS
 62
     7
 10
-2485.202307521468
 20
318.3633070973722
 30
0.0
 11
-2485.202307521468
 21
355.8633070973721
 31
0.0
  0
ARC
  5
19A
  8
1
  6
CONTINUOUS
 62
     7
 10
-2487.802307521468
 20
355.8633070973722
 30
0.0
 40
2.599999999999998
 50
0.000000000000007
 51
179.9999999999997
  0
LINE
  5
19B
  8
1
  6
CONTINUOUS
 62
     7
 10
-2490.402307521468
 20
318.3633070973722
 30
0.0
 11
-2490.402307521468
 21
355.8633070973722
 31
0.0
  0
ARC
  5
19C
  8
1
  6
CONTINUOUS
 62
     7
 10
-2487.802307521468
 20
318.3633070973722
 30
0.0
 40
2.599999999999998
 50
180.0
 51
359.9999999999998
  0
ARC
  5
19D
  8
1
  6
CONTINUOUS
 62
     7
 10
-2443.608133697309
 20
337.5574809215314
 30
0.0
 40
2.599999999999998
 50
315.0
 51
135.0
  0
LINE
  5
19E
  8
1
  6
CONTINUOUS
 62
     7
 10
-2445.446611328394
 20
339.3959585526164
 30
0.0
 11
-2466.65981476399
 21
318.18275511702
 31
0.0
  0
ARC
  5
19F
  8
1
  6
CONTINUOUS
 62
     7
 10
-2464.821337132905
 20
316.344277485935
 30
0.0
 40
2.599999999999998
 50
135.0
 51
315.0
  0
LINE
  5
1A0
  8
1
  6
CONTINUOUS
 62
     7
 10
-2462.98285950182
 20
314.50579985485
 30
0.0
 11
-2441.769656066224
 21
335.7190032904463
 31
0.0
  0
ARC
  5
1A1
  8
1
  6
CONTINUOUS
 62
     7
 10
-2433.675719784941
 20
324.6133070973722
 30
0.0
 40
2.599999999999998
 50
299.9999999999998
 51
120.0000000000001
  0
LINE
  5
1A2
  8
1
  6
CONTINUOUS
 62
     7
 10
-2434.975719784941
 20
326.8649731472117
 30
0.0
 11
-2460.956481898474
 21
311.8649731472117
 31
0.0
  0
ARC
  5
1A3
  8
1
  6
CONTINUOUS
 62
     7
 10
-2459.656481898474
 20
309.6133070973722
 30
0.0
 40
2.599999999999999
 50
120.0000000000003
 51
300.0000000000001
  0
LINE
  5
1A4
  8
1
  6
CONTINUOUS
 62
     7
 10
-2458.356481898474
 20
307.3616410475327
 30
0.0
 11
-2432.37571978494
 21
322.3616410475327
 31
0.0
  0
ARC
  5
1A5
  8
1
  6
CONTINUOUS
 62
     7
 10
-2443.608133697309
 20
249.1691332732129
 30
0.0
 40
2.600000000000003
 50
225.0000000000001
 51
44.99999999999965
  0
LINE
  5
1A6
  8
1
  6
CONTINUOUS
 62
     7
 10
-2441.769656066224
 20
251.007610904298
 30
0.0
 11
-2462.98285950182
 21
272.2208143398944
 31
0.0
  0
ARC
  5
1A7
  8
1
  6
CONTINUOUS
 62
     7
 10
-2464.821337132905
 20
270.3823367088094
 30
0.0
 40
2.599999999999996
 50
45.00000000000008
 51
225.0000000000001
  0
LINE
  5
1A8
  8
1
  6
CONTINUOUS
 62
     7
 10
-2466.65981476399
 20
268.5438590777244
 30
0.0
 11
-2445.446611328394
 21
247.3306556421279
 31
0.0
  0
LINE
  5
1A9
  8
1
  6
CONTINUOUS
 62
     7
 10
-2445.052307521468
 20
301.8633070973722
 30
0.0
 11
-2445.052307521468
 21
302.1633070973721
 31
0.0
  0
ARC
  5
1AA
  8
1
  6
CONTINUOUS
 62
     7
 10
-2446.552307521468
 20
302.1633070973722
 30
0.0
 40
1.500000000000001
 50
0.0000000000001395
 51
90.0000000000003
  0
LINE
  5
1AB
  8
1
  6
CONTINUOUS
 62
     7
 10
-2446.552307521468
 20
303.6633070973722
 30
0.0
 11
-2467.552307521468
 21
303.6633070973722
 31
0.0
  0
ARC
  5
1AC
  8
1
  6
CONTINUOUS
 62
     7
 10
-2467.552307521468
 20
302.1633070973722
 30
0.0
 40
1.500000000000001
 50
90.00000000000016
 51
180.0000000000003
  0
LINE
  5
1AD
  8
1
  6
CONTINUOUS
 62
     7
 10
-2469.052307521468
 20
302.1633070973721
 30
0.0
 11
-2469.052307521468
 21
301.8633070973722
 31
0.0
  0
ARC
  5
1AE
  8
1
  6
CONTINUOUS
 62
     7
 10
-2467.552307521468
 20
301.8633070973722
 30
0.0
 40
1.500000000000001
 50
179.9999999999999
 51
224.8575490510887
  0
LINE
  5
1AF
  8
1
  6
CONTINUOUS
 62
     9
 10
-2468.615601466071
 20
285.9213269399886
 30
0.0
 11
-2468.615601466071
 21
300.8052872547557
 31
0.0
  0
ARC
  5
1B0
  8
1
  6
CONTINUOUS
 62
     7
 10
-2467.552307521468
 20
284.8633070973722
 30
0.0
 40
1.499999999999998
 50
135.1424509489116
 51
180.0
  0
LINE
  5
1B1
  8
1
  6
CONTINUOUS
 62
     7
 10
-2469.052307521468
 20
284.5633070973722
 30
0.0
 11
-2469.052307521468
 21
284.8633070973722
 31
0.0
  0
ARC
  5
1B2
  8
1
  6
CONTINUOUS
 62
     7
 10
-2467.552307521468
 20
284.5633070973722
 30
0.0
 40
1.500000000000001
 50
180.0000000000002
 51
270.0000000000001
  0
LINE
  5
1B3
  8
1
  6
CONTINUOUS
 62
     7
 10
-2446.552307521468
 20
283.0633070973722
 30
0.0
 11
-2467.552307521468
 21
283.0633070973722
 31
0.0
  0
ARC
  5
1B4
  8
1
  6
CONTINUOUS
 62
     7
 10
-2446.552307521468
 20
284.5633070973722
 30
0.0
 40
1.500000000000001
 50
269.9999999999997
 51
0.0
  0
LINE
  5
1B5
  8
1
  6
CONTINUOUS
 62
     7
 10
-2445.052307521468
 20
284.8633070973722
 30
0.0
 11
-2445.052307521468
 21
284.5633070973722
 31
0.0
  0
ARC
  5
1B6
  8
1
  6
CONTINUOUS
 62
     7
 10
-2446.552307521468
 20
284.8633070973722
 30
0.0
 40
1.500000000000002
 50
0.0
 51
44.85754905108814
  0
LINE
  5
1B7
  8
1
  6
CONTINUOUS
 62
     9
 10
-2445.489013576865
 20
300.8052872547557
 30
0.0
 11
-2445.489013576865
 21
285.9213269399885
 31
0.0
  0
ARC
  5
1B8
  8
1
  6
CONTINUOUS
 62
     7
 10
-2446.552307521468
 20
301.8633070973722
 30
0.0
 40
1.500000000000001
 50
315.1424509489118
 51
0.0000000000001705
  0
ARC
  5
1B9
  8
1
  6
CONTINUOUS
 62
     7
 10
-2487.802307521468
 20
268.3633070973722
 30
0.0
 40
2.599999999999998
 50
0.000000000000007
 51
180.0000000000002
  0
LINE
  5
1BA
  8
1
  6
CONTINUOUS
 62
     7
 10
-2490.402307521468
 20
260.8633070973722
 30
0.0
 11
-2490.402307521468
 21
268.3633070973722
 31
0.0
  0
ARC
  5
1BB
  8
1
  6
CONTINUOUS
 62
     7
 10
-2487.802307521468
 20
260.8633070973722
 30
0.0
 40
2.6
 50
180.0000000000003
 51
0.0
  0
LINE
  5
1BC
  8
1
  6
CONTINUOUS
 62
     7
 10
-2485.202307521468
 20
260.8633070973722
 30
0.0
 11
-2485.202307521468
 21
268.3633070973722
 31
0.0
  0
ARC
  5
1BD
  8
1
  6
CONTINUOUS
 62
     7
 10
-2510.783277910031
 20
316.344277485935
 30
0.0
 40
2.599999999999996
 50
225.0
 51
45.00000000000006
  0
LINE
  5
1BE
  8
1
  6
CONTINUOUS
 62
     7
 10
-2530.158003714542
 20
339.3959585526164
 30
0.0
 11
-2508.944800278946
 21
318.1827551170201
 31
0.0
  0
ARC
  5
1BF
  8
1
  6
CONTINUOUS
 62
     7
 10
-2531.996481345627
 20
337.5574809215314
 30
0.0
 40
2.599999999999998
 50
45.0
 51
225.0
  0
LINE
  5
1C0
  8
1
  6
CONTINUOUS
 62
     7
 10
-2512.621755541116
 20
314.50579985485
 30
0.0
 11
-2533.834958976712
 21
335.7190032904464
 31
0.0
  0
ARC
  5
1C1
  8
1
  6
CONTINUOUS
 62
     7
 10
-2515.948133144462
 20
309.6133070973722
 30
0.0
 40
2.599999999999999
 50
239.9999999999999
 51
59.99999999999977
  0
LINE
  5
1C2
  8
1
  6
CONTINUOUS
 62
     7
 10
-2540.628895257996
 20
326.8649731472117
 30
0.0
 11
-2514.648133144462
 21
311.8649731472117
 31
0.0
  0
ARC
  5
1C3
  8
1
  6
CONTINUOUS
 62
     7
 10
-2541.928895257995
 20
324.6133070973722
 30
0.0
 40
2.599999999999998
 50
59.99999999999983
 51
240.0000000000001
  0
LINE
  5
1C4
  8
1
  6
CONTINUOUS
 62
     7
 10
-2517.248133144462
 20
307.3616410475327
 30
0.0
 11
-2543.228895257996
 21
322.3616410475327
 31
0.0
  0
ARC
  5
1C5
  8
1
  6
CONTINUOUS
 62
     7
 10
-2510.783277910031
 20
270.3823367088094
 30
0.0
 40
2.599999999999996
 50
314.9999999999998
 51
134.9999999999999
  0
LINE
  5
1C6
  8
1
  6
CONTINUOUS
 62
     7
 10
-2533.834958976712
 20
251.007610904298
 30
0.0
 11
-2512.621755541116
 21
272.2208143398944
 31
0.0
  0
ARC
  5
1C7
  8
1
  6
CONTINUOUS
 62
     7
 10
-2531.996481345627
 20
249.169133273213
 30
0.0
 40
2.600000000000003
 50
135.0000000000003
 51
314.9999999999998
  0
LINE
  5
1C8
  8
1
  6
CONTINUOUS
 62
     7
 10
-2508.944800278946
 20
268.5438590777244
 30
0.0
 11
-2530.158003714542
 21
247.3306556421279
 31
0.0
  0
LINE
  5
1C9
  8
1
  6
CONTINUOUS
 62
     9
 10
-2530.115601466071
 20
300.8052872547558
 30
0.0
 11
-2530.115601466071
 21
285.9213269399886
 31
0.0
  0
ARC
  5
1CA
  8
1
  6
CONTINUOUS
 62
     7
 10
-2529.052307521468
 20
284.8633070973722
 30
0.0
 40
1.500000000000002
 50
135.1424509489119
 51
180.0
  0
LINE
  5
1CB
  8
1
  6
CONTINUOUS
 62
     7
 10
-2530.552307521468
 20
284.8633070973722
 30
0.0
 11
-2530.552307521468
 21
284.5633070973722
 31
0.0
  0
ARC
  5
1CC
  8
1
  6
CONTINUOUS
 62
     7
 10
-2529.052307521468
 20
284.5633070973722
 30
0.0
 40
1.500000000000001
 50
180.0
 51
270.0000000000002
  0
LINE
  5
1CD
  8
1
  6
CONTINUOUS
 62
     7
 10
-2529.052307521468
 20
283.0633070973722
 30
0.0
 11
-2508.052307521468
 21
283.0633070973722
 31
0.0
  0
ARC
  5
1CE
  8
1
  6
CONTINUOUS
 62
     7
 10
-2508.052307521468
 20
284.5633070973722
 30
0.0
 40
1.500000000000001
 50
269.9999999999999
 51
359.9999999999998
  0
LINE
  5
1CF
  8
1
  6
CONTINUOUS
 62
     7
 10
-2506.552307521468
 20
284.5633070973722
 30
0.0
 11
-2506.552307521468
 21
284.8633070973722
 31
0.0
  0
ARC
  5
1D0
  8
1
  6
CONTINUOUS
 62
     7
 10
-2508.052307521468
 20
284.8633070973722
 30
0.0
 40
1.499999999999998
 50
0.000000000000007
 51
44.85754905108825
  0
LINE
  5
1D1
  8
1
  6
CONTINUOUS
 62
     9
 10
-2506.989013576865
 20
285.9213269399886
 30
0.0
 11
-2506.989013576865
 21
300.8052872547558
 31
0.0
  0
ARC
  5
1D2
  8
1
  6
CONTINUOUS
 62
     7
 10
-2508.052307521468
 20
301.8633070973722
 30
0.0
 40
1.500000000000001
 50
315.1424509489112
 51
0.0000000000000568
  0
LINE
  5
1D3
  8
1
  6
CONTINUOUS
 62
     7
 10
-2506.552307521468
 20
302.1633070973722
 30
0.0
 11
-2506.552307521468
 21
301.8633070973722
 31
0.0
  0
ARC
  5
1D4
  8
1
  6
CONTINUOUS
 62
     7
 10
-2508.052307521468
 20
302.1633070973722
 30
0.0
 40
1.500000000000001
 50
359.9999999999997
 51
89.9999999999999
  0
LINE
  5
1D5
  8
1
  6
CONTINUOUS
 62
     7
 10
-2529.052307521468
 20
303.6633070973722
 30
0.0
 11
-2508.052307521468
 21
303.6633070973722
 31
0.0
  0
ARC
  5
1D6
  8
1
  6
CONTINUOUS
 62
     7
 10
-2529.052307521468
 20
302.1633070973722
 30
0.0
 40
1.500000000000001
 50
89.99999999999977
 51
179.9999999999999
  0
LINE
  5
1D7
  8
1
  6
CONTINUOUS
 62
     7
 10
-2530.552307521468
 20
301.8633070973722
 30
0.0
 11
-2530.552307521468
 21
302.1633070973721
 31
0.0
  0
ARC
  5
1D8
  8
1
  6
CONTINUOUS
 62
     7
 10
-2529.052307521468
 20
301.8633070973722
 30
0.0
 40
1.500000000000001
 50
179.9999999999999
 51
224.8575490510882
  0
CIRCLE
  5
1D9
  8
1
  6
CONTINUOUS
 62
     7
 10
-2467.802307521468
 20
263.3633070973722
 30
0.0
 40
2.600000000000001
  0
CIRCLE
  5
1DA
  8
1
  6
CONTINUOUS
 62
     7
 10
-2507.802307521468
 20
263.3633070973722
 30
0.0
 40
2.600000000000001
  0
CIRCLE
  5
1DB
  8
1
  6
CONTINUOUS
 62
     7
 10
-2507.802307521468
 20
323.3633070973722
 30
0.0
 40
2.600000000000001
  0
CIRCLE
  5
1DC
  8
1
  6
CONTINUOUS
 62
     7
 10
-2467.802307521468
 20
323.3633070973722
 30
0.0
 40
2.600000000000001
  0
LINE
  5
1DD
  8
1
  6
CONTINUOUS
 62
     9
 10
-2527.55510130824
 20
286.3633070973722
 30
0.0
 11
-2527.55510130824
 21
300.3633070973722
 31
0.0
  0
LINE
  5
1DE
  8
1
  6
CONTINUOUS
 62
     7
 10
-2529.052307521468
 20
286.3633070973722
 30
0.0
 11
-2527.55510130824
 21
286.3633070973722
 31
0.0
  0
ARC
  5
1DF
  8
1
  6
CONTINUOUS
 62
     7
 10
-2529.05230116504
 20
284.8632918053917
 30
0.0
 40
1.500015291993997
 50
90.00024279520957
 51
135.1422081537021
  0
ARC
  5
1E0
  8
1
  6
CONTINUOUS
 62
     7
 10
-2529.052301154453
 20
301.8633224148215
 30
0.0
 40
1.500015317462847
 50
224.8577922506692
 51
269.9997568004187
  0
LINE
  5
1E1
  8
1
  6
CONTINUOUS
 62
     7
 10
-2527.55510130824
 20
300.3633070973722
 30
0.0
 11
-2529.052307521468
 21
300.3633070973722
 31
0.0
  0
LINE
  5
1E2
  8
1
  6
CONTINUOUS
 62
     9
 10
-2509.549513734697
 20
300.3633070973722
 30
0.0
 11
-2509.549513734697
 21
286.3633070973722
 31
0.0
  0
LINE
  5
1E3
  8
1
  6
CONTINUOUS
 62
     7
 10
-2508.052307521468
 20
300.3633070973722
 30
0.0
 11
-2509.549513734696
 21
300.3633070973722
 31
0.0
  0
ARC
  5
1E4
  8
1
  6
CONTINUOUS
 62
     7
 10
-2508.052316583637
 20
301.8633288986894
 30
0.0
 40
1.500021801344561
 50
270.0003461443337
 51
315.1421048045779
  0
ARC
  5
1E5
  8
1
  6
CONTINUOUS
 62
     7
 10
-2508.052313888483
 20
284.8632917799229
 30
0.0
 40
1.500015317462854
 50
44.85779225066961
 51
89.99975680041825
  0
LINE
  5
1E6
  8
1
  6
CONTINUOUS
 62
     7
 10
-2509.549513734697
 20
286.3633070973722
 30
0.0
 11
-2508.052307521468
 21
286.3633070973722
 31
0.0
  0
ARC
  5
1E7
  8
1
  6
CONTINUOUS
 62
     7
 10
-2467.552301154453
 20
284.8632917799229
 30
0.0
 40
1.500015317462844
 50
90.00024319958152
 51
135.1422077493305
  0
ARC
  5
1E8
  8
1
  6
CONTINUOUS
 62
     7
 10
-2467.552301165039
 20
301.8633223893527
 30
0.0
 40
1.500015291994018
 50
224.8577918462985
 51
269.9997572047897
  0
LINE
  5
1E9
  8
1
  6
CONTINUOUS
 62
     7
 10
-2467.552307521468
 20
300.3633070973722
 30
0.0
 11
-2466.05510130824
 21
300.3633070973722
 31
0.0
  0
LINE
  5
1EA
  8
1
  6
CONTINUOUS
 62
     9
 10
-2466.05510130824
 20
300.3633070973722
 30
0.0
 11
-2466.05510130824
 21
286.3633070973722
 31
0.0
  0
LINE
  5
1EB
  8
1
  6
CONTINUOUS
 62
     7
 10
-2466.05510130824
 20
286.3633070973722
 30
0.0
 11
-2467.552307521468
 21
286.3633070973722
 31
0.0
  0
ARC
  5
1EC
  8
1
  6
CONTINUOUS
 62
     7
 10
-2446.552316623075
 20
301.8633289935653
 30
0.0
 40
1.500021896220665
 50
270.0003476506766
 51
315.1421032982354
  0
ARC
  5
1ED
  8
1
  6
CONTINUOUS
 62
     7
 10
-2446.552313877897
 20
284.8632918053917
 30
0.0
 40
1.500015291993993
 50
44.85779184629777
 51
89.99975720479046
  0
LINE
  5
1EE
  8
1
  6
CONTINUOUS
 62
     7
 10
-2446.552307521468
 20
286.3633070973722
 30
0.0
 11
-2448.049513734697
 21
286.3633070973722
 31
0.0
  0
LINE
  5
1EF
  8
1
  6
CONTINUOUS
 62
     9
 10
-2448.049513734697
 20
286.3633070973722
 30
0.0
 11
-2448.049513734697
 21
300.3633070973722
 31
0.0
  0
LINE
  5
1F0
  8
1
  6
CONTINUOUS
 62
     7
 10
-2448.049513734697
 20
300.3633070973722
 30
0.0
 11
-2446.552307521468
 21
300.3633070973722
 31
0.0
  0
LINE
  5
1F1
  8
1
  6
CONTINUOUS
 62
     9
 10
-2527.343723765138
 20
300.3633070973722
 30
0.0
 11
-2527.343723765138
 21
286.3633070973722
 31
0.0
  0
LINE
  5
1F2
  8
1
  6
CONTINUOUS
 62
     7
 10
-2527.55510130824
 20
286.3633070973722
 30
0.0
 11
-2527.343723765138
 21
286.3633070973722
 31
0.0
  0
LINE
  5
1F3
  8
1
  6
CONTINUOUS
 62
     7
 10
-2527.55510130824
 20
300.3633070973722
 30
0.0
 11
-2527.343723765138
 21
300.3633070973722
 31
0.0
  0
LINE
  5
1F4
  8
1
  6
CONTINUOUS
 62
     9
 10
-2509.760891277798
 20
286.3633070973722
 30
0.0
 11
-2509.760891277798
 21
300.3633070973722
 31
0.0
  0
LINE
  5
1F5
  8
1
  6
CONTINUOUS
 62
     7
 10
-2509.549513734697
 20
286.3633070973722
 30
0.0
 11
-2509.760891277799
 21
286.3633070973722
 31
0.0
  0
LINE
  5
1F6
  8
1
  6
CONTINUOUS
 62
     7
 10
-2509.549513734697
 20
300.3633070973722
 30
0.0
 11
-2509.760891277799
 21
300.3633070973722
 31
0.0
  0
LINE
  5
1F7
  8
1
  6
CONTINUOUS
 62
     9
 10
-2465.843723765138
 20
286.3633070973722
 30
0.0
 11
-2465.843723765138
 21
300.3633070973722
 31
0.0
  0
LINE
  5
1F8
  8
1
  6
CONTINUOUS
 62
     7
 10
-2466.05510130824
 20
286.3633070973722
 30
0.0
 11
-2465.843723765137
 21
286.3633070973722
 31
0.0
  0
LINE
  5
1F9
  8
1
  6
CONTINUOUS
 62
     7
 10
-2466.05510130824
 20
300.3633070973722
 30
0.0
 11
-2465.843723765137
 21
300.3633070973722
 31
0.0
  0
LINE
  5
1FA
  8
1
  6
CONTINUOUS
 62
     9
 10
-2448.260891277798
 20
300.3633070973722
 30
0.0
 11
-2448.260891277798
 21
286.3633070973722
 31
0.0
  0
LINE
  5
1FB
  8
1
  6
CONTINUOUS
 62
     7
 10
-2448.049513734697
 20
286.3633070973722
 30
0.0
 11
-2448.260891277799
 21
286.3633070973722
 31
0.0
  0
LINE
  5
1FC
  8
1
  6
CONTINUOUS
 62
     7
 10
-2448.049513734697
 20
300.3633070973722
 30
0.0
 11
-2448.260891277799
 21
300.3633070973722
 31
0.0
  0
LINE
  5
1FD
  8
1
  6
CONTINUOUS
 62
     9
 10
-2525.374108259113
 20
286.3633070973722
 30
0.0
 11
-2525.374108259113
 21
300.3633070973722
 31
0.0
  0
LINE
  5
1FE
  8
1
  6
CONTINUOUS
 62
     7
 10
-2525.374108259113
 20
286.3633070973722
 30
0.0
 11
-2527.343723765138
 21
286.3633070973722
 31
0.0
  0
LINE
  5
1FF
  8
1
  6
CONTINUOUS
 62
     7
 10
-2527.343723765138
 20
300.3633070973722
 30
0.0
 11
-2525.374108259114
 21
300.3633070973722
 31
0.0
  0
LINE
  5
200
  8
1
  6
CONTINUOUS
 62
     9
 10
-2511.730506783822
 20
300.3633070973722
 30
0.0
 11
-2511.730506783822
 21
286.3633070973722
 31
0.0
  0
LINE
  5
201
  8
1
  6
CONTINUOUS
 62
     7
 10
-2509.760891277798
 20
286.3633070973722
 30
0.0
 11
-2511.730506783822
 21
286.3633070973722
 31
0.0
  0
LINE
  5
202
  8
1
  6
CONTINUOUS
 62
     7
 10
-2511.730506783822
 20
300.3633070973722
 30
0.0
 11
-2509.760891277798
 21
300.3633070973722
 31
0.0
  0
LINE
  5
203
  8
1
  6
CONTINUOUS
 62
     9
 10
-2463.874108259114
 20
300.3633070973722
 30
0.0
 11
-2463.874108259114
 21
286.3633070973722
 31
0.0
  0
LINE
  5
204
  8
1
  6
CONTINUOUS
 62
     7
 10
-2465.843723765138
 20
286.3633070973722
 30
0.0
 11
-2463.874108259114
 21
286.3633070973722
 31
0.0
  0
LINE
  5
205
  8
1
  6
CONTINUOUS
 62
     7
 10
-2463.874108259114
 20
300.3633070973722
 30
0.0
 11
-2465.843723765138
 21
300.3633070973722
 31
0.0
  0
LINE
  5
206
  8
1
  6
CONTINUOUS
 62
     9
 10
-2450.230506783823
 20
286.3633070973722
 30
0.0
 11
-2450.230506783823
 21
300.3633070973722
 31
0.0
  0
LINE
  5
207
  8
1
  6
CONTINUOUS
 62
     7
 10
-2450.230506783823
 20
286.3633070973722
 30
0.0
 11
-2448.260891277799
 21
286.3633070973722
 31
0.0
  0
LINE
  5
208
  8
1
  6
CONTINUOUS
 62
     7
 10
-2448.260891277798
 20
300.3633070973722
 30
0.0
 11
-2450.230506783822
 21
300.3633070973722
 31
0.0
  0
ARC
  5
209
  8
1
  6
CONTINUOUS
 62
     7
 10
-2521.302307521468
 20
293.3633070973722
 30
0.0
 40
2.5
 50
90.00000000000001
 51
270.0
  0
LINE
  5
20A
  8
1
  6
CONTINUOUS
 62
     7
 10
-2521.302307521468
 20
290.8633070973722
 30
0.0
 11
-2520.472164170597
 21
290.8633070973722
 31
0.0
  0
LINE
  5
20B
  8
1
  6
CONTINUOUS
 62
     7
 10
-2520.472164170597
 20
295.8633070973722
 30
0.0
 11
-2521.302307521468
 21
295.8633070973722
 31
0.0
  0
LINE
  5
20C
  8
1
  6
CONTINUOUS
 62
     7
 10
-2525.374108259113
 20
286.3633070973722
 30
0.0
 11
-2511.730506783822
 21
286.3633070973722
 31
0.0
  0
LINE
  5
20D
  8
1
  6
CONTINUOUS
 62
     7
 10
-2511.730506783822
 20
300.3633070973722
 30
0.0
 11
-2525.374108259113
 21
300.3633070973722
 31
0.0
  0
LINE
  5
20E
  8
1
  6
CONTINUOUS
 62
     7
 10
-2454.302307521468
 20
290.8633070973722
 30
0.0
 11
-2455.13245087234
 21
290.8633070973722
 31
0.0
  0
ARC
  5
20F
  8
1
  6
CONTINUOUS
 62
     7
 10
-2454.302307521468
 20
293.3633070973722
 30
0.0
 40
2.5
 50
270.0
 51
90.0
  0
LINE
  5
210
  8
1
  6
CONTINUOUS
 62
     7
 10
-2455.13245087234
 20
295.8633070973722
 30
0.0
 11
-2454.302307521468
 21
295.8633070973722
 31
0.0
  0
LINE
  5
211
  8
1
  6
CONTINUOUS
 62
     7
 10
-2450.230506783823
 20
286.3633070973722
 30
0.0
 11
-2463.874108259114
 21
286.3633070973722
 31
0.0
  0
LINE
  5
212
  8
1
  6
CONTINUOUS
 62
     7
 10
-2463.874108259114
 20
300.3633070973722
 30
0.0
 11
-2450.230506783823
 21
300.3633070973722
 31
0.0
  0
ENDBLK
  8
0
  0
ENDSEC
  0
SECTION
  2
ENTITIES
  0
LINE
  5
70
  8
1
  6
CENTER
 62
     1
 10
-2487.802307521468
 20
413.3633070973721
 30
0.0
 11
-2487.802307521468
 21
443.3633070973721
 31
0.0
  0
LINE
  5
72
  8
1
  6
CENTER
 62
     1
 10
-2337.802307521468
 20
293.3633070973722
 30
0.0
 11
-2307.802307521468
 21
293.3633070973722
 31
0.0
  0
INSERT
  5
B3
  8
1
  6
DOT
 62
     7
  2
D_FRAME_VIEW_5561
 10
0.0
 20
0.0
 30
0.0
  0
INSERT
  5
134
  8
1
  6
DOT
 62
     7
  2
D_FRAME_VIEW_5495
 10
0.0
 20
0.0
 30
0.0
  0
INSERT
  5
213
  8
1
  6
DOT
 62
     7
  2
D_FRAME_VIEW_5059
 10
0.0
 20
0.0
 30
0.0
  0
POINT
  5
214
  8
1
 62
     7
 10
-2482.802307521468
 20
443.3633070973721
 30
0.0
  0
POINT
  5
215
  8
1
 62
     7
 10
-2337.802307521468
 20
293.3633070973722
 30
0.0
  0
POINT
  5
216
  8
1
 62
     7
 10
-2487.802307521468
 20
413.3633070973721
 30
0.0
  0
POINT
  5
217
  8
1
 62
     7
 10
-2307.802307521468
 20
288.3633070973722
 30
0.0
  0
LINE
  5
218
  8
1
  6
CENTER
 62
     1
 10
-2564.802307521468
 20
293.3633070973722
 30
0.0
 11
-2410.802307521468
 21
293.3633070973722
 31
0.0
  0
LINE
  5
219
  8
1
  6
CENTER
 62
     1
 10
-2487.802307521468
 20
216.3633070973722
 30
0.0
 11
-2487.802307521468
 21
370.3633070973722
 31
0.0
  0
TEXT
  5
21A
  8
1
  6
CONTINUOUS
 62
     7
 10
-2378.853092190719
 20
201.6917271298844
 30
0.0
 40
3.0
  1
SG-VK1L
  0
LINE
  5
21B
  8
1
  6
CONTINUOUS
 62
     2
 10
-2378.768216612377
 20
201.1337616428267
 30
0.0
 11
-2366.836398430559
 21
201.1337616428267
 31
0.0
  0
ENDSEC
  0
EOF
