  0
SECTION
  2
HEADER
  9
$ACADVER
  1
AC1006
  9
$DWGCODEPAGE
  3
ansi_932
  9
$INSBASE
 10
0.0
 20
0.0
 30
0.0
  9
$EXTMIN
 10
-1369.802307521468
 20
66.13376164282667
  9
$EXTMAX
 10
-1102.802307521468
 20
353.3633070973722
  9
$LIMMIN
 10
0.0
 20
0.0
  9
$LIMMAX
 10
12.0
 20
9.0
  9
$ORTHOMODE
 70
     0
  9
$REGENMODE
 70
     1
  9
$FILLMODE
 70
     1
  9
$QTEXTMODE
 70
     0
  9
$MIRRTEXT
 70
     1
  9
$DRAGMODE
 70
     2
  9
$LTSCALE
 40
1.0
  9
$OSMODE
 70
    37
  9
$ATTMODE
 70
     1
  9
$TEXTSIZE
 40
0.2
  9
$TRACEWID
 40
0.05
  9
$TEXTSTYLE
  7
STANDARD
  9
$CLAYER
  8
0
  9
$CELTYPE
  6
BYLAYER
  9
$CECOLOR
 62
   256
  9
$DIMSCALE
 40
1.0
  9
$DIMASZ
 40
3.0
  9
$DIMEXO
 40
0.0625
  9
$DIMDLI
 40
0.38
  9
$DIMRND
 40
0.0
  9
$DIMDLE
 40
0.0
  9
$DIMEXE
 40
1.5
  9
$DIMTP
 40
0.0
  9
$DIMTM
 40
0.0
  9
$DIMTXT
 40
3.0
  9
$DIMCEN
 40
0.09
  9
$DIMTSZ
 40
0.0
  9
$DIMTOL
 70
     0
  9
$DIMLIM
 70
     0
  9
$DIMTIH
 70
     1
  9
$DIMTOH
 70
     1
  9
$DIMSE1
 70
     0
  9
$DIMSE2
 70
     0
  9
$DIMTAD
 70
     1
  9
$DIMZIN
 70
     0
  9
$DIMBLK
  1

  9
$DIMASO
 70
     1
  9
$DIMSHO
 70
     1
  9
$DIMPOST
  1

  9
$DIMAPOST
  1

  9
$DIMALT
 70
     0
  9
$DIMALTD
 70
     2
  9
$DIMALTF
 40
25.4
  9
$DIMLFAC
 40
1.0
  9
$DIMTOFL
 70
     0
  9
$DIMTVP
 40
0.0
  9
$DIMTIX
 70
     0
  9
$DIMSOXD
 70
     0
  9
$DIMSAH
 70
     0
  9
$DIMBLK1
  1

  9
$DIMBLK2
  1

  9
$LUNITS
 70
     2
  9
$LUPREC
 70
     4
  9
$SKETCHINC
 40
0.1
  9
$FILLETRAD
 40
0.5
  9
$AUNITS
 70
     0
  9
$AUPREC
 70
     0
  9
$MENU
  1
.
  9
$ELEVATION
 40
0.0
  9
$THICKNESS
 40
0.0
  9
$LIMCHECK
 70
     0
  9
$CHAMFERA
 40
0.0
  9
$CHAMFERB
 40
0.0
  9
$SKPOLY
 70
     0
  9
$TDCREATE
 40
2460529.660783843
  9
$TDUPDATE
 40
2460529.660784062
  9
$TDINDWG
 40
0.0000000116
  9
$TDUSRTIMER
 40
0.0000000116
  9
$USRTIMER
 70
     1
  9
$ANGBASE
 50
0.0
  9
$ANGDIR
 70
     0
  9
$PDMODE
 70
     0
  9
$PDSIZE
 40
0.0
  9
$PLINEWID
 40
0.0
  9
$COORDS
 70
     1
  9
$SPLFRAME
 70
     0
  9
$SPLINETYPE
 70
     6
  9
$SPLINESEGS
 70
     8
  9
$ATTDIA
 70
     0
  9
$ATTREQ
 70
     1
  9
$HANDLING
 70
     1
  9
$HANDSEED
  5
2B0
  9
$SURFTAB1
 70
     6
  9
$SURFTAB2
 70
     6
  9
$SURFTYPE
 70
     6
  9
$SURFU
 70
     6
  9
$SURFV
 70
     6
  9
$UCSNAME
  2

  9
$UCSORG
 10
0.0
 20
0.0
 30
0.0
  9
$UCSXDIR
 10
1.0
 20
0.0
 30
0.0
  9
$UCSYDIR
 10
0.0
 20
1.0
 30
0.0
  9
$USERI1
 70
     0
  9
$USERI2
 70
     0
  9
$USERI3
 70
     0
  9
$USERI4
 70
     0
  9
$USERI5
 70
     0
  9
$USERR1
 40
0.0
  9
$USERR2
 40
0.0
  9
$USERR3
 40
0.0
  9
$USERR4
 40
0.0
  9
$USERR5
 40
0.0
  9
$WORLDVIEW
 70
     1
  0
ENDSEC
  0
SECTION
  2
TABLES
  0
TABLE
  2
VPORT
 70
     1
  0
VPORT
  2
*ACTIVE
 70
     0
 10
0.0
 20
0.0
 11
1.0
 21
1.0
 12
-1236.302307521468
 22
209.7485343700994
 13
0.0
 23
0.0
 14
0.5
 24
0.5
 15
0.5
 25
0.5
 16
0.0
 26
0.0
 36
1.0
 17
0.0
 27
0.0
 37
0.0
 40
287.2295454545455
 41
1.6
 42
50.0
 43
0.0
 44
0.0
 50
0.0
 51
0.0
 71
     0
 72
   100
 73
     1
 74
     3
 75
     0
 76
     0
 77
     0
 78
     0
  0
ENDTAB
  0
TABLE
  2
LTYPE
 70
     3
  0
LTYPE
  2
CONTINUOUS
 70
     0
  3
Solid line
 72
    65
 73
     0
 40
0.0
  0
LTYPE
  2
DOT
 70
     0
  3

 72
    65
 73
     0
 40
0.0
  0
LTYPE
  2
CENTER
 70
     0
  3

 72
    65
 73
     0
 40
0.0
  0
ENDTAB
  0
TABLE
  2
LAYER
 70
     2
  0
LAYER
  2
0
 70
     0
 62
     7
  6
CONTINUOUS
  0
LAYER
  2
1
 70
     0
 62
     7
  6
CONTINUOUS
  0
ENDTAB
  0
TABLE
  2
STYLE
 70
     2
  0
STYLE
  2
STANDARD
 70
     0
 40
0.0
 41
1.0
 50
0.0
 71
     0
 42
0.2
  3
txt
  4

  0
STYLE
  2
ＭＳ_ゴシック
 70
     0
 40
0.0
 41
1.0
 50
0.0
 71
     0
 42
0.2
  3
ＭＳ ゴシック.shx
  4

  0
ENDTAB
  0
TABLE
  2
VIEW
 70
     0
  0
ENDTAB
  0
TABLE
  2
UCS
 70
     0
  0
ENDTAB
  0
ENDSEC
  0
SECTION
  2
BLOCKS
  0
BLOCK
  8
0
  2
D_FRAME_VIEW_4330
 70
     0
 10
0.0
 20
0.0
 30
0.0
  0
LINE
  5
71
  8
1
  6
CONTINUOUS
 62
     9
 10
-1268.900383732822
 20
337.7231398143289
 30
0.0
 11
-1268.900383732822
 21
336.1187604201825
 31
0.0
  0
ARC
  5
72
  8
1
  6
CONTINUOUS
 62
     7
 10
-1268.702307521468
 20
339.7133070973722
 30
0.0
 40
3.600000000000048
 50
180.0
 51
266.845926415137
  0
LINE
  5
73
  8
1
  6
CONTINUOUS
 62
     7
 10
-1272.302307521468
 20
344.6133070973721
 30
0.0
 11
-1272.302307521468
 21
339.7133070973722
 31
0.0
  0
ARC
  5
74
  8
1
  6
CONTINUOUS
 62
     7
 10
-1273.302307521468
 20
344.6133070973721
 30
0.0
 40
1.000000000000001
 50
359.9999999999998
 51
89.99999999998408
  0
LINE
  5
75
  8
1
  6
CONTINUOUS
 62
     7
 10
-1312.302307521468
 20
345.6133070973721
 30
0.0
 11
-1273.302307521468
 21
345.6133070973721
 31
0.0
  0
ARC
  5
76
  8
1
  6
CONTINUOUS
 62
     7
 10
-1312.302307521468
 20
344.6133070973721
 30
0.0
 40
1.000000000000112
 50
90.00000000001593
 51
180.0000000000026
  0
LINE
  5
77
  8
1
  6
CONTINUOUS
 62
     7
 10
-1313.302307521468
 20
344.6133070973721
 30
0.0
 11
-1313.302307521468
 21
339.7133070973721
 31
0.0
  0
ARC
  5
78
  8
1
  6
CONTINUOUS
 62
     7
 10
-1316.902307521468
 20
339.7133070973721
 30
0.0
 40
3.600000000000028
 50
273.1540735848641
 51
359.9999999999998
  0
LINE
  5
79
  8
1
  6
CONTINUOUS
 62
     9
 10
-1316.704231310114
 20
337.7231398143287
 30
0.0
 11
-1316.704231310114
 21
336.1187604201824
 31
0.0
  0
ARC
  5
7A
  8
1
  6
CONTINUOUS
 62
     7
 10
-1316.902307521468
 20
339.713307097372
 30
0.0
 40
2.000000000000002
 50
275.6837830276802
 51
359.9999999999945
  0
LINE
  5
7B
  8
1
  6
CONTINUOUS
 62
     7
 10
-1314.902307521468
 20
339.7133070973719
 30
0.0
 11
-1314.902307521468
 21
344.6133070973719
 31
0.0
  0
ARC
  5
7C
  8
1
  6
CONTINUOUS
 62
     7
 10
-1312.302307521468
 20
344.6133070973721
 30
0.0
 40
2.599999999999991
 50
90.00000000000611
 51
180.0000000000052
  0
LINE
  5
7D
  8
1
  6
CONTINUOUS
 62
     7
 10
-1312.302307521468
 20
347.2133070973721
 30
0.0
 11
-1273.302307521468
 21
347.2133070973721
 31
0.0
  0
LINE
  5
7E
  8
1
  6
CONTINUOUS
 62
     7
 10
-1270.702307521468
 20
339.7133070973721
 30
0.0
 11
-1270.702307521468
 21
344.6133070973721
 31
0.0
  0
ARC
  5
7F
  8
1
  6
CONTINUOUS
 62
     7
 10
-1268.702307521468
 20
339.7133070973722
 30
0.0
 40
2.000000000000012
 50
180.0000000000011
 51
264.3162169723207
  0
ARC
  5
80
  8
1
  6
CONTINUOUS
 62
     7
 10
-1273.302307521468
 20
344.6133070973721
 30
0.0
 40
2.599999999999936
 50
359.9999999999987
 51
89.99999999999386
  0
LINE
  5
81
  8
1
  6
CONTINUOUS
 62
     7
 10
-1268.702307521468
 20
337.7133070973722
 30
0.0
 11
-1266.400383732821
 21
337.7133070973722
 31
0.0
  0
LINE
  5
82
  8
1
  6
CONTINUOUS
 62
     9
 10
-1266.400383732821
 20
337.7133070973722
 30
0.0
 11
-1266.400383732821
 21
336.1133070973722
 31
0.0
  0
LINE
  5
83
  8
1
  6
CONTINUOUS
 62
     7
 10
-1268.702307521468
 20
336.1133070973722
 30
0.0
 11
-1266.400383732821
 21
336.1133070973722
 31
0.0
  0
LINE
  5
84
  8
1
  6
CONTINUOUS
 62
     7
 10
-1268.900383732822
 20
336.1187604201825
 30
0.0
 11
-1268.702307521468
 21
336.1133070973722
 31
0.0
  0
LINE
  5
85
  8
1
  6
CONTINUOUS
 62
     7
 10
-1268.702307521468
 20
337.7133070973722
 30
0.0
 11
-1268.900383732822
 21
337.7231398143289
 31
0.0
  0
LINE
  5
86
  8
1
  6
CONTINUOUS
 62
     9
 10
-1319.204231310114
 20
337.713307097372
 30
0.0
 11
-1319.204231310114
 21
336.1133070973721
 31
0.0
  0
LINE
  5
87
  8
1
  6
CONTINUOUS
 62
     7
 10
-1316.902307521468
 20
337.713307097372
 30
0.0
 11
-1319.204231310114
 21
337.713307097372
 31
0.0
  0
LINE
  5
88
  8
1
  6
CONTINUOUS
 62
     7
 10
-1316.902307521468
 20
336.1133070973721
 30
0.0
 11
-1319.204231310114
 21
336.1133070973721
 31
0.0
  0
LINE
  5
89
  8
1
  6
CONTINUOUS
 62
     7
 10
-1316.902307521468
 20
336.1133070973721
 30
0.0
 11
-1316.704231310114
 21
336.1187604201824
 31
0.0
  0
LINE
  5
8A
  8
1
  6
CONTINUOUS
 62
     7
 10
-1316.704231310114
 20
337.7231398143287
 30
0.0
 11
-1316.902307521468
 21
337.713307097372
 31
0.0
  0
LINE
  5
8B
  8
1
  6
CONTINUOUS
 62
     9
 10
-1258.802307521468
 20
337.7133070973722
 30
0.0
 11
-1258.802307521468
 21
336.1133070973722
 31
0.0
  0
LINE
  5
8C
  8
1
  6
CONTINUOUS
 62
     7
 10
-1266.400383732821
 20
337.7133070973722
 30
0.0
 11
-1258.802307521468
 21
337.7133070973722
 31
0.0
  0
LINE
  5
8D
  8
1
  6
CONTINUOUS
 62
     7
 10
-1266.400383732821
 20
336.1133070973722
 30
0.0
 11
-1258.802307521468
 21
336.1133070973722
 31
0.0
  0
LINE
  5
8E
  8
1
  6
CONTINUOUS
 62
     9
 10
-1326.802307521467
 20
337.713307097372
 30
0.0
 11
-1326.802307521467
 21
336.1133070973721
 31
0.0
  0
LINE
  5
8F
  8
1
  6
CONTINUOUS
 62
     7
 10
-1319.204231310114
 20
336.1133070973721
 30
0.0
 11
-1326.802307521467
 21
336.1133070973721
 31
0.0
  0
LINE
  5
90
  8
1
  6
CONTINUOUS
 62
     7
 10
-1319.204231310114
 20
337.713307097372
 30
0.0
 11
-1326.802307521467
 21
337.713307097372
 31
0.0
  0
LINE
  5
91
  8
1
  6
CONTINUOUS
 62
     7
 10
-1256.302307521468
 20
337.7133070973722
 30
0.0
 11
-1256.302307521468
 21
336.1133070973722
 31
0.0
  0
LINE
  5
92
  8
1
  6
CONTINUOUS
 62
     7
 10
-1258.802307521468
 20
337.7133070973722
 30
0.0
 11
-1256.302307521468
 21
337.7133070973722
 31
0.0
  0
LINE
  5
93
  8
1
  6
CONTINUOUS
 62
     7
 10
-1258.802307521468
 20
336.1133070973722
 30
0.0
 11
-1258.156967480269
 21
336.1133070973722
 31
0.0
  0
LINE
  5
94
  8
1
  6
CONTINUOUS
 62
     7
 10
-1329.302307521467
 20
337.713307097372
 30
0.0
 11
-1329.302307521467
 21
336.1133070973721
 31
0.0
  0
LINE
  5
95
  8
1
  6
CONTINUOUS
 62
     7
 10
-1326.802307521467
 20
336.1133070973721
 30
0.0
 11
-1327.447647562666
 21
336.1133070973721
 31
0.0
  0
LINE
  5
96
  8
1
  6
CONTINUOUS
 62
     7
 10
-1326.802307521467
 20
337.713307097372
 30
0.0
 11
-1329.302307521467
 21
337.713307097372
 31
0.0
  0
LINE
  5
97
  8
1
  6
CONTINUOUS
 62
     7
 10
-1288.602307521468
 20
343.8133070973718
 30
0.0
 11
-1297.002307521468
 21
343.8133070973718
 31
0.0
  0
LINE
  5
98
  8
1
  6
CONTINUOUS
 62
     9
 10
-1266.402307521468
 20
338.2133070973722
 30
0.0
 11
-1261.202307521468
 21
338.2133070973722
 31
0.0
  0
LINE
  5
99
  8
1
  6
CONTINUOUS
 62
     9
 10
-1319.202307521467
 20
338.213307097372
 30
0.0
 11
-1324.402307521467
 21
338.213307097372
 31
0.0
  0
LINE
  5
9A
  8
1
  6
CONTINUOUS
 62
     7
 10
-1266.402307521468
 20
339.2133070973722
 30
0.0
 11
-1261.202307521468
 21
339.2133070973722
 31
0.0
  0
LINE
  5
9B
  8
1
  6
CONTINUOUS
 62
     7
 10
-1319.202307521467
 20
339.213307097372
 30
0.0
 11
-1324.402307521467
 21
339.213307097372
 31
0.0
  0
LINE
  5
9C
  8
1
  6
CONTINUOUS
 62
     7
 10
-1325.730506783823
 20
332.7133070973719
 30
0.0
 11
-1317.730506783823
 21
332.7133070973719
 31
0.0
  0
LINE
  5
9D
  8
1
  6
CONTINUOUS
 62
     7
 10
-1319.730506783823
 20
344.3633070973718
 30
0.0
 11
-1323.730506783823
 21
344.3633070973718
 31
0.0
  0
LINE
  5
9E
  8
1
  6
CONTINUOUS
 62
     7
 10
-1323.380506783823
 20
344.7133070973719
 30
0.0
 11
-1320.080506783823
 21
344.7133070973719
 31
0.0
  0
LINE
  5
9F
  8
1
  6
CONTINUOUS
 62
     7
 10
-1267.874108259114
 20
332.7133070973722
 30
0.0
 11
-1259.874108259114
 21
332.7133070973722
 31
0.0
  0
LINE
  5
A0
  8
1
  6
CONTINUOUS
 62
     7
 10
-1261.874108259114
 20
344.3633070973722
 30
0.0
 11
-1265.874108259114
 21
344.3633070973722
 31
0.0
  0
LINE
  5
A1
  8
1
  6
CONTINUOUS
 62
     7
 10
-1265.524108259114
 20
344.7133070973722
 30
0.0
 11
-1262.224108259114
 21
344.7133070973722
 31
0.0
  0
LINE
  5
A2
  8
1
  6
CONTINUOUS
 62
     7
 10
-1321.778506783823
 20
332.7133070973713
 30
0.0
 11
-1321.648506783823
 21
333.713307097373
 31
0.0
  0
LINE
  5
A3
  8
1
  6
CONTINUOUS
 62
     7
 10
-1321.812506783823
 20
333.7133070973713
 30
0.0
 11
-1321.942506783823
 21
332.7133070973697
 31
0.0
  0
LINE
  5
A4
  8
1
  6
CONTINUOUS
 62
     7
 10
-1263.922108259114
 20
332.7133070973723
 30
0.0
 11
-1263.792108259114
 21
333.7133070973722
 31
0.0
  0
LINE
  5
A5
  8
1
  6
CONTINUOUS
 62
     7
 10
-1263.956108259114
 20
333.7133070973722
 30
0.0
 11
-1264.086108259114
 21
332.7133070973722
 31
0.0
  0
LINE
  5
A6
  8
1
  6
CONTINUOUS
 62
     7
 10
-1259.374108259114
 20
333.7133070973722
 30
0.0
 11
-1268.374108259114
 21
333.7133070973722
 31
0.0
  0
LINE
  5
A7
  8
1
  6
CONTINUOUS
 62
     7
 10
-1317.230506783823
 20
333.7133070973722
 30
0.0
 11
-1326.230506783823
 21
333.7133070973722
 31
0.0
  0
LINE
  5
A8
  8
1
  6
CONTINUOUS
 62
     7
 10
-1367.802307521468
 20
329.5133070973722
 30
0.0
 11
-1217.802307521468
 21
329.5133070973722
 31
0.0
  0
LINE
  5
A9
  8
1
  6
CONTINUOUS
 62
     7
 10
-1367.802307521468
 20
331.1133070973722
 30
0.0
 11
-1217.802307521468
 21
331.1133070973722
 31
0.0
  0
POLYLINE
  5
AA
  8
1
  6
CONTINUOUS
 62
     7
 66
     1
 10
0.0
 20
0.0
 30
0.0
  0
VERTEX
  5
22A
  8
1
  6
CONTINUOUS
 62
     7
 10
-1334.891407152646
 20
331.1133070973722
 30
0.0
  0
VERTEX
  5
22B
  8
1
  6
CONTINUOUS
 62
     7
 10
-1334.848509125013
 20
331.1142305953192
 30
0.0
  0
VERTEX
  5
22C
  8
1
  6
CONTINUOUS
 62
     7
 10
-1334.804720485663
 20
331.1170744109724
 30
0.0
  0
VERTEX
  5
22D
  8
1
  6
CONTINUOUS
 62
     7
 10
-1334.760227180662
 20
331.1219485270504
 30
0.0
  0
VERTEX
  5
22E
  8
1
  6
CONTINUOUS
 62
     7
 10
-1334.725560424187
 20
331.1271592059047
 30
0.0
  0
VERTEX
  5
22F
  8
1
  6
CONTINUOUS
 62
     7
 10
-1334.690584125676
 20
331.1336860752623
 30
0.0
  0
VERTEX
  5
230
  8
1
  6
CONTINUOUS
 62
     7
 10
-1334.655411781895
 20
331.1415565994936
 30
0.0
  0
VERTEX
  5
231
  8
1
  6
CONTINUOUS
 62
     7
 10
-1334.620156889612
 20
331.1507982429691
 30
0.0
  0
VERTEX
  5
232
  8
1
  6
CONTINUOUS
 62
     7
 10
-1334.585746076059
 20
331.1611710906333
 30
0.0
  0
VERTEX
  5
233
  8
1
  6
CONTINUOUS
 62
     7
 10
-1334.55136074171
 20
331.172906306112
 30
0.0
  0
VERTEX
  5
234
  8
1
  6
CONTINUOUS
 62
     7
 10
-1334.517120657391
 20
331.185998454791
 30
0.0
  0
VERTEX
  5
235
  8
1
  6
CONTINUOUS
 62
     7
 10
-1334.483145593928
 20
331.2004421020561
 30
0.0
  0
VERTEX
  5
236
  8
1
  6
CONTINUOUS
 62
     7
 10
-1334.448400437007
 20
331.2167943972492
 30
0.0
  0
VERTEX
  5
237
  8
1
  6
CONTINUOUS
 62
     7
 10
-1334.41405606485
 20
331.2346045721326
 30
0.0
  0
VERTEX
  5
238
  8
1
  6
CONTINUOUS
 62
     7
 10
-1334.380239064956
 20
331.2538321495876
 30
0.0
  0
VERTEX
  5
239
  8
1
  6
CONTINUOUS
 62
     7
 10
-1334.347076024827
 20
331.2744366524952
 30
0.0
  0
VERTEX
  5
23A
  8
1
  6
CONTINUOUS
 62
     7
 10
-1334.317280055079
 20
331.2945448431914
 30
0.0
  0
VERTEX
  5
23B
  8
1
  6
CONTINUOUS
 62
     7
 10
-1334.288116709784
 20
331.3157927168527
 30
0.0
  0
VERTEX
  5
23C
  8
1
  6
CONTINUOUS
 62
     7
 10
-1334.259667407119
 20
331.3381306921481
 30
0.0
  0
VERTEX
  5
23D
  8
1
  6
CONTINUOUS
 62
     7
 10
-1334.232013565262
 20
331.3615091877463
 30
0.0
  0
VERTEX
  5
23E
  8
1
  6
CONTINUOUS
 62
     7
 10
-1334.204485859567
 20
331.3865794030642
 30
0.0
  0
VERTEX
  5
23F
  8
1
  6
CONTINUOUS
 62
     7
 10
-1334.177858250555
 20
331.4127092758247
 30
0.0
  0
VERTEX
  5
240
  8
1
  6
CONTINUOUS
 62
     7
 10
-1334.152198140255
 20
331.4398354596213
 30
0.0
  0
VERTEX
  5
241
  8
1
  6
CONTINUOUS
 62
     7
 10
-1334.127572930694
 20
331.4678946080475
 30
0.0
  0
VERTEX
  5
242
  8
1
  6
CONTINUOUS
 62
     7
 10
-1334.101077588163
 20
331.5006280982913
 30
0.0
  0
VERTEX
  5
243
  8
1
  6
CONTINUOUS
 62
     7
 10
-1334.075964932252
 20
331.5344717476223
 30
0.0
  0
VERTEX
  5
244
  8
1
  6
CONTINUOUS
 62
     7
 10
-1334.052307521468
 20
331.56932933224
 30
0.0
  0
SEQEND
  5
2AA
  8
1
  6
CONTINUOUS
 62
     7
  0
LINE
  5
AB
  8
1
  6
CONTINUOUS
 62
     9
 10
-1334.052307521468
 20
331.56932933224
 30
0.0
 11
-1334.052307521468
 21
331.1133070973722
 31
0.0
  0
LINE
  5
AC
  8
1
  6
CONTINUOUS
 62
     9
 10
-1313.052307521468
 20
331.56932933224
 30
0.0
 11
-1313.052307521468
 21
331.1133070973722
 31
0.0
  0
POLYLINE
  5
AD
  8
1
  6
CONTINUOUS
 62
     7
 66
     1
 10
0.0
 20
0.0
 30
0.0
  0
VERTEX
  5
245
  8
1
  6
CONTINUOUS
 62
     7
 10
-1313.052307521468
 20
331.56932933224
 30
0.0
  0
VERTEX
  5
246
  8
1
  6
CONTINUOUS
 62
     7
 10
-1312.984031772592
 20
331.4762633206397
 30
0.0
  0
VERTEX
  5
247
  8
1
  6
CONTINUOUS
 62
     7
 10
-1312.904084407605
 20
331.3903439485079
 30
0.0
  0
VERTEX
  5
248
  8
1
  6
CONTINUOUS
 62
     7
 10
-1312.814952101555
 20
331.3146234708023
 30
0.0
  0
VERTEX
  5
249
  8
1
  6
CONTINUOUS
 62
     7
 10
-1312.720103859991
 20
331.2512998608002
 30
0.0
  0
VERTEX
  5
24A
  8
1
  6
CONTINUOUS
 62
     7
 10
-1312.616825038177
 20
331.1983846526999
 30
0.0
  0
SEQEND
  5
2AB
  8
1
  6
CONTINUOUS
 62
     7
  0
ARC
  5
AE
  8
1
  6
CONTINUOUS
 62
     7
 10
-1312.213193488612
 20
332.1133159561193
 30
0.0
 40
1.00000885885085
 50
246.1948225389583
 51
269.9991748519129
  0
POLYLINE
  5
AF
  8
1
  6
CONTINUOUS
 62
     7
 66
     1
 10
0.0
 20
0.0
 30
0.0
  0
VERTEX
  5
24B
  8
1
  6
CONTINUOUS
 62
     7
 10
-1250.713207890291
 20
331.1133070973722
 30
0.0
  0
VERTEX
  5
24C
  8
1
  6
CONTINUOUS
 62
     7
 10
-1250.756105917923
 20
331.1142305953192
 30
0.0
  0
VERTEX
  5
24D
  8
1
  6
CONTINUOUS
 62
     7
 10
-1250.799894557274
 20
331.1170744109724
 30
0.0
  0
VERTEX
  5
24E
  8
1
  6
CONTINUOUS
 62
     7
 10
-1250.844387862274
 20
331.1219485270504
 30
0.0
  0
VERTEX
  5
24F
  8
1
  6
CONTINUOUS
 62
     7
 10
-1250.87905461875
 20
331.1271592059047
 30
0.0
  0
VERTEX
  5
250
  8
1
  6
CONTINUOUS
 62
     7
 10
-1250.914030917261
 20
331.1336860752623
 30
0.0
  0
VERTEX
  5
251
  8
1
  6
CONTINUOUS
 62
     7
 10
-1250.949203261041
 20
331.1415565994936
 30
0.0
  0
VERTEX
  5
252
  8
1
  6
CONTINUOUS
 62
     7
 10
-1250.984458153325
 20
331.1507982429691
 30
0.0
  0
VERTEX
  5
253
  8
1
  6
CONTINUOUS
 62
     7
 10
-1251.018868966878
 20
331.1611710906333
 30
0.0
  0
VERTEX
  5
254
  8
1
  6
CONTINUOUS
 62
     7
 10
-1251.053254301226
 20
331.172906306112
 30
0.0
  0
VERTEX
  5
255
  8
1
  6
CONTINUOUS
 62
     7
 10
-1251.087494385545
 20
331.185998454791
 30
0.0
  0
VERTEX
  5
256
  8
1
  6
CONTINUOUS
 62
     7
 10
-1251.121469449009
 20
331.2004421020561
 30
0.0
  0
VERTEX
  5
257
  8
1
  6
CONTINUOUS
 62
     7
 10
-1251.156214605929
 20
331.2167943972492
 30
0.0
  0
VERTEX
  5
258
  8
1
  6
CONTINUOUS
 62
     7
 10
-1251.190558978087
 20
331.2346045721326
 30
0.0
  0
VERTEX
  5
259
  8
1
  6
CONTINUOUS
 62
     7
 10
-1251.224375977981
 20
331.2538321495876
 30
0.0
  0
VERTEX
  5
25A
  8
1
  6
CONTINUOUS
 62
     7
 10
-1251.257539018109
 20
331.2744366524952
 30
0.0
  0
VERTEX
  5
25B
  8
1
  6
CONTINUOUS
 62
     7
 10
-1251.287334987858
 20
331.2945448431914
 30
0.0
  0
VERTEX
  5
25C
  8
1
  6
CONTINUOUS
 62
     7
 10
-1251.316498333152
 20
331.3157927168527
 30
0.0
  0
VERTEX
  5
25D
  8
1
  6
CONTINUOUS
 62
     7
 10
-1251.344947635817
 20
331.3381306921482
 30
0.0
  0
VERTEX
  5
25E
  8
1
  6
CONTINUOUS
 62
     7
 10
-1251.372601477674
 20
331.3615091877463
 30
0.0
  0
VERTEX
  5
25F
  8
1
  6
CONTINUOUS
 62
     7
 10
-1251.400129183369
 20
331.3865794030642
 30
0.0
  0
VERTEX
  5
260
  8
1
  6
CONTINUOUS
 62
     7
 10
-1251.426756792381
 20
331.4127092758248
 30
0.0
  0
VERTEX
  5
261
  8
1
  6
CONTINUOUS
 62
     7
 10
-1251.452416902682
 20
331.4398354596214
 30
0.0
  0
VERTEX
  5
262
  8
1
  6
CONTINUOUS
 62
     7
 10
-1251.477042112242
 20
331.4678946080476
 30
0.0
  0
VERTEX
  5
263
  8
1
  6
CONTINUOUS
 62
     7
 10
-1251.503537454774
 20
331.5006280982913
 30
0.0
  0
VERTEX
  5
264
  8
1
  6
CONTINUOUS
 62
     7
 10
-1251.528650110684
 20
331.5344717476223
 30
0.0
  0
VERTEX
  5
265
  8
1
  6
CONTINUOUS
 62
     7
 10
-1251.552307521468
 20
331.56932933224
 30
0.0
  0
SEQEND
  5
2AC
  8
1
  6
CONTINUOUS
 62
     7
  0
LINE
  5
B0
  8
1
  6
CONTINUOUS
 62
     9
 10
-1251.552307521468
 20
331.56932933224
 30
0.0
 11
-1251.552307521468
 21
331.1133070973722
 31
0.0
  0
POLYLINE
  5
B1
  8
1
  6
CONTINUOUS
 62
     7
 66
     1
 10
0.0
 20
0.0
 30
0.0
  0
VERTEX
  5
266
  8
1
  6
CONTINUOUS
 62
     7
 10
-1272.552307521468
 20
331.56932933224
 30
0.0
  0
VERTEX
  5
267
  8
1
  6
CONTINUOUS
 62
     7
 10
-1272.620583270344
 20
331.4762633206397
 30
0.0
  0
VERTEX
  5
268
  8
1
  6
CONTINUOUS
 62
     7
 10
-1272.700530635332
 20
331.3903439485079
 30
0.0
  0
VERTEX
  5
269
  8
1
  6
CONTINUOUS
 62
     7
 10
-1272.789662941381
 20
331.3146234708023
 30
0.0
  0
VERTEX
  5
26A
  8
1
  6
CONTINUOUS
 62
     7
 10
-1272.884511182946
 20
331.2512998608002
 30
0.0
  0
VERTEX
  5
26B
  8
1
  6
CONTINUOUS
 62
     7
 10
-1272.98779000476
 20
331.1983846526999
 30
0.0
  0
SEQEND
  5
2AD
  8
1
  6
CONTINUOUS
 62
     7
  0
ARC
  5
B2
  8
1
  6
CONTINUOUS
 62
     7
 10
-1273.391421554324
 20
332.1133159561193
 30
0.0
 40
1.00000885885085
 50
270.0008251480871
 51
293.8051774610417
  0
LINE
  5
B3
  8
1
  6
CONTINUOUS
 62
     9
 10
-1272.552307521468
 20
331.56932933224
 30
0.0
 11
-1272.552307521468
 21
331.1133070973722
 31
0.0
  0
ARC
  5
B4
  8
1
  6
CONTINUOUS
 62
     7
 10
-1316.954701097249
 20
332.5133070973722
 30
0.0
 40
3.599999999999992
 50
88.49426465826161
 51
90.0
  0
ARC
  5
B5
  8
1
  6
CONTINUOUS
 62
     7
 10
-1316.954701097249
 20
332.5133070973722
 30
0.0
 40
3.599999999999987
 50
10.0
 51
88.49426465826161
  0
LINE
  5
B6
  8
1
  6
CONTINUOUS
 62
     7
 10
-1313.198015643303
 20
331.9396589197053
 30
0.0
 11
-1313.409393186405
 21
333.1384405369731
 31
0.0
  0
LINE
  5
B7
  8
1
  6
CONTINUOUS
 62
     7
 10
-1314.549513734697
 20
331.6618218354382
 30
0.0
 11
-1314.760891277798
 21
332.8606034527061
 31
0.0
  0
ARC
  5
B8
  8
1
  6
CONTINUOUS
 62
     7
 10
-1316.730506783823
 20
332.5133070973722
 30
0.0
 40
2.000000000000065
 50
9.999999999999975
 51
90.0
  0
LINE
  5
B9
  8
1
  6
CONTINUOUS
 62
     7
 10
-1316.730506783823
 20
334.5133070973722
 30
0.0
 11
-1330.374108259114
 21
334.5133070973722
 31
0.0
  0
ARC
  5
BA
  8
1
  6
CONTINUOUS
 62
     7
 10
-1330.374108259114
 20
332.5133070973722
 30
0.0
 40
2.000000000000002
 50
90.0
 51
170.0000000000001
  0
LINE
  5
BB
  8
1
  6
CONTINUOUS
 62
     7
 10
-1332.55510130824
 20
331.6618218354382
 30
0.0
 11
-1332.343723765138
 21
332.8606034527061
 31
0.0
  0
LINE
  5
BC
  8
1
  6
CONTINUOUS
 62
     7
 10
-1333.906599399633
 20
331.9396589197053
 30
0.0
 11
-1333.695221856532
 21
333.1384405369731
 31
0.0
  0
ARC
  5
BD
  8
1
  6
CONTINUOUS
 62
     7
 10
-1330.149913945688
 20
332.5133070973722
 30
0.0
 40
3.599999999999888
 50
90.0
 51
170.0
  0
LINE
  5
BE
  8
1
  6
CONTINUOUS
 62
     7
 10
-1327.447647562666
 20
336.1133070973721
 30
0.0
 11
-1330.149913945688
 21
336.1133070973722
 31
0.0
  0
ARC
  5
BF
  8
1
  6
CONTINUOUS
 62
     7
 10
-1334.891407152646
 20
332.1133070973722
 30
0.0
 40
1.000000000000062
 50
327.045164673287
 51
350.0000000000001
  0
ARC
  5
C0
  8
1
  6
CONTINUOUS
 62
     7
 10
-1312.213207890291
 20
332.1133070973722
 30
0.0
 40
0.9999999999999183
 50
190.0000000000001
 51
212.9548353267156
  0
ARC
  5
C1
  8
1
  6
CONTINUOUS
 62
     7
 10
-1335.115601466071
 20
332.1133070973722
 30
0.0
 40
2.59999999999997
 50
337.3801350519595
 51
349.9999999999999
  0
ARC
  5
C2
  8
1
  6
CONTINUOUS
 62
     7
 10
-1311.989013576865
 20
332.1133070973722
 30
0.0
 40
2.599999999999961
 50
190.0000000000001
 51
202.6198649480405
  0
ARC
  5
C3
  8
1
  6
CONTINUOUS
 62
     7
 10
-1255.454701097249
 20
332.5133070973722
 30
0.0
 40
3.599999999999898
 50
10.00000000000001
 51
90.0
  0
LINE
  5
C4
  8
1
  6
CONTINUOUS
 62
     7
 10
-1251.698015643303
 20
331.9396589197053
 30
0.0
 11
-1251.909393186405
 21
333.1384405369732
 31
0.0
  0
LINE
  5
C5
  8
1
  6
CONTINUOUS
 62
     7
 10
-1253.049513734697
 20
331.6618218354382
 30
0.0
 11
-1253.260891277798
 21
332.8606034527061
 31
0.0
  0
ARC
  5
C6
  8
1
  6
CONTINUOUS
 62
     7
 10
-1255.230506783823
 20
332.5133070973722
 30
0.0
 40
2.000000000000002
 50
9.999999999999945
 51
90.0
  0
LINE
  5
C7
  8
1
  6
CONTINUOUS
 62
     7
 10
-1268.874108259114
 20
334.5133070973722
 30
0.0
 11
-1255.230506783823
 21
334.5133070973722
 31
0.0
  0
ARC
  5
C8
  8
1
  6
CONTINUOUS
 62
     7
 10
-1268.874108259114
 20
332.5133070973722
 30
0.0
 40
2.000000000000065
 50
90.0
 51
170.0
  0
LINE
  5
C9
  8
1
  6
CONTINUOUS
 62
     7
 10
-1271.05510130824
 20
331.6618218354382
 30
0.0
 11
-1270.843723765138
 21
332.8606034527061
 31
0.0
  0
LINE
  5
CA
  8
1
  6
CONTINUOUS
 62
     7
 10
-1272.406599399633
 20
331.9396589197053
 30
0.0
 11
-1272.195221856532
 21
333.1384405369732
 31
0.0
  0
ARC
  5
CB
  8
1
  6
CONTINUOUS
 62
     7
 10
-1268.649913945688
 20
332.5133070973722
 30
0.0
 40
3.599999999999992
 50
90.0
 51
93.9045785512601
  0
ARC
  5
CC
  8
1
  6
CONTINUOUS
 62
     7
 10
-1268.649913945688
 20
332.5133070973722
 30
0.0
 40
3.6
 50
93.90457855126002
 51
170.0
  0
LINE
  5
CD
  8
1
  6
CONTINUOUS
 62
     7
 10
-1258.156967480269
 20
336.1133070973722
 30
0.0
 11
-1255.454701097249
 21
336.1133070973722
 31
0.0
  0
ARC
  5
CE
  8
1
  6
CONTINUOUS
 62
     7
 10
-1250.713207890291
 20
332.1133070973722
 30
0.0
 40
1.000000000000062
 50
190.0
 51
212.954835326713
  0
ARC
  5
CF
  8
1
  6
CONTINUOUS
 62
     7
 10
-1273.391407152646
 20
332.1133070973722
 30
0.0
 40
0.9999999999999183
 50
327.0451646732844
 51
349.9999999999999
  0
ARC
  5
D0
  8
1
  6
CONTINUOUS
 62
     7
 10
-1250.489013576865
 20
332.1133070973722
 30
0.0
 40
2.59999999999997
 50
190.0000000000001
 51
202.6198649480405
  0
ARC
  5
D1
  8
1
  6
CONTINUOUS
 62
     7
 10
-1273.615601466071
 20
332.1133070973722
 30
0.0
 40
2.599999999999961
 50
337.3801350519595
 51
349.9999999999999
  0
LINE
  5
D2
  8
1
  6
CONTINUOUS
 62
     7
 10
-1288.602307521468
 20
343.8133070973736
 30
0.0
 11
-1288.602307521468
 21
345.6133070973739
 31
0.0
  0
LINE
  5
D3
  8
1
  6
CONTINUOUS
 62
     7
 10
-1297.002307521468
 20
345.6133070973739
 30
0.0
 11
-1297.002307521468
 21
343.8133070973736
 31
0.0
  0
ARC
  5
D4
  8
1
  6
CONTINUOUS
 62
     7
 10
-1266.902307521468
 20
338.2133070973722
 30
0.0
 40
0.4999999999999449
 50
270.0
 51
0.0000000000006821
  0
ARC
  5
D5
  8
1
  6
CONTINUOUS
 62
     7
 10
-1260.702307521468
 20
338.2133070973722
 30
0.0
 40
0.5000000000000004
 50
179.9999999999993
 51
270.0
  0
ARC
  5
D6
  8
1
  6
CONTINUOUS
 62
     7
 10
-1324.902307521467
 20
338.213307097372
 30
0.0
 40
0.500000000000167
 50
269.9999999999857
 51
0.0000000000006821
  0
ARC
  5
D7
  8
1
  6
CONTINUOUS
 62
     7
 10
-1318.702307521467
 20
338.213307097372
 30
0.0
 40
0.5000000000000004
 50
179.9999999999993
 51
270.0000000000139
  0
LINE
  5
D8
  8
1
  6
CONTINUOUS
 62
     7
 10
-1266.402307521468
 20
339.2133070973722
 30
0.0
 11
-1266.402307521468
 21
338.2133070973722
 31
0.0
  0
LINE
  5
D9
  8
1
  6
CONTINUOUS
 62
     7
 10
-1261.202307521468
 20
338.2133070973722
 30
0.0
 11
-1261.202307521468
 21
339.2133070973722
 31
0.0
  0
LINE
  5
DA
  8
1
  6
CONTINUOUS
 62
     7
 10
-1324.402307521467
 20
339.2133070973714
 30
0.0
 11
-1324.402307521467
 21
338.2133070973715
 31
0.0
  0
LINE
  5
DB
  8
1
  6
CONTINUOUS
 62
     7
 10
-1319.202307521467
 20
338.2133070973715
 30
0.0
 11
-1319.202307521467
 21
339.2133070973714
 31
0.0
  0
LINE
  5
DC
  8
1
  6
CONTINUOUS
 62
     7
 10
-1325.730506783823
 20
332.7133070973719
 30
0.0
 11
-1325.730506783823
 21
331.1133070973722
 31
0.0
  0
LINE
  5
DD
  8
1
  6
CONTINUOUS
 62
     7
 10
-1317.730506783823
 20
331.1133070973722
 30
0.0
 11
-1317.730506783823
 21
332.7133070973719
 31
0.0
  0
LINE
  5
DE
  8
1
  6
CONTINUOUS
 62
     7
 10
-1323.730506783823
 20
344.3633070973718
 30
0.0
 11
-1323.730506783823
 21
339.213307097372
 31
0.0
  0
LINE
  5
DF
  8
1
  6
CONTINUOUS
 62
     7
 10
-1319.730506783823
 20
339.213307097372
 30
0.0
 11
-1319.730506783823
 21
344.3633070973718
 31
0.0
  0
LINE
  5
E0
  8
1
  6
CONTINUOUS
 62
     7
 10
-1319.730506783823
 20
344.3633070973718
 30
0.0
 11
-1320.080506783823
 21
344.7133070973719
 31
0.0
  0
LINE
  5
E1
  8
1
  6
CONTINUOUS
 62
     7
 10
-1323.380506783823
 20
344.7133070973719
 30
0.0
 11
-1323.730506783823
 21
344.3633070973718
 31
0.0
  0
LINE
  5
E2
  8
1
  6
CONTINUOUS
 62
     7
 10
-1267.874108259114
 20
332.7133070973722
 30
0.0
 11
-1267.874108259114
 21
331.1133070973722
 31
0.0
  0
LINE
  5
E3
  8
1
  6
CONTINUOUS
 62
     7
 10
-1259.874108259114
 20
331.1133070973722
 30
0.0
 11
-1259.874108259114
 21
332.7133070973722
 31
0.0
  0
LINE
  5
E4
  8
1
  6
CONTINUOUS
 62
     7
 10
-1265.874108259114
 20
344.3633070973722
 30
0.0
 11
-1265.874108259114
 21
339.2133070973722
 31
0.0
  0
LINE
  5
E5
  8
1
  6
CONTINUOUS
 62
     7
 10
-1261.874108259114
 20
339.2133070973722
 30
0.0
 11
-1261.874108259114
 21
344.3633070973722
 31
0.0
  0
LINE
  5
E6
  8
1
  6
CONTINUOUS
 62
     7
 10
-1261.874108259114
 20
344.3633070973722
 30
0.0
 11
-1262.224108259114
 21
344.7133070973722
 31
0.0
  0
LINE
  5
E7
  8
1
  6
CONTINUOUS
 62
     7
 10
-1265.524108259114
 20
344.7133070973722
 30
0.0
 11
-1265.874108259114
 21
344.3633070973722
 31
0.0
  0
LINE
  5
E8
  8
1
  6
CONTINUOUS
 62
     7
 10
-1325.530506783824
 20
333.7133070973722
 30
0.0
 11
-1325.530506783824
 21
332.7133070973719
 31
0.0
  0
LINE
  5
E9
  8
1
  6
CONTINUOUS
 62
     7
 10
-1317.930506783822
 20
332.7133070973719
 30
0.0
 11
-1317.930506783822
 21
333.7133070973722
 31
0.0
  0
LINE
  5
EA
  8
1
  6
CONTINUOUS
 62
     7
 10
-1267.674108259114
 20
333.7133070973722
 30
0.0
 11
-1267.674108259114
 21
332.7133070973722
 31
0.0
  0
LINE
  5
EB
  8
1
  6
CONTINUOUS
 62
     7
 10
-1260.074108259114
 20
332.7133070973722
 30
0.0
 11
-1260.074108259114
 21
333.7133070973722
 31
0.0
  0
LINE
  5
EC
  8
1
  6
CONTINUOUS
 62
     7
 10
-1268.374108259114
 20
334.5133070973722
 30
0.0
 11
-1268.374108259114
 21
333.7133070973722
 31
0.0
  0
LINE
  5
ED
  8
1
  6
CONTINUOUS
 62
     7
 10
-1259.374108259114
 20
333.7133070973722
 30
0.0
 11
-1259.374108259114
 21
334.5133070973722
 31
0.0
  0
LINE
  5
EE
  8
1
  6
CONTINUOUS
 62
     7
 10
-1326.230506783823
 20
334.5133070973722
 30
0.0
 11
-1326.230506783823
 21
333.7133070973722
 31
0.0
  0
LINE
  5
EF
  8
1
  6
CONTINUOUS
 62
     7
 10
-1317.230506783823
 20
333.7133070973722
 30
0.0
 11
-1317.230506783823
 21
334.5133070973722
 31
0.0
  0
LINE
  5
F0
  8
1
  6
CONTINUOUS
 62
     7
 10
-1367.802307521468
 20
331.1133070973722
 30
0.0
 11
-1367.802307521468
 21
329.5133070973722
 31
0.0
  0
LINE
  5
F1
  8
1
  6
CONTINUOUS
 62
     7
 10
-1217.802307521468
 20
329.5133070973722
 30
0.0
 11
-1217.802307521468
 21
331.1133070973722
 31
0.0
  0
ENDBLK
  8
0
  0
BLOCK
  8
0
  2
D_FRAME_VIEW_4395
 70
     0
 10
0.0
 20
0.0
 30
0.0
  0
LINE
  5
F7
  8
1
  6
CONTINUOUS
 62
     9
 10
-1118.452307521469
 20
171.476555751424
 30
0.0
 11
-1120.052307521468
 21
171.476555751424
 31
0.0
  0
LINE
  5
F8
  8
1
  6
CONTINUOUS
 62
     7
 10
-1118.452307521469
 20
171.476555751424
 30
0.0
 11
-1118.452307521469
 21
165.2500584433203
 31
0.0
  0
LINE
  5
F9
  8
1
  6
CONTINUOUS
 62
     9
 10
-1118.452307521469
 20
165.2500584433203
 30
0.0
 11
-1120.052307521468
 21
165.2500584433203
 31
0.0
  0
LINE
  5
FA
  8
1
  6
CONTINUOUS
 62
     9
 10
-1118.452307521469
 20
175.8066827703462
 30
0.0
 11
-1120.052307521468
 21
175.8066827703462
 31
0.0
  0
LINE
  5
FB
  8
1
  6
CONTINUOUS
 62
     7
 10
-1118.452307521469
 20
175.8066827703462
 30
0.0
 11
-1118.452307521469
 21
171.476555751424
 31
0.0
  0
LINE
  5
FC
  8
1
  6
CONTINUOUS
 62
     7
 10
-1120.052307521468
 20
175.8066827703462
 30
0.0
 11
-1120.052307521468
 21
175.3633070973721
 31
0.0
  0
LINE
  5
FD
  8
1
  6
CONTINUOUS
 62
     7
 10
-1118.452307521469
 20
165.2500584433203
 30
0.0
 11
-1118.452307521469
 21
160.9199314243981
 31
0.0
  0
LINE
  5
FE
  8
1
  6
CONTINUOUS
 62
     9
 10
-1118.452307521469
 20
160.9199314243981
 30
0.0
 11
-1120.052307521468
 21
160.9199314243981
 31
0.0
  0
LINE
  5
FF
  8
1
  6
CONTINUOUS
 62
     7
 10
-1120.052307521468
 20
161.3633070973721
 30
0.0
 11
-1120.052307521468
 21
160.9199314243981
 31
0.0
  0
LINE
  5
100
  8
1
  6
CONTINUOUS
 62
     9
 10
-1118.452307521469
 20
180.1934341162943
 30
0.0
 11
-1120.052307521468
 21
180.1934341162943
 31
0.0
  0
LINE
  5
101
  8
1
  6
CONTINUOUS
 62
     7
 10
-1118.452307521469
 20
180.1934341162943
 30
0.0
 11
-1118.452307521469
 21
175.8066827703462
 31
0.0
  0
LINE
  5
102
  8
1
  6
CONTINUOUS
 62
     7
 10
-1120.052307521468
 20
180.1934341162943
 30
0.0
 11
-1120.052307521468
 21
175.8066827703462
 31
0.0
  0
LINE
  5
103
  8
1
  6
CONTINUOUS
 62
     9
 10
-1118.452307521469
 20
156.5331800784499
 30
0.0
 11
-1120.052307521468
 21
156.5331800784499
 31
0.0
  0
LINE
  5
104
  8
1
  6
CONTINUOUS
 62
     7
 10
-1118.452307521469
 20
160.9199314243981
 30
0.0
 11
-1118.452307521469
 21
156.5331800784499
 31
0.0
  0
LINE
  5
105
  8
1
  6
CONTINUOUS
 62
     7
 10
-1120.052307521468
 20
160.9199314243981
 30
0.0
 11
-1120.052307521468
 21
156.5331800784499
 31
0.0
  0
LINE
  5
106
  8
1
  6
CONTINUOUS
 62
     9
 10
-1117.952307521468
 20
170.9633070973721
 30
0.0
 11
-1117.952307521468
 21
165.7633070973721
 31
0.0
  0
LINE
  5
107
  8
1
  6
CONTINUOUS
 62
     7
 10
-1116.952307521468
 20
170.9633070973721
 30
0.0
 11
-1116.952307521468
 21
165.7633070973721
 31
0.0
  0
LINE
  5
108
  8
1
  6
CONTINUOUS
 62
     7
 10
-1118.452307521469
 20
180.8593821382913
 30
0.0
 11
-1118.442474804512
 21
180.8633070973721
 31
0.0
  0
LINE
  5
109
  8
1
  6
CONTINUOUS
 62
     7
 10
-1120.046854198658
 20
180.8633070973721
 30
0.0
 11
-1120.052307521468
 21
180.8593821382913
 31
0.0
  0
LINE
  5
10A
  8
1
  6
CONTINUOUS
 62
     7
 10
-1118.442474804512
 20
180.8633070973721
 30
0.0
 11
-1120.046854198658
 21
180.8633070973721
 31
0.0
  0
LINE
  5
10B
  8
1
  6
CONTINUOUS
 62
     7
 10
-1118.452307521469
 20
180.8593821382913
 30
0.0
 11
-1118.452307521469
 21
180.1934341162943
 31
0.0
  0
LINE
  5
10C
  8
1
  6
CONTINUOUS
 62
     7
 10
-1120.052307521468
 20
180.8593821382913
 30
0.0
 11
-1120.052307521468
 21
180.1934341162943
 31
0.0
  0
LINE
  5
10D
  8
1
  6
CONTINUOUS
 62
     7
 10
-1118.442474804512
 20
155.8633070973721
 30
0.0
 11
-1118.452307521469
 21
155.8672320564529
 31
0.0
  0
LINE
  5
10E
  8
1
  6
CONTINUOUS
 62
     7
 10
-1118.442474804512
 20
155.8633070973721
 30
0.0
 11
-1120.046854198658
 21
155.8633070973721
 31
0.0
  0
LINE
  5
10F
  8
1
  6
CONTINUOUS
 62
     7
 10
-1120.052307521468
 20
155.8672320564529
 30
0.0
 11
-1120.046854198658
 21
155.8633070973721
 31
0.0
  0
LINE
  5
110
  8
1
  6
CONTINUOUS
 62
     7
 10
-1118.452307521469
 20
156.53318007845
 30
0.0
 11
-1118.452307521469
 21
155.8672320564529
 31
0.0
  0
LINE
  5
111
  8
1
  6
CONTINUOUS
 62
     7
 10
-1120.052307521468
 20
156.53318007845
 30
0.0
 11
-1120.052307521468
 21
155.8672320564529
 31
0.0
  0
LINE
  5
112
  8
1
  6
CONTINUOUS
 62
     7
 10
-1116.452307521469
 20
180.8633070973721
 30
0.0
 11
-1118.442474804512
 21
180.8633070973721
 31
0.0
  0
LINE
  5
113
  8
1
  6
CONTINUOUS
 62
     9
 10
-1116.452307521469
 20
180.8633070973721
 30
0.0
 11
-1116.452307521469
 21
170.3633070973721
 31
0.0
  0
LINE
  5
114
  8
1
  6
CONTINUOUS
 62
     9
 10
-1116.452307521469
 20
166.3633070973721
 30
0.0
 11
-1116.452307521469
 21
155.8633070973722
 31
0.0
  0
LINE
  5
115
  8
1
  6
CONTINUOUS
 62
     7
 10
-1118.442474804512
 20
155.8633070973721
 30
0.0
 11
-1116.452307521469
 21
155.8633070973721
 31
0.0
  0
LINE
  5
116
  8
1
  6
CONTINUOUS
 62
     9
 10
-1111.552307521468
 20
155.8633070973722
 30
0.0
 11
-1111.552307521468
 21
166.613307097372
 31
0.0
  0
LINE
  5
117
  8
1
  6
CONTINUOUS
 62
     9
 10
-1111.552307521468
 20
170.1133070973722
 30
0.0
 11
-1111.552307521468
 21
180.8633070973721
 31
0.0
  0
LINE
  5
118
  8
1
  6
CONTINUOUS
 62
     7
 10
-1116.452307521469
 20
180.8633070973721
 30
0.0
 11
-1111.552307521468
 21
180.8633070973721
 31
0.0
  0
LINE
  5
119
  8
1
  6
CONTINUOUS
 62
     7
 10
-1116.452307521469
 20
155.8633070973722
 30
0.0
 11
-1111.552307521468
 21
155.8633070973722
 31
0.0
  0
LINE
  5
11A
  8
1
  6
CONTINUOUS
 62
     7
 10
-1108.952307521468
 20
180.863307097372
 30
0.0
 11
-1108.952307521468
 21
155.863307097372
 31
0.0
  0
LINE
  5
11B
  8
1
  6
CONTINUOUS
 62
     7
 10
-1111.552307521468
 20
180.8633070973721
 30
0.0
 11
-1108.952307521468
 21
180.8633070973721
 31
0.0
  0
LINE
  5
11C
  8
1
  6
CONTINUOUS
 62
     7
 10
-1108.952307521468
 20
155.863307097372
 30
0.0
 11
-1111.552307521468
 21
155.8633070973721
 31
0.0
  0
LINE
  5
11D
  8
1
  6
CONTINUOUS
 62
     7
 10
-1111.802307521468
 20
166.3633070973721
 30
0.0
 11
-1111.802307521468
 21
170.3633070973721
 31
0.0
  0
LINE
  5
11E
  8
1
  6
CONTINUOUS
 62
     7
 10
-1111.452307521468
 20
170.0133070973721
 30
0.0
 11
-1111.452307521468
 21
166.7133070973721
 31
0.0
  0
LINE
  5
11F
  8
1
  6
CONTINUOUS
 62
     7
 10
-1126.652307521468
 20
243.3633070973721
 30
0.0
 11
-1126.652307521468
 21
93.36330709737211
 31
0.0
  0
LINE
  5
120
  8
1
  6
CONTINUOUS
 62
     7
 10
-1125.052307521468
 20
243.3633070973721
 30
0.0
 11
-1125.052307521468
 21
93.36330709737211
 31
0.0
  0
POLYLINE
  5
121
  8
1
  6
CONTINUOUS
 62
     7
 66
     1
 10
0.0
 20
0.0
 30
0.0
  0
VERTEX
  5
26C
  8
1
  6
CONTINUOUS
 62
     7
 10
-1125.052307521468
 20
175.6199600786528
 30
0.0
  0
VERTEX
  5
26D
  8
1
  6
CONTINUOUS
 62
     7
 10
-1125.051796223566
 20
175.5989700546735
 30
0.0
  0
VERTEX
  5
26E
  8
1
  6
CONTINUOUS
 62
     7
 10
-1125.050225614303
 20
175.5787892252996
 30
0.0
  0
VERTEX
  5
26F
  8
1
  6
CONTINUOUS
 62
     7
 10
-1125.047532084453
 20
175.5593915173731
 30
0.0
  0
VERTEX
  5
270
  8
1
  6
CONTINUOUS
 62
     7
 10
-1125.04366609179
 20
175.5408662646213
 30
0.0
  0
VERTEX
  5
271
  8
1
  6
CONTINUOUS
 62
     7
 10
-1125.038483439445
 20
175.5229581695512
 30
0.0
  0
VERTEX
  5
272
  8
1
  6
CONTINUOUS
 62
     7
 10
-1125.031988714951
 20
175.5060051567926
 30
0.0
  0
VERTEX
  5
273
  8
1
  6
CONTINUOUS
 62
     7
 10
-1125.024105870527
 20
175.4899732899266
 30
0.0
  0
VERTEX
  5
274
  8
1
  6
CONTINUOUS
 62
     7
 10
-1125.014816375872
 20
175.4749457988988
 30
0.0
  0
VERTEX
  5
275
  8
1
  6
CONTINUOUS
 62
     7
 10
-1125.004495520837
 20
175.461420870227
 30
0.0
  0
VERTEX
  5
276
  8
1
  6
CONTINUOUS
 62
     7
 10
-1124.992811662092
 20
175.4488523863894
 30
0.0
  0
VERTEX
  5
277
  8
1
  6
CONTINUOUS
 62
     7
 10
-1124.97969378081
 20
175.4372004357081
 30
0.0
  0
VERTEX
  5
278
  8
1
  6
CONTINUOUS
 62
     7
 10
-1124.965172516784
 20
175.4265125555815
 30
0.0
  0
VERTEX
  5
279
  8
1
  6
CONTINUOUS
 62
     7
 10
-1124.94890450261
 20
175.4165921290871
 30
0.0
  0
VERTEX
  5
27A
  8
1
  6
CONTINUOUS
 62
     7
 10
-1124.93117183809
 20
175.4076505934169
 30
0.0
  0
VERTEX
  5
27B
  8
1
  6
CONTINUOUS
 62
     7
 10
-1124.911900700234
 20
175.3996347058354
 30
0.0
  0
VERTEX
  5
27C
  8
1
  6
CONTINUOUS
 62
     7
 10
-1124.891177966345
 20
175.3925550688413
 30
0.0
  0
VERTEX
  5
27D
  8
1
  6
CONTINUOUS
 62
     7
 10
-1124.871149289037
 20
175.3869154083654
 30
0.0
  0
VERTEX
  5
27E
  8
1
  6
CONTINUOUS
 62
     7
 10
-1124.849970243635
 20
175.3819881030273
 30
0.0
  0
VERTEX
  5
27F
  8
1
  6
CONTINUOUS
 62
     7
 10
-1124.827589974849
 20
175.3777264030084
 30
0.0
  0
VERTEX
  5
280
  8
1
  6
CONTINUOUS
 62
     7
 10
-1124.804105431094
 20
175.3741107577903
 30
0.0
  0
VERTEX
  5
281
  8
1
  6
CONTINUOUS
 62
     7
 10
-1124.779129792877
 20
175.37105624205
 30
0.0
  0
VERTEX
  5
282
  8
1
  6
CONTINUOUS
 62
     7
 10
-1124.753079501136
 20
175.3685844090155
 30
0.0
  0
VERTEX
  5
283
  8
1
  6
CONTINUOUS
 62
     7
 10
-1124.725902411223
 20
175.3666440676443
 30
0.0
  0
VERTEX
  5
284
  8
1
  6
CONTINUOUS
 62
     7
 10
-1124.697720010793
 20
175.365196581364
 30
0.0
  0
VERTEX
  5
285
  8
1
  6
CONTINUOUS
 62
     7
 10
-1124.673337954589
 20
175.3643272935974
 30
0.0
  0
VERTEX
  5
286
  8
1
  6
CONTINUOUS
 62
     7
 10
-1124.648306914644
 20
175.3637419187255
 30
0.0
  0
VERTEX
  5
287
  8
1
  6
CONTINUOUS
 62
     7
 10
-1124.622596448155
 20
175.363411005962
 30
0.0
  0
VERTEX
  5
288
  8
1
  6
CONTINUOUS
 62
     7
 10
-1124.596285286601
 20
175.3633070973721
 30
0.0
  0
SEQEND
  5
2AE
  8
1
  6
CONTINUOUS
 62
     7
  0
POLYLINE
  5
122
  8
1
  6
CONTINUOUS
 62
     7
 66
     1
 10
0.0
 20
0.0
 30
0.0
  0
VERTEX
  5
289
  8
1
  6
CONTINUOUS
 62
     7
 10
-1124.596285286601
 20
161.3633070973721
 30
0.0
  0
VERTEX
  5
28A
  8
1
  6
CONTINUOUS
 62
     7
 10
-1124.628051822021
 20
161.363153438377
 30
0.0
  0
VERTEX
  5
28B
  8
1
  6
CONTINUOUS
 62
     7
 10
-1124.659065271605
 20
161.3626553644519
 30
0.0
  0
VERTEX
  5
28C
  8
1
  6
CONTINUOUS
 62
     7
 10
-1124.689222707361
 20
161.3617574403087
 30
0.0
  0
VERTEX
  5
28D
  8
1
  6
CONTINUOUS
 62
     7
 10
-1124.718762152257
 20
161.3603868017199
 30
0.0
  0
VERTEX
  5
28E
  8
1
  6
CONTINUOUS
 62
     7
 10
-1124.74732212674
 20
161.3584910412326
 30
0.0
  0
VERTEX
  5
28F
  8
1
  6
CONTINUOUS
 62
     7
 10
-1124.775126282773
 20
161.3559817607576
 30
0.0
  0
VERTEX
  5
290
  8
1
  6
CONTINUOUS
 62
     7
 10
-1124.801822950462
 20
161.3528140867277
 30
0.0
  0
VERTEX
  5
291
  8
1
  6
CONTINUOUS
 62
     7
 10
-1124.827404320158
 20
161.3489195919859
 30
0.0
  0
VERTEX
  5
292
  8
1
  6
CONTINUOUS
 62
     7
 10
-1124.850898099115
 20
161.3444297480421
 30
0.0
  0
VERTEX
  5
293
  8
1
  6
CONTINUOUS
 62
     7
 10
-1124.87325811257
 20
161.3391533555748
 30
0.0
  0
VERTEX
  5
294
  8
1
  6
CONTINUOUS
 62
     7
 10
-1124.894397770433
 20
161.3330493026149
 30
0.0
  0
VERTEX
  5
295
  8
1
  6
CONTINUOUS
 62
     7
 10
-1124.914507482371
 20
161.3259836756203
 30
0.0
  0
VERTEX
  5
296
  8
1
  6
CONTINUOUS
 62
     7
 10
-1124.933293289263
 20
161.3179807971318
 30
0.0
  0
VERTEX
  5
297
  8
1
  6
CONTINUOUS
 62
     7
 10
-1124.950925995257
 20
161.3088882648975
 30
0.0
  0
VERTEX
  5
298
  8
1
  6
CONTINUOUS
 62
     7
 10
-1124.967145852465
 20
161.2987623898794
 30
0.0
  0
VERTEX
  5
299
  8
1
  6
CONTINUOUS
 62
     7
 10
-1124.981962992969
 20
161.2875508084805
 30
0.0
  0
VERTEX
  5
29A
  8
1
  6
CONTINUOUS
 62
     7
 10
-1124.991260268096
 20
161.2792595643388
 30
0.0
  0
VERTEX
  5
29B
  8
1
  6
CONTINUOUS
 62
     7
 10
-1124.999865853675
 20
161.2704681858016
 30
0.0
  0
VERTEX
  5
29C
  8
1
  6
CONTINUOUS
 62
     7
 10
-1125.007811857398
 20
161.2611375215953
 30
0.0
  0
VERTEX
  5
29D
  8
1
  6
CONTINUOUS
 62
     7
 10
-1125.015068442057
 20
161.2513015746193
 30
0.0
  0
VERTEX
  5
29E
  8
1
  6
CONTINUOUS
 62
     7
 10
-1125.023782762833
 20
161.2372233285322
 30
0.0
  0
VERTEX
  5
29F
  8
1
  6
CONTINUOUS
 62
     7
 10
-1125.031284412118
 20
161.2222080750074
 30
0.0
  0
VERTEX
  5
2A0
  8
1
  6
CONTINUOUS
 62
     7
 10
-1125.036175348369
 20
161.2102040105299
 30
0.0
  0
VERTEX
  5
2A1
  8
1
  6
CONTINUOUS
 62
     7
 10
-1125.040386281185
 20
161.197686700075
 30
0.0
  0
VERTEX
  5
2A2
  8
1
  6
CONTINUOUS
 62
     7
 10
-1125.043943263478
 20
161.1846147303152
 30
0.0
  0
VERTEX
  5
2A3
  8
1
  6
CONTINUOUS
 62
     7
 10
-1125.046846151899
 20
161.1710421896327
 30
0.0
  0
VERTEX
  5
2A4
  8
1
  6
CONTINUOUS
 62
     7
 10
-1125.049269628733
 20
161.1558064953757
 30
0.0
  0
VERTEX
  5
2A5
  8
1
  6
CONTINUOUS
 62
     7
 10
-1125.05097128948
 20
161.140009150045
 30
0.0
  0
VERTEX
  5
2A6
  8
1
  6
CONTINUOUS
 62
     7
 10
-1125.051977792109
 20
161.1236004929914
 30
0.0
  0
VERTEX
  5
2A7
  8
1
  6
CONTINUOUS
 62
     7
 10
-1125.052307521468
 20
161.1066541160914
 30
0.0
  0
SEQEND
  5
2AF
  8
1
  6
CONTINUOUS
 62
     7
  0
LINE
  5
123
  8
1
  6
CONTINUOUS
 62
     7
 10
-1124.225955699135
 20
175.3633070973721
 30
0.0
 11
-1124.596285286601
 21
175.3633070973721
 31
0.0
  0
LINE
  5
124
  8
1
  6
CONTINUOUS
 62
     9
 10
-1124.225955699135
 20
175.3633070973721
 30
0.0
 11
-1124.225955699135
 21
161.3633070973721
 31
0.0
  0
LINE
  5
125
  8
1
  6
CONTINUOUS
 62
     7
 10
-1124.596285286601
 20
161.3633070973721
 30
0.0
 11
-1124.225955699135
 21
161.3633070973721
 31
0.0
  0
LINE
  5
126
  8
1
  6
CONTINUOUS
 62
     9
 10
-1123.027174081868
 20
161.3633070973721
 30
0.0
 11
-1123.027174081868
 21
175.3633070973721
 31
0.0
  0
LINE
  5
127
  8
1
  6
CONTINUOUS
 62
     7
 10
-1124.225955699135
 20
161.3633070973721
 30
0.0
 11
-1123.027174081868
 21
161.3633070973721
 31
0.0
  0
LINE
  5
128
  8
1
  6
CONTINUOUS
 62
     7
 10
-1124.225955699135
 20
175.3633070973721
 30
0.0
 11
-1123.027174081868
 21
175.3633070973721
 31
0.0
  0
LINE
  5
129
  8
1
  6
CONTINUOUS
 62
     7
 10
-1120.052307521468
 20
175.3633070973721
 30
0.0
 11
-1120.052307521468
 21
161.3633070973721
 31
0.0
  0
LINE
  5
12A
  8
1
  6
CONTINUOUS
 62
     7
 10
-1120.052307521468
 20
161.3633070973721
 30
0.0
 11
-1123.027174081868
 21
161.3633070973721
 31
0.0
  0
LINE
  5
12B
  8
1
  6
CONTINUOUS
 62
     7
 10
-1123.027174081868
 20
175.3633070973721
 30
0.0
 11
-1120.052307521468
 21
175.3633070973721
 31
0.0
  0
ARC
  5
12C
  8
1
  6
CONTINUOUS
 62
     7
 10
-1117.952307521468
 20
171.4633070973721
 30
0.0
 40
0.5000000000000004
 50
179.9999999999999
 51
270.0000000000007
  0
ARC
  5
12D
  8
1
  6
CONTINUOUS
 62
     7
 10
-1117.952307521468
 20
165.2633070973721
 30
0.0
 40
0.500000000000167
 50
89.9999999999993
 51
180.0000000000001
  0
LINE
  5
12E
  8
1
  6
CONTINUOUS
 62
     7
 10
-1116.952307521468
 20
170.9633070973721
 30
0.0
 11
-1117.952307521469
 21
170.9633070973721
 31
0.0
  0
LINE
  5
12F
  8
1
  6
CONTINUOUS
 62
     7
 10
-1117.952307521469
 20
165.7633070973721
 30
0.0
 11
-1116.952307521468
 21
165.7633070973721
 31
0.0
  0
LINE
  5
130
  8
1
  6
CONTINUOUS
 62
     7
 10
-1111.802307521468
 20
170.3633070973721
 30
0.0
 11
-1116.952307521469
 21
170.3633070973721
 31
0.0
  0
LINE
  5
131
  8
1
  6
CONTINUOUS
 62
     7
 10
-1116.952307521469
 20
166.3633070973721
 30
0.0
 11
-1111.802307521468
 21
166.3633070973721
 31
0.0
  0
LINE
  5
132
  8
1
  6
CONTINUOUS
 62
     7
 10
-1111.802307521468
 20
166.3633070973721
 30
0.0
 11
-1111.452307521468
 21
166.7133070973721
 31
0.0
  0
LINE
  5
133
  8
1
  6
CONTINUOUS
 62
     7
 10
-1111.452307521468
 20
170.0133070973721
 30
0.0
 11
-1111.802307521468
 21
170.3633070973721
 31
0.0
  0
LINE
  5
134
  8
1
  6
CONTINUOUS
 62
     7
 10
-1125.052307521468
 20
243.3633070973721
 30
0.0
 11
-1126.652307521468
 21
243.3633070973721
 31
0.0
  0
LINE
  5
135
  8
1
  6
CONTINUOUS
 62
     7
 10
-1126.652307521468
 20
93.36330709737213
 30
0.0
 11
-1125.052307521468
 21
93.36330709737213
 31
0.0
  0
ENDBLK
  8
0
  0
BLOCK
  8
0
  2
D_FRAME_VIEW_3880
 70
     0
 10
0.0
 20
0.0
 30
0.0
  0
LINE
  5
142
  8
1
  6
CONTINUOUS
 62
     9
 10
-1316.902307521468
 20
158.0633070973721
 30
0.0
 11
-1316.902307521468
 21
161.3633070973721
 31
0.0
  0
LINE
  5
143
  8
1
  6
CONTINUOUS
 62
     9
 10
-1316.902307521468
 20
175.3633070973721
 30
0.0
 11
-1316.902307521468
 21
178.6633070973721
 31
0.0
  0
LINE
  5
144
  8
1
  6
CONTINUOUS
 62
     7
 10
-1313.302307521468
 20
178.6633070973721
 30
0.0
 11
-1313.302307521468
 21
175.3633070973721
 31
0.0
  0
LINE
  5
145
  8
1
  6
CONTINUOUS
 62
     7
 10
-1313.302307521468
 20
161.3633070973721
 30
0.0
 11
-1313.302307521468
 21
158.0633070973721
 31
0.0
  0
LINE
  5
146
  8
1
  6
CONTINUOUS
 62
     7
 10
-1326.802307521467
 20
160.9199314243981
 30
0.0
 11
-1321.854489048921
 21
158.0633070973721
 31
0.0
  0
ARC
  5
147
  8
1
  6
CONTINUOUS
 62
     7
 10
-1324.302307521467
 20
165.2500584433203
 30
0.0
 40
4.999999999999899
 50
231.0186047021868
 51
240.0000000000005
  0
ARC
  5
148
  8
1
  6
CONTINUOUS
 62
     7
 10
-1324.302307521467
 20
171.476555751424
 30
0.0
 40
4.999999999999898
 50
119.9999999999998
 51
128.9813952978146
  0
LINE
  5
149
  8
1
  6
CONTINUOUS
 62
     7
 10
-1321.854489048921
 20
178.6633070973722
 30
0.0
 11
-1326.802307521467
 21
175.8066827703461
 31
0.0
  0
LINE
  5
14A
  8
1
  6
CONTINUOUS
 62
     7
 10
-1263.750125994015
 20
178.6633070973721
 30
0.0
 11
-1258.802307521468
 21
175.8066827703462
 31
0.0
  0
ARC
  5
14B
  8
1
  6
CONTINUOUS
 62
     7
 10
-1261.302307521468
 20
171.476555751424
 30
0.0
 40
4.999999999999997
 50
51.01860470218407
 51
59.99999999999954
  0
ARC
  5
14C
  8
1
  6
CONTINUOUS
 62
     7
 10
-1261.302307521468
 20
165.2500584433203
 30
0.0
 40
4.999999999999997
 50
300.0
 51
308.9813952978159
  0
LINE
  5
14D
  8
1
  6
CONTINUOUS
 62
     7
 10
-1258.802307521468
 20
160.9199314243981
 30
0.0
 11
-1263.750125994015
 21
158.0633070973721
 31
0.0
  0
LINE
  5
14E
  8
1
  6
CONTINUOUS
 62
     9
 10
-1268.702307521468
 20
178.6633070973721
 30
0.0
 11
-1268.702307521468
 21
175.3633070973721
 31
0.0
  0
LINE
  5
14F
  8
1
  6
CONTINUOUS
 62
     9
 10
-1268.702307521468
 20
161.3633070973721
 30
0.0
 11
-1268.702307521468
 21
158.0633070973721
 31
0.0
  0
LINE
  5
150
  8
1
  6
CONTINUOUS
 62
     7
 10
-1272.302307521468
 20
158.0633070973721
 30
0.0
 11
-1272.302307521468
 21
161.3633070973721
 31
0.0
  0
LINE
  5
151
  8
1
  6
CONTINUOUS
 62
     7
 10
-1272.302307521468
 20
175.3633070973721
 30
0.0
 11
-1272.302307521468
 21
178.6633070973721
 31
0.0
  0
CIRCLE
  5
152
  8
1
  6
CONTINUOUS
 62
     7
 10
-1292.802307521468
 20
168.3633070973721
 30
0.0
 40
4.199999999999882
  0
CIRCLE
  5
153
  8
1
  6
CONTINUOUS
 62
     7
 10
-1292.802307521468
 20
168.3633070973721
 30
0.0
 40
2.599999999999829
  0
LINE
  5
154
  8
1
  6
CONTINUOUS
 62
     9
 10
-1312.302307521468
 20
178.4623452030485
 30
0.0
 11
-1312.302307521468
 21
175.5644250114633
 31
0.0
  0
LINE
  5
155
  8
1
  6
CONTINUOUS
 62
     9
 10
-1312.302307521468
 20
161.1621985736878
 30
0.0
 11
-1312.302307521468
 21
158.2642689916958
 31
0.0
  0
LINE
  5
156
  8
1
  6
CONTINUOUS
 62
     9
 10
-1273.302307521468
 20
158.2642689916954
 30
0.0
 11
-1273.302307521468
 21
161.1621985736879
 31
0.0
  0
LINE
  5
157
  8
1
  6
CONTINUOUS
 62
     9
 10
-1273.302307521468
 20
175.564425011463
 30
0.0
 11
-1273.302307521468
 21
178.4623452030488
 31
0.0
  0
CIRCLE
  5
158
  8
1
  6
CONTINUOUS
 62
     7
 10
-1281.802307521468
 20
168.3633070973721
 30
0.0
 40
2.249999999999999
  0
CIRCLE
  5
159
  8
1
  6
CONTINUOUS
 62
     7
 10
-1303.802307521468
 20
168.3633070973721
 30
0.0
 40
2.249999999999938
  0
LINE
  5
15A
  8
1
  6
CONTINUOUS
 62
     7
 10
-1279.413312222447
 20
155.863307097372
 30
0.0
 11
-1298.151672426857
 21
155.863307097372
 31
0.0
  0
LINE
  5
15B
  8
1
  6
CONTINUOUS
 62
     7
 10
-1297.901327035062
 20
180.863307097372
 30
0.0
 11
-1287.703288007875
 21
180.863307097372
 31
0.0
  0
LINE
  5
15C
  8
1
  6
CONTINUOUS
 62
     7
 10
-1322.230506783823
 20
166.2208785688088
 30
0.0
 11
-1322.230506783823
 21
167.8633070973721
 31
0.0
  0
ARC
  5
15D
  8
1
  6
CONTINUOUS
 62
     7
 10
-1321.730506783823
 20
168.3633070973721
 30
0.0
 40
2.200000000000001
 50
256.8634412130551
 51
283.1365587869449
  0
LINE
  5
15E
  8
1
  6
CONTINUOUS
 62
     7
 10
-1321.230506783823
 20
167.863307097372
 30
0.0
 11
-1321.230506783823
 21
166.2208785688087
 31
0.0
  0
LINE
  5
15F
  8
1
  6
CONTINUOUS
 62
     7
 10
-1319.588078255259
 20
167.8633070973721
 30
0.0
 11
-1321.230506783823
 21
167.8633070973721
 31
0.0
  0
ARC
  5
160
  8
1
  6
CONTINUOUS
 62
     7
 10
-1321.730506783823
 20
168.3633070973721
 30
0.0
 40
2.200000000000001
 50
346.8634412130552
 51
13.13655878695687
  0
LINE
  5
161
  8
1
  6
CONTINUOUS
 62
     7
 10
-1321.230506783823
 20
168.8633070973722
 30
0.0
 11
-1319.588078255259
 21
168.8633070973722
 31
0.0
  0
LINE
  5
162
  8
1
  6
CONTINUOUS
 62
     7
 10
-1321.230506783823
 20
170.5057356259355
 30
0.0
 11
-1321.230506783823
 21
168.8633070973721
 31
0.0
  0
ARC
  5
163
  8
1
  6
CONTINUOUS
 62
     7
 10
-1321.730506783823
 20
168.3633070973721
 30
0.0
 40
2.200000000000001
 50
76.86344121305513
 51
103.1365587869569
  0
LINE
  5
164
  8
1
  6
CONTINUOUS
 62
     7
 10
-1322.230506783823
 20
168.8633070973723
 30
0.0
 11
-1322.230506783823
 21
170.5057356259355
 31
0.0
  0
LINE
  5
165
  8
1
  6
CONTINUOUS
 62
     7
 10
-1323.872935312386
 20
168.8633070973722
 30
0.0
 11
-1322.230506783823
 21
168.8633070973722
 31
0.0
  0
ARC
  5
166
  8
1
  6
CONTINUOUS
 62
     7
 10
-1321.730506783823
 20
168.3633070973721
 30
0.0
 40
2.200000000000001
 50
166.8634412130551
 51
193.1365587869569
  0
LINE
  5
167
  8
1
  6
CONTINUOUS
 62
     7
 10
-1322.230506783823
 20
167.8633070973721
 30
0.0
 11
-1323.872935312386
 21
167.8633070973721
 31
0.0
  0
CIRCLE
  5
168
  8
1
  6
CONTINUOUS
 62
     7
 10
-1321.730506783823
 20
168.3633070973721
 30
0.0
 40
4.0
  0
ARC
  5
169
  8
1
  6
CONTINUOUS
 62
     7
 10
-1321.730506783823
 20
168.3633070973721
 30
0.0
 40
1.21654992179303
 50
155.7324355160329
 51
204.2675644839671
  0
ARC
  5
16A
  8
1
  6
CONTINUOUS
 62
     7
 10
-1321.730506783823
 20
168.3633070973721
 30
0.0
 40
1.216549921793029
 50
245.7324355160328
 51
294.2675644839671
  0
ARC
  5
16B
  8
1
  6
CONTINUOUS
 62
     7
 10
-1321.730506783823
 20
168.3633070973721
 30
0.0
 40
1.21654992179303
 50
335.7324355160329
 51
24.26756448396713
  0
ARC
  5
16C
  8
1
  6
CONTINUOUS
 62
     7
 10
-1321.730506783823
 20
168.3633070973721
 30
0.0
 40
1.216549921793029
 50
65.73243551603288
 51
114.2675644839671
  0
ARC
  5
16D
  8
1
  6
CONTINUOUS
 62
     7
 10
-1263.874108259114
 20
168.3633070973721
 30
0.0
 40
2.200000000000001
 50
256.8634412130551
 51
283.1365587869449
  0
LINE
  5
16E
  8
1
  6
CONTINUOUS
 62
     7
 10
-1261.731679730551
 20
167.8633070973721
 30
0.0
 11
-1263.374108259114
 21
167.8633070973721
 31
0.0
  0
ARC
  5
16F
  8
1
  6
CONTINUOUS
 62
     7
 10
-1263.874108259114
 20
168.3633070973721
 30
0.0
 40
2.200000000000001
 50
346.8634412130552
 51
13.13655878695687
  0
LINE
  5
170
  8
1
  6
CONTINUOUS
 62
     7
 10
-1263.374108259114
 20
168.8633070973721
 30
0.0
 11
-1261.731679730551
 21
168.8633070973721
 31
0.0
  0
LINE
  5
171
  8
1
  6
CONTINUOUS
 62
     7
 10
-1263.374108259114
 20
170.505735625935
 30
0.0
 11
-1263.374108259114
 21
168.8633070973721
 31
0.0
  0
ARC
  5
172
  8
1
  6
CONTINUOUS
 62
     7
 10
-1263.874108259114
 20
168.3633070973721
 30
0.0
 40
2.200000000000001
 50
76.86344121305513
 51
103.1365587869569
  0
LINE
  5
173
  8
1
  6
CONTINUOUS
 62
     7
 10
-1264.374108259114
 20
168.8633070973721
 30
0.0
 11
-1264.374108259114
 21
170.5057356259349
 31
0.0
  0
LINE
  5
174
  8
1
  6
CONTINUOUS
 62
     7
 10
-1266.016536787677
 20
168.8633070973721
 30
0.0
 11
-1264.374108259114
 21
168.8633070973721
 31
0.0
  0
ARC
  5
175
  8
1
  6
CONTINUOUS
 62
     7
 10
-1263.874108259114
 20
168.3633070973721
 30
0.0
 40
2.200000000000001
 50
166.8634412130551
 51
193.1365587869569
  0
LINE
  5
176
  8
1
  6
CONTINUOUS
 62
     7
 10
-1264.374108259114
 20
167.8633070973721
 30
0.0
 11
-1266.016536787677
 21
167.8633070973721
 31
0.0
  0
CIRCLE
  5
177
  8
1
  6
CONTINUOUS
 62
     7
 10
-1263.874108259114
 20
168.3633070973721
 30
0.0
 40
4.0
  0
LINE
  5
178
  8
1
  6
CONTINUOUS
 62
     7
 10
-1264.374108259114
 20
166.2208785688093
 30
0.0
 11
-1264.374108259114
 21
167.8633070973721
 31
0.0
  0
LINE
  5
179
  8
1
  6
CONTINUOUS
 62
     7
 10
-1263.374108259114
 20
167.8633070973721
 30
0.0
 11
-1263.374108259114
 21
166.2208785688093
 31
0.0
  0
ARC
  5
17A
  8
1
  6
CONTINUOUS
 62
     7
 10
-1263.874108259114
 20
168.3633070973721
 30
0.0
 40
1.21654992179303
 50
335.732435516033
 51
24.26756448396708
  0
ARC
  5
17B
  8
1
  6
CONTINUOUS
 62
     7
 10
-1263.874108259114
 20
168.3633070973721
 30
0.0
 40
1.21654992179303
 50
155.7324355160329
 51
204.2675644839671
  0
ARC
  5
17C
  8
1
  6
CONTINUOUS
 62
     7
 10
-1263.874108259114
 20
168.3633070973721
 30
0.0
 40
1.216549921793029
 50
245.7324355160328
 51
294.2675644839671
  0
ARC
  5
17D
  8
1
  6
CONTINUOUS
 62
     7
 10
-1263.874108259114
 20
168.3633070973721
 30
0.0
 40
1.216549921793029
 50
65.73243551603288
 51
114.2675644839671
  0
CIRCLE
  5
17E
  8
1
  6
CONTINUOUS
 62
     7
 10
-1263.874108259114
 20
168.3633070973721
 30
0.0
 40
4.5
  0
CIRCLE
  5
17F
  8
1
  6
CONTINUOUS
 62
     7
 10
-1321.730506783823
 20
168.3633070973721
 30
0.0
 40
4.500000000000004
  0
ARC
  5
180
  8
1
  6
CONTINUOUS
 62
     7
 10
-1280.087218298433
 20
136.3633070973721
 30
0.0
 40
2.000000000000002
 50
24.99999999999983
 51
90.0
  0
LINE
  5
181
  8
1
  6
CONTINUOUS
 62
     7
 10
-1280.087218298433
 20
138.3633070973721
 30
0.0
 11
-1283.202307521468
 21
138.3633070973721
 31
0.0
  0
ARC
  5
182
  8
1
  6
CONTINUOUS
 62
     7
 10
-1283.202307521468
 20
136.3633070973721
 30
0.0
 40
1.999999999999999
 50
90.0
 51
180.0
  0
LINE
  5
183
  8
1
  6
CONTINUOUS
 62
     7
 10
-1285.202307521468
 20
136.3633070973721
 30
0.0
 11
-1285.202307521468
 21
135.8633070973721
 31
0.0
  0
ARC
  5
184
  8
1
  6
CONTINUOUS
 62
     7
 10
-1292.802307521468
 20
135.8633070973721
 30
0.0
 40
7.600000000000001
 50
179.9999999999999
 51
0.0000000000001137
  0
LINE
  5
185
  8
1
  6
CONTINUOUS
 62
     7
 10
-1300.402307521468
 20
135.8633070973721
 30
0.0
 11
-1300.402307521468
 21
136.3633070973721
 31
0.0
  0
ARC
  5
186
  8
1
  6
CONTINUOUS
 62
     7
 10
-1302.402307521468
 20
136.3633070973721
 30
0.0
 40
2.000000000000002
 50
0.0
 51
90.0
  0
LINE
  5
187
  8
1
  6
CONTINUOUS
 62
     7
 10
-1302.402307521468
 20
138.3633070973721
 30
0.0
 11
-1305.517396744503
 21
138.3633070973721
 31
0.0
  0
ARC
  5
188
  8
1
  6
CONTINUOUS
 62
     7
 10
-1305.517396744503
 20
136.3633070973721
 30
0.0
 40
2.0
 50
90.0
 51
155.0000000000002
  0
LINE
  5
189
  8
1
  6
CONTINUOUS
 62
     7
 10
-1307.330012318577
 20
137.2085436208535
 30
0.0
 11
-1309.05090816259
 21
133.5180705738907
 31
0.0
  0
ARC
  5
18A
  8
1
  6
CONTINUOUS
 62
     7
 10
-1310.863523736663
 20
134.3633070973721
 30
0.0
 40
2.000000000000002
 50
270.0
 51
334.9999999999998
  0
LINE
  5
18B
  8
1
  6
CONTINUOUS
 62
     7
 10
-1310.863523736663
 20
132.3633070973721
 30
0.0
 11
-1313.831744772991
 21
132.3633070973721
 31
0.0
  0
ARC
  5
18C
  8
1
  6
CONTINUOUS
 62
     7
 10
-1313.831744772991
 20
130.3633070973721
 30
0.0
 40
2.000000000000003
 50
90.0
 51
135.0
  0
LINE
  5
18D
  8
1
  6
CONTINUOUS
 62
     7
 10
-1315.245958335364
 20
131.7775206597452
 30
0.0
 11
-1326.81043152249
 21
120.2130474726192
 31
0.0
  0
ARC
  5
18E
  8
1
  6
CONTINUOUS
 62
     7
 10
-1323.274897616558
 20
116.6775135666864
 30
0.0
 40
4.999999999999998
 50
134.9999999999999
 51
239.47751218593
  0
ARC
  5
18F
  8
1
  6
CONTINUOUS
 62
     7
 10
-1292.802307521468
 20
168.3633070973721
 30
0.0
 40
64.99999999999999
 50
239.47751218593
 51
248.8119442486778
  0
ARC
  5
190
  8
1
  6
CONTINUOUS
 62
     7
 10
-1317.018131187968
 20
105.8925628713507
 30
0.0
 40
2.000000000000001
 50
350.0000000000001
 51
68.81194424867765
  0
LINE
  5
191
  8
1
  6
CONTINUOUS
 62
     7
 10
-1315.048515681944
 20
105.5452665160169
 30
0.0
 11
-1316.108886658965
 21
99.53160387198618
 31
0.0
  0
ARC
  5
192
  8
1
  6
CONTINUOUS
 62
     7
 10
-1318.078502164989
 20
99.87890022732005
 30
0.0
 40
2.000000000000002
 50
249.7419272145152
 51
349.9999999999997
  0
ARC
  5
193
  8
1
  6
CONTINUOUS
 62
     7
 10
-1292.802307521468
 20
168.3633070973721
 30
0.0
 40
75.0
 50
261.5699438282613
 51
249.7419272145153
  0
ARC
  5
194
  8
1
  6
CONTINUOUS
 62
     7
 10
-1303.504250607721
 20
96.15203087143493
 30
0.0
 40
2.0
 50
170.0000000000006
 51
261.5699438282612
  0
LINE
  5
195
  8
1
  6
CONTINUOUS
 62
     7
 10
-1305.473866113746
 20
96.49932722676878
 30
0.0
 11
-1304.431550742229
 21
102.4105914435615
 31
0.0
  0
ARC
  5
196
  8
1
  6
CONTINUOUS
 62
     7
 10
-1302.461935236204
 20
102.0632950882276
 30
0.0
 40
2.000000000000004
 50
81.71057588031117
 51
170.0000000000005
  0
ARC
  5
197
  8
1
  6
CONTINUOUS
 62
     7
 10
-1292.802307521468
 20
168.3633070973721
 30
0.0
 40
65.0
 50
261.7105758803111
 51
269.3580321112592
  0
ARC
  5
198
  8
1
  6
CONTINUOUS
 62
     7
 10
-1292.802307521468
 20
105.8633070973721
 30
0.0
 40
2.599999999999993
 50
253.7335002378259
 51
286.2664997621739
  0
ARC
  5
199
  8
1
  6
CONTINUOUS
 62
     7
 10
-1292.802307521468
 20
168.3633070973721
 30
0.0
 40
65.0
 50
270.6419678887409
 51
300.5224878140702
  0
ARC
  5
19A
  8
1
  6
CONTINUOUS
 62
     7
 10
-1262.329717426379
 20
116.6775135666864
 30
0.0
 40
5.000000000000004
 50
300.5224878140702
 51
45.0
  0
LINE
  5
19B
  8
1
  6
CONTINUOUS
 62
     7
 10
-1258.794183520446
 20
120.2130474726192
 30
0.0
 11
-1270.358656707572
 21
131.7775206597452
 31
0.0
  0
ARC
  5
19C
  8
1
  6
CONTINUOUS
 62
     7
 10
-1271.772870269945
 20
130.3633070973721
 30
0.0
 40
2.000000000000002
 50
45.0
 51
90.0
  0
LINE
  5
19D
  8
1
  6
CONTINUOUS
 62
     7
 10
-1271.772870269945
 20
132.3633070973721
 30
0.0
 11
-1274.741091306273
 21
132.3633070973721
 31
0.0
  0
ARC
  5
19E
  8
1
  6
CONTINUOUS
 62
     7
 10
-1274.741091306273
 20
134.3633070973721
 30
0.0
 40
1.999999999999998
 50
205.0000000000002
 51
270.0
  0
LINE
  5
19F
  8
1
  6
CONTINUOUS
 62
     7
 10
-1276.553706880347
 20
133.5180705738907
 30
0.0
 11
-1278.27460272436
 21
137.2085436208535
 31
0.0
  0
ARC
  5
1A0
  8
1
  6
CONTINUOUS
 62
     7
 10
-1292.802307521468
 20
168.3633070973721
 30
0.0
 40
13.5
 50
0.000000000000007
 51
240.0000000000002
  0
LINE
  5
1A1
  8
1
  6
CONTINUOUS
 62
     7
 10
-1299.552307521468
 20
156.6719641462822
 30
0.0
 11
-1289.802307521468
 21
151.0427990216833
 31
0.0
  0
ARC
  5
1A2
  8
1
  6
CONTINUOUS
 62
     7
 10
-1286.302307521468
 20
157.1049768481744
 30
0.0
 40
7.0
 50
240.0
 51
359.9999999999998
  0
LINE
  5
1A3
  8
1
  6
CONTINUOUS
 62
     7
 10
-1279.302307521468
 20
157.1049768481744
 30
0.0
 11
-1279.302307521468
 21
168.3633070973721
 31
0.0
  0
LINE
  5
1A4
  8
1
  6
CONTINUOUS
 62
     7
 10
-1290.202307521468
 20
193.3633070973721
 30
0.0
 11
-1290.202307521468
 21
230.8633070973721
 31
0.0
  0
ARC
  5
1A5
  8
1
  6
CONTINUOUS
 62
     7
 10
-1292.802307521468
 20
230.8633070973721
 30
0.0
 40
2.599999999999998
 50
0.000000000000007
 51
179.9999999999997
  0
LINE
  5
1A6
  8
1
  6
CONTINUOUS
 62
     7
 10
-1295.402307521468
 20
193.3633070973721
 30
0.0
 11
-1295.402307521468
 21
230.8633070973721
 31
0.0
  0
ARC
  5
1A7
  8
1
  6
CONTINUOUS
 62
     7
 10
-1292.802307521468
 20
193.3633070973721
 30
0.0
 40
2.599999999999998
 50
180.0
 51
359.9999999999998
  0
ARC
  5
1A8
  8
1
  6
CONTINUOUS
 62
     7
 10
-1248.608133697309
 20
212.5574809215314
 30
0.0
 40
2.599999999999998
 50
315.0
 51
135.0
  0
LINE
  5
1A9
  8
1
  6
CONTINUOUS
 62
     7
 10
-1250.446611328394
 20
214.3959585526163
 30
0.0
 11
-1271.659814763991
 21
193.1827551170199
 31
0.0
  0
ARC
  5
1AA
  8
1
  6
CONTINUOUS
 62
     7
 10
-1269.821337132905
 20
191.3442774859349
 30
0.0
 40
2.599999999999998
 50
135.0
 51
315.0
  0
LINE
  5
1AB
  8
1
  6
CONTINUOUS
 62
     7
 10
-1267.98285950182
 20
189.5057998548499
 30
0.0
 11
-1246.769656066224
 21
210.7190032904463
 31
0.0
  0
ARC
  5
1AC
  8
1
  6
CONTINUOUS
 62
     7
 10
-1238.675719784941
 20
199.6133070973721
 30
0.0
 40
2.599999999999998
 50
299.9999999999998
 51
120.0000000000001
  0
LINE
  5
1AD
  8
1
  6
CONTINUOUS
 62
     7
 10
-1239.975719784941
 20
201.8649731472117
 30
0.0
 11
-1265.956481898474
 21
186.8649731472117
 31
0.0
  0
ARC
  5
1AE
  8
1
  6
CONTINUOUS
 62
     7
 10
-1264.656481898474
 20
184.6133070973721
 30
0.0
 40
2.599999999999999
 50
120.0000000000003
 51
300.0000000000001
  0
LINE
  5
1AF
  8
1
  6
CONTINUOUS
 62
     7
 10
-1263.356481898474
 20
182.3616410475326
 30
0.0
 11
-1237.375719784941
 21
197.3616410475326
 31
0.0
  0
ARC
  5
1B0
  8
1
  6
CONTINUOUS
 62
     7
 10
-1248.608133697309
 20
124.1691332732129
 30
0.0
 40
2.600000000000003
 50
225.0000000000001
 51
44.99999999999965
  0
LINE
  5
1B1
  8
1
  6
CONTINUOUS
 62
     7
 10
-1246.769656066224
 20
126.0076109042979
 30
0.0
 11
-1267.98285950182
 21
147.2208143398943
 31
0.0
  0
ARC
  5
1B2
  8
1
  6
CONTINUOUS
 62
     7
 10
-1269.821337132905
 20
145.3823367088093
 30
0.0
 40
2.599999999999996
 50
45.00000000000008
 51
225.0000000000001
  0
LINE
  5
1B3
  8
1
  6
CONTINUOUS
 62
     7
 10
-1271.659814763991
 20
143.5438590777243
 30
0.0
 11
-1250.446611328394
 21
122.3306556421279
 31
0.0
  0
LINE
  5
1B4
  8
1
  6
CONTINUOUS
 62
     7
 10
-1250.052307521468
 20
176.8633070973721
 30
0.0
 11
-1250.052307521468
 21
177.1633070973721
 31
0.0
  0
ARC
  5
1B5
  8
1
  6
CONTINUOUS
 62
     7
 10
-1251.552307521468
 20
177.1633070973721
 30
0.0
 40
1.500000000000001
 50
0.0000000000001395
 51
90.0000000000003
  0
LINE
  5
1B6
  8
1
  6
CONTINUOUS
 62
     7
 10
-1251.552307521468
 20
178.6633070973721
 30
0.0
 11
-1272.552307521468
 21
178.6633070973721
 31
0.0
  0
ARC
  5
1B7
  8
1
  6
CONTINUOUS
 62
     7
 10
-1272.552307521468
 20
177.1633070973721
 30
0.0
 40
1.500000000000001
 50
90.00000000000016
 51
180.0000000000003
  0
LINE
  5
1B8
  8
1
  6
CONTINUOUS
 62
     7
 10
-1274.052307521468
 20
177.1633070973721
 30
0.0
 11
-1274.052307521468
 21
176.8633070973721
 31
0.0
  0
ARC
  5
1B9
  8
1
  6
CONTINUOUS
 62
     7
 10
-1272.552307521468
 20
176.8633070973721
 30
0.0
 40
1.500000000000001
 50
179.9999999999999
 51
224.8575490510887
  0
LINE
  5
1BA
  8
1
  6
CONTINUOUS
 62
     9
 10
-1273.615601466071
 20
160.9213269399885
 30
0.0
 11
-1273.615601466071
 21
175.8052872547557
 31
0.0
  0
ARC
  5
1BB
  8
1
  6
CONTINUOUS
 62
     7
 10
-1272.552307521468
 20
159.8633070973721
 30
0.0
 40
1.499999999999998
 50
135.1424509489116
 51
180.0
  0
LINE
  5
1BC
  8
1
  6
CONTINUOUS
 62
     7
 10
-1274.052307521468
 20
159.5633070973721
 30
0.0
 11
-1274.052307521468
 21
159.8633070973721
 31
0.0
  0
ARC
  5
1BD
  8
1
  6
CONTINUOUS
 62
     7
 10
-1272.552307521468
 20
159.5633070973721
 30
0.0
 40
1.500000000000001
 50
180.0000000000002
 51
270.0000000000001
  0
LINE
  5
1BE
  8
1
  6
CONTINUOUS
 62
     7
 10
-1251.552307521468
 20
158.0633070973721
 30
0.0
 11
-1272.552307521468
 21
158.0633070973721
 31
0.0
  0
ARC
  5
1BF
  8
1
  6
CONTINUOUS
 62
     7
 10
-1251.552307521468
 20
159.5633070973721
 30
0.0
 40
1.500000000000001
 50
269.9999999999997
 51
0.0
  0
LINE
  5
1C0
  8
1
  6
CONTINUOUS
 62
     7
 10
-1250.052307521468
 20
159.8633070973721
 30
0.0
 11
-1250.052307521468
 21
159.5633070973721
 31
0.0
  0
ARC
  5
1C1
  8
1
  6
CONTINUOUS
 62
     7
 10
-1251.552307521468
 20
159.8633070973721
 30
0.0
 40
1.500000000000002
 50
0.0
 51
44.85754905108814
  0
LINE
  5
1C2
  8
1
  6
CONTINUOUS
 62
     9
 10
-1250.489013576865
 20
175.8052872547557
 30
0.0
 11
-1250.489013576865
 21
160.9213269399885
 31
0.0
  0
ARC
  5
1C3
  8
1
  6
CONTINUOUS
 62
     7
 10
-1251.552307521468
 20
176.8633070973721
 30
0.0
 40
1.500000000000001
 50
315.1424509489118
 51
0.0000000000001705
  0
ARC
  5
1C4
  8
1
  6
CONTINUOUS
 62
     7
 10
-1292.802307521468
 20
143.3633070973721
 30
0.0
 40
2.599999999999998
 50
0.000000000000007
 51
180.0000000000002
  0
LINE
  5
1C5
  8
1
  6
CONTINUOUS
 62
     7
 10
-1295.402307521468
 20
135.8633070973721
 30
0.0
 11
-1295.402307521468
 21
143.3633070973721
 31
0.0
  0
ARC
  5
1C6
  8
1
  6
CONTINUOUS
 62
     7
 10
-1292.802307521468
 20
135.8633070973721
 30
0.0
 40
2.6
 50
180.0000000000003
 51
0.0
  0
LINE
  5
1C7
  8
1
  6
CONTINUOUS
 62
     7
 10
-1290.202307521468
 20
135.8633070973721
 30
0.0
 11
-1290.202307521468
 21
143.3633070973721
 31
0.0
  0
ARC
  5
1C8
  8
1
  6
CONTINUOUS
 62
     7
 10
-1315.783277910031
 20
191.3442774859349
 30
0.0
 40
2.599999999999996
 50
225.0
 51
45.00000000000006
  0
LINE
  5
1C9
  8
1
  6
CONTINUOUS
 62
     7
 10
-1335.158003714542
 20
214.3959585526164
 30
0.0
 11
-1313.944800278946
 21
193.18275511702
 31
0.0
  0
ARC
  5
1CA
  8
1
  6
CONTINUOUS
 62
     7
 10
-1336.996481345627
 20
212.5574809215314
 30
0.0
 40
2.599999999999998
 50
45.0
 51
225.0
  0
LINE
  5
1CB
  8
1
  6
CONTINUOUS
 62
     7
 10
-1317.621755541116
 20
189.5057998548499
 30
0.0
 11
-1338.834958976713
 21
210.7190032904464
 31
0.0
  0
ARC
  5
1CC
  8
1
  6
CONTINUOUS
 62
     7
 10
-1320.948133144463
 20
184.6133070973721
 30
0.0
 40
2.599999999999999
 50
239.9999999999999
 51
59.99999999999977
  0
LINE
  5
1CD
  8
1
  6
CONTINUOUS
 62
     7
 10
-1345.628895257996
 20
201.8649731472117
 30
0.0
 11
-1319.648133144463
 21
186.8649731472117
 31
0.0
  0
ARC
  5
1CE
  8
1
  6
CONTINUOUS
 62
     7
 10
-1346.928895257996
 20
199.6133070973722
 30
0.0
 40
2.599999999999998
 50
59.99999999999983
 51
240.0000000000001
  0
LINE
  5
1CF
  8
1
  6
CONTINUOUS
 62
     7
 10
-1322.248133144463
 20
182.3616410475326
 30
0.0
 11
-1348.228895257996
 21
197.3616410475326
 31
0.0
  0
ARC
  5
1D0
  8
1
  6
CONTINUOUS
 62
     7
 10
-1315.783277910031
 20
145.3823367088093
 30
0.0
 40
2.599999999999996
 50
314.9999999999998
 51
134.9999999999999
  0
LINE
  5
1D1
  8
1
  6
CONTINUOUS
 62
     7
 10
-1338.834958976713
 20
126.0076109042979
 30
0.0
 11
-1317.621755541116
 21
147.2208143398943
 31
0.0
  0
ARC
  5
1D2
  8
1
  6
CONTINUOUS
 62
     7
 10
-1336.996481345627
 20
124.1691332732129
 30
0.0
 40
2.600000000000003
 50
135.0000000000003
 51
314.9999999999998
  0
LINE
  5
1D3
  8
1
  6
CONTINUOUS
 62
     7
 10
-1313.944800278946
 20
143.5438590777243
 30
0.0
 11
-1335.158003714542
 21
122.3306556421279
 31
0.0
  0
LINE
  5
1D4
  8
1
  6
CONTINUOUS
 62
     9
 10
-1335.115601466071
 20
175.8052872547557
 30
0.0
 11
-1335.115601466071
 21
160.9213269399885
 31
0.0
  0
ARC
  5
1D5
  8
1
  6
CONTINUOUS
 62
     7
 10
-1334.052307521468
 20
159.8633070973721
 30
0.0
 40
1.500000000000002
 50
135.1424509489119
 51
180.0
  0
LINE
  5
1D6
  8
1
  6
CONTINUOUS
 62
     7
 10
-1335.552307521468
 20
159.8633070973721
 30
0.0
 11
-1335.552307521468
 21
159.5633070973722
 31
0.0
  0
ARC
  5
1D7
  8
1
  6
CONTINUOUS
 62
     7
 10
-1334.052307521468
 20
159.5633070973722
 30
0.0
 40
1.500000000000001
 50
180.0
 51
270.0000000000002
  0
LINE
  5
1D8
  8
1
  6
CONTINUOUS
 62
     7
 10
-1334.052307521468
 20
158.0633070973722
 30
0.0
 11
-1313.052307521468
 21
158.0633070973722
 31
0.0
  0
ARC
  5
1D9
  8
1
  6
CONTINUOUS
 62
     7
 10
-1313.052307521468
 20
159.5633070973721
 30
0.0
 40
1.500000000000001
 50
269.9999999999999
 51
359.9999999999998
  0
LINE
  5
1DA
  8
1
  6
CONTINUOUS
 62
     7
 10
-1311.552307521468
 20
159.5633070973721
 30
0.0
 11
-1311.552307521468
 21
159.8633070973721
 31
0.0
  0
ARC
  5
1DB
  8
1
  6
CONTINUOUS
 62
     7
 10
-1313.052307521468
 20
159.8633070973721
 30
0.0
 40
1.499999999999998
 50
0.000000000000007
 51
44.85754905108825
  0
LINE
  5
1DC
  8
1
  6
CONTINUOUS
 62
     9
 10
-1311.989013576865
 20
160.9213269399885
 30
0.0
 11
-1311.989013576865
 21
175.8052872547557
 31
0.0
  0
ARC
  5
1DD
  8
1
  6
CONTINUOUS
 62
     7
 10
-1313.052307521468
 20
176.8633070973721
 30
0.0
 40
1.500000000000001
 50
315.1424509489112
 51
0.0000000000000568
  0
LINE
  5
1DE
  8
1
  6
CONTINUOUS
 62
     7
 10
-1311.552307521468
 20
177.1633070973721
 30
0.0
 11
-1311.552307521468
 21
176.8633070973721
 31
0.0
  0
ARC
  5
1DF
  8
1
  6
CONTINUOUS
 62
     7
 10
-1313.052307521468
 20
177.1633070973722
 30
0.0
 40
1.500000000000001
 50
359.9999999999997
 51
89.9999999999999
  0
LINE
  5
1E0
  8
1
  6
CONTINUOUS
 62
     7
 10
-1334.052307521468
 20
178.6633070973722
 30
0.0
 11
-1313.052307521468
 21
178.6633070973722
 31
0.0
  0
ARC
  5
1E1
  8
1
  6
CONTINUOUS
 62
     7
 10
-1334.052307521468
 20
177.1633070973722
 30
0.0
 40
1.500000000000001
 50
89.99999999999977
 51
179.9999999999999
  0
LINE
  5
1E2
  8
1
  6
CONTINUOUS
 62
     7
 10
-1335.552307521468
 20
176.8633070973722
 30
0.0
 11
-1335.552307521468
 21
177.1633070973722
 31
0.0
  0
ARC
  5
1E3
  8
1
  6
CONTINUOUS
 62
     7
 10
-1334.052307521468
 20
176.8633070973722
 30
0.0
 40
1.500000000000001
 50
179.9999999999999
 51
224.8575490510882
  0
CIRCLE
  5
1E4
  8
1
  6
CONTINUOUS
 62
     7
 10
-1272.802307521468
 20
138.3633070973721
 30
0.0
 40
2.600000000000001
  0
CIRCLE
  5
1E5
  8
1
  6
CONTINUOUS
 62
     7
 10
-1312.802307521468
 20
138.3633070973721
 30
0.0
 40
2.600000000000001
  0
CIRCLE
  5
1E6
  8
1
  6
CONTINUOUS
 62
     7
 10
-1312.802307521468
 20
198.3633070973721
 30
0.0
 40
2.600000000000001
  0
CIRCLE
  5
1E7
  8
1
  6
CONTINUOUS
 62
     7
 10
-1272.802307521468
 20
198.3633070973721
 30
0.0
 40
2.600000000000001
  0
LINE
  5
1E8
  8
1
  6
CONTINUOUS
 62
     9
 10
-1332.55510130824
 20
161.3633070973721
 30
0.0
 11
-1332.55510130824
 21
175.3633070973722
 31
0.0
  0
LINE
  5
1E9
  8
1
  6
CONTINUOUS
 62
     7
 10
-1334.052307521468
 20
161.3633070973721
 30
0.0
 11
-1332.55510130824
 21
161.3633070973721
 31
0.0
  0
ARC
  5
1EA
  8
1
  6
CONTINUOUS
 62
     7
 10
-1334.0522559859
 20
176.8634310790874
 30
0.0
 40
1.500123982600515
 50
224.8595174021116
 51
269.9980316489763
  0
LINE
  5
1EB
  8
1
  6
CONTINUOUS
 62
     7
 10
-1332.55510130824
 20
175.3633070973722
 30
0.0
 11
-1334.052307521468
 21
175.3633070973722
 31
0.0
  0
ARC
  5
1EC
  8
1
  6
CONTINUOUS
 62
     7
 10
-1334.05225618388
 20
159.863183591949
 30
0.0
 40
1.500123506301599
 50
90.00196078996578
 51
135.140490158946
  0
LINE
  5
1ED
  8
1
  6
CONTINUOUS
 62
     9
 10
-1314.549513734697
 20
175.3633070973721
 30
0.0
 11
-1314.549513734697
 21
161.3633070973721
 31
0.0
  0
LINE
  5
1EE
  8
1
  6
CONTINUOUS
 62
     7
 10
-1313.052307521468
 20
175.3633070973721
 30
0.0
 11
-1314.549513734697
 21
175.3633070973721
 31
0.0
  0
ARC
  5
1EF
  8
1
  6
CONTINUOUS
 62
     7
 10
-1313.052358859056
 20
176.8634306027953
 30
0.0
 40
1.500123506301622
 50
270.0019607899665
 51
315.1404901589451
  0
LINE
  5
1F0
  8
1
  6
CONTINUOUS
 62
     7
 10
-1314.549513734697
 20
161.3633070973721
 30
0.0
 11
-1313.052307521468
 21
161.3633070973721
 31
0.0
  0
ARC
  5
1F1
  8
1
  6
CONTINUOUS
 62
     7
 10
-1313.052359057037
 20
159.8631831156568
 30
0.0
 40
1.500123982600523
 50
44.85951740211203
 51
89.99803164897577
  0
ARC
  5
1F2
  8
1
  6
CONTINUOUS
 62
     7
 10
-1272.5522559859
 20
159.8631831156568
 30
0.0
 40
1.500123982600523
 50
90.00196835102422
 51
135.1404825978879
  0
ARC
  5
1F3
  8
1
  6
CONTINUOUS
 62
     7
 10
-1272.55225618388
 20
176.8634306027953
 30
0.0
 40
1.500123506301621
 50
224.8595098410548
 51
269.9980392100336
  0
LINE
  5
1F4
  8
1
  6
CONTINUOUS
 62
     7
 10
-1272.552307521468
 20
175.3633070973721
 30
0.0
 11
-1271.05510130824
 21
175.3633070973721
 31
0.0
  0
LINE
  5
1F5
  8
1
  6
CONTINUOUS
 62
     9
 10
-1271.05510130824
 20
175.3633070973721
 30
0.0
 11
-1271.05510130824
 21
161.3633070973721
 31
0.0
  0
LINE
  5
1F6
  8
1
  6
CONTINUOUS
 62
     7
 10
-1271.05510130824
 20
161.3633070973721
 30
0.0
 11
-1272.552307521468
 21
161.3633070973721
 31
0.0
  0
ARC
  5
1F7
  8
1
  6
CONTINUOUS
 62
     7
 10
-1251.552359057037
 20
176.8634310790874
 30
0.0
 40
1.500123982600521
 50
270.0019683510237
 51
315.1404825978882
  0
ARC
  5
1F8
  8
1
  6
CONTINUOUS
 62
     7
 10
-1251.552358859056
 20
159.863183591949
 30
0.0
 40
1.500123506301596
 50
44.85950984105385
 51
89.99803921003422
  0
LINE
  5
1F9
  8
1
  6
CONTINUOUS
 62
     7
 10
-1251.552307521468
 20
161.3633070973721
 30
0.0
 11
-1253.049513734697
 21
161.3633070973721
 31
0.0
  0
LINE
  5
1FA
  8
1
  6
CONTINUOUS
 62
     9
 10
-1253.049513734697
 20
161.3633070973721
 30
0.0
 11
-1253.049513734697
 21
175.3633070973721
 31
0.0
  0
LINE
  5
1FB
  8
1
  6
CONTINUOUS
 62
     7
 10
-1253.049513734697
 20
175.3633070973721
 30
0.0
 11
-1251.552307521468
 21
175.3633070973721
 31
0.0
  0
LINE
  5
1FC
  8
1
  6
CONTINUOUS
 62
     9
 10
-1332.343723765138
 20
175.3633070973722
 30
0.0
 11
-1332.343723765138
 21
161.3633070973721
 31
0.0
  0
LINE
  5
1FD
  8
1
  6
CONTINUOUS
 62
     7
 10
-1332.55510130824
 20
161.3633070973721
 30
0.0
 11
-1332.343723765138
 21
161.3633070973721
 31
0.0
  0
LINE
  5
1FE
  8
1
  6
CONTINUOUS
 62
     7
 10
-1332.55510130824
 20
175.3633070973722
 30
0.0
 11
-1332.343723765138
 21
175.3633070973722
 31
0.0
  0
LINE
  5
1FF
  8
1
  6
CONTINUOUS
 62
     9
 10
-1314.760891277798
 20
161.3633070973721
 30
0.0
 11
-1314.760891277798
 21
175.3633070973721
 31
0.0
  0
LINE
  5
200
  8
1
  6
CONTINUOUS
 62
     7
 10
-1314.549513734697
 20
161.3633070973721
 30
0.0
 11
-1314.760891277798
 21
161.3633070973721
 31
0.0
  0
LINE
  5
201
  8
1
  6
CONTINUOUS
 62
     7
 10
-1314.549513734697
 20
175.3633070973721
 30
0.0
 11
-1314.760891277798
 21
175.3633070973721
 31
0.0
  0
LINE
  5
202
  8
1
  6
CONTINUOUS
 62
     9
 10
-1270.843723765138
 20
161.3633070973721
 30
0.0
 11
-1270.843723765138
 21
175.3633070973721
 31
0.0
  0
LINE
  5
203
  8
1
  6
CONTINUOUS
 62
     7
 10
-1271.05510130824
 20
161.3633070973721
 30
0.0
 11
-1270.843723765138
 21
161.3633070973721
 31
0.0
  0
LINE
  5
204
  8
1
  6
CONTINUOUS
 62
     7
 10
-1271.05510130824
 20
175.3633070973721
 30
0.0
 11
-1270.843723765138
 21
175.3633070973721
 31
0.0
  0
LINE
  5
205
  8
1
  6
CONTINUOUS
 62
     9
 10
-1253.260891277798
 20
175.3633070973721
 30
0.0
 11
-1253.260891277798
 21
161.3633070973721
 31
0.0
  0
LINE
  5
206
  8
1
  6
CONTINUOUS
 62
     7
 10
-1253.049513734697
 20
161.3633070973721
 30
0.0
 11
-1253.260891277798
 21
161.3633070973721
 31
0.0
  0
LINE
  5
207
  8
1
  6
CONTINUOUS
 62
     7
 10
-1253.049513734697
 20
175.3633070973721
 30
0.0
 11
-1253.260891277798
 21
175.3633070973721
 31
0.0
  0
LINE
  5
208
  8
1
  6
CONTINUOUS
 62
     9
 10
-1330.374108259114
 20
161.3633070973721
 30
0.0
 11
-1330.374108259114
 21
175.3633070973722
 31
0.0
  0
LINE
  5
209
  8
1
  6
CONTINUOUS
 62
     7
 10
-1330.374108259114
 20
161.3633070973721
 30
0.0
 11
-1332.343723765138
 21
161.3633070973721
 31
0.0
  0
LINE
  5
20A
  8
1
  6
CONTINUOUS
 62
     7
 10
-1332.343723765138
 20
175.3633070973722
 30
0.0
 11
-1330.374108259114
 21
175.3633070973722
 31
0.0
  0
LINE
  5
20B
  8
1
  6
CONTINUOUS
 62
     9
 10
-1316.730506783823
 20
175.3633070973721
 30
0.0
 11
-1316.730506783823
 21
161.3633070973721
 31
0.0
  0
LINE
  5
20C
  8
1
  6
CONTINUOUS
 62
     7
 10
-1314.760891277798
 20
161.3633070973721
 30
0.0
 11
-1316.730506783823
 21
161.3633070973721
 31
0.0
  0
LINE
  5
20D
  8
1
  6
CONTINUOUS
 62
     7
 10
-1316.730506783823
 20
175.3633070973721
 30
0.0
 11
-1314.760891277798
 21
175.3633070973721
 31
0.0
  0
LINE
  5
20E
  8
1
  6
CONTINUOUS
 62
     9
 10
-1268.874108259114
 20
175.3633070973721
 30
0.0
 11
-1268.874108259114
 21
161.3633070973721
 31
0.0
  0
LINE
  5
20F
  8
1
  6
CONTINUOUS
 62
     7
 10
-1270.843723765138
 20
161.3633070973721
 30
0.0
 11
-1268.874108259114
 21
161.3633070973721
 31
0.0
  0
LINE
  5
210
  8
1
  6
CONTINUOUS
 62
     7
 10
-1268.874108259114
 20
175.3633070973721
 30
0.0
 11
-1270.843723765138
 21
175.3633070973721
 31
0.0
  0
LINE
  5
211
  8
1
  6
CONTINUOUS
 62
     9
 10
-1255.230506783823
 20
161.3633070973721
 30
0.0
 11
-1255.230506783823
 21
175.3633070973721
 31
0.0
  0
LINE
  5
212
  8
1
  6
CONTINUOUS
 62
     7
 10
-1255.230506783823
 20
161.3633070973721
 30
0.0
 11
-1253.260891277798
 21
161.3633070973721
 31
0.0
  0
LINE
  5
213
  8
1
  6
CONTINUOUS
 62
     7
 10
-1253.260891277798
 20
175.3633070973721
 30
0.0
 11
-1255.230506783823
 21
175.3633070973721
 31
0.0
  0
ARC
  5
214
  8
1
  6
CONTINUOUS
 62
     7
 10
-1326.302307521468
 20
168.3633070973721
 30
0.0
 40
2.5
 50
90.00000000000001
 51
270.0
  0
LINE
  5
215
  8
1
  6
CONTINUOUS
 62
     7
 10
-1326.302307521468
 20
165.8633070973721
 30
0.0
 11
-1325.472164170597
 21
165.8633070973721
 31
0.0
  0
LINE
  5
216
  8
1
  6
CONTINUOUS
 62
     7
 10
-1325.472164170597
 20
170.8633070973721
 30
0.0
 11
-1326.302307521468
 21
170.8633070973721
 31
0.0
  0
LINE
  5
217
  8
1
  6
CONTINUOUS
 62
     7
 10
-1330.374108259114
 20
161.3633070973721
 30
0.0
 11
-1316.730506783823
 21
161.3633070973721
 31
0.0
  0
LINE
  5
218
  8
1
  6
CONTINUOUS
 62
     7
 10
-1316.730506783823
 20
175.3633070973721
 30
0.0
 11
-1330.374108259114
 21
175.3633070973721
 31
0.0
  0
LINE
  5
219
  8
1
  6
CONTINUOUS
 62
     7
 10
-1259.302307521468
 20
165.8633070973721
 30
0.0
 11
-1260.13245087234
 21
165.8633070973721
 31
0.0
  0
ARC
  5
21A
  8
1
  6
CONTINUOUS
 62
     7
 10
-1259.302307521468
 20
168.3633070973721
 30
0.0
 40
2.5
 50
270.0
 51
90.0
  0
LINE
  5
21B
  8
1
  6
CONTINUOUS
 62
     7
 10
-1260.13245087234
 20
170.8633070973721
 30
0.0
 11
-1259.302307521468
 21
170.8633070973721
 31
0.0
  0
LINE
  5
21C
  8
1
  6
CONTINUOUS
 62
     7
 10
-1255.230506783823
 20
161.3633070973721
 30
0.0
 11
-1268.874108259114
 21
161.3633070973721
 31
0.0
  0
LINE
  5
21D
  8
1
  6
CONTINUOUS
 62
     7
 10
-1268.874108259114
 20
175.3633070973721
 30
0.0
 11
-1255.230506783823
 21
175.3633070973721
 31
0.0
  0
ENDBLK
  8
0
  0
ENDSEC
  0
SECTION
  2
ENTITIES
  0
INSERT
  5
F2
  8
1
  6
DOT
 62
     7
  2
D_FRAME_VIEW_4330
 10
0.0
 20
0.0
 30
0.0
  0
INSERT
  5
136
  8
1
  6
DOT
 62
     7
  2
D_FRAME_VIEW_4395
 10
0.0
 20
0.0
 30
0.0
  0
POINT
  5
137
  8
1
 62
     7
 10
-1287.802307521468
 20
353.3633070973722
 30
0.0
  0
POINT
  5
138
  8
1
 62
     7
 10
-1287.802307521468
 20
323.3633070973722
 30
0.0
  0
POINT
  5
139
  8
1
 62
     7
 10
-1102.802307521468
 20
168.3633070973721
 30
0.0
  0
POINT
  5
13A
  8
1
 62
     7
 10
-1132.802307521468
 20
168.3633070973721
 30
0.0
  0
LINE
  5
13B
  8
1
  6
CENTER
 62
     1
 10
-1369.802307521468
 20
168.3633070973721
 30
0.0
 11
-1215.802307521468
 21
168.3633070973721
 31
0.0
  0
LINE
  5
13D
  8
1
  6
CENTER
 62
     1
 10
-1292.802307521468
 20
91.36330709737213
 30
0.0
 11
-1292.802307521468
 21
245.3633070973721
 31
0.0
  0
LINE
  5
13E
  8
1
  6
CENTER
 62
     1
 10
-1292.802307521468
 20
337.7133070973719
 30
0.0
 11
-1292.802307521468
 21
346.6133070973721
 31
0.0
  0
INSERT
  5
21E
  8
1
  6
DOT
 62
     7
  2
D_FRAME_VIEW_3880
 10
0.0
 20
0.0
 30
0.0
  0
LINE
  5
21F
  8
1
  6
CENTER
 62
     1
 10
-1132.802307521468
 20
168.3633070973721
 30
0.0
 11
-1102.802307521468
 21
168.3633070973721
 31
0.0
  0
LINE
  5
220
  8
1
  6
CENTER
 62
     1
 10
-1292.802307521468
 20
323.3633070973722
 30
0.0
 11
-1292.802307521468
 21
353.3633070973722
 31
0.0
  0
TEXT
  5
221
  8
1
  6
CONTINUOUS
 62
     7
 10
-1179.725819463447
 20
66.69172712988431
 30
0.0
 40
3.0
  1
SG-VK1NL
  0
LINE
  5
222
  8
1
  6
CONTINUOUS
 62
     2
 10
-1179.640943885105
 20
66.13376164282667
 30
0.0
 11
-1165.963671157832
 21
66.13376164282667
 31
0.0
  0
ENDSEC
  0
EOF
