  0
SECTION
  2
HEADER
  9
$ACADVER
  1
AC1004
  9
$INSBASE
 10
0.0
 20
0.0
  9
$EXTMIN
 10
0.0
 20
-169.3848193072402
  9
$EXTMAX
 10
520.0
 20
115.2260823988957
  9
$LIMMIN
 10
0.0
 20
0.0
  9
$LIMMAX
 10
12.0
 20
9.0
  9
$ORTHOMODE
 70
     0
  9
$REGENMODE
 70
     1
  9
$FILLMODE
 70
     1
  9
$QTEXTMODE
 70
     0
  9
$DRAGMODE
 70
     2
  9
$LTSCALE
 40
1.0
  9
$OSMODE
 70
    37
  9
$ATTMODE
 70
     1
  9
$TEXTSIZE
 40
0.2
  9
$TRACEWID
 40
0.05
  9
$TEXTSTYLE
  7
STANDARD
  9
$CLAYER
  8
0
  9
$CELTYPE
  6
BYLAYER
  9
$CECOLOR
 62
   256
  9
$DIMSCALE
 40
1.0
  9
$DIMASZ
 40
3.0
  9
$DIMEXO
 40
0.0625
  9
$DIMDLI
 40
0.38
  9
$DIMRND
 40
0.0
  9
$DIMDLE
 40
0.0
  9
$DIMEXE
 40
1.5
  9
$DIMTP
 40
0.0
  9
$DIMTM
 40
0.0
  9
$DIMTXT
 40
3.0
  9
$DIMCEN
 40
0.09
  9
$DIMTSZ
 40
0.0
  9
$DIMTOL
 70
     0
  9
$DIMLIM
 70
     0
  9
$DIMTIH
 70
     1
  9
$DIMTOH
 70
     1
  9
$DIMSE1
 70
     0
  9
$DIMSE2
 70
     0
  9
$DIMTAD
 70
     1
  9
$DIMZIN
 70
     0
  9
$DIMBLK
  1

  9
$DIMASO
 70
     1
  9
$DIMSHO
 70
     1
  9
$DIMPOST
  1

  9
$DIMAPOST
  1

  9
$DIMALT
 70
     0
  9
$DIMALTD
 70
     2
  9
$DIMALTF
 40
25.4
  9
$DIMLFAC
 40
1.0
  9
$DIMTOFL
 70
     0
  9
$DIMTVP
 40
0.0
  9
$DIMTIX
 70
     0
  9
$DIMSOXD
 70
     0
  9
$DIMSAH
 70
     0
  9
$DIMBLK1
  1

  9
$DIMBLK2
  1

  9
$LUNITS
 70
     2
  9
$LUPREC
 70
     4
  9
$SKETCHINC
 40
0.1
  9
$FILLETRAD
 40
0.5
  9
$AUNITS
 70
     0
  9
$AUPREC
 70
     0
  9
$MENU
  1
.
  9
$ELEVATION
 40
0.0
  9
$THICKNESS
 40
0.0
  9
$LIMCHECK
 70
     0
  9
$CHAMFERA
 40
0.0
  9
$CHAMFERB
 40
0.0
  9
$SKPOLY
 70
     0
  9
$TDCREATE
 40
2459747.742803044
  9
$TDUPDATE
 40
2459747.742803322
  9
$TDINDWG
 40
0.0000000116
  9
$TDUSRTIMER
 40
0.0000000116
  9
$USRTIMER
 70
     1
  9
$ANGBASE
 50
0.0
  9
$ANGDIR
 70
     0
  9
$PDMODE
 70
     0
  9
$PDSIZE
 40
0.0
  9
$PLINEWID
 40
0.0
  9
$COORDS
 70
     1
  9
$SPLFRAME
 70
     0
  9
$SPLINETYPE
 70
     6
  9
$SPLINESEGS
 70
     8
  9
$ATTDIA
 70
     0
  9
$ATTREQ
 70
     1
  9
$SURFTAB1
 70
     6
  9
$SURFTAB2
 70
     6
  9
$SURFTYPE
 70
     6
  9
$SURFU
 70
     6
  9
$SURFV
 70
     6
  9
$UCSNAME
  2

  9
$UCSORG
 10
0.0
 20
0.0
 30
0.0
  9
$UCSXDIR
 10
1.0
 20
0.0
 30
0.0
  9
$UCSYDIR
 10
0.0
 20
1.0
 30
0.0
  9
$USERI1
 70
     0
  9
$USERI2
 70
     0
  9
$USERI3
 70
     0
  9
$USERI4
 70
     0
  9
$USERI5
 70
     0
  9
$USERR1
 40
0.0
  9
$USERR2
 40
0.0
  9
$USERR3
 40
0.0
  9
$USERR4
 40
0.0
  9
$USERR5
 40
0.0
  9
$WORLDVIEW
 70
     1
  0
ENDSEC
  0
SECTION
  2
TABLES
  0
TABLE
  2
LTYPE
 70
     1
  0
LTYPE
  2
CONTINUOUS
 70
     0
  3
Solid line
 72
    65
 73
     0
 40
0.0
  0
ENDTAB
  0
TABLE
  2
LAYER
 70
     1
  0
LAYER
  2
0
 70
     0
 62
     7
  6
CONTINUOUS
  0
ENDTAB
  0
TABLE
  2
STYLE
 70
     2
  0
STYLE
  2
STANDARD
 70
     0
 40
0.0
 41
1.0
 50
0.0
 71
     0
 42
0.2
  3
txt
  4

  0
STYLE
  2
ＭＳ_ゴシック
 70
     0
 40
0.0
 41
1.0
 50
0.0
 71
     0
 42
0.2
  3
ＭＳ ゴシック.shx
  4

  0
ENDTAB
  0
TABLE
  2
VIEW
 70
     0
  0
ENDTAB
  0
ENDSEC
  0
SECTION
  2
BLOCKS
  0
ENDSEC
  0
SECTION
  2
ENTITIES
  0
LINE
  8
0
  6
CONTINUOUS
 62
     7
 10
328.1074945521652
 20
-116.9965818486912
 11
320.6828733497065
 21
-109.5719606462326
  0
ARC
  8
0
  6
CONTINUOUS
 62
     7
 10
330.0520382004283
 20
-115.0520382004283
 40
2.75000000000003
 50
224.9999999999983
 51
45.00000000000034
  0
ARC
  8
0
  6
CONTINUOUS
 62
     7
 10
277.3725830020305
 20
-62.3725830020305
 40
2.749999999999975
 50
225.0000000000001
 51
45.00000000000034
  0
LINE
  8
0
  6
CONTINUOUS
 62
     7
 10
271.8925054478349
 20
-53.0034181513088
 11
279.3171266502936
 21
-60.42803935376748
  0
ARC
  8
0
  6
CONTINUOUS
 62
     7
 10
269.9479617995718
 20
-54.94796179957177
 40
2.75000000000003
 50
44.99999999999868
 51
225.0000000000001
  0
LINE
  8
0
  6
CONTINUOUS
 62
     7
 10
275.4280393537675
 20
-64.31712665029352
 11
268.0034181513087
 21
-56.89250544783481
  0
ARC
  8
0
  6
CONTINUOUS
 62
     7
 10
300.0000000000001
 20
-66.0
 40
1.000000000000001
 50
0.000000000000007
 51
180.0000000000002
  0
LINE
  8
0
  6
CONTINUOUS
 62
     7
 10
299.0000000000001
 20
-66.0
 11
299.0000000000001
 21
-76.00000000000001
  0
ARC
  8
0
  6
CONTINUOUS
 62
     7
 10
300.0000000000001
 20
-76.00000000000001
 40
1.000000000000001
 50
180.0000000000003
 51
359.9999999999998
  0
LINE
  8
0
  6
CONTINUOUS
 62
     7
 10
301.0000000000001
 20
-76.00000000000001
 11
301.0000000000001
 21
-66.0
  0
LINE
  8
0
  6
CONTINUOUS
 62
     7
 10
299.0000000000001
 20
-104.0
 11
299.0000000000001
 21
-94.00000000000003
  0
ARC
  8
0
  6
CONTINUOUS
 62
     7
 10
300.0000000000001
 20
-104.0
 40
1.000000000000001
 50
179.9999999999998
 51
0.0
  0
LINE
  8
0
  6
CONTINUOUS
 62
     7
 10
301.0000000000001
 20
-94.00000000000003
 11
301.0000000000001
 21
-104.0
  0
ARC
  8
0
  6
CONTINUOUS
 62
     7
 10
300.0000000000001
 20
-94.00000000000003
 40
1.000000000000001
 50
0.0
 51
179.9999999999998
  0
ARC
  8
0
  6
CONTINUOUS
 62
     7
 10
340.0
 20
-102.0
 40
0.9999999999996678
 50
180.0
 51
0.0
  0
LINE
  8
0
  6
CONTINUOUS
 62
     7
 10
340.9999999999997
 20
-102.0
 11
341.0
 21
-68.00000000000003
  0
ARC
  8
0
  6
CONTINUOUS
 62
     7
 10
340.0
 20
-68.00000000000003
 40
1.000000000000723
 50
0.000000000000007
 51
180.0
  0
LINE
  8
0
  6
CONTINUOUS
 62
     7
 10
338.9999999999994
 20
-68.00000000000003
 11
339.0000000000003
 21
-102.0
  0
ARC
  8
0
  6
CONTINUOUS
 62
     7
 10
300.0000000000001
 20
-44.00000000000001
 40
4.199999999999982
 50
0.000000000000007
 51
180.0
  0
LINE
  8
0
  6
CONTINUOUS
 62
     7
 10
295.8000000000001
 20
-44.00000000000001
 11
295.8000000000001
 21
-55.00000000000001
  0
LINE
  8
0
  6
CONTINUOUS
 62
     7
 10
304.2
 20
-55.00000000000001
 11
304.2
 21
-44.00000000000001
  0
LINE
  8
0
  6
CONTINUOUS
 62
     7
 10
275.0
 20
-75.00000000000004
 11
288.5
 21
-75.00000000000004
  0
ARC
  8
0
  6
CONTINUOUS
 62
     7
 10
275.0
 20
-85.00000000000001
 40
10.00000000000001
 50
90.0
 51
270.0
  0
LINE
  8
0
  6
CONTINUOUS
 62
     7
 10
288.5
 20
-95.00000000000003
 11
275.0
 21
-95.00000000000003
  0
ARC
  8
0
  6
CONTINUOUS
 62
     7
 10
290.5000000000001
 20
-95.00000000000003
 40
2.000000000000002
 50
180.0
 51
90.00000000000016
  0
ARC
  8
0
  6
CONTINUOUS
 62
     7
 10
290.5000000000001
 20
-75.00000000000003
 40
2.000000000000002
 50
269.9999999999999
 51
180.0
  0
LINE
  8
0
  6
CONTINUOUS
 62
     7
 10
295.8000000000001
 20
-126.0
 11
295.8000000000001
 21
-115.0
  0
ARC
  8
0
  6
CONTINUOUS
 62
     7
 10
300.0000000000001
 20
-126.0
 40
4.200000000000037
 50
180.0
 51
0.0
  0
LINE
  8
0
  6
CONTINUOUS
 62
     7
 10
304.2
 20
-115.0
 11
304.2
 21
-126.0
  0
ARC
  8
0
  6
CONTINUOUS
 62
     7
 10
300.0000000000001
 20
-115.0
 40
4.199999999999982
 50
0.0
 51
180.0
  0
CIRCLE
  8
0
  6
CONTINUOUS
 62
     7
 10
300.0000000000001
 20
-85.00000000000001
 40
49.99999999999999
  0
LINE
  8
0
  6
CONTINUOUS
 62
     7
 10
311.5000000000001
 20
-95.00000000000003
 11
325.0000000000001
 21
-95.00000000000003
  0
ARC
  8
0
  6
CONTINUOUS
 62
     7
 10
309.5000000000001
 20
-75.00000000000003
 40
2.000000000000002
 50
0.000000000000007
 51
270.0000000000001
  0
ARC
  8
0
  6
CONTINUOUS
 62
     7
 10
309.5000000000001
 20
-95.00000000000003
 40
2.000000000000002
 50
89.99999999999986
 51
0.0
  0
LINE
  8
0
  6
CONTINUOUS
 62
     7
 10
259.0000000000003
 20
-102.0
 11
259.0000000000001
 21
-68.00000000000004
  0
ARC
  8
0
  6
CONTINUOUS
 62
     7
 10
260.0000000000001
 20
-102.0
 40
0.9999999999996678
 50
180.0
 51
0.0
  0
LINE
  8
0
  6
CONTINUOUS
 62
     7
 10
261.0000000000007
 20
-68.00000000000004
 11
260.9999999999997
 21
-102.0
  0
ARC
  8
0
  6
CONTINUOUS
 62
     7
 10
260.0000000000001
 20
-68.00000000000004
 40
1.000000000000723
 50
0.0
 51
180.0
  0
ARC
  8
0
  6
CONTINUOUS
 62
     7
 10
322.6274169979695
 20
-62.37258300203051
 40
2.749999999999975
 50
135.0000000000001
 51
315.0000000000002
  0
LINE
  8
0
  6
CONTINUOUS
 62
     7
 10
331.9965818486913
 20
-56.89250544783481
 11
324.5719606462325
 21
-64.3171266502935
  0
ARC
  8
0
  6
CONTINUOUS
 62
     7
 10
330.0520382004283
 20
-54.94796179957176
 40
2.749999999999975
 50
314.9999999999987
 51
135.0000000000002
  0
LINE
  8
0
  6
CONTINUOUS
 62
     7
 10
320.6828733497065
 20
-60.4280393537675
 11
328.1074945521652
 21
-53.00341815130876
  0
ARC
  8
0
  6
CONTINUOUS
 62
     7
 10
277.3725830020305
 20
-107.6274169979695
 40
2.749999999999975
 50
315.0000000000001
 51
135.0000000000003
  0
LINE
  8
0
  6
CONTINUOUS
 62
     7
 10
268.0034181513088
 20
-113.1074945521652
 11
275.4280393537675
 21
-105.6828733497066
  0
ARC
  8
0
  6
CONTINUOUS
 62
     7
 10
269.9479617995718
 20
-115.0520382004283
 40
2.749999999999975
 50
134.9999999999982
 51
315.0000000000007
  0
ARC
  8
0
  6
CONTINUOUS
 62
     7
 10
325.0000000000001
 20
-85.00000000000001
 40
10.00000000000001
 50
269.9999999999999
 51
90.0
  0
LINE
  8
0
  6
CONTINUOUS
 62
     7
 10
279.3171266502936
 20
-109.5719606462325
 11
271.8925054478348
 21
-116.9965818486913
  0
ARC
  8
0
  6
CONTINUOUS
 62
     7
 10
322.6274169979695
 20
-107.6274169979696
 40
2.749999999999975
 50
45.00000000000006
 51
225.0000000000004
  0
ARC
  8
0
  6
CONTINUOUS
 62
     7
 10
300.0000000000001
 20
-55.00000000000001
 40
4.199999999999982
 50
180.0
 51
359.9999999999998
  0
LINE
  8
0
  6
CONTINUOUS
 62
     7
 10
324.5719606462325
 20
-105.6828733497066
 11
331.9965818486913
 21
-113.1074945521653
  0
LINE
  8
0
  6
CONTINUOUS
 62
     7
 10
325.0000000000001
 20
-75.00000000000003
 11
311.5000000000001
 21
-75.00000000000003
  0
LINE
  8
0
  6
CONTINUOUS
 62
     7
 10
288.2
 20
-95.00000000000003
 11
288.2
 21
-75.00000000000003
  0
ARC
  8
0
  6
CONTINUOUS
 62
     7
 10
292.8849998839655
 20
-75.2026591634796
 40
4.669750336935063
 50
177.5126801482085
 51
194.8346583983773
  0
LINE
  8
0
  6
CONTINUOUS
 62
     7
 10
288.3708984348108
 20
-76.39825789049624
 11
288.4360433617069
 21
-76.5325051028076
  0
LINE
  8
0
  6
CONTINUOUS
 62
     7
 10
288.4360433617069
 20
-76.5325051028076
 11
288.5062648157217
 21
-76.634013097179
  0
LINE
  8
0
  6
CONTINUOUS
 62
     7
 10
288.5062648157217
 20
-76.634013097179
 11
288.5787934226021
 21
-76.71106125551452
  0
LINE
  8
0
  6
CONTINUOUS
 62
     7
 10
288.5787934226021
 20
-76.71106125551452
 11
288.6775587388358
 21
-76.78761602543338
  0
LINE
  8
0
  6
CONTINUOUS
 62
     7
 10
288.6775587388358
 20
-76.78761602543338
 11
288.7831401347746
 21
-76.8460362438647
  0
LINE
  8
0
  6
CONTINUOUS
 62
     7
 10
288.7831401347746
 20
-76.8460362438647
 11
288.8781129173009
 21
-76.8847107794905
  0
ARC
  8
0
  6
CONTINUOUS
 62
     7
 10
290.1468445790142
 20
-70.50219874934217
 40
6.507391170386345
 50
258.7571581401768
 51
273.1109641658488
  0
ARC
  8
0
  6
CONTINUOUS
 62
     7
 10
290.1134094561463
 20
-98.86466642305778
 40
5.877394363349997
 50
86.22859923553848
 51
102.3536515345569
  0
LINE
  8
0
  6
CONTINUOUS
 62
     7
 10
288.8559691774487
 20
-93.1233592158229
 11
288.7276193538711
 21
-93.18226358383653
  0
LINE
  8
0
  6
CONTINUOUS
 62
     7
 10
288.7276193538711
 20
-93.18226358383652
 11
288.6407071080766
 21
-93.23793221362068
  0
LINE
  8
0
  6
CONTINUOUS
 62
     7
 10
288.6407071080766
 20
-93.2379322136207
 11
288.5489500990568
 21
-93.31799191401439
  0
LINE
  8
0
  6
CONTINUOUS
 62
     7
 10
288.5489500990568
 20
-93.31799191401439
 11
288.4638156073752
 21
-93.42329783562741
  0
ARC
  8
0
  6
CONTINUOUS
 62
     7
 10
291.0589334234261
 20
-94.63243184601949
 40
2.862977739045813
 50
155.0179435698022
 51
187.3763735945147
  0
LINE
  8
0
  6
CONTINUOUS
 62
     7
 10
311.5000000000001
 20
-75.00000000000001
 11
309.5000000000001
 21
-75.00000000000003
  0
ARC
  8
0
  6
CONTINUOUS
 62
     7
 10
309.9311426791796
 20
-72.30644537396157
 40
4.713315079370061
 50
264.7516269935394
 51
286.1487032108923
  0
LINE
  8
0
  6
CONTINUOUS
 62
     7
 10
311.2420628724178
 20
-76.83378756164493
 11
311.3318452778076
 21
-76.78139475767436
  0
LINE
  8
0
  6
CONTINUOUS
 62
     7
 10
311.3318452778076
 20
-76.78139475767436
 11
311.4353022412299
 21
-76.69775545359256
  0
LINE
  8
0
  6
CONTINUOUS
 62
     7
 10
311.4353022412299
 20
-76.69775545359256
 11
311.5027035993928
 21
-76.62279241551404
  0
LINE
  8
0
  6
CONTINUOUS
 62
     7
 10
311.5027035993928
 20
-76.62279241551404
 11
311.5613188220395
 21
-76.5369803147218
  0
ARC
  8
0
  6
CONTINUOUS
 62
     7
 10
308.3608037894708
 20
-75.29678417227336
 40
3.432401920731631
 50
338.8187039288972
 51
4.960299187803685
  0
LINE
  8
0
  6
CONTINUOUS
 62
     7
 10
309.5000000000001
 20
-75.00000000000003
 11
309.5000000000001
 21
-77.00000000000003
  0
LINE
  8
0
  6
CONTINUOUS
 62
     7
 10
311.5000000000001
 20
-95.00000000000003
 11
309.5000000000001
 21
-95.00000000000003
  0
ARC
  8
0
  6
CONTINUOUS
 62
     7
 10
307.3808451784836
 20
-94.7587943523908
 40
4.406112835582953
 50
356.8618648225799
 51
14.85201614801406
  0
LINE
  8
0
  6
CONTINUOUS
 62
     7
 10
311.6397545560504
 20
-93.62940459081038
 11
311.5817158348465
 21
-93.49923937502828
  0
LINE
  8
0
  6
CONTINUOUS
 62
     7
 10
311.5817158348465
 20
-93.49923937502828
 11
311.5178248903471
 21
-93.39715516106187
  0
LINE
  8
0
  6
CONTINUOUS
 62
     7
 10
311.5178248903471
 20
-93.39715516106187
 11
311.4297099984096
 21
-93.29687928706944
  0
LINE
  8
0
  6
CONTINUOUS
 62
     7
 10
311.4297099984096
 20
-93.29687928706944
 11
311.3170412985112
 21
-93.20889419848349
  0
ARC
  8
0
  6
CONTINUOUS
 62
     7
 10
309.95474680426
 20
-97.05154482874856
 40
4.076985424960933
 50
70.47959190148269
 51
96.40409531470227
  0
LINE
  8
0
  6
CONTINUOUS
 62
     7
 10
309.5000000000001
 20
-93.00000000000003
 11
309.5000000000001
 21
-95.00000000000003
  0
LINE
  8
0
  6
CONTINUOUS
 62
     7
 10
288.5
 20
-95.00000000000003
 11
290.5000000000001
 21
-95.00000000000003
  0
LINE
  8
0
  6
CONTINUOUS
 62
     7
 10
290.5000000000001
 20
-93.00000000000003
 11
290.5000000000001
 21
-95.00000000000003
  0
LINE
  8
0
  6
CONTINUOUS
 62
     7
 10
288.5
 20
-75.00000000000003
 11
290.5000000000001
 21
-75.00000000000003
  0
LINE
  8
0
  6
CONTINUOUS
 62
     7
 10
290.5000000000001
 20
-75.00000000000003
 11
290.5000000000001
 21
-77.00000000000003
  0
LINE
  8
0
  6
CONTINUOUS
 62
     7
 10
311.8000000000001
 20
-75.00000000000003
 11
311.8000000000001
 21
-95.00000000000003
  0
LINE
  8
0
  6
CONTINUOUS
 62
     7
 10
309.75
 20
-96.2
 11
309.75
 21
-95.00000000000001
  0
LINE
  8
0
  6
CONTINUOUS
 62
     7
 10
309.75
 20
-96.2
 11
307.9
 21
-96.2
  0
LINE
  8
0
  6
CONTINUOUS
 62
     7
 10
309.75
 20
-75.00000000000001
 11
309.75
 21
-73.80000000000003
  0
LINE
  8
0
  6
CONTINUOUS
 62
     7
 10
309.75
 20
-73.80000000000003
 11
307.9
 21
-73.80000000000003
  0
LINE
  8
0
  6
CONTINUOUS
 62
     7
 10
290.2500000000001
 20
-75.00000000000003
 11
290.2499999999999
 21
-73.80000000000003
  0
LINE
  8
0
  6
CONTINUOUS
 62
     7
 10
290.2500000000001
 20
-96.2
 11
292.1000000000001
 21
-96.2
  0
LINE
  8
0
  6
CONTINUOUS
 62
     7
 10
290.2500000000001
 20
-96.2
 11
290.2500000000001
 21
-95.00000000000001
  0
LINE
  8
0
  6
CONTINUOUS
 62
     7
 10
290.2500000000001
 20
-73.80000000000003
 11
292.1000000000001
 21
-73.80000000000003
  0
ARC
  8
0
  6
CONTINUOUS
 62
     7
 10
289.7
 20
-83.59807621135333
 40
3.000000000000003
 50
120.0
 51
180.0
  0
LINE
  8
0
  6
CONTINUOUS
 62
     7
 10
286.7
 20
-86.40192378864673
 11
286.7
 21
-83.59807621135334
  0
ARC
  8
0
  6
CONTINUOUS
 62
     7
 10
289.7
 20
-86.40192378864673
 40
3.000000000000003
 50
180.0
 51
240.0
  0
LINE
  8
0
  6
CONTINUOUS
 62
     7
 10
308.1771243444678
 20
-73.50000000000003
 11
309.75
 21
-73.50000000000003
  0
LINE
  8
0
  6
CONTINUOUS
 62
     7
 10
309.75
 20
-73.50000000000003
 11
309.75
 21
-73.80000000000003
  0
LINE
  8
0
  6
CONTINUOUS
 62
     7
 10
290.2500000000001
 20
-73.50000000000003
 11
291.8228756555323
 21
-73.50000000000003
  0
LINE
  8
0
  6
CONTINUOUS
 62
     7
 10
290.2499999999999
 20
-73.80000000000003
 11
290.2500000000001
 21
-73.50000000000003
  0
LINE
  8
0
  6
CONTINUOUS
 62
     7
 10
309.75
 20
-96.50000000000001
 11
308.1771243444678
 21
-96.50000000000001
  0
LINE
  8
0
  6
CONTINUOUS
 62
     7
 10
309.7500000000001
 20
-96.2
 11
309.75
 21
-96.50000000000001
  0
LINE
  8
0
  6
CONTINUOUS
 62
     7
 10
291.8228756555323
 20
-96.50000000000001
 11
290.2500000000001
 21
-96.50000000000001
  0
LINE
  8
0
  6
CONTINUOUS
 62
     7
 10
290.2500000000001
 20
-96.50000000000001
 11
290.2500000000001
 21
-96.2
  0
LINE
  8
0
  6
CONTINUOUS
 62
     7
 10
320.031804578497
 20
-91.50000000036465
 11
314.2999999995861
 21
-91.49999999999969
  0
LINE
  8
0
  6
CONTINUOUS
 62
     7
 10
314.3000000000001
 20
-89.65712472795546
 11
314.2999999995861
 21
-91.49999999999969
  0
LINE
  8
0
  6
CONTINUOUS
 62
     7
 10
314.3000000000001
 20
-84.99999999999972
 11
314.3000000000001
 21
-86.84287527204343
  0
LINE
  8
0
  6
CONTINUOUS
 62
     7
 10
320.031804578911
 20
-85.00000000036466
 11
314.3000000000001
 21
-84.99999999999972
  0
ARC
  8
0
  6
CONTINUOUS
 62
     7
 10
311.2202089567529
 20
-88.24999999980365
 40
9.391843131398014
 50
339.7544028105737
 51
20.24559718213061
  0
LINE
  8
0
  6
CONTINUOUS
 62
     7
 10
320.6123611629233
 20
-78.50000000040167
 11
320.0318045793235
 21
-78.50000000036471
  0
LINE
  8
0
  6
CONTINUOUS
 62
     7
 10
320.8000000003913
 20
-78.82500000041607
 11
320.7999999996048
 21
-91.17500000041109
  0
ARC
  8
0
  6
CONTINUOUS
 62
     7
 10
311.220208957158
 20
-81.7499999998036
 40
9.39184313140612
 50
339.7544028105914
 51
20.24559718211185
  0
LINE
  8
0
  6
CONTINUOUS
 62
     7
 10
320.0318045784958
 20
-91.50000000036464
 11
320.6123611620945
 21
-91.5000000004016
  0
LINE
  8
0
  6
CONTINUOUS
 62
     7
 10
314.3000000004139
 20
-78.49999999999974
 11
314.3000000000001
 21
-80.3428752720513
  0
LINE
  8
0
  6
CONTINUOUS
 62
     7
 10
320.0318045793248
 20
-78.50000000036471
 11
314.3000000004139
 21
-78.49999999999974
  0
LINE
  8
0
  6
CONTINUOUS
 62
     7
 10
314.3000000000001
 20
-83.1571247279476
 11
314.3000000000001
 21
-84.99999999999972
  0
LINE
  8
0
  6
CONTINUOUS
 62
     7
 10
282.7000000000003
 20
-85.07370591530201
 11
282.7000000000006
 21
-79.4080497475034
  0
ARC
  8
0
  6
CONTINUOUS
 62
     7
 10
285.7020444385632
 20
-79.22665856545615
 40
3.007519504846345
 50
183.4577532740904
 51
224.1408831313603
  0
ARC
  8
0
  6
CONTINUOUS
 62
     7
 10
292.274887791064
 20
-85.25549683218841
 40
9.576613396651446
 50
155.7432363183924
 51
178.9123004642368
  0
ARC
  8
0
  6
CONTINUOUS
 62
     7
 10
292.1935112942231
 20
-84.91021254643717
 40
9.494918997821955
 50
180.9866269507395
 51
204.3578362666242
  0
LINE
  8
0
  6
CONTINUOUS
 62
     7
 10
287.7466182869421
 20
-81.3211704418735
 11
283.5437595705306
 21
-81.32117044187339
  0
LINE
  8
0
  6
CONTINUOUS
 62
     7
 10
287.9328881829601
 20
-88.82624138873078
 11
283.5437595705305
 21
-88.82624138873064
  0
LINE
  8
0
  6
CONTINUOUS
 62
     7
 10
282.7000000000003
 20
-90.66565616779694
 11
282.7000000000003
 21
-85.07370591530137
  0
ARC
  8
0
  6
CONTINUOUS
 62
     7
 10
285.5501957365618
 20
-90.8598437232736
 40
2.85680320348064
 50
134.6147355174105
 51
176.1023870586166
  0
LINE
  8
0
  6
CONTINUOUS
 62
     7
 10
314.3000000000001
 20
-78.30000000000001
 11
314.3000000000001
 21
-78.49999999999973
  0
LINE
  8
0
  6
CONTINUOUS
 62
     7
 10
311.8000000000001
 20
-91.697842936349
 11
313.1076923076923
 21
-91.70000000000002
  0
LINE
  8
0
  6
CONTINUOUS
 62
     7
 10
314.3000000000001
 20
-80.34287527205129
 11
314.3000000000001
 21
-83.1571247279476
  0
LINE
  8
0
  6
CONTINUOUS
 62
     7
 10
314.3000000000001
 20
-86.84287527204343
 11
314.3000000000001
 21
-89.65712472795546
  0
LINE
  8
0
  6
CONTINUOUS
 62
     7
 10
314.3000000000001
 20
-91.49999999999969
 11
314.3000000000001
 21
-91.70000000000003
  0
ARC
  8
0
  6
CONTINUOUS
 62
     7
 10
285.7481530464726
 20
-79.6097765933372
 40
3.054820897375965
 50
136.1876784136133
 51
176.2136851809447
  0
LINE
  8
0
  6
CONTINUOUS
 62
     7
 10
288.2
 20
-77.49492905314217
 11
283.5437595705306
 21
-77.49492905314199
  0
LINE
  8
0
  6
CONTINUOUS
 62
     7
 10
288.2
 20
-92.50507094685705
 11
283.5437595705305
 21
-92.50507094685689
  0
ARC
  8
0
  6
CONTINUOUS
 62
     7
 10
285.4522371853179
 20
-90.50766630766286
 40
2.756768093287287
 50
183.2854104490829
 51
225.0195118467786
  0
LINE
  8
0
  6
CONTINUOUS
 62
     7
 10
327.0000000000003
 20
-89.00000000000193
 11
327.0000000000003
 21
-88.48655764172247
  0
LINE
  8
0
  6
CONTINUOUS
 62
     7
 10
327.0000000000003
 20
-88.48655764172246
 11
327.0000000000006
 21
-80.99999999999987
  0
LINE
  8
0
  6
CONTINUOUS
 62
     7
 10
328.2000000000004
 20
-82.20000000000041
 11
328.2000000000003
 21
-87.44059034920606
  0
LINE
  8
0
  6
CONTINUOUS
 62
     7
 10
328.2000000000003
 20
-87.44059034920608
 11
328.2000000000003
 21
-87.80000000000186
  0
LINE
  8
0
  6
CONTINUOUS
 62
     7
 10
283.5034924774448
 20
-77.54243497978277
 11
283.5437595705279
 21
-77.49492905314102
  0
LINE
  8
0
  6
CONTINUOUS
 62
     7
 10
282.7000000000006
 20
-79.40804974750468
 11
282.7000000000007
 21
-78.49999999999777
  0
LINE
  8
0
  6
CONTINUOUS
 62
     7
 10
282.7000000000003
 20
-91.5000000000011
 11
282.7000000000003
 21
-90.66565616779695
  0
LINE
  8
0
  6
CONTINUOUS
 62
     7
 10
283.5035717216909
 20
-92.45765944381345
 11
283.5437595705271
 21
-92.50507094685756
  0
LINE
  8
0
  6
CONTINUOUS
 62
     7
 10
291.6302654555458
 20
-73.35000000000002
 11
289.3697345444543
 21
-73.35000000000002
  0
LINE
  8
0
  6
CONTINUOUS
 62
     7
 10
291.6302654555458
 20
-96.65
 11
289.3697345444543
 21
-96.65
  0
LINE
  8
0
  6
CONTINUOUS
 62
     7
 10
310.6302654555458
 20
-73.35000000000002
 11
308.3697345444543
 21
-73.35000000000002
  0
LINE
  8
0
  6
CONTINUOUS
 62
     7
 10
310.6302654555458
 20
-96.65
 11
308.3697345444543
 21
-96.65
  0
LINE
  8
0
  6
CONTINUOUS
 62
     7
 10
252.0000000000001
 20
-70.75000000000001
 11
252.0000000000001
 21
-71.00000000000006
  0
LINE
  8
0
  6
CONTINUOUS
 62
     7
 10
252.07362417207
 20
-70.75000000000001
 11
251.9999999999999
 21
-70.75000000000001
  0
LINE
  8
0
  6
CONTINUOUS
 62
     7
 10
252.0000000000001
 20
-99.25000000000003
 11
252.0000000000001
 21
-99.0
  0
LINE
  8
0
  6
CONTINUOUS
 62
     7
 10
252.07362417207
 20
-99.25000000000003
 11
251.9999999999999
 21
-99.25000000000003
  0
ARC
  8
0
  6
CONTINUOUS
 62
     7
 10
271.7500000000001
 20
-85.00000000000001
 40
5.249999999999977
 50
270.0
 51
90.0
  0
LINE
  8
0
  6
CONTINUOUS
 62
     7
 10
266.4889777347254
 20
-79.75000000000003
 11
271.7500000000001
 21
-79.75000000000001
  0
LINE
  8
0
  6
CONTINUOUS
 62
     7
 10
271.7500000000001
 20
-90.25000000000003
 11
266.4889777347254
 21
-90.25000000000003
  0
LINE
  8
0
  6
CONTINUOUS
 62
     7
 10
312.0000000000001
 20
-95.00000000000003
 11
312.0000000000001
 21
-91.69845235856764
  0
LINE
  8
0
  6
CONTINUOUS
 62
     7
 10
312.0000000000001
 20
-78.30000000000001
 11
312.0000000000001
 21
-75.00000000000001
  0
LINE
  8
0
  6
CONTINUOUS
 62
     7
 10
320.6122606038567
 20
-91.50017417238277
 11
320.7999999996048
 21
-91.17500000041231
  0
LINE
  8
0
  6
CONTINUOUS
 62
     7
 10
320.8000000003913
 20
-78.82500000041486
 11
320.6122977435518
 21
-78.49989015482568
  0
LINE
  8
0
  6
CONTINUOUS
 62
     7
 10
313.1076923076924
 20
-91.70000000000002
 11
314.3000000000001
 21
-91.70000000000002
  0
LINE
  8
0
  6
CONTINUOUS
 62
     7
 10
314.3000000000001
 20
-78.30000000000001
 11
311.8000000000001
 21
-78.30000000000001
  0
LINE
  8
0
  6
CONTINUOUS
 62
     7
 10
327.0000000000448
 20
-81.00000000000193
 11
320.8000000002527
 21
-81.00000000000173
  0
LINE
  8
0
  6
CONTINUOUS
 62
     7
 10
320.7999999997434
 20
-88.99999999999991
 11
327.0000000000446
 21
-89.0000000000001
  0
LINE
  8
0
  6
CONTINUOUS
 62
     7
 10
327.0000000000003
 20
-89.0000000000001
 11
328.2000000000003
 21
-87.80000000000044
  0
LINE
  8
0
  6
CONTINUOUS
 62
     7
 10
328.2000000000004
 20
-82.20000000000168
 11
327.0000000000006
 21
-81.00000000000193
  0
LINE
  8
0
  6
CONTINUOUS
 62
     7
 10
283.5040230907427
 20
-77.54180259308077
 11
282.7000000000007
 21
-78.50000000000111
  0
LINE
  8
0
  6
CONTINUOUS
 62
     7
 10
282.7000000000003
 20
-91.49999999999812
 11
283.5042370239796
 21
-92.45845236262272
  0
CIRCLE
  8
0
  6
CONTINUOUS
 62
   253
 10
300.0000000000001
 20
52.0739176011058
 40
3.375000000000017
  0
LINE
  8
0
  6
CONTINUOUS
 62
     7
 10
250.0000000000001
 20
14.77391760110579
 11
300.0000000000001
 21
14.77391760110579
  0
LINE
  8
0
  6
CONTINUOUS
 62
     7
 10
250.0000000000001
 20
17.0739176011057
 11
300.0000000000001
 21
17.0739176011057
  0
LINE
  8
0
  6
CONTINUOUS
 62
     7
 10
300.0000000000001
 20
14.77391760110579
 11
350.0
 21
14.77391760110579
  0
LINE
  8
0
  6
CONTINUOUS
 62
     7
 10
300.0000000000001
 20
17.0739176011057
 11
350.0
 21
17.0739176011057
  0
ARC
  8
0
  6
CONTINUOUS
 62
     7
 10
299.8284271247463
 20
16.0739176011057
 40
3.000000000000003
 50
90.0
 51
160.5287793655091
  0
LINE
  8
0
  6
CONTINUOUS
 62
     7
 10
299.8284271247463
 20
19.0739176011057
 11
300.1715728752538
 21
19.0739176011057
  0
ARC
  8
0
  6
CONTINUOUS
 62
     7
 10
300.1715728752538
 20
16.0739176011057
 40
3.000000000000003
 50
19.471220634491
 51
89.99999999999999
  0
ARC
  8
0
  6
CONTINUOUS
 62
     7
 10
259.8284271247455
 20
16.0739176011057
 40
3.000000000000058
 50
90.0
 51
160.5287793655098
  0
LINE
  8
0
  6
CONTINUOUS
 62
     7
 10
259.8284271247455
 20
19.0739176011057
 11
260.1715728752545
 21
19.0739176011057
  0
ARC
  8
0
  6
CONTINUOUS
 62
     7
 10
260.1715728752545
 20
16.0739176011057
 40
3.000000000000003
 50
19.47122063449031
 51
90.0
  0
ARC
  8
0
  6
CONTINUOUS
 62
     7
 10
339.8284271247466
 20
16.0739176011057
 40
3.000000000000058
 50
90.00000000000006
 51
160.5287793655095
  0
LINE
  8
0
  6
CONTINUOUS
 62
     7
 10
339.8284271247466
 20
19.0739176011057
 11
340.1715728752534
 21
19.0739176011057
  0
ARC
  8
0
  6
CONTINUOUS
 62
     7
 10
340.1715728752538
 20
16.0739176011057
 40
3.000000000000003
 50
19.47122063449073
 51
90.00000000000651
  0
ARC
  8
0
  6
CONTINUOUS
 62
     7
 10
299.7500000000002
 20
42.56572893604649
 40
7.399999999999962
 50
0.0
 51
2.72332562198693
  0
LINE
  8
0
  6
CONTINUOUS
 62
     7
 10
292.85
 20
25.9739176011057
 11
292.85
 21
40.07391760110579
  0
LINE
  8
0
  6
CONTINUOUS
 62
     7
 10
290.2500000000001
 20
25.9739176011057
 11
292.85
 21
25.9739176011057
  0
LINE
  8
0
  6
CONTINUOUS
 62
     7
 10
290.2500000000001
 20
40.07391760110579
 11
290.2500000000001
 21
25.9739176011057
  0
LINE
  8
0
  6
CONTINUOUS
 62
     7
 10
309.0708609162369
 20
46.25883013478987
 11
309.2871695074822
 21
45.57278693108921
  0
ARC
  8
0
  6
CONTINUOUS
 62
     7
 10
299.7500000000002
 20
42.56572893604649
 40
9.999999999999954
 50
0.0
 51
17.49999999999994
  0
LINE
  8
0
  6
CONTINUOUS
 62
     7
 10
309.75
 20
42.56572893604649
 11
309.75
 21
25.9739176011057
  0
LINE
  8
0
  6
CONTINUOUS
 62
     7
 10
307.15
 20
25.9739176011057
 11
309.75
 21
25.9739176011057
  0
LINE
  8
0
  6
CONTINUOUS
 62
     7
 10
307.15
 20
25.9739176011057
 11
307.15
 21
42.56572893604649
  0
LINE
  8
0
  6
CONTINUOUS
 62
     7
 10
309.75
 20
25.9739176011057
 11
309.75
 21
25.67391760110568
  0
LINE
  8
0
  6
CONTINUOUS
 62
     7
 10
307.15
 20
25.67391760110568
 11
309.75
 21
25.67391760110568
  0
LINE
  8
0
  6
CONTINUOUS
 62
     7
 10
307.15
 20
25.67391760110568
 11
307.15
 21
25.9739176011057
  0
LINE
  8
0
  6
CONTINUOUS
 62
     7
 10
292.85
 20
25.67391760110568
 11
290.2499999999999
 21
25.67391760110568
  0
LINE
  8
0
  6
CONTINUOUS
 62
     7
 10
292.85
 20
25.9739176011057
 11
292.85
 21
25.67391760110568
  0
LINE
  8
0
  6
CONTINUOUS
 62
     7
 10
290.2499999999999
 20
25.67391760110568
 11
290.2500000000001
 21
25.9739176011057
  0
ARC
  8
0
  6
CONTINUOUS
 62
     7
 10
307.45
 20
25.37391760110569
 40
2.299999999999969
 50
270.0
 51
359.9999999999997
  0
LINE
  8
0
  6
CONTINUOUS
 62
     7
 10
307.45
 20
23.07391760110571
 11
300.2500000000002
 21
23.07391760110571
  0
LINE
  8
0
  6
CONTINUOUS
 62
     7
 10
300.2500000000002
 20
23.07391760110571
 11
300.25
 21
25.67391760110568
  0
LINE
  8
0
  6
CONTINUOUS
 62
     7
 10
300.25
 20
25.67391760110568
 11
307.15
 21
25.67391760110568
  0
LINE
  8
0
  6
CONTINUOUS
 62
     7
 10
309.75
 20
25.67391760110568
 11
309.75
 21
25.37391760110569
  0
LINE
  8
0
  6
CONTINUOUS
 62
     7
 10
299.75
 20
23.07391760110571
 11
299.75
 21
25.67391760110568
  0
ARC
  8
0
  6
CONTINUOUS
 62
     7
 10
292.55
 20
25.37391760110569
 40
2.299999999999969
 50
180.0000000000003
 51
270.0
  0
LINE
  8
0
  6
CONTINUOUS
 62
     7
 10
292.55
 20
23.07391760110571
 11
299.75
 21
23.07391760110571
  0
LINE
  8
0
  6
CONTINUOUS
 62
     7
 10
299.75
 20
25.67391760110568
 11
292.85
 21
25.67391760110568
  0
LINE
  8
0
  6
CONTINUOUS
 62
     7
 10
290.2499999999999
 20
25.67391760110568
 11
290.2499999999999
 21
25.37391760110569
  0
LINE
  8
0
  6
CONTINUOUS
 62
     7
 10
311.8000000000001
 20
31.57391760110578
 11
311.8000000000001
 21
41.57391760110571
  0
LINE
  8
0
  6
CONTINUOUS
 62
     7
 10
311.8000000000001
 20
17.0739176011057
 11
311.8000000000001
 21
31.57391760110578
  0
LINE
  8
0
  6
CONTINUOUS
 62
     7
 10
309.5000000000001
 20
17.0739176011057
 11
309.5000000000001
 21
24.331084920375
  0
LINE
  8
0
  6
CONTINUOUS
 62
     7
 10
288.2
 20
31.57391760110578
 11
288.2
 21
40.07391760110579
  0
LINE
  8
0
  6
CONTINUOUS
 62
     7
 10
288.2
 20
17.0739176011057
 11
288.2
 21
31.57391760110578
  0
LINE
  8
0
  6
CONTINUOUS
 62
     7
 10
290.5000000000001
 20
17.0739176011057
 11
290.5000000000001
 21
24.331084920375
  0
LINE
  8
0
  6
CONTINUOUS
 62
     7
 10
288.2
 20
33.9888093410236
 11
283.5437595705306
 21
33.9888093410236
  0
ARC
  8
0
  6
CONTINUOUS
 62
     7
 10
290.0986742011465
 20
37.42398096438559
 40
7.400493895451332
 50
181.2706191465346
 51
207.6572565757031
  0
ARC
  8
0
  6
CONTINUOUS
 62
     7
 10
289.9416703831131
 20
37.1028190532835
 40
7.243373335614089
 50
155.7749820149857
 51
178.7575555748315
  0
LINE
  8
0
  6
CONTINUOUS
 62
     7
 10
282.7000000000003
 20
30.76029535745142
 11
282.7000000000004
 21
37.2598774546391
  0
ARC
  8
0
  6
CONTINUOUS
 62
     7
 10
289.9839704550288
 20
30.58117164656129
 40
7.286172581920491
 50
152.1158342788684
 51
178.5912951416928
  0
LINE
  8
0
  6
CONTINUOUS
 62
     7
 10
287.7466182869421
 20
27.53178137388199
 11
283.5437595705306
 21
27.5317813738821
  0
ARC
  8
0
  6
CONTINUOUS
 62
     7
 10
289.9148342886787
 20
30.92135060021181
 40
7.216631666110307
 50
181.2787893679395
 51
208.0140812114927
  0
LINE
  8
0
  6
CONTINUOUS
 62
     7
 10
287.9275102902832
 20
27.77391760110609
 11
287.7466182869422
 21
27.53178137388259
  0
LINE
  8
0
  6
CONTINUOUS
 62
     7
 10
320.0318045793248
 20
30.3211408513743
 11
314.3000000004139
 21
30.3211408513743
  0
LINE
  8
0
  6
CONTINUOUS
 62
     7
 10
314.3000000000001
 20
32.4491099201796
 11
314.3000000004139
 21
30.3211408513743
  0
LINE
  8
0
  6
CONTINUOUS
 62
     7
 10
314.3000000004139
 20
37.8266943508371
 11
314.3000000000001
 21
35.69872528203189
  0
LINE
  8
0
  6
CONTINUOUS
 62
     7
 10
320.0318045793248
 20
37.8266943508371
 11
314.3000000004139
 21
37.8266943508371
  0
ARC
  8
0
  6
CONTINUOUS
 62
     7
 10
308.1713679760704
 20
34.0739176011057
 40
12.43998753026476
 50
342.4420375716443
 51
17.55796242835555
  0
LINE
  8
0
  6
CONTINUOUS
 62
     7
 10
320.7999999999981
 20
40.24891760110319
 11
320.7999999999981
 21
27.89891760110818
  0
ARC
  8
0
  6
CONTINUOUS
 62
     7
 10
317.2870262354149
 20
28.44475247681127
 40
3.324852100378639
 50
325.6426647600592
 51
34.35733522730219
  0
ARC
  8
0
  6
CONTINUOUS
 62
     7
 10
317.2870262354442
 20
39.7030827254001
 40
3.324852100354325
 50
325.6426647724116
 51
34.35733524022686
  0
LINE
  8
0
  6
CONTINUOUS
 62
     7
 10
314.3000000000001
 20
40.51548656617068
 11
314.3000000000001
 21
38.89067888523359
  0
LINE
  8
0
  6
CONTINUOUS
 62
     7
 10
314.3000000000001
 20
35.69872528203189
 11
314.3000000000001
 21
32.4491099201796
  0
LINE
  8
0
  6
CONTINUOUS
 62
     7
 10
314.3000000000001
 20
29.25715631697209
 11
314.3000000000001
 21
27.63234863604311
  0
LINE
  8
0
  6
CONTINUOUS
 62
     7
 10
314.3000000000001
 20
38.89067888523359
 11
314.3000000004139
 21
37.8266943508371
  0
LINE
  8
0
  6
CONTINUOUS
 62
     7
 10
314.3000000000001
 20
41.5794711005685
 11
314.3000000000001
 21
40.5154865661706
  0
LINE
  8
0
  6
CONTINUOUS
 62
     7
 10
320.031804578911
 20
41.5794711005685
 11
314.3000000000001
 21
41.5794711005685
  0
LINE
  8
0
  6
CONTINUOUS
 62
     7
 10
320.031804578911
 20
26.5683641016429
 11
314.3000000000001
 21
26.5683641016429
  0
LINE
  8
0
  6
CONTINUOUS
 62
     7
 10
314.3000000000001
 20
27.63234863604311
 11
314.3000000000001
 21
26.5683641016429
  0
LINE
  8
0
  6
CONTINUOUS
 62
     7
 10
314.3000000004139
 20
30.3211408513743
 11
314.3000000000001
 21
29.25715631697209
  0
LINE
  8
0
  6
CONTINUOUS
 62
     7
 10
282.7000000000004
 20
37.25987745463799
 11
282.7000000000004
 21
40.07391760110951
  0
LINE
  8
0
  6
CONTINUOUS
 62
     7
 10
283.5437595705306
 20
27.5317813738821
 11
282.7000000000003
 21
27.5743355039228
  0
LINE
  8
0
  6
CONTINUOUS
 62
     7
 10
282.7000000000003
 20
27.57391760110431
 11
282.7000000000003
 21
30.76029535745142
  0
LINE
  8
0
  6
CONTINUOUS
 62
     7
 10
287.9275102902832
 20
27.7739176011057
 11
288.2
 21
27.7739176011057
  0
LINE
  8
0
  6
CONTINUOUS
 62
     7
 10
288.2
 20
23.77391760110579
 11
286.7
 21
23.77391760110579
  0
LINE
  8
0
  6
CONTINUOUS
 62
     7
 10
286.7
 20
23.77391760110579
 11
286.7
 21
27.5317813738821
  0
LINE
  8
0
  6
CONTINUOUS
 62
     7
 10
327.0000000000003
 20
30.07391760110412
 11
327.0000000000005
 21
38.0739176011059
  0
LINE
  8
0
  6
CONTINUOUS
 62
     7
 10
328.2000000000004
 20
36.87391760110559
 11
328.2000000000003
 21
31.27391760110437
  0
CIRCLE
  8
0
  6
CONTINUOUS
 62
     7
 10
300.0000000000001
 20
52.0739176011058
 40
2.800000000000025
  0
CIRCLE
  8
0
  6
CONTINUOUS
 62
     7
 10
300.0000000000001
 20
52.0739176011058
 40
4.000000000000004
  0
LINE
  8
0
  6
CONTINUOUS
 62
     7
 10
285.0
 20
68.5739176011057
 11
311.5000000000001
 21
68.5739176011057
  0
LINE
  8
0
  6
CONTINUOUS
 62
     7
 10
311.5000000000001
 20
65.97391760110571
 11
285.0
 21
65.97391760110571
  0
LINE
  8
0
  6
CONTINUOUS
 62
     7
 10
312.0000000000001
 20
68.5739176011057
 11
312.0000000000001
 21
65.97391760110571
  0
LINE
  8
0
  6
CONTINUOUS
 62
     7
 10
311.5000000000001
 20
68.5739176011057
 11
312.0000000000001
 21
68.5739176011057
  0
LINE
  8
0
  6
CONTINUOUS
 62
     7
 10
312.0000000000001
 20
65.97391760110571
 11
311.5000000000001
 21
65.97391760110571
  0
LINE
  8
0
  6
CONTINUOUS
 62
     7
 10
282.0000000000001
 20
65.97391760110571
 11
282.0
 21
68.5739176011057
  0
LINE
  8
0
  6
CONTINUOUS
 62
     7
 10
282.0
 20
68.5739176011057
 11
285.0
 21
68.5739176011057
  0
LINE
  8
0
  6
CONTINUOUS
 62
     7
 10
285.0
 20
65.97391760110571
 11
282.0
 21
65.97391760110571
  0
LINE
  8
0
  6
CONTINUOUS
 62
     7
 10
306.4657460828287
 20
48.2624269572727
 11
306.5337207649954
 21
55.7676726411872
  0
LINE
  8
0
  6
CONTINUOUS
 62
     7
 10
299.9320253178317
 20
44.56867191688599
 11
306.4657460828287
 21
48.2624269572727
  0
LINE
  8
0
  6
CONTINUOUS
 62
     7
 10
293.4662792350017
 20
48.3801625604138
 11
299.9320253178317
 21
44.56867191688599
  0
LINE
  8
0
  6
CONTINUOUS
 62
     7
 10
293.5342539171685
 20
55.88540824432827
 11
293.4662792350017
 21
48.3801625604138
  0
LINE
  8
0
  6
CONTINUOUS
 62
     7
 10
300.0679746821652
 20
59.57916328471502
 11
293.5342539171685
 21
55.88540824432827
  0
CIRCLE
  8
0
  6
CONTINUOUS
 62
     7
 10
299.9999999999983
 20
52.07391760075958
 40
6.175000000000042
  0
LINE
  8
0
  6
CONTINUOUS
 62
     7
 10
306.5337207649954
 20
55.7676726411872
 11
300.0679746821652
 21
59.57916328471502
  0
LINE
  8
0
  6
CONTINUOUS
 62
     7
 10
306.5047497803873
 20
52.5689176011094
 11
306.6816895318474
 21
52.56891760110571
  0
ARC
  8
0
  6
CONTINUOUS
 62
     7
 10
300.0000000000001
 20
52.0739176011058
 40
6.699999999999983
 50
4.236906789428261
 51
13.51573675226003
  0
ARC
  8
0
  6
CONTINUOUS
 62
     7
 10
300.0000000000001
 20
52.0739176011058
 40
6.700000000000039
 50
345.446440881862
 51
1.325617639194036
  0
LINE
  8
0
  6
CONTINUOUS
 62
     7
 10
306.698206849598
 20
52.22891760110571
 11
306.5016704152459
 21
52.22891760110571
  0
ARC
  8
0
  6
CONTINUOUS
 62
     7
 10
300.0000000000001
 20
52.0739176011058
 40
6.700000000000039
 50
45.4464408818621
 51
73.51573675225978
  0
ARC
  8
0
  6
CONTINUOUS
 62
     7
 10
300.0000000000001
 20
52.0739176011058
 40
6.700000000000039
 50
105.4464408818623
 51
133.5157367522597
  0
ARC
  8
0
  6
CONTINUOUS
 62
     7
 10
300.0000000000001
 20
52.0739176011058
 40
6.699999999999983
 50
285.4464408818617
 51
313.5157367522602
  0
LINE
  8
0
  6
CONTINUOUS
 62
     7
 10
306.697842936349
 20
52.24391760110569
 11
306.5018062695918
 21
52.24391760110569
  0
ARC
  8
0
  6
CONTINUOUS
 62
     7
 10
300.0000000000001
 20
52.0739176011058
 40
6.699999999999983
 50
1.453929544157321
 51
4.236906789428263
  0
ARC
  8
0
  6
CONTINUOUS
 62
     7
 10
300.0000000000001
 20
52.0739176011058
 40
6.699999999999983
 50
225.4464408818621
 51
253.5157367522599
  0
ARC
  8
0
  6
CONTINUOUS
 62
     7
 10
300.0000000000001
 20
52.0739176011058
 40
6.699999999999983
 50
165.4464408818622
 51
193.5157367522598
  0
LINE
  8
0
  6
CONTINUOUS
 62
     7
 10
282.0000000000001
 20
65.5739176011057
 11
281.9974984355438
 21
65.47391760110571
  0
LINE
  8
0
  6
CONTINUOUS
 62
     7
 10
282.0
 20
65.5739176011057
 11
282.0000000000001
 21
65.97391760110571
  0
LINE
  8
0
  6
CONTINUOUS
 62
     7
 10
312.0000000000001
 20
65.97391760110571
 11
312.0000000000001
 21
65.47391760110571
  0
CIRCLE
  8
0
  6
CONTINUOUS
 62
     7
 10
263.4999999999999
 20
72.0739176011057
 40
3.399999999999959
  0
LINE
  8
0
  6
CONTINUOUS
 62
     7
 10
312.0000000000001
 20
104.2739176011058
 11
312.0000000000001
 21
101.8059684086746
  0
LINE
  8
0
  6
CONTINUOUS
 62
     7
 10
310.5000000000001
 20
99.20789219732131
 11
301.9019237886467
 21
94.2437905821835
  0
ARC
  8
0
  6
CONTINUOUS
 62
     7
 10
299.4019237886467
 20
98.57391760110579
 40
5.000000000000004
 50
270.0
 51
300.0
  0
LINE
  8
0
  6
CONTINUOUS
 62
     7
 10
299.4019237886467
 20
93.57391760110578
 11
282.0
 21
93.57391760110578
  0
ARC
  8
0
  6
CONTINUOUS
 62
     7
 10
282.0
 20
88.57391760110578
 40
5.000000000000004
 50
90.00000000000009
 51
180.0
  0
LINE
  8
0
  6
CONTINUOUS
 62
     7
 10
277.0
 20
88.57391760110578
 11
277.0
 21
65.5739176011057
  0
ARC
  8
0
  6
CONTINUOUS
 62
     7
 10
279.0
 20
65.5739176011057
 40
2.000000000000002
 50
180.0000000000002
 51
270.0
  0
LINE
  8
0
  6
CONTINUOUS
 62
     7
 10
279.0
 20
63.5739176011057
 11
280.0
 21
63.57391760110578
  0
ARC
  8
0
  6
CONTINUOUS
 62
     7
 10
307.0000000000001
 20
52.67199381245899
 40
5.000000000000004
 50
330.0
 51
0.0
  0
LINE
  8
0
  6
CONTINUOUS
 62
     7
 10
311.3301270189223
 20
50.1719938124591
 11
306.9433756729742
 21
42.57391760110579
  0
ARC
  8
0
  6
CONTINUOUS
 62
     7
 10
302.613248654052
 20
45.07391760110571
 40
5.000000000000004
 50
270.0
 51
330.0
  0
LINE
  8
0
  6
CONTINUOUS
 62
     7
 10
302.613248654052
 20
40.07391760110579
 11
261.3867513459481
 21
40.07391760110579
  0
ARC
  8
0
  6
CONTINUOUS
 62
     7
 10
261.3867513459481
 20
45.07391760110571
 40
4.999999999999948
 50
210.0
 51
269.9999999999998
  0
LINE
  8
0
  6
CONTINUOUS
 62
     7
 10
257.0566243270259
 20
42.57391760110579
 11
252.6698729810778
 21
50.1719938124591
  0
ARC
  8
0
  6
CONTINUOUS
 62
     7
 10
256.9999999999999
 20
52.67199381245899
 40
4.999999999999948
 50
180.0000000000001
 51
209.9999999999999
  0
LINE
  8
0
  6
CONTINUOUS
 62
     7
 10
252.0000000000001
 20
52.67199381245899
 11
252.0000000000001
 21
104.2739176011058
  0
CIRCLE
  8
0
  6
CONTINUOUS
 62
     7
 10
264.0000000000001
 20
52.0739176011058
 40
4.50000000000006
  0
CIRCLE
  8
0
  6
CONTINUOUS
 62
     7
 10
263.9999999999999
 20
92.07391760110578
 40
4.500000000000004
  0
ARC
  8
0
  6
CONTINUOUS
 62
     7
 10
309.0000000000001
 20
101.8059684086747
 40
3.000000000000003
 50
300.0
 51
359.9999999999998
  0
ARC
  8
0
  6
CONTINUOUS
 62
     7
 10
280.0
 20
65.57391760110579
 40
2.000000000000002
 50
269.9999999999992
 51
357.134016017401
  0
LINE
  8
0
  6
CONTINUOUS
 62
     7
 10
312.0000000000001
 20
65.47391760110571
 11
312.0000000000001
 21
52.67199381245899
  0
LINE
  8
0
  6
CONTINUOUS
 62
     7
 10
312.0000000000001
 20
107.0739176011057
 11
252.0000000000001
 21
107.0739176011057
  0
LINE
  8
0
  6
CONTINUOUS
 62
     7
 10
312.0000000000001
 20
104.2739176011058
 11
312.0000000000001
 21
107.0739176011057
  0
LINE
  8
0
  6
CONTINUOUS
 62
     7
 10
252.0000000000001
 20
107.0739176011057
 11
252.0000000000001
 21
104.2739176011058
  0
LINE
  8
0
  6
CONTINUOUS
 62
     7
 10
293.8865593581577
 20
115.2260823988942
 11
299.5715874545638
 21
115.2260823988942
  0
ARC
  8
0
  6
CONTINUOUS
 62
     7
 10
299.7521321151452
 20
112.1768391558399
 40
3.054583560778312
 50
93.3885076196977
 51
133.7781325883842
  0
ARC
  8
0
  6
CONTINUOUS
 62
     7
 10
293.6853580207242
 20
105.5664163488662
 40
9.66176123572965
 50
65.8466200374848
 51
88.80675784127448
  0
LINE
  8
0
  6
CONTINUOUS
 62
     7
 10
290.1343541745011
 20
109.7260823988942
 11
297.6387645418143
 21
109.7260823988942
  0
LINE
  8
0
  6
CONTINUOUS
 62
     7
 10
290.1343541745011
 20
109.7260823988942
 11
290.1343541745002
 21
114.3823228283642
  0
ARC
  8
0
  6
CONTINUOUS
 62
     7
 10
294.0093271888302
 20
105.915210745889
 40
9.311680991044735
 50
90.75542561688836
 51
114.5911965043398
  0
LINE
  8
0
  6
CONTINUOUS
 62
     7
 10
297.6387645418143
 20
109.7260823988942
 11
297.6387645418143
 21
114.382322828364
  0
LINE
  8
0
  6
CONTINUOUS
 62
     7
 10
288.314971903594
 20
115.2260823988942
 11
293.8865593581577
 21
115.2260823988942
  0
ARC
  8
0
  6
CONTINUOUS
 62
     7
 10
288.1083216598186
 20
112.397057516156
 40
2.836562375553298
 50
44.41771757420656
 51
85.82216644932733
  0
ARC
  8
0
  6
CONTINUOUS
 62
     7
 10
299.3708017964254
 20
112.1304725542374
 40
3.102114632126007
 50
46.54444719529665
 51
86.28891259662153
  0
LINE
  8
0
  6
CONTINUOUS
 62
     7
 10
301.5044103673133
 20
109.7260823988942
 11
301.5044103673133
 21
114.382322828364
  0
LINE
  8
0
  6
CONTINUOUS
 62
     7
 10
297.6387645418143
 20
109.7260823988942
 11
301.5044103673133
 21
109.7260823988942
  0
LINE
  8
0
  6
CONTINUOUS
 62
     7
 10
286.4955896326869
 20
109.7260823988942
 11
286.4955896326869
 21
114.382322828364
  0
ARC
  8
0
  6
CONTINUOUS
 62
     7
 10
288.4891668798479
 20
112.494601371124
 40
2.737029867361518
 50
93.64898724651256
 51
134.5878493270569
  0
LINE
  8
0
  6
CONTINUOUS
 62
     7
 10
286.4955896326869
 20
109.7260823988942
 11
290.1343541745011
 21
109.7260823988942
  0
LINE
  8
0
  6
CONTINUOUS
 62
     7
 10
290.0000000000001
 20
70.9260823988942
 11
298.0000000000001
 21
70.9260823988942
  0
LINE
  8
0
  6
CONTINUOUS
 62
     7
 10
296.8000000000001
 20
69.72608239889419
 11
291.2
 21
69.72608239889419
  0
LINE
  8
0
  6
CONTINUOUS
 62
     7
 10
301.4322336661421
 20
114.4438454391409
 11
301.5044103673133
 21
114.3823228283641
  0
LINE
  8
0
  6
CONTINUOUS
 62
     7
 10
299.5715874545638
 20
115.2260823988942
 11
300.5000000000001
 21
115.2260823988942
  0
LINE
  8
0
  6
CONTINUOUS
 62
     7
 10
287.5
 20
115.2260823988942
 11
288.314971903594
 21
115.2260823988942
  0
LINE
  8
0
  6
CONTINUOUS
 62
     7
 10
286.5677663338581
 20
114.4438454391409
 11
286.4955896326869
 21
114.3823228283641
  0
CIRCLE
  8
0
  6
CONTINUOUS
 62
     7
 10
264.0000000000001
 20
52.0739176011058
 40
4.150000000000042
  0
CIRCLE
  8
0
  6
CONTINUOUS
 62
     7
 10
263.4999999999999
 20
72.0739176011057
 40
3.149999999999986
  0
LINE
  8
0
  6
CONTINUOUS
 62
     7
 10
350.0
 20
14.77391760110579
 11
350.0
 21
17.0739176011057
  0
LINE
  8
0
  6
CONTINUOUS
 62
     7
 10
250.0000000000001
 20
17.0739176011057
 11
250.0000000000001
 21
14.77391760110579
  0
LINE
  8
0
  6
CONTINUOUS
 62
     7
 10
311.8000000000001
 20
41.57391760110571
 11
309.75
 21
41.57391760110571
  0
LINE
  8
0
  6
CONTINUOUS
 62
     7
 10
320.0318045789113
 20
26.5683641016429
 11
320.7999999999981
 21
27.89891760110699
  0
LINE
  8
0
  6
CONTINUOUS
 62
     7
 10
320.7999999999981
 20
40.24891760110441
 11
320.0318045789113
 21
41.5794711005685
  0
LINE
  8
0
  6
CONTINUOUS
 62
     7
 10
311.8000000000001
 20
27.37391760110569
 11
314.3000000000001
 21
27.37391760110569
  0
LINE
  8
0
  6
CONTINUOUS
 62
     7
 10
314.3000000000001
 20
40.77391760110579
 11
311.8000000000001
 21
40.77391760110579
  0
LINE
  8
0
  6
CONTINUOUS
 62
     7
 10
307.15
 20
38.0739176011044
 11
292.85
 21
38.0739176011046
  0
LINE
  8
0
  6
CONTINUOUS
 62
     7
 10
292.85
 20
30.07391760110639
 11
307.15
 21
30.0739176011062
  0
LINE
  8
0
  6
CONTINUOUS
 62
     7
 10
327.0000000000447
 20
38.07391760110412
 11
320.7999999999981
 21
38.07391760110421
  0
LINE
  8
0
  6
CONTINUOUS
 62
     7
 10
320.7999999999981
 20
30.07391760110598
 11
327.0000000000446
 21
30.07391760110589
  0
LINE
  8
0
  6
CONTINUOUS
 62
     7
 10
327.0000000000003
 20
30.07391760110589
 11
328.2000000000003
 21
31.27391760110559
  0
LINE
  8
0
  6
CONTINUOUS
 62
     7
 10
328.2000000000004
 20
36.8739176011044
 11
327.0000000000005
 21
38.07391760110412
  0
LINE
  8
0
  6
CONTINUOUS
 62
     7
 10
298.0000000000001
 20
107.0739176011057
 11
298.0000000000001
 21
109.7260823988942
  0
LINE
  8
0
  6
CONTINUOUS
 62
     7
 10
290.0000000000001
 20
109.7260823988942
 11
290.0000000000001
 21
107.0739176011057
  0
LINE
  8
0
  6
CONTINUOUS
 62
     7
 10
298.0000000000001
 20
70.9260823988939
 11
298.0000000000001
 21
93.57391760110578
  0
LINE
  8
0
  6
CONTINUOUS
 62
     7
 10
290.0000000000001
 20
93.57391760110578
 11
290.0000000000001
 21
70.9260823988939
  0
LINE
  8
0
  6
CONTINUOUS
 62
     7
 10
290.0000000000001
 20
70.9260823988942
 11
290.625
 21
70.30108239889421
  0
LINE
  8
0
  6
CONTINUOUS
 62
     7
 10
290.625
 20
70.30108239889421
 11
291.2
 21
69.72608239889419
  0
LINE
  8
0
  6
CONTINUOUS
 62
     7
 10
296.8000000000001
 20
69.72608239889419
 11
297.3750000000001
 21
70.30108239889421
  0
LINE
  8
0
  6
CONTINUOUS
 62
     7
 10
297.3750000000001
 20
70.30108239889421
 11
298.0000000000001
 21
70.9260823988942
  0
LINE
  8
0
  6
CONTINUOUS
 62
     7
 10
301.4330407540947
 20
114.44316824626
 11
300.5000000000001
 21
115.2260823988942
  0
LINE
  8
0
  6
CONTINUOUS
 62
     7
 10
287.5
 20
115.2260823988942
 11
286.5669592459054
 21
114.44316824626
  0
CIRCLE
  8
0
  6
CONTINUOUS
 62
   253
 10
470.0000000000009
 20
34.07391760110498
 40
3.375000000000017
  0
LINE
  8
0
  6
CONTINUOUS
 62
     7
 10
419.9999999999999
 20
14.77391760110579
 11
520.0
 21
14.77391760110579
  0
LINE
  8
0
  6
CONTINUOUS
 62
     7
 10
419.9999999999999
 20
17.0739176011057
 11
520.0
 21
17.0739176011057
  0
LINE
  8
0
  6
CONTINUOUS
 62
     7
 10
452.9999999999999
 20
19.0739176011057
 11
486.9999999999999
 21
19.0739176011057
  0
LINE
  8
0
  6
CONTINUOUS
 62
     7
 10
486.9999999999999
 20
19.0739176011057
 11
487.1715728752544
 21
19.0739176011057
  0
LINE
  8
0
  6
CONTINUOUS
 62
     7
 10
452.8284271247464
 20
19.0739176011057
 11
452.9999999999999
 21
19.0739176011057
  0
CIRCLE
  8
0
  6
CONTINUOUS
 62
     7
 10
470.0000000000009
 20
34.07391760110498
 40
2.80000000000058
  0
CIRCLE
  8
0
  6
CONTINUOUS
 62
     7
 10
470.0000000000009
 20
34.07391760110498
 40
4.000000000000892
  0
LINE
  8
0
  6
CONTINUOUS
 62
     7
 10
463.5000000003645
 20
30.3211408513743
 11
470.0000000003645
 21
26.5683641016429
  0
LINE
  8
0
  6
CONTINUOUS
 62
     7
 10
463.5000000003645
 20
37.8266943508371
 11
463.5000000003645
 21
30.3211408513743
  0
LINE
  8
0
  6
CONTINUOUS
 62
     7
 10
476.5000000003646
 20
37.8266943508371
 11
470.0000000003646
 21
41.5794711005685
  0
LINE
  8
0
  6
CONTINUOUS
 62
     7
 10
476.5000000003646
 20
30.3211408513743
 11
476.5000000003646
 21
37.8266943508371
  0
LINE
  8
0
  6
CONTINUOUS
 62
     7
 10
470.0000000003645
 20
26.5683641016429
 11
476.5000000003646
 21
30.3211408513743
  0
CIRCLE
  8
0
  6
CONTINUOUS
 62
     7
 10
470.0000000004135
 20
34.0739176011057
 40
6.174999999997488
  0
LINE
  8
0
  6
CONTINUOUS
 62
     7
 10
470.0000000003646
 20
41.5794711005685
 11
463.5000000003645
 21
37.8266943508371
  0
ARC
  8
0
  6
CONTINUOUS
 62
     7
 10
469.9999999999999
 20
34.07391760110578
 40
6.700000000000039
 50
165.9653520648108
 51
194.0346479351891
  0
ARC
  8
0
  6
CONTINUOUS
 62
     7
 10
469.9999999999999
 20
34.07391760110578
 40
6.700000000000039
 50
45.96535206476943
 51
74.03464793521547
  0
LINE
  8
0
  6
CONTINUOUS
 62
     7
 10
476.6978429363488
 20
34.24391760110568
 11
476.5000000004012
 21
34.24391760110568
  0
LINE
  8
0
  6
CONTINUOUS
 62
     7
 10
476.4999999999995
 20
34.56891760106048
 11
476.6816895318473
 21
34.56891760110578
  0
ARC
  8
0
  6
CONTINUOUS
 62
     7
 10
469.9999999999999
 20
34.07391760110578
 40
6.700000000000039
 50
1.453929544157083
 51
4.236906789428158
  0
ARC
  8
0
  6
CONTINUOUS
 62
     7
 10
469.9999999999999
 20
34.07391760110578
 40
6.699999999999928
 50
105.9653520647253
 51
134.0346479352898
  0
ARC
  8
0
  6
CONTINUOUS
 62
     7
 10
469.9999999999999
 20
34.07391760110578
 40
6.700000000000039
 50
225.9653520647813
 51
254.0346479352036
  0
ARC
  8
0
  6
CONTINUOUS
 62
     7
 10
469.9999999999999
 20
34.07391760110578
 40
6.699999999999928
 50
345.9653520647897
 51
1.325617639194036
  0
LINE
  8
0
  6
CONTINUOUS
 62
     7
 10
476.6982068495978
 20
34.22891760110569
 11
476.4999999999995
 21
34.22891760110569
  0
ARC
  8
0
  6
CONTINUOUS
 62
     7
 10
469.9999999999999
 20
34.07391760110578
 40
6.700000000000039
 50
285.9653520647163
 51
314.0346479352987
  0
ARC
  8
0
  6
CONTINUOUS
 62
     7
 10
469.9999999999999
 20
34.07391760110578
 40
6.699999999999928
 50
4.236906789428261
 51
14.03464793521025
  0
ARC
  8
0
  6
CONTINUOUS
 62
     7
 10
469.9999999999999
 20
31.57391760110578
 40
10.00000000000001
 50
89.94224272106976
 51
180.0
  0
ARC
  8
0
  6
CONTINUOUS
 62
     7
 10
469.9999999999999
 20
31.57391760110578
 40
10.00000000000001
 50
0.0
 51
89.94224272106976
  0
LINE
  8
0
  6
CONTINUOUS
 62
     7
 10
479.9999999999999
 20
31.57391760110578
 11
479.9999999999999
 21
19.0739176011057
  0
LINE
  8
0
  6
CONTINUOUS
 62
     7
 10
459.9999999999999
 20
19.0739176011057
 11
459.9999999999999
 21
31.57391760110578
  0
LINE
  8
0
  6
CONTINUOUS
 62
     7
 10
481.1999999999999
 20
25.37391760110569
 11
481.1999999999999
 21
23.07391760110571
  0
LINE
  8
0
  6
CONTINUOUS
 62
     7
 10
481.1999999999999
 20
23.07391760110571
 11
479.9999999999999
 21
23.07391760110571
  0
LINE
  8
0
  6
CONTINUOUS
 62
     7
 10
459.9999999999999
 20
23.07391760110571
 11
458.7999999999999
 21
23.07391760110571
  0
LINE
  8
0
  6
CONTINUOUS
 62
     7
 10
458.7999999999999
 20
25.37391760110569
 11
458.7999999999999
 21
23.07391760110571
  0
LINE
  8
0
  6
CONTINUOUS
 62
     7
 10
458.7999999999999
 20
25.67391760110568
 11
458.7999999999999
 21
25.37391760110569
  0
LINE
  8
0
  6
CONTINUOUS
 62
     7
 10
458.4999999999999
 20
42.56572893604649
 11
458.4999999999999
 21
25.9739176011057
  0
LINE
  8
0
  6
CONTINUOUS
 62
     7
 10
481.4999999999999
 20
42.56572893604649
 11
481.4999999999999
 21
25.9739176011057
  0
LINE
  8
0
  6
CONTINUOUS
 62
     7
 10
481.1999999999999
 20
25.67391760110568
 11
481.1999999999999
 21
25.37391760110569
  0
LINE
  8
0
  6
CONTINUOUS
 62
     7
 10
481.1999999999999
 20
25.67391760110568
 11
481.4999999999999
 21
25.9739176011057
  0
LINE
  8
0
  6
CONTINUOUS
 62
     7
 10
458.4999999999999
 20
25.9739176011057
 11
458.7999999999999
 21
25.67391760110568
  0
LINE
  8
0
  6
CONTINUOUS
 62
     7
 10
458.4999999999999
 20
45.57278693108921
 11
458.4999999999999
 21
42.56572893604649
  0
LINE
  8
0
  6
CONTINUOUS
 62
     7
 10
481.4999999999999
 20
45.57278693108921
 11
481.4999999999999
 21
42.56572893604649
  0
LINE
  8
0
  6
CONTINUOUS
 62
     7
 10
458.4999999999999
 20
56.506105579569
 11
458.4999999999999
 21
45.57278693108921
  0
LINE
  8
0
  6
CONTINUOUS
 62
     7
 10
481.4999999999999
 20
56.506105579569
 11
481.4999999999999
 21
45.57278693108921
  0
LINE
  8
0
  6
CONTINUOUS
 62
     7
 10
481.4999999999999
 20
58.67391760110582
 11
458.4999999999999
 21
58.67391760110582
  0
LINE
  8
0
  6
CONTINUOUS
 62
     7
 10
458.4999999999999
 20
58.67391760110582
 11
458.4999999999999
 21
56.506105579569
  0
LINE
  8
0
  6
CONTINUOUS
 62
     7
 10
481.4999999999999
 20
58.67391760110582
 11
481.4999999999999
 21
56.506105579569
  0
LINE
  8
0
  6
CONTINUOUS
 62
     7
 10
450.9999999999999
 20
19.0739176011057
 11
452.8284271247454
 21
19.0739176011057
  0
LINE
  8
0
  6
CONTINUOUS
 62
     7
 10
488.9999999999999
 20
19.0739176011057
 11
489.1715728752537
 21
19.0739176011057
  0
LINE
  8
0
  6
CONTINUOUS
 62
     7
 10
487.1715728752534
 20
19.0739176011057
 11
488.9999999999999
 21
19.0739176011057
  0
LINE
  8
0
  6
CONTINUOUS
 62
     7
 10
450.828427124746
 20
19.0739176011057
 11
450.9999999999999
 21
19.0739176011057
  0
LINE
  8
0
  6
CONTINUOUS
 62
     7
 10
494.4999999999999
 20
68.5739176011057
 11
494.4999999999999
 21
65.97391760110571
  0
LINE
  8
0
  6
CONTINUOUS
 62
     7
 10
493.9999999999999
 20
68.5739176011057
 11
494.4999999999999
 21
68.5739176011057
  0
LINE
  8
0
  6
CONTINUOUS
 62
     7
 10
494.4999999999999
 20
65.97391760110571
 11
493.9999999999999
 21
65.97391760110571
  0
ARC
  8
0
  6
CONTINUOUS
 62
     7
 10
484.7499999999999
 20
65.47391760110571
 40
0.500000000000056
 50
90.0
 51
180.0
  0
LINE
  8
0
  6
CONTINUOUS
 62
     7
 10
484.2499999999999
 20
65.47391760110571
 11
484.2499999999999
 21
52.67199381245899
  0
LINE
  8
0
  6
CONTINUOUS
 62
     7
 10
481.65
 20
65.77391760110582
 11
481.65
 21
52.67199381245899
  0
ARC
  8
0
  6
CONTINUOUS
 62
     7
 10
484.4499999999999
 20
65.77391760110582
 40
2.800000000000025
 50
90.0
 51
180.0
  0
LINE
  8
0
  6
CONTINUOUS
 62
     7
 10
493.9999999999999
 20
68.5739176011057
 11
484.4499999999999
 21
68.5739176011057
  0
LINE
  8
0
  6
CONTINUOUS
 62
     7
 10
484.7499999999999
 20
65.97391760110571
 11
493.9999999999999
 21
65.97391760110571
  0
ARC
  8
0
  6
CONTINUOUS
 62
     7
 10
455.55
 20
65.77391760110582
 40
2.800000000000025
 50
0.0
 51
90.0
  0
LINE
  8
0
  6
CONTINUOUS
 62
     7
 10
458.3499999999999
 20
65.77391760110582
 11
458.3499999999999
 21
52.67199381245899
  0
LINE
  8
0
  6
CONTINUOUS
 62
     7
 10
455.7499999999999
 20
65.47391760110571
 11
455.7499999999999
 21
52.67199381245899
  0
ARC
  8
0
  6
CONTINUOUS
 62
     7
 10
455.2499999999998
 20
65.47391760110571
 40
0.500000000000056
 50
0.0
 51
90.0
  0
LINE
  8
0
  6
CONTINUOUS
 62
     7
 10
455.2499999999998
 20
65.97391760110571
 11
445.9999999999999
 21
65.97391760110571
  0
LINE
  8
0
  6
CONTINUOUS
 62
     7
 10
445.9999999999999
 20
68.5739176011057
 11
455.55
 21
68.5739176011057
  0
LINE
  8
0
  6
CONTINUOUS
 62
     7
 10
445.9999999999999
 20
65.97391760110571
 11
445.5
 21
65.97391760110571
  0
LINE
  8
0
  6
CONTINUOUS
 62
     7
 10
445.5
 20
65.97391760110571
 11
445.5
 21
68.5739176011057
  0
LINE
  8
0
  6
CONTINUOUS
 62
     7
 10
445.5
 20
68.5739176011057
 11
445.9999999999999
 21
68.5739176011057
  0
LINE
  8
0
  6
CONTINUOUS
 62
     7
 10
481.65
 20
52.67199381245899
 11
481.65
 21
50.1719938124591
  0
LINE
  8
0
  6
CONTINUOUS
 62
     7
 10
484.2499999999999
 20
52.67199381245899
 11
484.2499999999999
 21
50.1719938124591
  0
LINE
  8
0
  6
CONTINUOUS
 62
     7
 10
455.7499999999999
 20
52.67199381245899
 11
455.7499999999999
 21
50.1719938124591
  0
LINE
  8
0
  6
CONTINUOUS
 62
     7
 10
458.3499999999999
 20
52.67199381245899
 11
458.3499999999999
 21
50.1719938124591
  0
ARC
  8
0
  6
CONTINUOUS
 62
     7
 10
481.1499999999999
 20
103.9739176011057
 40
0.500000000000056
 50
0.0
 51
90.0
  0
LINE
  8
0
  6
CONTINUOUS
 62
     7
 10
481.1499999999999
 20
104.4739176011057
 11
458.8499999999999
 21
104.4739176011057
  0
ARC
  8
0
  6
CONTINUOUS
 62
     7
 10
458.8499999999999
 20
103.9739176011057
 40
0.500000000000056
 50
90.0
 51
180.0
  0
LINE
  8
0
  6
CONTINUOUS
 62
     7
 10
455.7499999999999
 20
104.2739176011058
 11
455.7499999999999
 21
101.8059684086746
  0
ARC
  8
0
  6
CONTINUOUS
 62
     7
 10
458.55
 20
104.2739176011058
 40
2.800000000000025
 50
90.0
 51
180.0
  0
LINE
  8
0
  6
CONTINUOUS
 62
     7
 10
481.4499999999999
 20
107.0739176011057
 11
458.55
 21
107.0739176011057
  0
ARC
  8
0
  6
CONTINUOUS
 62
     7
 10
481.4499999999999
 20
104.2739176011058
 40
2.800000000000025
 50
0.0
 51
90.0
  0
LINE
  8
0
  6
CONTINUOUS
 62
     7
 10
458.3499999999999
 20
103.9739176011057
 11
458.3499999999999
 21
101.8059684086746
  0
LINE
  8
0
  6
CONTINUOUS
 62
     7
 10
481.65
 20
103.9739176011057
 11
481.65
 21
101.8059684086746
  0
LINE
  8
0
  6
CONTINUOUS
 62
     7
 10
484.2499999999999
 20
104.2739176011058
 11
484.2499999999999
 21
101.8059684086746
  0
LINE
  8
0
  6
CONTINUOUS
 62
     7
 10
481.65
 20
101.8059684086746
 11
481.65
 21
99.20789219732131
  0
LINE
  8
0
  6
CONTINUOUS
 62
     7
 10
484.2499999999999
 20
101.8059684086746
 11
484.2499999999999
 21
99.20789219732131
  0
LINE
  8
0
  6
CONTINUOUS
 62
     7
 10
455.7499999999999
 20
101.8059684086746
 11
455.7499999999999
 21
99.20789219732131
  0
LINE
  8
0
  6
CONTINUOUS
 62
     7
 10
458.3499999999999
 20
101.8059684086746
 11
458.3499999999999
 21
99.20789219732131
  0
LINE
  8
0
  6
CONTINUOUS
 62
     7
 10
481.65
 20
50.1719938124591
 11
481.65
 21
42.57391760110579
  0
LINE
  8
0
  6
CONTINUOUS
 62
     7
 10
484.2499999999999
 20
50.1719938124591
 11
484.2499999999999
 21
42.57391760110579
  0
LINE
  8
0
  6
CONTINUOUS
 62
     7
 10
455.7499999999999
 20
50.1719938124591
 11
455.7499999999999
 21
42.57391760110579
  0
LINE
  8
0
  6
CONTINUOUS
 62
     7
 10
458.3499999999999
 20
50.1719938124591
 11
458.3499999999999
 21
42.57391760110579
  0
LINE
  8
0
  6
CONTINUOUS
 62
     7
 10
481.65
 20
99.20789219732131
 11
481.65
 21
94.2437905821835
  0
LINE
  8
0
  6
CONTINUOUS
 62
     7
 10
484.2499999999999
 20
99.20789219732131
 11
484.2499999999999
 21
94.2437905821835
  0
LINE
  8
0
  6
CONTINUOUS
 62
     7
 10
455.7499999999999
 20
99.20789219732131
 11
455.7499999999999
 21
94.2437905821835
  0
LINE
  8
0
  6
CONTINUOUS
 62
     7
 10
458.3499999999999
 20
99.20789219732131
 11
458.3499999999999
 21
94.2437905821835
  0
LINE
  8
0
  6
CONTINUOUS
 62
     7
 10
447.5181954208889
 20
55.7676726411872
 11
453.2499999998015
 21
55.76767264149252
  0
LINE
  8
0
  6
CONTINUOUS
 62
     7
 10
453.2499999999999
 20
53.6397908443281
 11
453.2499999998014
 21
55.76767264149252
  0
LINE
  8
0
  6
CONTINUOUS
 62
     7
 10
453.2499999999999
 20
52.22891760110571
 11
453.2499999999717
 21
52.5689176011094
  0
LINE
  8
0
  6
CONTINUOUS
 62
     7
 10
453.2500000002012
 20
48.2624269575779
 11
453.2499999999999
 21
50.39030875474229
  0
LINE
  8
0
  6
CONTINUOUS
 62
     7
 10
447.5181954212886
 20
48.2624269572727
 11
453.2500000002012
 21
48.2624269575779
  0
ARC
  8
0
  6
CONTINUOUS
 62
     7
 10
459.3813523664884
 20
52.01504979986171
 40
12.44253474598989
 50
162.4464922172392
 51
197.5535077888632
  0
LINE
  8
0
  6
CONTINUOUS
 62
     7
 10
447.4959046619137
 20
44.60697283286707
 11
447.4464571370629
 21
44.69422752490601
  0
ARC
  8
0
  6
CONTINUOUS
 62
     7
 10
450.1358283540835
 20
46.42497885357591
 40
3.198158486478087
 50
144.9330542922044
 51
212.7634044827021
  0
LINE
  8
0
  6
CONTINUOUS
 62
     7
 10
446.7500000003287
 20
45.89891760075959
 11
446.749999999671
 21
58.24891760075959
  0
ARC
  8
0
  6
CONTINUOUS
 62
     7
 10
450.3596857331821
 20
57.67341796310119
 40
3.421393345824697
 50
146.150830052879
 51
213.8491699531726
  0
LINE
  8
0
  6
CONTINUOUS
 62
     7
 10
447.518195421487
 20
44.56867191688599
 11
447.4959046619137
 21
44.60697283286707
  0
LINE
  8
0
  6
CONTINUOUS
 62
     7
 10
447.5181954206876
 20
59.57916328471502
 11
447.4959046611207
 21
59.54086236873529
  0
LINE
  8
0
  6
CONTINUOUS
 62
     7
 10
484.2499999999999
 20
40.07391760110579
 11
481.65
 21
40.07391760110579
  0
LINE
  8
0
  6
CONTINUOUS
 62
     7
 10
481.65
 20
42.57391760110579
 11
481.65
 21
40.07391760110571
  0
LINE
  8
0
  6
CONTINUOUS
 62
     7
 10
484.2499999999999
 20
42.57391760110579
 11
484.2499999999999
 21
40.07391760110571
  0
LINE
  8
0
  6
CONTINUOUS
 62
     7
 10
455.7499999999999
 20
40.07391760110579
 11
458.3499999999999
 21
40.07391760110579
  0
LINE
  8
0
  6
CONTINUOUS
 62
     7
 10
455.7499999999999
 20
42.57391760110579
 11
455.7499999999999
 21
40.07391760110571
  0
LINE
  8
0
  6
CONTINUOUS
 62
     7
 10
458.3499999999999
 20
42.57391760110579
 11
458.3499999999999
 21
40.07391760110571
  0
LINE
  8
0
  6
CONTINUOUS
 62
     7
 10
453.2499999999999
 20
52.56891760110571
 11
453.2499999999999
 21
53.6397908443281
  0
LINE
  8
0
  6
CONTINUOUS
 62
     7
 10
453.2499999999999
 20
56.84830369635691
 11
453.2499999999999
 21
58.49853223015589
  0
LINE
  8
0
  6
CONTINUOUS
 62
     7
 10
453.2499999999999
 20
45.6159226594911
 11
453.2499999999999
 21
47.21517621527801
  0
LINE
  8
0
  6
CONTINUOUS
 62
     7
 10
453.2499999999999
 20
50.39030875474229
 11
453.2499999999999
 21
52.22891760110571
  0
LINE
  8
0
  6
CONTINUOUS
 62
     7
 10
453.2499999999999
 20
52.22891760110571
 11
455.7499999999999
 21
51.90391760110568
  0
LINE
  8
0
  6
CONTINUOUS
 62
     7
 10
455.7499999999999
 20
52.24391760110569
 11
453.2499999999999
 21
52.56891760110571
  0
LINE
  8
0
  6
CONTINUOUS
 62
     7
 10
447.5181954206876
 20
59.57916328471502
 11
453.2499999996002
 21
59.57916328502027
  0
LINE
  8
0
  6
CONTINUOUS
 62
     7
 10
453.2499999999999
 20
58.49853223015589
 11
453.2499999996002
 21
59.57916328502027
  0
LINE
  8
0
  6
CONTINUOUS
 62
     7
 10
453.2499999998014
 20
55.76767264149252
 11
453.2499999999999
 21
56.84830369635691
  0
LINE
  8
0
  6
CONTINUOUS
 62
     7
 10
484.2499999999999
 20
55.8266943508392
 11
488.90624042947
 21
55.82669435083909
  0
ARC
  8
0
  6
CONTINUOUS
 62
     7
 10
480.4364881411709
 20
51.95114637762041
 40
9.314321012176219
 50
0.7552323613228138
 51
24.58765400784059
  0
ARC
  8
0
  6
CONTINUOUS
 62
     7
 10
480.0875304628238
 20
52.27514709707989
 40
9.664564701366784
 50
335.850176580075
 51
358.80693705075
  0
LINE
  8
0
  6
CONTINUOUS
 62
     7
 10
484.2499999999999
 20
48.32114085137321
 11
488.9062404294697
 21
48.32114085137321
  0
LINE
  8
0
  6
CONTINUOUS
 62
     7
 10
484.2499999999999
 20
59.57947110057091
 11
488.9062404294697
 21
59.57947110057091
  0
ARC
  8
0
  6
CONTINUOUS
 62
     7
 10
486.8348128854139
 20
57.52010607794869
 40
2.92092388922971
 50
3.591554913365342
 51
44.83268837812609
  0
ARC
  8
0
  6
CONTINUOUS
 62
     7
 10
486.7890259161301
 20
57.90664849778967
 40
2.967963367178528
 50
315.5086299431412
 51
356.0671267653578
  0
LINE
  8
0
  6
CONTINUOUS
 62
     7
 10
489.7499999999999
 20
57.7030827257046
 11
489.7499999999999
 21
52.0739176011058
  0
LINE
  8
0
  6
CONTINUOUS
 62
     7
 10
489.7499999999999
 20
52.0739176011058
 11
489.7499999999999
 21
46.44475247650689
  0
ARC
  8
0
  6
CONTINUOUS
 62
     7
 10
486.8346605851298
 20
46.26170734355678
 40
2.921080181130353
 50
3.592708448710877
 51
44.8315348427804
  0
ARC
  8
0
  6
CONTINUOUS
 62
     7
 10
486.7890272497574
 20
46.64831764889629
 40
2.967961995560042
 50
315.5086201592471
 51
356.0671365492614
  0
LINE
  8
0
  6
CONTINUOUS
 62
     7
 10
484.2499999999999
 20
44.56836410164061
 11
488.9062404294697
 21
44.56836410164061
  0
LINE
  8
0
  6
CONTINUOUS
 62
     7
 10
453.2500000003996
 20
44.56867191719122
 11
453.2499999999999
 21
45.61592265949118
  0
LINE
  8
0
  6
CONTINUOUS
 62
     7
 10
447.5181954214871
 20
44.56867191688599
 11
453.2500000003996
 21
44.56867191719122
  0
LINE
  8
0
  6
CONTINUOUS
 62
     7
 10
453.2499999999999
 20
47.21517621527801
 11
453.2500000002012
 21
48.2624269575779
  0
LINE
  8
0
  6
CONTINUOUS
 62
     7
 10
445.45
 20
56.07391760110578
 11
445.45
 21
48.07391760110571
  0
LINE
  8
0
  6
CONTINUOUS
 62
     7
 10
444.2499999999999
 20
49.2739176011058
 11
444.2499999999999
 21
54.87391760110569
  0
LINE
  8
0
  6
CONTINUOUS
 62
     7
 10
489.7499999999999
 20
46.44475247650689
 11
489.7499999999999
 21
45.5739176011058
  0
LINE
  8
0
  6
CONTINUOUS
 62
     7
 10
489.7499999999999
 20
58.5739176011057
 11
489.7499999999999
 21
57.7030827257046
  0
LINE
  8
0
  6
CONTINUOUS
 62
     7
 10
484.2499999999999
 20
93.57391760110578
 11
481.65
 21
93.57391760110578
  0
LINE
  8
0
  6
CONTINUOUS
 62
     7
 10
481.65
 20
94.2437905821835
 11
481.65
 21
93.57391760110578
  0
LINE
  8
0
  6
CONTINUOUS
 62
     7
 10
484.2499999999999
 20
94.2437905821835
 11
484.2499999999999
 21
93.57391760110578
  0
LINE
  8
0
  6
CONTINUOUS
 62
     7
 10
455.7499999999999
 20
93.57391760110578
 11
458.3499999999999
 21
93.57391760110578
  0
LINE
  8
0
  6
CONTINUOUS
 62
     7
 10
455.7499999999999
 20
94.2437905821835
 11
455.7499999999999
 21
93.57391760110578
  0
LINE
  8
0
  6
CONTINUOUS
 62
     7
 10
458.3499999999999
 20
94.2437905821835
 11
458.3499999999999
 21
93.57391760110578
  0
LINE
  8
0
  6
CONTINUOUS
 62
     7
 10
469.8690100297904
 20
109.7260823988942
 11
476.4335150334118
 21
109.7260823988942
  0
LINE
  8
0
  6
CONTINUOUS
 62
     7
 10
469.8690100297904
 20
109.7260823988942
 11
469.8690100297904
 21
114.382322828364
  0
ARC
  8
0
  6
CONTINUOUS
 62
     7
 10
473.312664144314
 20
107.7923098937325
 40
7.435524469671551
 50
91.24380702837846
 51
117.5896107224844
  0
ARC
  8
0
  6
CONTINUOUS
 62
     7
 10
472.9720394466094
 20
107.7229837799719
 40
7.505238823613092
 50
62.53492012560497
 51
88.63166212353377
  0
LINE
  8
0
  6
CONTINUOUS
 62
     7
 10
476.4335150334118
 20
109.7260823988942
 11
476.4335150334118
 21
114.382322828364
  0
LINE
  8
0
  6
CONTINUOUS
 62
     7
 10
466.6522525130845
 20
115.2260823988942
 11
473.1512625316012
 21
115.2260823988942
  0
ARC
  8
0
  6
CONTINUOUS
 62
     7
 10
466.4731441764108
 20
107.9895687418869
 40
7.238729840539637
 50
62.02251605262256
 51
88.58218231708035
  0
LINE
  8
0
  6
CONTINUOUS
 62
     7
 10
463.4354949963786
 20
109.7260823988942
 11
463.4354949963786
 21
114.382322828364
  0
ARC
  8
0
  6
CONTINUOUS
 62
     7
 10
466.813294017839
 20
108.0584469145431
 40
7.169444385918822
 50
91.28709759680497
 51
118.1082040334912
  0
LINE
  8
0
  6
CONTINUOUS
 62
     7
 10
463.4354949963786
 20
109.7260823988942
 11
469.8690100297904
 21
109.7260823988942
  0
LINE
  8
0
  6
CONTINUOUS
 62
     7
 10
476.4990100185164
 20
115.2260823988942
 11
476.4335150334118
 21
114.382322828364
  0
LINE
  8
0
  6
CONTINUOUS
 62
     7
 10
473.151262531601
 20
115.2260823988942
 11
476.4990100185165
 21
115.2260823988942
  0
LINE
  8
0
  6
CONTINUOUS
 62
     7
 10
463.4354949963786
 20
114.382322828364
 11
463.5009899814834
 21
115.2260823988942
  0
LINE
  8
0
  6
CONTINUOUS
 62
     7
 10
463.4999999999998
 20
115.2260823988942
 11
466.6522525130845
 21
115.2260823988942
  0
LINE
  8
0
  6
CONTINUOUS
 62
     7
 10
464.9999999999999
 20
101.4739176011057
 11
474.9999999999999
 21
101.4739176011057
  0
LINE
  8
0
  6
CONTINUOUS
 62
     7
 10
465.9999999999999
 20
70.9260823988942
 11
473.9993907806255
 21
70.9260823988942
  0
LINE
  8
0
  6
CONTINUOUS
 62
     7
 10
473.9993907806255
 20
70.9260823988942
 11
473.9999999999999
 21
70.9260823988942
  0
LINE
  8
0
  6
CONTINUOUS
 62
     7
 10
472.7995735464378
 20
69.72608239889419
 11
467.1999999999999
 21
69.72608239889419
  0
LINE
  8
0
  6
CONTINUOUS
 62
     7
 10
476.5645050036212
 20
114.382322828364
 11
476.4990100185164
 21
115.2260823988942
  0
LINE
  8
0
  6
CONTINUOUS
 62
     7
 10
476.5645050036212
 20
109.7260823988942
 11
476.5645050036212
 21
114.382322828364
  0
LINE
  8
0
  6
CONTINUOUS
 62
     7
 10
476.4335150334118
 20
109.7260823988942
 11
476.5645050036212
 21
109.7260823988942
  0
LINE
  8
0
  6
CONTINUOUS
 62
     7
 10
481.65
 20
88.57391760110578
 11
481.65
 21
93.57391760110578
  0
LINE
  8
0
  6
CONTINUOUS
 62
     7
 10
484.2499999999999
 20
88.57391760110578
 11
484.2499999999999
 21
93.57391760110578
  0
LINE
  8
0
  6
CONTINUOUS
 62
     7
 10
455.7499999999999
 20
88.57391760110578
 11
455.7499999999999
 21
93.57391760110578
  0
LINE
  8
0
  6
CONTINUOUS
 62
     7
 10
458.3499999999999
 20
88.57391760110578
 11
458.3499999999999
 21
93.57391760110578
  0
LINE
  8
0
  6
CONTINUOUS
 62
     7
 10
481.65
 20
88.57391760110578
 11
481.65
 21
65.77391760110582
  0
LINE
  8
0
  6
CONTINUOUS
 62
     7
 10
484.2499999999999
 20
88.57391760110578
 11
484.2499999999999
 21
68.5667656098595
  0
LINE
  8
0
  6
CONTINUOUS
 62
     7
 10
455.7499999999999
 20
88.57391760110578
 11
455.7499999999999
 21
68.5667656098595
  0
LINE
  8
0
  6
CONTINUOUS
 62
     7
 10
458.3499999999999
 20
88.57391760110578
 11
458.3499999999999
 21
65.77391760110582
  0
LINE
  8
0
  6
CONTINUOUS
 62
     7
 10
485.7499999999999
 20
62.47391760110571
 11
485.7499999999999
 21
59.57947110057091
  0
LINE
  8
0
  6
CONTINUOUS
 62
     7
 10
484.2499999999999
 20
62.47391760110571
 11
485.7499999999999
 21
62.47391760110571
  0
LINE
  8
0
  6
CONTINUOUS
 62
     7
 10
485.4499999999999
 20
79.87391760110567
 11
485.4499999999999
 21
76.87391760110567
  0
LINE
  8
0
  6
CONTINUOUS
 62
     7
 10
484.2499999999999
 20
79.87391760110567
 11
485.4499999999999
 21
79.87391760110567
  0
LINE
  8
0
  6
CONTINUOUS
 62
     7
 10
485.4499999999999
 20
76.87391760110567
 11
484.2499999999999
 21
76.87391760110567
  0
LINE
  8
0
  6
CONTINUOUS
 62
     7
 10
519.9999999999999
 20
14.77391760110579
 11
519.9999999999999
 21
17.0739176011057
  0
LINE
  8
0
  6
CONTINUOUS
 62
     7
 10
419.9999999999999
 20
17.0739176011057
 11
419.9999999999999
 21
14.77391760110579
  0
ARC
  8
0
  6
CONTINUOUS
 62
     7
 10
487.1715728752544
 20
16.0739176011057
 40
3.000000000000003
 50
19.47122063449054
 51
89.99999999999996
  0
ARC
  8
0
  6
CONTINUOUS
 62
     7
 10
452.8284271247464
 20
16.0739176011057
 40
3.000000000000003
 50
90.0
 51
160.5287793655094
  0
ARC
  8
0
  6
CONTINUOUS
 62
     7
 10
489.1715728752537
 20
16.0739176011057
 40
3.000000000000003
 50
19.471220634491
 51
90.00000000000001
  0
ARC
  8
0
  6
CONTINUOUS
 62
     7
 10
450.828427124746
 20
16.0739176011057
 40
3.000000000000003
 50
90.0
 51
160.5287793655091
  0
LINE
  8
0
  6
CONTINUOUS
 62
     7
 10
447.5180177032966
 20
59.57916328471502
 11
446.749999999671
 21
58.24891760075959
  0
LINE
  8
0
  6
CONTINUOUS
 62
     7
 10
446.7500000003287
 20
45.89891760075959
 11
447.5180177040961
 21
44.56867191688599
  0
LINE
  8
0
  6
CONTINUOUS
 62
     7
 10
455.7499999999999
 20
58.77391760110581
 11
453.2499999999999
 21
58.77391760110581
  0
LINE
  8
0
  6
CONTINUOUS
 62
     7
 10
453.2499999999999
 20
45.37391760110568
 11
455.7499999999999
 21
45.37391760110568
  0
LINE
  8
0
  6
CONTINUOUS
 62
     7
 10
458.3499999999999
 20
48.07391760110571
 11
458.4999999999999
 21
48.07391760110571
  0
LINE
  8
0
  6
CONTINUOUS
 62
     7
 10
481.4999999999999
 20
48.07391760110571
 11
481.65
 21
48.07391760110571
  0
LINE
  8
0
  6
CONTINUOUS
 62
     7
 10
481.65
 20
56.07391760110578
 11
481.4999999999999
 21
56.07391760110578
  0
LINE
  8
0
  6
CONTINUOUS
 62
     7
 10
458.4999999999999
 20
56.07391760110578
 11
458.3499999999999
 21
56.07391760110578
  0
LINE
  8
0
  6
CONTINUOUS
 62
     7
 10
445.45
 20
56.07391760110578
 11
444.2499999999999
 21
54.87391760110569
  0
LINE
  8
0
  6
CONTINUOUS
 62
     7
 10
444.2499999999999
 20
49.2739176011058
 11
445.45
 21
48.07391760110571
  0
LINE
  8
0
  6
CONTINUOUS
 62
     7
 10
445.45
 20
48.07391760110571
 11
446.7500000002129
 21
48.07391760110571
  0
LINE
  8
0
  6
CONTINUOUS
 62
     7
 10
446.7499999997869
 20
56.07391760110578
 11
445.45
 21
56.07391760110578
  0
LINE
  8
0
  6
CONTINUOUS
 62
     7
 10
488.9062404294697
 20
44.56836410164061
 11
489.7499999999999
 21
45.5739176011058
  0
LINE
  8
0
  6
CONTINUOUS
 62
     7
 10
489.7499999999999
 20
58.5739176011057
 11
488.9062404294697
 21
59.57947110057091
  0
ARC
  8
0
  6
CONTINUOUS
 62
     7
 10
463.9999999999999
 20
103.4739176011057
 40
1.000000000000001
 50
0.0
 51
90.0
  0
ARC
  8
0
  6
CONTINUOUS
 62
     7
 10
475.9999999999999
 20
103.4739176011057
 40
1.000000000000001
 50
90.0
 51
180.0
  0
LINE
  8
0
  6
CONTINUOUS
 62
     7
 10
474.9999999999999
 20
101.4739176011057
 11
474.9999999999999
 21
103.4739176011057
  0
LINE
  8
0
  6
CONTINUOUS
 62
     7
 10
464.9999999999999
 20
103.4739176011057
 11
464.9999999999999
 21
101.4739176011057
  0
LINE
  8
0
  6
CONTINUOUS
 62
     7
 10
473.9999999999999
 20
70.9260823988939
 11
473.9999999999999
 21
101.4739176011056
  0
LINE
  8
0
  6
CONTINUOUS
 62
     7
 10
465.9999999999999
 20
101.4739176011056
 11
465.9999999999999
 21
70.9260823988939
  0
LINE
  8
0
  6
CONTINUOUS
 62
     7
 10
465.9999999999999
 20
70.9260823988942
 11
466.6249999999999
 21
70.30108239889421
  0
LINE
  8
0
  6
CONTINUOUS
 62
     7
 10
466.6249999999999
 20
70.30108239889421
 11
467.1999999999999
 21
69.72608239889419
  0
LINE
  8
0
  6
CONTINUOUS
 62
     7
 10
472.8
 20
69.72608239889419
 11
473.3749999999999
 21
70.30108239889421
  0
LINE
  8
0
  6
CONTINUOUS
 62
     7
 10
473.3749999999999
 20
70.30108239889421
 11
473.9999999999999
 21
70.9260823988942
  0
LINE
  8
0
  6
CONTINUOUS
 62
     7
 10
473.9999999999999
 20
107.0739176011057
 11
473.9999999999999
 21
109.7260823988942
  0
LINE
  8
0
  6
CONTINUOUS
 62
     7
 10
465.9999999999999
 20
109.7260823988942
 11
465.9999999999999
 21
107.0739176011057
  0
TEXT
  8
0
  6
CONTINUOUS
 62
     7
 10
377.0382393397525
 20
-170.2969113417531
 40
8.0
  1
SGA-11
  0
ENDSEC
  0
EOF
