  0
SECTION
  2
HEADER
  9
$ACADVER
  1
AC1027
  9
$ACADMAINTVER
 70
   105
  9
$DWGCODEPAGE
  3
ANSI_932
  9
$REQUIREDVERSIONS
160
                 0
  9
$INSBASE
 10
0.0
 20
0.0
 30
0.0
  9
$EXTMIN
 10
456.25
 20
287.056818181818
 30
0.0
  9
$EXTMAX
 10
1070.75
 20
579.2499999998836
 30
0.0
  9
$LIMMIN
 10
0.0
 20
0.0
  9
$LIMMAX
 10
12.0
 20
9.0
  9
$ORTHOMODE
 70
     0
  9
$REGENMODE
 70
     1
  9
$FILLMODE
 70
     1
  9
$QTEXTMODE
 70
     0
  9
$MIRRTEXT
 70
     1
  9
$LTSCALE
 40
1.0
  9
$ATTMODE
 70
     1
  9
$TEXTSIZE
 40
0.2
  9
$TRACEWID
 40
0.05
  9
$TEXTSTYLE
  7
Standard
  9
$CLAYER
  8
0
  9
$CELTYPE
  6
ByLayer
  9
$CECOLOR
 62
   256
  9
$CELTSCALE
 40
1.0
  9
$DISPSILH
 70
     0
  9
$DIMSCALE
 40
1.0
  9
$DIMASZ
 40
3.0
  9
$DIMEXO
 40
0.0625
  9
$DIMDLI
 40
0.38
  9
$DIMRND
 40
0.0
  9
$DIMDLE
 40
0.0
  9
$DIMEXE
 40
1.5
  9
$DIMTP
 40
0.0
  9
$DIMTM
 40
0.0
  9
$DIMTXT
 40
3.0
  9
$DIMCEN
 40
0.09
  9
$DIMTSZ
 40
0.0
  9
$DIMTOL
 70
     0
  9
$DIMLIM
 70
     0
  9
$DIMTIH
 70
     1
  9
$DIMTOH
 70
     1
  9
$DIMSE1
 70
     0
  9
$DIMSE2
 70
     0
  9
$DIMTAD
 70
     1
  9
$DIMZIN
 70
     0
  9
$DIMBLK
  1

  9
$DIMASO
 70
     1
  9
$DIMSHO
 70
     1
  9
$DIMPOST
  1

  9
$DIMAPOST
  1

  9
$DIMALT
 70
     0
  9
$DIMALTD
 70
     2
  9
$DIMALTF
 40
25.4
  9
$DIMLFAC
 40
1.0
  9
$DIMTOFL
 70
     0
  9
$DIMTVP
 40
0.0
  9
$DIMTIX
 70
     0
  9
$DIMSOXD
 70
     0
  9
$DIMSAH
 70
     0
  9
$DIMBLK1
  1

  9
$DIMBLK2
  1

  9
$DIMSTYLE
  2
Standard
  9
$DIMCLRD
 70
     0
  9
$DIMCLRE
 70
     0
  9
$DIMCLRT
 70
     0
  9
$DIMTFAC
 40
1.0
  9
$DIMGAP
 40
1.5
  9
$DIMJUST
 70
     0
  9
$DIMSD1
 70
     0
  9
$DIMSD2
 70
     0
  9
$DIMTOLJ
 70
     1
  9
$DIMTZIN
 70
     0
  9
$DIMALTZ
 70
     0
  9
$DIMALTTZ
 70
     0
  9
$DIMUPT
 70
     0
  9
$DIMDEC
 70
     2
  9
$DIMTDEC
 70
     4
  9
$DIMALTU
 70
     2
  9
$DIMALTTD
 70
     2
  9
$DIMTXSTY
  7
ＭＳ ゴシック
  9
$DIMAUNIT
 70
     0
  9
$DIMADEC
 70
     2
  9
$DIMALTRND
 40
0.0
  9
$DIMAZIN
 70
     0
  9
$DIMDSEP
 70
    46
  9
$DIMATFIT
 70
     3
  9
$DIMFRAC
 70
     0
  9
$DIMLDRBLK
  1

  9
$DIMLUNIT
 70
     2
  9
$DIMLWD
 70
    -2
  9
$DIMLWE
 70
    -2
  9
$DIMTMOVE
 70
     0
  9
$DIMFXL
 40
1.0
  9
$DIMFXLON
 70
     0
  9
$DIMJOGANG
 40
0.7853981633974483
  9
$DIMTFILL
 70
     0
  9
$DIMTFILLCLR
 70
     0
  9
$DIMARCSYM
 70
     0
  9
$DIMLTYPE
  6

  9
$DIMLTEX1
  6

  9
$DIMLTEX2
  6

  9
$DIMTXTDIRECTION
 70
     0
  9
$LUNITS
 70
     2
  9
$LUPREC
 70
     4
  9
$SKETCHINC
 40
0.1
  9
$FILLETRAD
 40
0.5
  9
$AUNITS
 70
     0
  9
$AUPREC
 70
     0
  9
$MENU
  1
.
  9
$ELEVATION
 40
0.0
  9
$PELEVATION
 40
0.0
  9
$THICKNESS
 40
0.0
  9
$LIMCHECK
 70
     0
  9
$CHAMFERA
 40
0.0
  9
$CHAMFERB
 40
0.0
  9
$CHAMFERC
 40
0.0
  9
$CHAMFERD
 40
0.0
  9
$SKPOLY
 70
     0
  9
$TDCREATE
 40
2458828.685034248
  9
$TDUCREATE
 40
2458828.310034248
  9
$TDUPDATE
 40
2458828.685034421
  9
$TDUUPDATE
 40
2458828.310034421
  9
$TDINDWG
 40
0.0000000116
  9
$TDUSRTIMER
 40
0.0000000116
  9
$USRTIMER
 70
     1
  9
$ANGBASE
 50
0.0
  9
$ANGDIR
 70
     0
  9
$PDMODE
 70
     0
  9
$PDSIZE
 40
0.0
  9
$PLINEWID
 40
0.0
  9
$SPLFRAME
 70
     0
  9
$SPLINETYPE
 70
     6
  9
$SPLINESEGS
 70
     8
  9
$HANDSEED
  5
2EB
  9
$SURFTAB1
 70
     6
  9
$SURFTAB2
 70
     6
  9
$SURFTYPE
 70
     6
  9
$SURFU
 70
     6
  9
$SURFV
 70
     6
  9
$UCSBASE
  2

  9
$UCSNAME
  2

  9
$UCSORG
 10
0.0
 20
0.0
 30
0.0
  9
$UCSXDIR
 10
1.0
 20
0.0
 30
0.0
  9
$UCSYDIR
 10
0.0
 20
1.0
 30
0.0
  9
$UCSORTHOREF
  2

  9
$UCSORTHOVIEW
 70
     0
  9
$UCSORGTOP
 10
0.0
 20
0.0
 30
0.0
  9
$UCSORGBOTTOM
 10
0.0
 20
0.0
 30
0.0
  9
$UCSORGLEFT
 10
0.0
 20
0.0
 30
0.0
  9
$UCSORGRIGHT
 10
0.0
 20
0.0
 30
0.0
  9
$UCSORGFRONT
 10
0.0
 20
0.0
 30
0.0
  9
$UCSORGBACK
 10
0.0
 20
0.0
 30
0.0
  9
$PUCSBASE
  2

  9
$PUCSNAME
  2

  9
$PUCSORG
 10
0.0
 20
0.0
 30
0.0
  9
$PUCSXDIR
 10
1.0
 20
0.0
 30
0.0
  9
$PUCSYDIR
 10
0.0
 20
1.0
 30
0.0
  9
$PUCSORTHOREF
  2

  9
$PUCSORTHOVIEW
 70
     0
  9
$PUCSORGTOP
 10
0.0
 20
0.0
 30
0.0
  9
$PUCSORGBOTTOM
 10
0.0
 20
0.0
 30
0.0
  9
$PUCSORGLEFT
 10
0.0
 20
0.0
 30
0.0
  9
$PUCSORGRIGHT
 10
0.0
 20
0.0
 30
0.0
  9
$PUCSORGFRONT
 10
0.0
 20
0.0
 30
0.0
  9
$PUCSORGBACK
 10
0.0
 20
0.0
 30
0.0
  9
$USERI1
 70
     0
  9
$USERI2
 70
     0
  9
$USERI3
 70
     0
  9
$USERI4
 70
     0
  9
$USERI5
 70
     0
  9
$USERR1
 40
0.0
  9
$USERR2
 40
0.0
  9
$USERR3
 40
0.0
  9
$USERR4
 40
0.0
  9
$USERR5
 40
0.0
  9
$WORLDVIEW
 70
     1
  9
$SHADEDGE
 70
     3
  9
$SHADEDIF
 70
    70
  9
$TILEMODE
 70
     1
  9
$MAXACTVP
 70
    64
  9
$PINSBASE
 10
0.0
 20
0.0
 30
0.0
  9
$PLIMCHECK
 70
     0
  9
$PEXTMIN
 10
1.000000000000000E+20
 20
1.000000000000000E+20
 30
1.000000000000000E+20
  9
$PEXTMAX
 10
-1.000000000000000E+20
 20
-1.000000000000000E+20
 30
-1.000000000000000E+20
  9
$PLIMMIN
 10
0.0
 20
0.0
  9
$PLIMMAX
 10
12.0
 20
9.0
  9
$UNITMODE
 70
     0
  9
$VISRETAIN
 70
     1
  9
$PLINEGEN
 70
     0
  9
$PSLTSCALE
 70
     1
  9
$TREEDEPTH
 70
  3020
  9
$CMLSTYLE
  2
Standard
  9
$CMLJUST
 70
     0
  9
$CMLSCALE
 40
1.0
  9
$PROXYGRAPHICS
 70
     1
  9
$MEASUREMENT
 70
     1
  9
$CELWEIGHT
370
    -1
  9
$ENDCAPS
280
     0
  9
$JOINSTYLE
280
     0
  9
$LWDISPLAY
290
     1
  9
$INSUNITS
 70
     4
  9
$HYPERLINKBASE
  1

  9
$STYLESHEET
  1

  9
$XEDIT
290
     1
  9
$CEPSNTYPE
380
     0
  9
$PSTYLEMODE
290
     1
  9
$FINGERPRINTGUID
  2
{67D342A2-DBDB-450A-AC50-814357F6C3C3}
  9
$VERSIONGUID
  2
{FAEB1C32-E019-11D5-929B-00C0DF256EC4}
  9
$EXTNAMES
290
     1
  9
$PSVPSCALE
 40
0.0
  9
$OLESTARTUP
290
     0
  9
$SORTENTS
280
   127
  9
$INDEXCTL
280
     0
  9
$HIDETEXT
280
     1
  9
$XCLIPFRAME
280
     2
  9
$HALOGAP
280
     0
  9
$OBSCOLOR
 70
   257
  9
$OBSLTYPE
280
     0
  9
$INTERSECTIONDISPLAY
280
     0
  9
$INTERSECTIONCOLOR
 70
   257
  9
$DIMASSOC
280
     2
  9
$PROJECTNAME
  1

  9
$CAMERADISPLAY
290
     0
  9
$LENSLENGTH
 40
50.0
  9
$CAMERAHEIGHT
 40
0.0
  9
$STEPSPERSEC
 40
2.0
  9
$STEPSIZE
 40
6.0
  9
$3DDWFPREC
 40
2.0
  9
$PSOLWIDTH
 40
0.25
  9
$PSOLHEIGHT
 40
4.0
  9
$LOFTANG1
 40
1.570796326794897
  9
$LOFTANG2
 40
1.570796326794897
  9
$LOFTMAG1
 40
0.0
  9
$LOFTMAG2
 40
0.0
  9
$LOFTPARAM
 70
     7
  9
$LOFTNORMALS
280
     1
  9
$LATITUDE
 40
37.795
  9
$LONGITUDE
 40
-122.394
  9
$NORTHDIRECTION
 40
0.0
  9
$TIMEZONE
 70
 -8000
  9
$LIGHTGLYPHDISPLAY
280
     1
  9
$TILEMODELIGHTSYNCH
280
     1
  9
$CMATERIAL
347
44
  9
$SOLIDHIST
280
     0
  9
$SHOWHIST
280
     1
  9
$DWFFRAME
280
     2
  9
$DGNFRAME
280
     2
  9
$REALWORLDSCALE
290
     1
  9
$INTERFERECOLOR
 62
   256
  9
$CSHADOW
280
     0
  9
$SHADOWPLANELOCATION
 40
0.0
  0
ENDSEC
  0
SECTION
  2
CLASSES
  0
CLASS
  1
ACDBDICTIONARYWDFLT
  2
AcDbDictionaryWithDefault
  3
ObjectDBX Classes
 90
        0
 91
        3
280
     0
281
     0
  0
CLASS
  1
VISUALSTYLE
  2
AcDbVisualStyle
  3
ObjectDBX Classes
 90
     4095
 91
        3
280
     0
281
     0
  0
CLASS
  1
MATERIAL
  2
AcDbMaterial
  3
ObjectDBX Classes
 90
     1153
 91
        3
280
     0
281
     0
  0
CLASS
  1
SCALE
  2
AcDbScale
  3
ObjectDBX Classes
 90
     1153
 91
        3
280
     0
281
     0
  0
CLASS
  1
TABLESTYLE
  2
AcDbTableStyle
  3
ObjectDBX Classes
 90
     4095
 91
        3
280
     0
281
     0
  0
CLASS
  1
MLEADERSTYLE
  2
AcDbMLeaderStyle
  3
ACDB_MLEADERSTYLE_CLASS
 90
     4095
 91
        3
280
     0
281
     0
  0
CLASS
  1
SUN
  2
AcDbSun
  3
SCENEOE
 90
     1153
 91
        3
280
     0
281
     0
  0
CLASS
  1
DICTIONARYVAR
  2
AcDbDictionaryVar
  3
ObjectDBX Classes
 90
        0
 91
        3
280
     0
281
     0
  0
CLASS
  1
CELLSTYLEMAP
  2
AcDbCellStyleMap
  3
ObjectDBX Classes
 90
     1152
 91
        3
280
     0
281
     0
  0
ENDSEC
  0
SECTION
  2
TABLES
  0
TABLE
  2
VPORT
  5
8
330
0
100
AcDbSymbolTable
 70
     1
  0
VPORT
  5
29
330
8
100
AcDbSymbolTableRecord
100
AcDbViewportTableRecord
  2
*Active
 70
     0
 10
0.0
 20
0.0
 11
1.0
 21
1.0
 12
763.5
 22
433.1534090908508
 13
0.0
 23
0.0
 14
0.5
 24
0.5
 15
0.5
 25
0.5
 16
0.0
 26
0.0
 36
1.0
 17
0.0
 27
0.0
 37
0.0
 40
292.1931818180656
 41
1.6
 42
50.0
 43
0.0
 44
0.0
 50
0.0
 51
0.0
 71
     0
 72
   100
 73
     1
 74
     3
 75
     0
 76
     0
 77
     0
 78
     0
281
     0
 65
     1
110
0.0
120
0.0
130
0.0
111
1.0
121
0.0
131
0.0
112
0.0
122
1.0
132
0.0
 79
     0
146
0.0
348
2F
 60
     3
 61
     5
292
     1
282
     1
141
0.0
142
0.0
 63
   250
361
6D
  0
ENDTAB
  0
TABLE
  2
LTYPE
  5
5
330
0
100
AcDbSymbolTable
 70
     3
  0
LTYPE
  5
14
330
5
100
AcDbSymbolTableRecord
100
AcDbLinetypeTableRecord
  2
ByBlock
 70
     0
  3

 72
    65
 73
     0
 40
0.0
  0
LTYPE
  5
15
330
5
100
AcDbSymbolTableRecord
100
AcDbLinetypeTableRecord
  2
ByLayer
 70
     0
  3

 72
    65
 73
     0
 40
0.0
  0
LTYPE
  5
16
330
5
100
AcDbSymbolTableRecord
100
AcDbLinetypeTableRecord
  2
Continuous
 70
     0
  3
Solid line
 72
    65
 73
     0
 40
0.0
  0
LTYPE
  5
70
330
5
100
AcDbSymbolTableRecord
100
AcDbLinetypeTableRecord
  2
DOT
 70
     0
  3

 72
    65
 73
     0
 40
0.0
  0
LTYPE
  5
2B8
330
5
100
AcDbSymbolTableRecord
100
AcDbLinetypeTableRecord
  2
CENTER
 70
     0
  3

 72
    65
 73
     0
 40
0.0
  0
ENDTAB
  0
TABLE
  2
LAYER
  5
2
330
0
100
AcDbSymbolTable
 70
     1
  0
LAYER
  5
10
330
2
100
AcDbSymbolTableRecord
100
AcDbLayerTableRecord
  2
0
 70
     0
 62
     7
  6
Continuous
370
    -3
390
F
347
46
348
0
  0
ENDTAB
  0
TABLE
  2
STYLE
  5
3
330
0
100
AcDbSymbolTable
 70
     2
  0
STYLE
  5
11
330
3
100
AcDbSymbolTableRecord
100
AcDbTextStyleTableRecord
  2
Standard
 70
     0
 40
0.0
 41
1.0
 50
0.0
 71
     0
 42
0.2
  3
txt
  4

  0
STYLE
  5
6E
330
3
100
AcDbSymbolTableRecord
100
AcDbTextStyleTableRecord
  2
ＭＳ ゴシック
 70
     0
 40
0.0
 41
1.0
 50
0.0
 71
     0
 42
0.2
  3
ＭＳ ゴシック.shx
  4

  0
ENDTAB
  0
TABLE
  2
VIEW
  5
6
330
0
100
AcDbSymbolTable
 70
     0
  0
ENDTAB
  0
TABLE
  2
UCS
  5
7
330
0
100
AcDbSymbolTable
 70
     0
  0
ENDTAB
  0
TABLE
  2
APPID
  5
9
330
0
100
AcDbSymbolTable
 70
     1
  0
APPID
  5
12
330
9
100
AcDbSymbolTableRecord
100
AcDbRegAppTableRecord
  2
ACAD
 70
     0
  0
ENDTAB
  0
TABLE
  2
DIMSTYLE
  5
A
330
0
100
AcDbSymbolTable
 70
     1
100
AcDbDimStyleTable
  0
DIMSTYLE
105
27
330
A
100
AcDbSymbolTableRecord
100
AcDbDimStyleTableRecord
  2
Standard
 70
     0
178
     0
340
11
  0
ENDTAB
  0
TABLE
  2
BLOCK_RECORD
  5
1
330
0
100
AcDbSymbolTable
 70
     1
  0
BLOCK_RECORD
  5
1F
330
1
100
AcDbSymbolTableRecord
100
AcDbBlockTableRecord
  2
*Model_Space
340
22
 70
     0
280
     1
281
     0
  0
BLOCK_RECORD
  5
1B
330
1
100
AcDbSymbolTableRecord
100
AcDbBlockTableRecord
  2
*Paper_Space
340
1E
 70
     0
280
     1
281
     0
  0
BLOCK_RECORD
  5
23
330
1
100
AcDbSymbolTableRecord
100
AcDbBlockTableRecord
  2
*Paper_Space0
340
26
 70
     0
280
     1
281
     0
  0
ENDTAB
  0
ENDSEC
  0
SECTION
  2
BLOCKS
  0
BLOCK
  5
20
330
1F
100
AcDbEntity
  8
0
100
AcDbBlockBegin
  2
*Model_Space
 70
     0
 10
0.0
 20
0.0
 30
0.0
  3
*Model_Space
  1

  0
ENDBLK
  5
21
330
1F
100
AcDbEntity
  8
0
100
AcDbBlockEnd
  0
BLOCK
  5
1C
330
1B
100
AcDbEntity
 67
     1
  8
0
100
AcDbBlockBegin
  2
*Paper_Space
 70
     0
 10
0.0
 20
0.0
 30
0.0
  3
*Paper_Space
  1

  0
ENDBLK
  5
1D
330
1B
100
AcDbEntity
 67
     1
  8
0
100
AcDbBlockEnd
  0
BLOCK
  5
24
330
23
100
AcDbEntity
  8
0
100
AcDbBlockBegin
  2
*Paper_Space0
 70
     0
 10
0.0
 20
0.0
 30
0.0
  3
*Paper_Space0
  1

  0
ENDBLK
  5
25
330
23
100
AcDbEntity
  8
0
100
AcDbBlockEnd
  0
ENDSEC
  0
SECTION
  2
ENTITIES
  0
ARC
  5
6F
330
1F
100
AcDbEntity
  8
0
  6
DOT
 62
     7
370
     0
100
AcDbCircle
 10
771.9999999999998
 20
377.2500000000001
 30
0.0
 40
5.250000000000199
100
AcDbArc
 50
98.2499617101288
 51
261.7500382898718
  0
LINE
  5
71
330
1F
100
AcDbEntity
  8
0
  6
DOT
 62
     7
370
     0
100
AcDbLine
 10
758.2500000000001
 20
388.7
 30
0.0
 11
758.2500000000001
 21
382.5178268764263
 31
0.0
  0
LINE
  5
72
330
1F
100
AcDbEntity
  8
0
  6
DOT
 62
     7
370
     0
100
AcDbLine
 10
818.2499999999999
 20
388.7
 30
0.0
 11
818.2499999999999
 21
365.8
 31
0.0
  0
LINE
  5
73
330
1F
100
AcDbEntity
  8
0
  6
DOT
 62
     7
370
     0
100
AcDbLine
 10
758.2500000000001
 20
371.9821731235737
 30
0.0
 11
758.2500000000001
 21
365.8
 31
0.0
  0
ARC
  5
74
330
1F
100
AcDbEntity
  8
0
  6
DOT
 62
     7
370
     0
100
AcDbCircle
 10
749.7499999999999
 20
377.2500000000001
 30
0.0
 40
9.999999999999787
100
AcDbArc
 50
328.2116693829491
 51
31.78833061705092
  0
LINE
  5
75
330
1F
100
AcDbEntity
  8
0
  6
DOT
 62
     7
370
     0
100
AcDbLine
 10
758.2500000000001
 20
363.0
 30
0.0
 11
818.25
 21
363.0
 31
0.0
  0
LINE
  5
76
330
1F
100
AcDbEntity
  8
0
  6
DOT
 62
     7
370
     0
100
AcDbLine
 10
758.2500000000001
 20
365.8
 30
0.0
 11
758.2500000000001
 21
363.0000000000001
 31
0.0
  0
LINE
  5
77
330
1F
100
AcDbEntity
  8
0
  6
DOT
 62
     7
370
     0
100
AcDbLine
 10
818.2499999999999
 20
363.0
 30
0.0
 11
818.2499999999999
 21
365.8
 31
0.0
  0
LINE
  5
78
330
1F
100
AcDbEntity
  8
0
  6
DOT
 62
     7
370
     0
100
AcDbLine
 10
758.2500000000001
 20
391.4999999999999
 30
0.0
 11
818.25
 21
391.4999999999999
 31
0.0
  0
LINE
  5
79
330
1F
100
AcDbEntity
  8
0
  6
DOT
 62
     7
370
     0
100
AcDbLine
 10
758.2500000000001
 20
388.7
 30
0.0
 11
758.2500000000001
 21
391.5
 31
0.0
  0
LINE
  5
7A
330
1F
100
AcDbEntity
  8
0
  6
DOT
 62
     7
370
     0
100
AcDbLine
 10
818.2499999999999
 20
391.4999999999999
 30
0.0
 11
818.2499999999999
 21
388.7
 31
0.0
  0
LINE
  5
7B
330
1F
100
AcDbEntity
  8
0
  6
DOT
 62
     7
370
     0
100
AcDbLine
 10
768.8854156504063
 20
392.7
 30
0.0
 11
770.6145843495939
 21
392.7
 31
0.0
  0
ARC
  5
7C
330
1F
100
AcDbEntity
  8
0
  6
DOT
 62
     7
370
     0
100
AcDbCircle
 10
768.8854156504063
 20
390.2
 30
0.0
 40
2.499999999999947
100
AcDbArc
 50
90.0
 51
148.6677485024057
  0
ARC
  5
7D
330
1F
100
AcDbEntity
  8
0
  6
DOT
 62
     7
370
     0
100
AcDbCircle
 10
770.6145843495938
 20
390.2
 30
0.0
 40
2.499999999999947
100
AcDbArc
 50
31.33225149759428
 51
90.0
  0
LINE
  5
7E
330
1F
100
AcDbEntity
  8
0
  6
DOT
 62
     7
370
     0
100
AcDbLine
 10
788.2499999999999
 20
398.7500000000001
 30
0.0
 11
788.2499999999999
 21
391.7
 31
0.0
  0
ARC
  5
7F
330
1F
100
AcDbEntity
  8
0
  6
DOT
 62
     7
370
     0
100
AcDbCircle
 10
791.25
 20
398.7500000000001
 30
0.0
 40
2.999999999999892
100
AcDbArc
 50
90.0
 51
180.0
  0
ARC
  5
80
330
1F
100
AcDbEntity
  8
0
  6
DOT
 62
     7
370
     0
100
AcDbCircle
 10
817.7499999999998
 20
401.25
 30
0.0
 40
0.500000000000167
100
AcDbArc
 50
0.0
 51
90.00000000000318
  0
LINE
  5
81
330
1F
100
AcDbEntity
  8
0
  6
DOT
 62
     7
370
     0
100
AcDbLine
 10
818.2499999999999
 20
401.25
 30
0.0
 11
818.2499999999999
 21
391.7
 31
0.0
  0
LINE
  5
82
330
1F
100
AcDbEntity
  8
0
  6
DOT
 62
     7
370
     0
100
AcDbLine
 10
791.25
 20
401.7500000000001
 30
0.0
 11
817.75
 21
401.7500000000001
 31
0.0
  0
ARC
  5
83
330
1F
100
AcDbEntity
  8
0
  6
DOT
 62
     7
370
     0
100
AcDbCircle
 10
791.25
 20
355.75
 30
0.0
 40
2.999999999999892
100
AcDbArc
 50
180.0
 51
270.0
  0
LINE
  5
84
330
1F
100
AcDbEntity
  8
0
  6
DOT
 62
     7
370
     0
100
AcDbLine
 10
788.2499999999999
 20
355.75
 30
0.0
 11
788.2499999999999
 21
362.8
 31
0.0
  0
LINE
  5
85
330
1F
100
AcDbEntity
  8
0
  6
DOT
 62
     7
370
     0
100
AcDbLine
 10
818.2499999999999
 20
353.2499999999999
 30
0.0
 11
818.2499999999999
 21
362.8
 31
0.0
  0
ARC
  5
86
330
1F
100
AcDbEntity
  8
0
  6
DOT
 62
     7
370
     0
100
AcDbCircle
 10
817.7499999999998
 20
353.2499999999999
 30
0.0
 40
0.500000000000167
100
AcDbArc
 50
269.9999999999968
 51
0.0
  0
LINE
  5
87
330
1F
100
AcDbEntity
  8
0
  6
DOT
 62
     7
370
     0
100
AcDbLine
 10
791.25
 20
352.75
 30
0.0
 11
817.75
 21
352.75
 31
0.0
  0
LINE
  5
88
330
1F
100
AcDbEntity
  8
0
  6
DOT
 62
     7
370
     0
100
AcDbLine
 10
788.2499999999999
 20
391.4999999999999
 30
0.0
 11
788.2499999999999
 21
391.7
 31
0.0
  0
LINE
  5
89
330
1F
100
AcDbEntity
  8
0
  6
DOT
 62
     7
370
     0
100
AcDbLine
 10
818.2499999999999
 20
391.7
 30
0.0
 11
818.2499999999999
 21
391.5
 31
0.0
  0
LINE
  5
8A
330
1F
100
AcDbEntity
  8
0
  6
DOT
 62
     7
370
     0
100
AcDbLine
 10
818.2499999999999
 20
362.8
 30
0.0
 11
818.2499999999999
 21
363.0
 31
0.0
  0
LINE
  5
8B
330
1F
100
AcDbEntity
  8
0
  6
DOT
 62
     7
370
     0
100
AcDbLine
 10
788.2499999999999
 20
363.0
 30
0.0
 11
788.2499999999999
 21
362.8
 31
0.0
  0
LINE
  5
8C
330
1F
100
AcDbEntity
  8
0
  6
DOT
 62
     7
370
     0
100
AcDbLine
 10
1058.25
 20
363.0
 30
0.0
 11
998.2499999999999
 21
363.0
 31
0.0
  0
LINE
  5
8D
330
1F
100
AcDbEntity
  8
0
  6
DOT
 62
     7
370
     0
100
AcDbLine
 10
998.2499999999999
 20
363.0
 30
0.0
 11
998.2499999999999
 21
365.8
 31
0.0
  0
LINE
  5
8E
330
1F
100
AcDbEntity
  8
0
  6
DOT
 62
     7
370
     0
100
AcDbLine
 10
1058.25
 20
365.8
 30
0.0
 11
1058.25
 21
363.0000000000001
 31
0.0
  0
LINE
  5
8F
330
1F
100
AcDbEntity
  8
0
  6
DOT
 62
     7
370
     0
100
AcDbLine
 10
1058.25
 20
391.4999999999999
 30
0.0
 11
998.2499999999999
 21
391.4999999999999
 31
0.0
  0
LINE
  5
90
330
1F
100
AcDbEntity
  8
0
  6
DOT
 62
     7
370
     0
100
AcDbLine
 10
1058.25
 20
388.7
 30
0.0
 11
1058.25
 21
391.5
 31
0.0
  0
LINE
  5
91
330
1F
100
AcDbEntity
  8
0
  6
DOT
 62
     7
370
     0
100
AcDbLine
 10
998.2499999999999
 20
391.4999999999999
 30
0.0
 11
998.2499999999999
 21
388.7
 31
0.0
  0
LINE
  5
92
330
1F
100
AcDbEntity
  8
0
  6
DOT
 62
     7
370
     0
100
AcDbLine
 10
1058.25
 20
365.8
 30
0.0
 11
1058.25
 21
371.9821731235738
 31
0.0
  0
LINE
  5
93
330
1F
100
AcDbEntity
  8
0
  6
DOT
 62
     7
370
     0
100
AcDbLine
 10
1058.25
 20
382.5178268764262
 30
0.0
 11
1058.25
 21
388.7
 31
0.0
  0
ARC
  5
94
330
1F
100
AcDbEntity
  8
0
  6
DOT
 62
     7
370
     0
100
AcDbCircle
 10
1044.5
 20
377.2500000000001
 30
0.0
 40
5.250000000000199
100
AcDbArc
 50
278.2499617101294
 51
81.75003828987121
  0
ARC
  5
95
330
1F
100
AcDbEntity
  8
0
  6
DOT
 62
     7
370
     0
100
AcDbCircle
 10
1066.75
 20
377.2500000000001
 30
0.0
 40
10.00000000000001
100
AcDbArc
 50
148.2116693829491
 51
211.7883306170509
  0
LINE
  5
96
330
1F
100
AcDbEntity
  8
0
  6
DOT
 62
     7
370
     0
100
AcDbLine
 10
998.2499999999999
 20
365.8
 30
0.0
 11
998.2499999999999
 21
388.7
 31
0.0
  0
ARC
  5
97
330
1F
100
AcDbEntity
  8
0
  6
DOT
 62
     7
370
     0
100
AcDbCircle
 10
1047.614584349594
 20
364.3
 30
0.0
 40
2.499999999999947
100
AcDbArc
 50
270.0
 51
328.6677485024058
  0
LINE
  5
98
330
1F
100
AcDbEntity
  8
0
  6
DOT
 62
     7
370
     0
100
AcDbLine
 10
1047.614584349594
 20
361.8
 30
0.0
 11
1045.885415650406
 21
361.8
 31
0.0
  0
ARC
  5
99
330
1F
100
AcDbEntity
  8
0
  6
DOT
 62
     7
370
     0
100
AcDbCircle
 10
1045.885415650406
 20
364.3
 30
0.0
 40
2.499999999999725
100
AcDbArc
 50
211.3322514975943
 51
270.0
  0
LINE
  5
9A
330
1F
100
AcDbEntity
  8
0
  6
DOT
 62
     7
370
     0
100
AcDbLine
 10
1028.25
 20
355.75
 30
0.0
 11
1028.25
 21
362.8
 31
0.0
  0
LINE
  5
9B
330
1F
100
AcDbEntity
  8
0
  6
DOT
 62
     7
370
     0
100
AcDbLine
 10
998.2499999999999
 20
353.2499999999999
 30
0.0
 11
998.2499999999999
 21
362.8
 31
0.0
  0
ARC
  5
9C
330
1F
100
AcDbEntity
  8
0
  6
DOT
 62
     7
370
     0
100
AcDbCircle
 10
1025.25
 20
355.75
 30
0.0
 40
2.999999999999892
100
AcDbArc
 50
270.0
 51
0.0
  0
ARC
  5
9D
330
1F
100
AcDbEntity
  8
0
  6
DOT
 62
     7
370
     0
100
AcDbCircle
 10
998.7499999999998
 20
353.2499999999999
 30
0.0
 40
0.4999999999999449
100
AcDbArc
 50
180.0
 51
270.0000000000032
  0
LINE
  5
9E
330
1F
100
AcDbEntity
  8
0
  6
DOT
 62
     7
370
     0
100
AcDbLine
 10
1025.25
 20
352.75
 30
0.0
 11
998.75
 21
352.75
 31
0.0
  0
LINE
  5
9F
330
1F
100
AcDbEntity
  8
0
  6
DOT
 62
     7
370
     0
100
AcDbLine
 10
1028.25
 20
398.7500000000001
 30
0.0
 11
1028.25
 21
391.7
 31
0.0
  0
LINE
  5
A0
330
1F
100
AcDbEntity
  8
0
  6
DOT
 62
     7
370
     0
100
AcDbLine
 10
998.2499999999999
 20
401.25
 30
0.0
 11
998.2499999999999
 21
391.7
 31
0.0
  0
LINE
  5
A1
330
1F
100
AcDbEntity
  8
0
  6
DOT
 62
     7
370
     0
100
AcDbLine
 10
1025.25
 20
401.7500000000001
 30
0.0
 11
998.75
 21
401.7500000000001
 31
0.0
  0
ARC
  5
A2
330
1F
100
AcDbEntity
  8
0
  6
DOT
 62
     7
370
     0
100
AcDbCircle
 10
1025.25
 20
398.7500000000001
 30
0.0
 40
2.99999999999967
100
AcDbArc
 50
0.0
 51
90.0
  0
ARC
  5
A3
330
1F
100
AcDbEntity
  8
0
  6
DOT
 62
     7
370
     0
100
AcDbCircle
 10
998.7499999999998
 20
401.25
 30
0.0
 40
0.500000000000389
100
AcDbArc
 50
89.99999999999682
 51
180.0
  0
LINE
  5
A4
330
1F
100
AcDbEntity
  8
0
  6
DOT
 62
     7
370
     0
100
AcDbLine
 10
998.2499999999999
 20
362.8
 30
0.0
 11
998.2499999999999
 21
363.0
 31
0.0
  0
LINE
  5
A5
330
1F
100
AcDbEntity
  8
0
  6
DOT
 62
     7
370
     0
100
AcDbLine
 10
1028.25
 20
363.0
 30
0.0
 11
1028.25
 21
362.8
 31
0.0
  0
LINE
  5
A6
330
1F
100
AcDbEntity
  8
0
  6
DOT
 62
     7
370
     0
100
AcDbLine
 10
998.2499999999999
 20
391.7
 30
0.0
 11
998.2499999999999
 21
391.5
 31
0.0
  0
LINE
  5
A7
330
1F
100
AcDbEntity
  8
0
  6
DOT
 62
     7
370
     0
100
AcDbLine
 10
1028.25
 20
391.4999999999999
 30
0.0
 11
1028.25
 21
391.7
 31
0.0
  0
ARC
  5
A8
330
1F
100
AcDbEntity
  8
0
  6
DOT
 62
     7
370
     0
100
AcDbCircle
 10
1016.250000000003
 20
377.2500000000001
 30
0.0
 40
6.499999999999506
100
AcDbArc
 50
300.0000000000013
 51
0.0
  0
LINE
  5
A9
330
1F
100
AcDbEntity
  8
0
  6
DOT
 62
     7
370
     0
100
AcDbLine
 10
1022.750000000003
 20
377.2500000000001
 30
0.0
 11
1022.750000000003
 21
373.4972232502136
 31
0.0
  0
LINE
  5
AA
330
1F
100
AcDbEntity
  8
0
  6
DOT
 62
     7
370
     0
100
AcDbLine
 10
1022.750000000003
 20
373.4972232502135
 30
0.0
 11
1019.500000000003
 21
371.6208348754016
 31
0.0
  0
ARC
  5
AB
330
1F
100
AcDbEntity
  8
0
  6
DOT
 62
     7
370
     0
100
AcDbCircle
 10
1016.250000000003
 20
377.2500000000001
 30
0.0
 40
6.499999999999506
100
AcDbArc
 50
180.0
 51
239.9999999999987
  0
LINE
  5
AC
330
1F
100
AcDbEntity
  8
0
  6
DOT
 62
     7
370
     0
100
AcDbLine
 10
1013.000000000003
 20
371.6208348754016
 30
0.0
 11
1009.750000000003
 21
373.4972232502135
 31
0.0
  0
LINE
  5
AD
330
1F
100
AcDbEntity
  8
0
  6
DOT
 62
     7
370
     0
100
AcDbLine
 10
1009.750000000003
 20
373.4972232502135
 30
0.0
 11
1009.750000000003
 21
377.25
 31
0.0
  0
ARC
  5
AE
330
1F
100
AcDbEntity
  8
0
  6
DOT
 62
     7
370
     0
100
AcDbCircle
 10
1016.250000000003
 20
377.2500000000001
 30
0.0
 40
6.499999999999506
100
AcDbArc
 50
239.9999999999987
 51
300.0000000000013
  0
LINE
  5
AF
330
1F
100
AcDbEntity
  8
0
  6
DOT
 62
     7
370
     0
100
AcDbLine
 10
1019.500000000003
 20
371.6208348754016
 30
0.0
 11
1016.250000000003
 21
369.744446500481
 31
0.0
  0
LINE
  5
B0
330
1F
100
AcDbEntity
  8
0
  6
DOT
 62
     7
370
     0
100
AcDbLine
 10
1016.250000000003
 20
369.744446500481
 30
0.0
 11
1013.000000000003
 21
371.6208348754016
 31
0.0
  0
ARC
  5
B1
330
1F
100
AcDbEntity
  8
0
  6
DOT
 62
     7
370
     0
100
AcDbCircle
 10
1016.250000000003
 20
377.2500000000001
 30
0.0
 40
6.499999999999728
100
AcDbArc
 50
59.99999999999874
 51
120.0000000000013
  0
LINE
  5
B2
330
1F
100
AcDbEntity
  8
0
  6
DOT
 62
     7
370
     0
100
AcDbLine
 10
1013.000000000003
 20
382.8791651245985
 30
0.0
 11
1016.250000000003
 21
384.7555534994105
 31
0.0
  0
LINE
  5
B3
330
1F
100
AcDbEntity
  8
0
  6
DOT
 62
     7
370
     0
100
AcDbLine
 10
1016.250000000003
 20
384.7555534994105
 30
0.0
 11
1019.500000000003
 21
382.8791651245985
 31
0.0
  0
ARC
  5
B4
330
1F
100
AcDbEntity
  8
0
  6
DOT
 62
     7
370
     0
100
AcDbCircle
 10
1016.250000000003
 20
377.2500000000001
 30
0.0
 40
6.499999999999506
100
AcDbArc
 50
120.0000000000013
 51
180.0
  0
LINE
  5
B5
330
1F
100
AcDbEntity
  8
0
  6
DOT
 62
     7
370
     0
100
AcDbLine
 10
1009.750000000003
 20
381.002776749679
 30
0.0
 11
1013.000000000003
 21
382.8791651245984
 31
0.0
  0
LINE
  5
B6
330
1F
100
AcDbEntity
  8
0
  6
DOT
 62
     7
370
     0
100
AcDbLine
 10
1009.750000000003
 20
377.2500000000001
 30
0.0
 11
1009.750000000003
 21
381.0027767496791
 31
0.0
  0
ARC
  5
B7
330
1F
100
AcDbEntity
  8
0
  6
DOT
 62
     7
370
     0
100
AcDbCircle
 10
1016.250000000003
 20
377.2500000000001
 30
0.0
 40
6.499999999999506
100
AcDbArc
 50
0.0
 51
59.99999999999875
  0
LINE
  5
B8
330
1F
100
AcDbEntity
  8
0
  6
DOT
 62
     7
370
     0
100
AcDbLine
 10
1019.500000000003
 20
382.8791651245985
 30
0.0
 11
1022.750000000003
 21
381.0027767496782
 31
0.0
  0
LINE
  5
B9
330
1F
100
AcDbEntity
  8
0
  6
DOT
 62
     7
370
     0
100
AcDbLine
 10
1022.750000000003
 20
381.0027767496782
 30
0.0
 11
1022.750000000003
 21
377.2499999999999
 31
0.0
  0
ARC
  5
BA
330
1F
100
AcDbEntity
  8
0
  6
DOT
 62
     7
370
     0
100
AcDbCircle
 10
800.2499999999957
 20
377.2500000000001
 30
0.0
 40
6.499999999999506
100
AcDbArc
 50
180.0
 51
239.9999999999983
  0
LINE
  5
BB
330
1F
100
AcDbEntity
  8
0
  6
DOT
 62
     7
370
     0
100
AcDbLine
 10
796.9999999999957
 20
371.6208348754016
 30
0.0
 11
793.7499999999957
 21
373.4972232502135
 31
0.0
  0
LINE
  5
BC
330
1F
100
AcDbEntity
  8
0
  6
DOT
 62
     7
370
     0
100
AcDbLine
 10
793.7499999999957
 20
373.4972232502135
 30
0.0
 11
793.7499999999957
 21
377.25
 31
0.0
  0
ARC
  5
BD
330
1F
100
AcDbEntity
  8
0
  6
DOT
 62
     7
370
     0
100
AcDbCircle
 10
800.2499999999957
 20
377.2500000000001
 30
0.0
 40
6.499999999999728
100
AcDbArc
 50
300.0000000000015
 51
0.0
  0
LINE
  5
BE
330
1F
100
AcDbEntity
  8
0
  6
DOT
 62
     7
370
     0
100
AcDbLine
 10
806.7499999999958
 20
373.4972232502135
 30
0.0
 11
803.4999999999958
 21
371.6208348754016
 31
0.0
  0
LINE
  5
BF
330
1F
100
AcDbEntity
  8
0
  6
DOT
 62
     7
370
     0
100
AcDbLine
 10
806.7499999999958
 20
377.2500000000001
 30
0.0
 11
806.7499999999958
 21
373.4972232502136
 31
0.0
  0
ARC
  5
C0
330
1F
100
AcDbEntity
  8
0
  6
DOT
 62
     7
370
     0
100
AcDbCircle
 10
800.2499999999957
 20
377.2500000000001
 30
0.0
 40
6.499999999999728
100
AcDbArc
 50
239.9999999999982
 51
300.0000000000016
  0
LINE
  5
C1
330
1F
100
AcDbEntity
  8
0
  6
DOT
 62
     7
370
     0
100
AcDbLine
 10
800.2499999999957
 20
369.7444465004812
 30
0.0
 11
796.9999999999957
 21
371.6208348754015
 31
0.0
  0
LINE
  5
C2
330
1F
100
AcDbEntity
  8
0
  6
DOT
 62
     7
370
     0
100
AcDbLine
 10
803.4999999999955
 20
371.6208348754016
 30
0.0
 11
800.2499999999955
 21
369.7444465004813
 31
0.0
  0
ARC
  5
C3
330
1F
100
AcDbEntity
  8
0
  6
DOT
 62
     7
370
     0
100
AcDbCircle
 10
800.2499999999957
 20
377.2500000000001
 30
0.0
 40
6.499999999999506
100
AcDbArc
 50
59.99999999999842
 51
120.0000000000019
  0
LINE
  5
C4
330
1F
100
AcDbEntity
  8
0
  6
DOT
 62
     7
370
     0
100
AcDbLine
 10
796.9999999999957
 20
382.8791651245983
 30
0.0
 11
800.2499999999957
 21
384.7555534994106
 31
0.0
  0
LINE
  5
C5
330
1F
100
AcDbEntity
  8
0
  6
DOT
 62
     7
370
     0
100
AcDbLine
 10
800.2499999999957
 20
384.7555534994105
 30
0.0
 11
803.4999999999957
 21
382.8791651245985
 31
0.0
  0
ARC
  5
C6
330
1F
100
AcDbEntity
  8
0
  6
DOT
 62
     7
370
     0
100
AcDbCircle
 10
800.2499999999957
 20
377.2500000000001
 30
0.0
 40
6.499999999999506
100
AcDbArc
 50
120.0000000000019
 51
180.0
  0
LINE
  5
C7
330
1F
100
AcDbEntity
  8
0
  6
DOT
 62
     7
370
     0
100
AcDbLine
 10
793.7499999999957
 20
381.002776749679
 30
0.0
 11
796.9999999999957
 21
382.8791651245982
 31
0.0
  0
LINE
  5
C8
330
1F
100
AcDbEntity
  8
0
  6
DOT
 62
     7
370
     0
100
AcDbLine
 10
793.7499999999957
 20
377.2500000000001
 30
0.0
 11
793.7499999999957
 21
381.0027767496791
 31
0.0
  0
ARC
  5
C9
330
1F
100
AcDbEntity
  8
0
  6
DOT
 62
     7
370
     0
100
AcDbCircle
 10
800.2499999999957
 20
377.2500000000001
 30
0.0
 40
6.499999999999728
100
AcDbArc
 50
0.0
 51
59.99999999999842
  0
LINE
  5
CA
330
1F
100
AcDbEntity
  8
0
  6
DOT
 62
     7
370
     0
100
AcDbLine
 10
803.4999999999955
 20
382.8791651245985
 30
0.0
 11
806.7499999999956
 21
381.002776749678
 31
0.0
  0
LINE
  5
CB
330
1F
100
AcDbEntity
  8
0
  6
DOT
 62
     7
370
     0
100
AcDbLine
 10
806.7499999999958
 20
381.002776749678
 30
0.0
 11
806.7499999999958
 21
377.25
 31
0.0
  0
ARC
  5
CC
330
1F
100
AcDbEntity
  8
0
  6
Continuous
 62
     7
370
     0
100
AcDbCircle
 10
-524.5179514046442
 20
347.9651275041853
 30
0.0
 40
4.999999999999893
210
0.0
220
0.0
230
-1.0
100
AcDbArc
 50
169.9999999999999
 51
240.9475222244332
  0
LINE
  5
CD
330
1F
100
AcDbEntity
  8
0
  6
Continuous
 62
     7
370
     0
100
AcDbLine
 10
529.1353587482477
 20
350.5723615983562
 30
0.0
 11
529.4419901697054
 21
348.8333683925199
 31
0.0
  0
ARC
  5
CE
330
1F
100
AcDbEntity
  8
0
  6
Continuous
 62
     7
370
     0
100
AcDbCircle
 10
534.059397513309
 20
351.4406024866909
 30
0.0
 40
4.999999999999893
100
AcDbArc
 50
80.00000000000074
 51
190.0000000000001
  0
LINE
  5
CF
330
1F
100
AcDbEntity
  8
0
  6
Continuous
 62
     7
370
     0
100
AcDbLine
 10
536.66663160748
 20
356.0580098302946
 30
0.0
 11
534.9276384016434
 21
356.3646412517521
 31
0.0
  0
ARC
  5
D0
330
1F
100
AcDbEntity
  8
0
  6
Continuous
 62
     7
370
     0
100
AcDbCircle
 10
-537.5348724958144
 20
360.9820485953555
 30
0.0
 40
4.999999999999893
210
0.0
220
0.0
230
-1.0
100
AcDbArc
 50
209.0524777755664
 51
280.0
  0
ARC
  5
D1
330
1F
100
AcDbEntity
  8
0
  6
Continuous
 62
     7
370
     0
100
AcDbCircle
 10
-508.2499999999999
 20
377.2500000000001
 30
0.0
 40
38.49999999999992
210
0.0
220
0.0
230
-1.0
100
AcDbArc
 50
150.9475222244336
 51
209.0524777755662
  0
ARC
  5
D2
330
1F
100
AcDbEntity
  8
0
  6
Continuous
 62
     7
370
     0
100
AcDbCircle
 10
-537.5348724958146
 20
393.5179514046445
 30
0.0
 40
4.999999999999893
210
0.0
220
0.0
230
-1.0
100
AcDbArc
 50
79.99999999999943
 51
150.9475222244334
  0
LINE
  5
D3
330
1F
100
AcDbEntity
  8
0
  6
Continuous
 62
     7
370
     0
100
AcDbLine
 10
534.9276384016437
 20
398.135358748248
 30
0.0
 11
536.6666316074801
 21
398.4419901697058
 31
0.0
  0
ARC
  5
D4
330
1F
100
AcDbEntity
  8
0
  6
Continuous
 62
     7
370
     0
100
AcDbCircle
 10
534.059397513309
 20
403.059397513309
 30
0.0
 40
5.000000000000115
100
AcDbArc
 50
170.0000000000004
 51
279.9999999999999
  0
LINE
  5
D5
330
1F
100
AcDbEntity
  8
0
  6
Continuous
 62
     7
370
     0
100
AcDbLine
 10
529.4419901697056
 20
405.6666316074799
 30
0.0
 11
529.1353587482479
 21
403.9276384016437
 31
0.0
  0
ARC
  5
D6
330
1F
100
AcDbEntity
  8
0
  6
Continuous
 62
     7
370
     0
100
AcDbCircle
 10
-524.5179514046442
 20
406.5348724958147
 30
0.0
 40
4.999999999999671
210
0.0
220
0.0
230
-1.0
100
AcDbArc
 50
119.0524777755668
 51
190.0
  0
ARC
  5
D7
330
1F
100
AcDbEntity
  8
0
  6
Continuous
 62
     7
370
     0
100
AcDbCircle
 10
-508.2499999999999
 20
377.2500000000001
 30
0.0
 40
38.49999999999992
210
0.0
220
0.0
230
-1.0
100
AcDbArc
 50
60.94752222443369
 51
119.0524777755664
  0
ARC
  5
D8
330
1F
100
AcDbEntity
  8
0
  6
Continuous
 62
     7
370
     0
100
AcDbCircle
 10
-491.9820485953554
 20
406.5348724958147
 30
0.0
 40
5.000000000000004
210
0.0
220
0.0
230
-1.0
100
AcDbArc
 50
349.9999999999999
 51
60.94752222443379
  0
LINE
  5
D9
330
1F
100
AcDbEntity
  8
0
  6
Continuous
 62
     7
370
     0
100
AcDbLine
 10
487.364641251752
 20
403.9276384016438
 30
0.0
 11
487.0580098302943
 21
405.66663160748
 31
0.0
  0
ARC
  5
DA
330
1F
100
AcDbEntity
  8
0
  6
Continuous
 62
     7
370
     0
100
AcDbCircle
 10
482.4406024866909
 20
403.059397513309
 30
0.0
 40
5.000000000000004
100
AcDbArc
 50
260.0000000000001
 51
10.00000000000011
  0
LINE
  5
DB
330
1F
100
AcDbEntity
  8
0
  6
Continuous
 62
     7
370
     0
100
AcDbLine
 10
479.8333683925198
 20
398.4419901697057
 30
0.0
 11
481.5723615983562
 21
398.1353587482479
 31
0.0
  0
ARC
  5
DC
330
1F
100
AcDbEntity
  8
0
  6
Continuous
 62
     7
370
     0
100
AcDbCircle
 10
-478.9651275041852
 20
393.5179514046445
 30
0.0
 40
5.000000000000004
210
0.0
220
0.0
230
-1.0
100
AcDbArc
 50
29.05247777556669
 51
99.99999999999997
  0
ARC
  5
DD
330
1F
100
AcDbEntity
  8
0
  6
Continuous
 62
     7
370
     0
100
AcDbCircle
 10
-508.2499999999999
 20
377.2500000000001
 30
0.0
 40
38.49999999999992
210
0.0
220
0.0
230
-1.0
100
AcDbArc
 50
330.9475222244337
 51
29.05247777556633
  0
ARC
  5
DE
330
1F
100
AcDbEntity
  8
0
  6
Continuous
 62
     7
370
     0
100
AcDbCircle
 10
-478.9651275041852
 20
360.9820485953555
 30
0.0
 40
5.000000000000004
210
0.0
220
0.0
230
-1.0
100
AcDbArc
 50
260.0000000000001
 51
330.9475222244336
  0
LINE
  5
DF
330
1F
100
AcDbEntity
  8
0
  6
Continuous
 62
     7
370
     0
100
AcDbLine
 10
481.5723615983562
 20
356.3646412517519
 30
0.0
 11
479.8333683925199
 21
356.0580098302945
 31
0.0
  0
ARC
  5
E0
330
1F
100
AcDbEntity
  8
0
  6
Continuous
 62
     7
370
     0
100
AcDbCircle
 10
482.4406024866909
 20
351.4406024866909
 30
0.0
 40
5.000000000000004
100
AcDbArc
 50
350.0000000000005
 51
100.0000000000006
  0
LINE
  5
E1
330
1F
100
AcDbEntity
  8
0
  6
Continuous
 62
     7
370
     0
100
AcDbLine
 10
487.0580098302943
 20
348.83336839252
 30
0.0
 11
487.364641251752
 21
350.5723615983563
 31
0.0
  0
ARC
  5
E2
330
1F
100
AcDbEntity
  8
0
  6
Continuous
 62
     7
370
     0
100
AcDbCircle
 10
-491.9820485953554
 20
347.9651275041853
 30
0.0
 40
5.000000000000004
210
0.0
220
0.0
230
-1.0
100
AcDbArc
 50
299.0524777755662
 51
10.0
  0
ARC
  5
E3
330
1F
100
AcDbEntity
  8
0
  6
Continuous
 62
     7
370
     0
100
AcDbCircle
 10
-508.2499999999999
 20
377.2500000000001
 30
0.0
 40
38.49999999999992
210
0.0
220
0.0
230
-1.0
100
AcDbArc
 50
240.9475222244337
 51
299.0524777755663
  0
CIRCLE
  5
E4
330
1F
100
AcDbEntity
  8
0
  6
Continuous
 62
     7
370
     0
100
AcDbCircle
 10
-482.4406024866909
 20
403.059397513309
 30
0.0
 40
2.000000000000113
210
0.0
220
0.0
230
-1.0
  0
CIRCLE
  5
E5
330
1F
100
AcDbEntity
  8
0
  6
Continuous
 62
     7
370
     0
100
AcDbCircle
 10
-534.059397513309
 20
403.059397513309
 30
0.0
 40
2.000000000000002
210
0.0
220
0.0
230
-1.0
  0
CIRCLE
  5
E6
330
1F
100
AcDbEntity
  8
0
  6
Continuous
 62
     7
370
     0
100
AcDbCircle
 10
-534.059397513309
 20
351.4406024866909
 30
0.0
 40
2.000000000000002
210
0.0
220
0.0
230
-1.0
  0
CIRCLE
  5
E7
330
1F
100
AcDbEntity
  8
0
  6
Continuous
 62
     7
370
     0
100
AcDbCircle
 10
-482.4406024866909
 20
351.4406024866909
 30
0.0
 40
2.000000000000113
210
0.0
220
0.0
230
-1.0
  0
CIRCLE
  5
E8
330
1F
100
AcDbEntity
  8
0
  6
Continuous
 62
     7
370
     0
100
AcDbCircle
 10
-508.2499999999999
 20
377.2500000000001
 30
0.0
 40
44.49999999999993
210
0.0
220
0.0
230
-1.0
  0
CIRCLE
  5
E9
330
1F
100
AcDbEntity
  8
0
  6
Continuous
 62
     7
370
     0
100
AcDbCircle
 10
-508.2499999999999
 20
377.2500000000001
 30
0.0
 40
5.000000000000115
210
0.0
220
0.0
230
-1.0
  0
CIRCLE
  5
EA
330
1F
100
AcDbEntity
  8
0
  6
Continuous
 62
     7
370
     0
100
AcDbCircle
 10
508.2499999999999
 20
377.2500000000001
 30
0.0
 40
4.250000000000087
  0
LINE
  5
EB
330
1F
100
AcDbEntity
  8
0
  6
Continuous
 62
     7
370
     0
100
AcDbLine
 10
515.1782032302754
 20
373.2499999999999
 30
0.0
 11
517.4876043070338
 21
377.25
 31
0.0
  0
ARC
  5
EC
330
1F
100
AcDbEntity
  8
0
  6
Continuous
 62
     7
370
     0
100
AcDbCircle
 10
-508.2499999999999
 20
377.2500000000001
 30
0.0
 40
8.00000000000023
210
0.0
220
0.0
230
-1.0
100
AcDbArc
 50
150.0000000000001
 51
209.9999999999999
  0
LINE
  5
ED
330
1F
100
AcDbEntity
  8
0
  6
Continuous
 62
     7
370
     0
100
AcDbLine
 10
517.4876043070337
 20
377.2500000000001
 30
0.0
 11
515.1782032302752
 21
381.2500000000001
 31
0.0
  0
ARC
  5
EE
330
1F
100
AcDbEntity
  8
0
  6
Continuous
 62
     7
370
     0
100
AcDbCircle
 10
-508.2499999999999
 20
377.2500000000001
 30
0.0
 40
8.000000000000007
210
0.0
220
0.0
230
-1.0
100
AcDbArc
 50
330.0
 51
29.99999999999994
  0
LINE
  5
EF
330
1F
100
AcDbEntity
  8
0
  6
Continuous
 62
     7
370
     0
100
AcDbLine
 10
499.0123956929658
 20
377.2500000000001
 30
0.0
 11
501.3217967697242
 21
373.25
 31
0.0
  0
LINE
  5
F0
330
1F
100
AcDbEntity
  8
0
  6
Continuous
 62
     7
370
     0
100
AcDbLine
 10
501.3217967697241
 20
381.2499999999999
 30
0.0
 11
499.0123956929656
 21
377.2499999999999
 31
0.0
  0
ARC
  5
F1
330
1F
100
AcDbEntity
  8
0
  6
Continuous
 62
     7
370
     0
100
AcDbCircle
 10
-508.2499999999999
 20
377.2500000000001
 30
0.0
 40
8.000000000000007
210
0.0
220
0.0
230
-1.0
100
AcDbArc
 50
270.0
 51
330.0
  0
LINE
  5
F2
330
1F
100
AcDbEntity
  8
0
  6
Continuous
 62
     7
370
     0
100
AcDbLine
 10
503.6311978464827
 20
369.2499999999999
 30
0.0
 11
508.2499999999997
 21
369.2499999999999
 31
0.0
  0
LINE
  5
F3
330
1F
100
AcDbEntity
  8
0
  6
Continuous
 62
     7
370
     0
100
AcDbLine
 10
501.3217967697241
 20
373.2499999999999
 30
0.0
 11
503.6311978464827
 21
369.2499999999999
 31
0.0
  0
LINE
  5
F4
330
1F
100
AcDbEntity
  8
0
  6
Continuous
 62
     7
370
     0
100
AcDbLine
 10
515.1782032302754
 20
381.2499999999999
 30
0.0
 11
512.8688021535169
 21
385.25
 31
0.0
  0
ARC
  5
F5
330
1F
100
AcDbEntity
  8
0
  6
Continuous
 62
     7
370
     0
100
AcDbCircle
 10
-508.2499999999999
 20
377.2500000000001
 30
0.0
 40
8.000000000000007
210
0.0
220
0.0
230
-1.0
100
AcDbArc
 50
90.0
 51
150.0000000000001
  0
LINE
  5
F6
330
1F
100
AcDbEntity
  8
0
  6
Continuous
 62
     7
370
     0
100
AcDbLine
 10
512.8688021535169
 20
385.25
 30
0.0
 11
508.2499999999998
 21
385.25
 31
0.0
  0
LINE
  5
F7
330
1F
100
AcDbEntity
  8
0
  6
Continuous
 62
     7
370
     0
100
AcDbLine
 10
508.2499999999999
 20
385.25
 30
0.0
 11
503.6311978464829
 21
385.25
 31
0.0
  0
ARC
  5
F8
330
1F
100
AcDbEntity
  8
0
  6
Continuous
 62
     7
370
     0
100
AcDbCircle
 10
-508.2499999999999
 20
377.2500000000001
 30
0.0
 40
8.000000000000007
210
0.0
220
0.0
230
-1.0
100
AcDbArc
 50
29.99999999999994
 51
90.0
  0
LINE
  5
F9
330
1F
100
AcDbEntity
  8
0
  6
Continuous
 62
     7
370
     0
100
AcDbLine
 10
503.6311978464827
 20
385.25
 30
0.0
 11
501.3217967697241
 21
381.2499999999999
 31
0.0
  0
ARC
  5
FA
330
1F
100
AcDbEntity
  8
0
  6
Continuous
 62
     7
370
     0
100
AcDbCircle
 10
-508.2499999999999
 20
377.2500000000001
 30
0.0
 40
8.00000000000023
210
0.0
220
0.0
230
-1.0
100
AcDbArc
 50
209.9999999999999
 51
270.0
  0
LINE
  5
FB
330
1F
100
AcDbEntity
  8
0
  6
Continuous
 62
     7
370
     0
100
AcDbLine
 10
512.8688021535169
 20
369.2499999999999
 30
0.0
 11
515.1782032302754
 21
373.2499999999999
 31
0.0
  0
LINE
  5
FC
330
1F
100
AcDbEntity
  8
0
  6
Continuous
 62
     7
370
     0
100
AcDbLine
 10
508.2499999999999
 20
369.2499999999999
 30
0.0
 11
512.8688021535169
 21
369.2499999999999
 31
0.0
  0
LINE
  5
FD
330
1F
100
AcDbEntity
  8
0
  6
Continuous
 62
     7
370
     0
100
AcDbLine
 10
508.4299999999999
 20
385.4980361298917
 30
0.0
 11
508.4299999999999
 21
385.2499999999999
 31
0.0
  0
LINE
  5
FE
330
1F
100
AcDbEntity
  8
0
  6
Continuous
 62
     7
370
     0
100
AcDbLine
 10
508.0399999999998
 20
385.2472432749213
 30
0.0
 11
508.0399999999998
 21
385.4973268396493
 31
0.0
  0
ARC
  5
FF
330
1F
100
AcDbEntity
  8
0
  6
Continuous
 62
     7
370
     0
100
AcDbCircle
 10
508.2499999999999
 20
377.2500000000001
 30
0.0
 40
8.25000000000009
100
AcDbArc
 50
88.74981106324365
 51
91.45859556514324
  0
LINE
  5
100
330
1F
100
AcDbEntity
  8
0
  6
Continuous
 62
     7
370
     0
100
AcDbLine
 10
508.4599999999997
 20
385.4973268396493
 30
0.0
 11
508.4599999999997
 21
385.2472432749213
 31
0.0
  0
ARC
  5
101
330
1F
100
AcDbEntity
  8
0
  6
Continuous
 62
     7
370
     0
100
AcDbCircle
 10
-508.2499999999999
 20
377.2500000000001
 30
0.0
 40
8.250000000000036
210
0.0
220
0.0
230
-1.0
100
AcDbArc
 50
91.45859556514358
 51
104.089379363493
  0
ARC
  5
102
330
1F
100
AcDbEntity
  8
0
  6
Continuous
 62
     7
370
     0
100
AcDbCircle
 10
-508.2499999999999
 20
377.2500000000001
 30
0.0
 40
8.250000000000146
210
0.0
220
0.0
230
-1.0
100
AcDbArc
 50
135.9057032084559
 51
164.0893793634931
  0
ARC
  5
103
330
1F
100
AcDbEntity
  8
0
  6
Continuous
 62
     7
370
     0
100
AcDbCircle
 10
-508.2499999999999
 20
377.2500000000001
 30
0.0
 40
8.250000000000146
210
0.0
220
0.0
230
-1.0
100
AcDbArc
 50
195.9057032084569
 51
224.0893793634926
  0
ARC
  5
104
330
1F
100
AcDbEntity
  8
0
  6
Continuous
 62
     7
370
     0
100
AcDbCircle
 10
-508.2499999999999
 20
377.2500000000001
 30
0.0
 40
8.250000000000146
210
0.0
220
0.0
230
-1.0
100
AcDbArc
 50
255.9057032084568
 51
284.0893793634925
  0
ARC
  5
105
330
1F
100
AcDbEntity
  8
0
  6
Continuous
 62
     7
370
     0
100
AcDbCircle
 10
-508.2499999999999
 20
377.2500000000001
 30
0.0
 40
8.250000000000036
210
0.0
220
0.0
230
-1.0
100
AcDbArc
 50
315.905703208456
 51
344.0893793634932
  0
ARC
  5
106
330
1F
100
AcDbEntity
  8
0
  6
Continuous
 62
     7
370
     0
100
AcDbCircle
 10
-508.2499999999999
 20
377.2500000000001
 30
0.0
 40
8.250000000000036
210
0.0
220
0.0
230
-1.0
100
AcDbArc
 50
15.90570320845773
 51
44.08937936349242
  0
ARC
  5
107
330
1F
100
AcDbEntity
  8
0
  6
Continuous
 62
     7
370
     0
100
AcDbCircle
 10
-508.2499999999999
 20
377.2500000000001
 30
0.0
 40
8.250000000000036
210
0.0
220
0.0
230
-1.0
100
AcDbArc
 50
75.90570320845801
 51
88.5414044348564
  0
CIRCLE
  5
108
330
1F
100
AcDbEntity
  8
0
  6
Continuous
 62
     7
370
     0
100
AcDbCircle
 10
534.2499999999999
 20
377.2500000000001
 30
0.0
 40
10.75000000000004
  0
ARC
  5
109
330
1F
100
AcDbEntity
  8
0
  6
Continuous
 62
     7
370
     0
100
AcDbCircle
 10
534.2499999999999
 20
377.2500000000001
 30
0.0
 40
10.00000000000001
100
AcDbArc
 50
118.5674562624337
 51
121.4325437375664
  0
LINE
  5
10A
330
1F
100
AcDbEntity
  8
0
  6
Continuous
 62
     7
370
     0
100
AcDbLine
 10
529.0350563932709
 20
385.7825472854615
 30
0.0
 11
533.8169872981077
 21
377.5
 31
0.0
  0
LINE
  5
10B
330
1F
100
AcDbEntity
  8
0
  6
Continuous
 62
     7
370
     0
100
AcDbLine
 10
533.8169872981077
 20
377.5000000000001
 30
0.0
 11
524.253125488434
 21
377.5000000000001
 31
0.0
  0
ARC
  5
10C
330
1F
100
AcDbEntity
  8
0
  6
Continuous
 62
     7
370
     0
100
AcDbCircle
 10
534.2499999999999
 20
377.2500000000001
 30
0.0
 40
10.00000000000001
100
AcDbArc
 50
178.5674562624335
 51
181.4325437375664
  0
LINE
  5
10D
330
1F
100
AcDbEntity
  8
0
  6
Continuous
 62
     7
370
     0
100
AcDbLine
 10
524.2531254884337
 20
377.0
 30
0.0
 11
533.8169872981076
 21
377.0
 31
0.0
  0
ARC
  5
10E
330
1F
100
AcDbEntity
  8
0
  6
Continuous
 62
     7
370
     0
100
AcDbCircle
 10
534.2499999999999
 20
377.2500000000001
 30
0.0
 40
10.00000000000001
100
AcDbArc
 50
298.5674562624333
 51
301.432543737566
  0
LINE
  5
10F
330
1F
100
AcDbEntity
  8
0
  6
Continuous
 62
     7
370
     0
100
AcDbLine
 10
534.6830127018923
 20
377.0
 30
0.0
 11
544.246874511566
 21
377.0
 31
0.0
  0
ARC
  5
110
330
1F
100
AcDbEntity
  8
0
  6
Continuous
 62
     7
370
     0
100
AcDbCircle
 10
534.2499999999999
 20
377.2500000000001
 30
0.0
 40
10.00000000000001
100
AcDbArc
 50
358.5674562624335
 51
1.432543737566334
  0
LINE
  5
111
330
1F
100
AcDbEntity
  8
0
  6
Continuous
 62
     7
370
     0
100
AcDbLine
 10
544.246874511566
 20
377.5000000000001
 30
0.0
 11
534.6830127018923
 21
377.5000000000001
 31
0.0
  0
LINE
  5
112
330
1F
100
AcDbEntity
  8
0
  6
Continuous
 62
     7
370
     0
100
AcDbLine
 10
534.6830127018923
 20
377.5000000000001
 30
0.0
 11
539.4649436067291
 21
385.7825472854615
 31
0.0
  0
ARC
  5
113
330
1F
100
AcDbEntity
  8
0
  6
Continuous
 62
     7
370
     0
100
AcDbCircle
 10
534.2499999999999
 20
377.2500000000001
 30
0.0
 40
10.00000000000001
100
AcDbArc
 50
58.56745626243361
 51
61.43254373756697
  0
LINE
  5
114
330
1F
100
AcDbEntity
  8
0
  6
Continuous
 62
     7
370
     0
100
AcDbLine
 10
539.0319309048368
 20
386.0325472854615
 30
0.0
 11
534.2499999999999
 21
377.75
 31
0.0
  0
LINE
  5
115
330
1F
100
AcDbEntity
  8
0
  6
Continuous
 62
     7
370
     0
100
AcDbLine
 10
534.2499999999999
 20
377.75
 30
0.0
 11
529.468069095163
 21
386.0325472854613
 31
0.0
  0
LINE
  5
116
330
1F
100
AcDbEntity
  8
0
  6
Continuous
 62
     7
370
     0
100
AcDbLine
 10
529.468069095163
 20
368.4674527145385
 30
0.0
 11
534.2499999999999
 21
376.75
 31
0.0
  0
LINE
  5
117
330
1F
100
AcDbEntity
  8
0
  6
Continuous
 62
     7
370
     0
100
AcDbLine
 10
534.2499999999999
 20
376.75
 30
0.0
 11
539.0319309048368
 21
368.4674527145385
 31
0.0
  0
LINE
  5
118
330
1F
100
AcDbEntity
  8
0
  6
Continuous
 62
     7
370
     0
100
AcDbLine
 10
539.4649436067291
 20
368.7174527145387
 30
0.0
 11
534.6830127018923
 21
376.9999999999999
 31
0.0
  0
LINE
  5
119
330
1F
100
AcDbEntity
  8
0
  6
Continuous
 62
     7
370
     0
100
AcDbLine
 10
533.8169872981077
 20
377.0
 30
0.0
 11
529.0350563932709
 21
368.7174527145385
 31
0.0
  0
ARC
  5
11A
330
1F
100
AcDbEntity
  8
0
  6
Continuous
 62
     7
370
     0
100
AcDbCircle
 10
534.2499999999999
 20
377.2500000000001
 30
0.0
 40
10.00000000000001
100
AcDbArc
 50
238.5674562624335
 51
241.4325437375663
  0
CIRCLE
  5
11B
330
1F
100
AcDbEntity
  8
0
  6
DOT
 62
     7
370
     0
100
AcDbCircle
 10
778.2500000000001
 20
377.2500000000001
 30
0.0
 40
4.999999999999893
  0
CIRCLE
  5
11C
330
1F
100
AcDbEntity
  8
0
  6
DOT
 62
     7
370
     0
100
AcDbCircle
 10
1038.25
 20
377.2500000000001
 30
0.0
 40
5.000000000000115
  0
LINE
  5
11D
330
1F
100
AcDbEntity
  8
0
  6
DOT
 62
     7
370
     0
100
AcDbLine
 10
778.2500000000001
 20
386.487604307034
 30
0.0
 11
782.2500000000001
 21
384.1782032302755
 31
0.0
  0
ARC
  5
11E
330
1F
100
AcDbEntity
  8
0
  6
DOT
 62
     7
370
     0
100
AcDbCircle
 10
-778.2500000000001
 20
377.2500000000001
 30
0.0
 40
8.00000000000023
210
0.0
220
0.0
230
-1.0
100
AcDbArc
 50
60.00000000000001
 51
120.0
  0
LINE
  5
11F
330
1F
100
AcDbEntity
  8
0
  6
DOT
 62
     7
370
     0
100
AcDbLine
 10
774.2499999999999
 20
384.1782032302755
 30
0.0
 11
778.2499999999999
 21
386.487604307034
 31
0.0
  0
LINE
  5
120
330
1F
100
AcDbEntity
  8
0
  6
DOT
 62
     7
370
     0
100
AcDbLine
 10
786.2499999999999
 20
381.868802153517
 30
0.0
 11
786.2499999999999
 21
377.2500000000001
 31
0.0
  0
ARC
  5
121
330
1F
100
AcDbEntity
  8
0
  6
DOT
 62
     7
370
     0
100
AcDbCircle
 10
-778.2500000000001
 20
377.2500000000001
 30
0.0
 40
8.00000000000023
210
0.0
220
0.0
230
-1.0
100
AcDbArc
 50
120.0
 51
180.0
  0
LINE
  5
122
330
1F
100
AcDbEntity
  8
0
  6
DOT
 62
     7
370
     0
100
AcDbLine
 10
782.2499999999999
 20
384.1782032302755
 30
0.0
 11
786.2499999999999
 21
381.868802153517
 31
0.0
  0
ARC
  5
123
330
1F
100
AcDbEntity
  8
0
  6
DOT
 62
     7
370
     0
100
AcDbCircle
 10
-1038.25
 20
377.2500000000001
 30
0.0
 40
8.000000000000007
210
0.0
220
0.0
230
-1.0
100
AcDbArc
 50
60.00000000000001
 51
120.0
  0
ARC
  5
124
330
1F
100
AcDbEntity
  8
0
  6
DOT
 62
     7
370
     0
100
AcDbCircle
 10
-1038.25
 20
377.2500000000001
 30
0.0
 40
8.000000000000007
210
0.0
220
0.0
230
-1.0
100
AcDbArc
 50
120.0
 51
180.0
  0
ARC
  5
125
330
1F
100
AcDbEntity
  8
0
  6
DOT
 62
     7
370
     0
100
AcDbCircle
 10
-1038.25
 20
377.2500000000001
 30
0.0
 40
8.000000000000007
210
0.0
220
0.0
230
-1.0
100
AcDbArc
 50
180.0
 51
240.0
  0
ARC
  5
126
330
1F
100
AcDbEntity
  8
0
  6
DOT
 62
     7
370
     0
100
AcDbCircle
 10
-1038.25
 20
377.2500000000001
 30
0.0
 40
8.000000000000007
210
0.0
220
0.0
230
-1.0
100
AcDbArc
 50
240.0
 51
300.0
  0
ARC
  5
127
330
1F
100
AcDbEntity
  8
0
  6
DOT
 62
     7
370
     0
100
AcDbCircle
 10
-1038.25
 20
377.2500000000001
 30
0.0
 40
8.000000000000007
210
0.0
220
0.0
230
-1.0
100
AcDbArc
 50
300.0
 51
0.0
  0
ARC
  5
128
330
1F
100
AcDbEntity
  8
0
  6
DOT
 62
     7
370
     0
100
AcDbCircle
 10
-1038.25
 20
377.2500000000001
 30
0.0
 40
8.000000000000007
210
0.0
220
0.0
230
-1.0
100
AcDbArc
 50
0.0
 51
60.00000000000001
  0
ARC
  5
129
330
1F
100
AcDbEntity
  8
0
  6
DOT
 62
     7
370
     0
100
AcDbCircle
 10
-778.2500000000001
 20
377.2500000000001
 30
0.0
 40
8.00000000000023
210
0.0
220
0.0
230
-1.0
100
AcDbArc
 50
240.0
 51
300.0
  0
ARC
  5
12A
330
1F
100
AcDbEntity
  8
0
  6
DOT
 62
     7
370
     0
100
AcDbCircle
 10
-778.2500000000001
 20
377.2500000000001
 30
0.0
 40
8.000000000000007
210
0.0
220
0.0
230
-1.0
100
AcDbArc
 50
300.0
 51
0.0
  0
ARC
  5
12B
330
1F
100
AcDbEntity
  8
0
  6
DOT
 62
     7
370
     0
100
AcDbCircle
 10
-778.2500000000001
 20
377.2500000000001
 30
0.0
 40
8.000000000000007
210
0.0
220
0.0
230
-1.0
100
AcDbArc
 50
0.0
 51
60.0
  0
ARC
  5
12C
330
1F
100
AcDbEntity
  8
0
  6
DOT
 62
     7
370
     0
100
AcDbCircle
 10
-778.2500000000001
 20
377.2500000000001
 30
0.0
 40
8.00000000000023
210
0.0
220
0.0
230
-1.0
100
AcDbArc
 50
180.0
 51
240.0
  0
LINE
  5
12D
330
1F
100
AcDbEntity
  8
0
  6
DOT
 62
     7
370
     0
100
AcDbLine
 10
1042.25
 20
384.1782032302755
 30
0.0
 11
1046.25
 21
381.868802153517
 31
0.0
  0
LINE
  5
12E
330
1F
100
AcDbEntity
  8
0
  6
DOT
 62
     7
370
     0
100
AcDbLine
 10
1046.25
 20
381.868802153517
 30
0.0
 11
1046.25
 21
377.2500000000001
 31
0.0
  0
LINE
  5
12F
330
1F
100
AcDbEntity
  8
0
  6
DOT
 62
     7
370
     0
100
AcDbLine
 10
1030.25
 20
377.2500000000001
 30
0.0
 11
1030.25
 21
381.868802153517
 31
0.0
  0
LINE
  5
130
330
1F
100
AcDbEntity
  8
0
  6
DOT
 62
     7
370
     0
100
AcDbLine
 10
1030.25
 20
381.868802153517
 30
0.0
 11
1034.25
 21
384.1782032302755
 31
0.0
  0
LINE
  5
131
330
1F
100
AcDbEntity
  8
0
  6
DOT
 62
     7
370
     0
100
AcDbLine
 10
1038.25
 20
368.012395692966
 30
0.0
 11
1034.25
 21
370.3217967697245
 31
0.0
  0
LINE
  5
132
330
1F
100
AcDbEntity
  8
0
  6
DOT
 62
     7
370
     0
100
AcDbLine
 10
1042.25
 20
370.3217967697245
 30
0.0
 11
1038.25
 21
368.012395692966
 31
0.0
  0
LINE
  5
133
330
1F
100
AcDbEntity
  8
0
  6
DOT
 62
     7
370
     0
100
AcDbLine
 10
770.2499999999999
 20
381.868802153517
 30
0.0
 11
774.2499999999999
 21
384.1782032302755
 31
0.0
  0
LINE
  5
134
330
1F
100
AcDbEntity
  8
0
  6
DOT
 62
     7
370
     0
100
AcDbLine
 10
770.2499999999999
 20
377.2500000000001
 30
0.0
 11
770.2499999999999
 21
381.868802153517
 31
0.0
  0
LINE
  5
135
330
1F
100
AcDbEntity
  8
0
  6
DOT
 62
     7
370
     0
100
AcDbLine
 10
774.2499999999999
 20
370.3217967697245
 30
0.0
 11
770.2499999999999
 21
372.631197846483
 31
0.0
  0
LINE
  5
136
330
1F
100
AcDbEntity
  8
0
  6
DOT
 62
     7
370
     0
100
AcDbLine
 10
770.2499999999999
 20
372.631197846483
 30
0.0
 11
770.2499999999999
 21
377.25
 31
0.0
  0
LINE
  5
137
330
1F
100
AcDbEntity
  8
0
  6
DOT
 62
     7
370
     0
100
AcDbLine
 10
1046.25
 20
372.631197846483
 30
0.0
 11
1042.25
 21
370.3217967697245
 31
0.0
  0
LINE
  5
138
330
1F
100
AcDbEntity
  8
0
  6
DOT
 62
     7
370
     0
100
AcDbLine
 10
1046.25
 20
377.2500000000001
 30
0.0
 11
1046.25
 21
372.6311978464831
 31
0.0
  0
LINE
  5
139
330
1F
100
AcDbEntity
  8
0
  6
DOT
 62
     7
370
     0
100
AcDbLine
 10
1038.25
 20
386.487604307034
 30
0.0
 11
1042.25
 21
384.1782032302755
 31
0.0
  0
LINE
  5
13A
330
1F
100
AcDbEntity
  8
0
  6
DOT
 62
     7
370
     0
100
AcDbLine
 10
1034.25
 20
384.1782032302755
 30
0.0
 11
1038.25
 21
386.487604307034
 31
0.0
  0
LINE
  5
13B
330
1F
100
AcDbEntity
  8
0
  6
DOT
 62
     7
370
     0
100
AcDbLine
 10
778.2500000000001
 20
368.012395692966
 30
0.0
 11
774.2500000000001
 21
370.3217967697245
 31
0.0
  0
LINE
  5
13C
330
1F
100
AcDbEntity
  8
0
  6
DOT
 62
     7
370
     0
100
AcDbLine
 10
782.2499999999999
 20
370.3217967697245
 30
0.0
 11
778.2499999999999
 21
368.012395692966
 31
0.0
  0
LINE
  5
13D
330
1F
100
AcDbEntity
  8
0
  6
DOT
 62
     7
370
     0
100
AcDbLine
 10
786.2499999999999
 20
377.2500000000001
 30
0.0
 11
786.2499999999999
 21
372.6311978464831
 31
0.0
  0
LINE
  5
13E
330
1F
100
AcDbEntity
  8
0
  6
DOT
 62
     7
370
     0
100
AcDbLine
 10
786.2499999999999
 20
372.631197846483
 30
0.0
 11
782.2499999999999
 21
370.3217967697245
 31
0.0
  0
LINE
  5
13F
330
1F
100
AcDbEntity
  8
0
  6
DOT
 62
     7
370
     0
100
AcDbLine
 10
1034.25
 20
370.3217967697245
 30
0.0
 11
1030.25
 21
372.631197846483
 31
0.0
  0
LINE
  5
140
330
1F
100
AcDbEntity
  8
0
  6
DOT
 62
     7
370
     0
100
AcDbLine
 10
1030.25
 20
372.631197846483
 30
0.0
 11
1030.25
 21
377.25
 31
0.0
  0
LINE
  5
141
330
1F
100
AcDbEntity
  8
0
  6
DOT
 62
     7
370
     0
100
AcDbLine
 10
1046.247243275029
 20
377.46
 30
0.0
 11
1046.497326839649
 21
377.46
 31
0.0
  0
LINE
  5
142
330
1F
100
AcDbEntity
  8
0
  6
DOT
 62
     7
370
     0
100
AcDbLine
 10
1046.497326839649
 20
377.04
 30
0.0
 11
1046.247243275029
 21
377.04
 31
0.0
  0
ARC
  5
143
330
1F
100
AcDbEntity
  8
0
  6
DOT
 62
     7
370
     0
100
AcDbCircle
 10
-1038.25
 20
377.2500000000001
 30
0.0
 40
8.249999999999869
210
0.0
220
0.0
230
-1.0
100
AcDbArc
 50
181.4585955651436
 51
194.0893793634924
  0
ARC
  5
144
330
1F
100
AcDbEntity
  8
0
  6
DOT
 62
     7
370
     0
100
AcDbCircle
 10
-1038.25
 20
377.2500000000001
 30
0.0
 40
8.249999999999869
210
0.0
220
0.0
230
-1.0
100
AcDbArc
 50
225.9057032084568
 51
254.0893793634927
  0
ARC
  5
145
330
1F
100
AcDbEntity
  8
0
  6
DOT
 62
     7
370
     0
100
AcDbCircle
 10
-1038.25
 20
377.2500000000001
 30
0.0
 40
8.249999999999869
210
0.0
220
0.0
230
-1.0
100
AcDbArc
 50
285.9057032084569
 51
314.0893793634927
  0
ARC
  5
146
330
1F
100
AcDbEntity
  8
0
  6
DOT
 62
     7
370
     0
100
AcDbCircle
 10
-1038.25
 20
377.2500000000001
 30
0.0
 40
8.249999999999869
210
0.0
220
0.0
230
-1.0
100
AcDbArc
 50
345.9057032084572
 51
14.08937936349207
  0
ARC
  5
147
330
1F
100
AcDbEntity
  8
0
  6
DOT
 62
     7
370
     0
100
AcDbCircle
 10
-1038.25
 20
377.2500000000001
 30
0.0
 40
8.249999999999869
210
0.0
220
0.0
230
-1.0
100
AcDbArc
 50
45.9057032084572
 51
74.08937936349189
  0
ARC
  5
148
330
1F
100
AcDbEntity
  8
0
  6
DOT
 62
     7
370
     0
100
AcDbCircle
 10
-1038.25
 20
377.2500000000001
 30
0.0
 40
8.249999999999869
210
0.0
220
0.0
230
-1.0
100
AcDbArc
 50
105.9057032084577
 51
134.0893793634924
  0
ARC
  5
149
330
1F
100
AcDbEntity
  8
0
  6
DOT
 62
     7
370
     0
100
AcDbCircle
 10
-1038.25
 20
377.2500000000001
 30
0.0
 40
8.249999999999869
210
0.0
220
0.0
230
-1.0
100
AcDbArc
 50
165.9057032084584
 51
178.5414044348563
  0
LINE
  5
14A
330
1F
100
AcDbEntity
  8
0
  6
DOT
 62
     7
370
     0
100
AcDbLine
 10
1046.498036129892
 20
377.07
 30
0.0
 11
1046.25
 21
377.07
 31
0.0
  0
ARC
  5
14B
330
1F
100
AcDbEntity
  8
0
  6
DOT
 62
     7
370
     0
100
AcDbCircle
 10
1038.25
 20
377.2500000000001
 30
0.0
 40
8.249999999999869
100
AcDbArc
 50
358.7498110632439
 51
1.458595565143639
  0
LINE
  5
14C
330
1F
100
AcDbEntity
  8
0
  6
DOT
 62
     7
370
     0
100
AcDbLine
 10
770.2527567249706
 20
377.04
 30
0.0
 11
770.0026731603506
 21
377.04
 31
0.0
  0
LINE
  5
14D
330
1F
100
AcDbEntity
  8
0
  6
DOT
 62
     7
370
     0
100
AcDbLine
 10
770.0026731603506
 20
377.46
 30
0.0
 11
770.2527567249706
 21
377.46
 31
0.0
  0
ARC
  5
14E
330
1F
100
AcDbEntity
  8
0
  6
DOT
 62
     7
370
     0
100
AcDbCircle
 10
-778.2500000000001
 20
377.2500000000001
 30
0.0
 40
8.250000000000313
210
0.0
220
0.0
230
-1.0
100
AcDbArc
 50
1.45859556514366
 51
14.08937936349293
  0
ARC
  5
14F
330
1F
100
AcDbEntity
  8
0
  6
DOT
 62
     7
370
     0
100
AcDbCircle
 10
-778.2500000000001
 20
377.2500000000001
 30
0.0
 40
8.25000000000009
210
0.0
220
0.0
230
-1.0
100
AcDbArc
 50
45.90570320845672
 51
74.0893793634929
  0
ARC
  5
150
330
1F
100
AcDbEntity
  8
0
  6
DOT
 62
     7
370
     0
100
AcDbCircle
 10
-778.2500000000001
 20
377.2500000000001
 30
0.0
 40
8.25000000000009
210
0.0
220
0.0
230
-1.0
100
AcDbArc
 50
105.9057032084573
 51
134.089379363493
  0
ARC
  5
151
330
1F
100
AcDbEntity
  8
0
  6
DOT
 62
     7
370
     0
100
AcDbCircle
 10
-778.2500000000001
 20
377.2500000000001
 30
0.0
 40
8.250000000000313
210
0.0
220
0.0
230
-1.0
100
AcDbArc
 50
165.905703208457
 51
194.0893793634922
  0
ARC
  5
152
330
1F
100
AcDbEntity
  8
0
  6
DOT
 62
     7
370
     0
100
AcDbCircle
 10
-778.2500000000001
 20
377.2500000000001
 30
0.0
 40
8.25000000000009
210
0.0
220
0.0
230
-1.0
100
AcDbArc
 50
225.9057032084577
 51
254.0893793634921
  0
ARC
  5
153
330
1F
100
AcDbEntity
  8
0
  6
DOT
 62
     7
370
     0
100
AcDbCircle
 10
-778.2500000000001
 20
377.2500000000001
 30
0.0
 40
8.25000000000009
210
0.0
220
0.0
230
-1.0
100
AcDbArc
 50
285.9057032084576
 51
314.089379363492
  0
ARC
  5
154
330
1F
100
AcDbEntity
  8
0
  6
DOT
 62
     7
370
     0
100
AcDbCircle
 10
-778.2500000000001
 20
377.2500000000001
 30
0.0
 40
8.25000000000009
210
0.0
220
0.0
230
-1.0
100
AcDbArc
 50
345.9057032084585
 51
358.5414044348564
  0
LINE
  5
155
330
1F
100
AcDbEntity
  8
0
  6
DOT
 62
     7
370
     0
100
AcDbLine
 10
770.001963870108
 20
377.4300000000001
 30
0.0
 11
770.2499999999999
 21
377.4300000000001
 31
0.0
  0
ARC
  5
156
330
1F
100
AcDbEntity
  8
0
  6
DOT
 62
     7
370
     0
100
AcDbCircle
 10
778.2500000000001
 20
377.2500000000001
 30
0.0
 40
8.249999999999869
100
AcDbArc
 50
178.7498110632439
 51
181.4585955651436
  0
LINE
  5
157
330
1F
100
AcDbEntity
  8
0
  6
Continuous
 62
     7
370
     0
100
AcDbLine
 10
527.750000000001
 20
377.208030390005
 30
0.0
 11
527.7444977524291
 21
377.5000657402297
 31
0.0
  0
LINE
  5
158
330
1F
100
AcDbEntity
  8
0
  6
Continuous
 62
     7
370
     0
100
AcDbLine
 10
527.7472072274418
 20
376.999998828185
 30
0.0
 11
527.750000000001
 21
377.208030390005
 31
0.0
  0
LINE
  5
159
330
1F
100
AcDbEntity
  8
0
  6
Continuous
 62
     7
370
     0
100
AcDbLine
 10
527.7499999999994
 20
377.5000000000001
 30
0.0
 11
527.7499999999994
 21
377.208030390005
 31
0.0
  0
LINE
  5
15A
330
1F
100
AcDbEntity
  8
0
  6
Continuous
 62
     7
370
     0
100
AcDbLine
 10
527.7499999999994
 20
377.208030390005
 30
0.0
 11
527.7499999999994
 21
377.0
 31
0.0
  0
LINE
  5
15B
330
1F
100
AcDbEntity
  8
0
  6
Continuous
 62
     7
370
     0
100
AcDbLine
 10
1061.25
 20
360.2499999999999
 30
0.0
 11
1061.25
 21
362.55
 31
0.0
  0
LINE
  5
15C
330
1F
100
AcDbEntity
  8
0
  6
Continuous
 62
     7
370
     0
100
AcDbLine
 10
1061.25
 20
360.2499999999999
 30
0.0
 11
1028.25
 21
360.2499999999999
 31
0.0
  0
LINE
  5
15D
330
1F
100
AcDbEntity
  8
0
  6
Continuous
 62
     7
370
     0
100
AcDbLine
 10
998.2499999999999
 20
360.2499999999999
 30
0.0
 11
818.2499999999999
 21
360.2499999999999
 31
0.0
  0
LINE
  5
15E
330
1F
100
AcDbEntity
  8
0
  6
Continuous
 62
     7
370
     0
100
AcDbLine
 10
788.2499999999999
 20
360.2499999999999
 30
0.0
 11
549.3748100299563
 21
360.2499999999999
 31
0.0
  0
LINE
  5
15F
330
1F
100
AcDbEntity
  8
0
  6
Continuous
 62
     7
370
     0
100
AcDbLine
 10
1061.25
 20
362.55
 30
0.0
 11
1049.39994145673
 21
362.55
 31
0.0
  0
LINE
  5
160
330
1F
100
AcDbEntity
  8
0
  6
Continuous
 62
     7
370
     0
100
AcDbLine
 10
1044.100058543271
 20
362.55
 30
0.0
 11
1028.25
 21
362.55
 31
0.0
  0
LINE
  5
161
330
1F
100
AcDbEntity
  8
0
  6
Continuous
 62
     7
370
     0
100
AcDbLine
 10
998.2499999999999
 20
362.55
 30
0.0
 11
818.2499999999999
 21
362.55
 31
0.0
  0
LINE
  5
162
330
1F
100
AcDbEntity
  8
0
  6
Continuous
 62
     7
370
     0
100
AcDbLine
 10
788.2499999999999
 20
362.55
 30
0.0
 11
550.2519047187146
 21
362.55
 31
0.0
  0
LINE
  5
163
330
1F
100
AcDbEntity
  8
0
  6
Continuous
 62
     7
370
     0
100
AcDbLine
 10
1063.25
 20
362.55
 30
0.0
 11
1063.25
 21
360.25
 31
0.0
  0
LINE
  5
164
330
1F
100
AcDbEntity
  8
0
  6
Continuous
 62
     7
370
     0
100
AcDbLine
 10
1061.25
 20
362.55
 30
0.0
 11
1063.25
 21
362.55
 31
0.0
  0
LINE
  5
165
330
1F
100
AcDbEntity
  8
0
  6
Continuous
 62
     7
370
     0
100
AcDbLine
 10
1063.25
 20
360.2499999999999
 30
0.0
 11
1061.25
 21
360.2499999999999
 31
0.0
  0
LINE
  5
166
330
1F
100
AcDbEntity
  8
0
  6
Continuous
 62
     7
370
     0
100
AcDbLine
 10
1061.25
 20
391.95
 30
0.0
 11
1061.25
 21
394.25
 31
0.0
  0
LINE
  5
167
330
1F
100
AcDbEntity
  8
0
  6
Continuous
 62
     7
370
     0
100
AcDbLine
 10
1061.25
 20
391.95
 30
0.0
 11
1028.25
 21
391.95
 31
0.0
  0
LINE
  5
168
330
1F
100
AcDbEntity
  8
0
  6
Continuous
 62
     7
370
     0
100
AcDbLine
 10
998.2499999999999
 20
391.95
 30
0.0
 11
818.2499999999999
 21
391.95
 31
0.0
  0
LINE
  5
169
330
1F
100
AcDbEntity
  8
0
  6
Continuous
 62
     7
370
     0
100
AcDbLine
 10
788.2499999999999
 20
391.95
 30
0.0
 11
772.3999414567293
 21
391.95
 31
0.0
  0
LINE
  5
16A
330
1F
100
AcDbEntity
  8
0
  6
Continuous
 62
     7
370
     0
100
AcDbLine
 10
767.1000585432705
 20
391.95
 30
0.0
 11
550.2519047187149
 21
391.95
 31
0.0
  0
LINE
  5
16B
330
1F
100
AcDbEntity
  8
0
  6
Continuous
 62
     7
370
     0
100
AcDbLine
 10
1061.25
 20
394.25
 30
0.0
 11
1028.25
 21
394.25
 31
0.0
  0
LINE
  5
16C
330
1F
100
AcDbEntity
  8
0
  6
Continuous
 62
     7
370
     0
100
AcDbLine
 10
998.2499999999999
 20
394.25
 30
0.0
 11
818.2499999999999
 21
394.25
 31
0.0
  0
LINE
  5
16D
330
1F
100
AcDbEntity
  8
0
  6
Continuous
 62
     7
370
     0
100
AcDbLine
 10
788.2499999999999
 20
394.25
 30
0.0
 11
549.3748100299563
 21
394.25
 31
0.0
  0
LINE
  5
16E
330
1F
100
AcDbEntity
  8
0
  6
Continuous
 62
     7
370
     0
100
AcDbLine
 10
1063.25
 20
394.25
 30
0.0
 11
1063.25
 21
391.95
 31
0.0
  0
LINE
  5
16F
330
1F
100
AcDbEntity
  8
0
  6
Continuous
 62
     7
370
     0
100
AcDbLine
 10
1063.25
 20
391.95
 30
0.0
 11
1061.25
 21
391.95
 31
0.0
  0
LINE
  5
170
330
1F
100
AcDbEntity
  8
0
  6
Continuous
 62
     7
370
     0
100
AcDbLine
 10
1061.25
 20
394.25
 30
0.0
 11
1063.25
 21
394.25
 31
0.0
  0
CIRCLE
  5
171
330
1F
100
AcDbEntity
  8
0
  6
Continuous
 62
     7
370
     0
100
AcDbCircle
 10
558.2499999999999
 20
377.2500000000001
 30
0.0
 40
5.100000000000104
  0
LINE
  5
172
330
1F
100
AcDbEntity
  8
0
  6
Continuous
 62
     7
370
     0
100
AcDbLine
 10
919.2500000000001
 20
371.75
 30
0.0
 11
998.2500000000002
 21
371.75
 31
0.0
  0
LINE
  5
173
330
1F
100
AcDbEntity
  8
0
  6
DOT
 62
     7
370
     0
100
AcDbLine
 10
1048.25
 20
373.5757653858253
 30
0.0
 11
1048.25
 21
380.9242346141748
 31
0.0
  0
LINE
  5
174
330
1F
100
AcDbEntity
  8
0
  6
Continuous
 62
     7
370
     0
100
AcDbLine
 10
998.2499999999999
 20
382.75
 30
0.0
 11
919.2499999999998
 21
382.75
 31
0.0
  0
ARC
  5
175
330
1F
100
AcDbEntity
  8
0
  6
Continuous
 62
     7
370
     0
100
AcDbCircle
 10
919.2500000000001
 20
381.75
 30
0.0
 40
0.9999999999998899
100
AcDbArc
 50
90.0
 51
179.9999999999998
  0
LINE
  5
176
330
1F
100
AcDbEntity
  8
0
  6
Continuous
 62
     7
370
     0
100
AcDbLine
 10
918.2499999999998
 20
381.75
 30
0.0
 11
918.2499999999998
 21
372.75
 31
0.0
  0
ARC
  5
177
330
1F
100
AcDbEntity
  8
0
  6
Continuous
 62
     7
370
     0
100
AcDbCircle
 10
919.2500000000001
 20
372.75
 30
0.0
 40
0.9999999999998899
100
AcDbArc
 50
180.0
 51
270.0
  0
LINE
  5
178
330
1F
100
AcDbEntity
  8
0
  6
Continuous
 62
     7
370
     0
100
AcDbLine
 10
821.75
 20
381.75
 30
0.0
 11
821.75
 21
372.75
 31
0.0
  0
ARC
  5
179
330
1F
100
AcDbEntity
  8
0
  6
Continuous
 62
     7
370
     0
100
AcDbCircle
 10
822.7499999999999
 20
372.75
 30
0.0
 40
0.9999999999998899
100
AcDbArc
 50
180.0
 51
270.0
  0
LINE
  5
17A
330
1F
100
AcDbEntity
  8
0
  6
Continuous
 62
     7
370
     0
100
AcDbLine
 10
822.7499999999999
 20
371.75
 30
0.0
 11
833.7499999999999
 21
371.75
 31
0.0
  0
ARC
  5
17B
330
1F
100
AcDbEntity
  8
0
  6
Continuous
 62
     7
370
     0
100
AcDbCircle
 10
833.75
 20
372.75
 30
0.0
 40
0.9999999999998899
100
AcDbArc
 50
270.0
 51
0.0
  0
LINE
  5
17C
330
1F
100
AcDbEntity
  8
0
  6
Continuous
 62
     7
370
     0
100
AcDbLine
 10
834.7499999999999
 20
372.75
 30
0.0
 11
834.7499999999999
 21
381.75
 31
0.0
  0
ARC
  5
17D
330
1F
100
AcDbEntity
  8
0
  6
Continuous
 62
     7
370
     0
100
AcDbCircle
 10
833.75
 20
381.75
 30
0.0
 40
0.9999999999998899
100
AcDbArc
 50
0.0
 51
90.0
  0
LINE
  5
17E
330
1F
100
AcDbEntity
  8
0
  6
Continuous
 62
     7
370
     0
100
AcDbLine
 10
833.75
 20
382.75
 30
0.0
 11
822.75
 21
382.75
 31
0.0
  0
ARC
  5
17F
330
1F
100
AcDbEntity
  8
0
  6
Continuous
 62
     7
370
     0
100
AcDbCircle
 10
822.7499999999999
 20
381.75
 30
0.0
 40
0.9999999999998899
100
AcDbArc
 50
90.0
 51
179.9999999999999
  0
LINE
  5
180
330
1F
100
AcDbEntity
  8
0
  6
Continuous
 62
     7
370
     0
100
AcDbLine
 10
1063.25
 20
391.95
 30
0.0
 11
1063.25
 21
362.55
 31
0.0
  0
LINE
  5
181
330
1F
100
AcDbEntity
  8
0
  6
Continuous
 62
     7
370
     0
100
AcDbLine
 10
791.25
 20
523.2499999998926
 30
0.0
 11
788.2500000000001
 21
523.2499999998926
 31
0.0
  0
LINE
  5
182
330
1F
100
AcDbEntity
  8
0
  6
Continuous
 62
     7
370
     0
100
AcDbLine
 10
788.2499999999999
 20
523.2499999998926
 30
0.0
 11
788.2499999999999
 21
525.8499999998925
 31
0.0
  0
LINE
  5
183
330
1F
100
AcDbEntity
  8
0
  6
Continuous
 62
     7
370
     0
100
AcDbLine
 10
788.2499999999999
 20
525.8499999998925
 30
0.0
 11
791.2499999999998
 21
525.8499999998925
 31
0.0
  0
LINE
  5
184
330
1F
100
AcDbEntity
  8
0
  6
Continuous
 62
     7
370
     0
100
AcDbLine
 10
791.25
 20
523.2499999998926
 30
0.0
 11
817.75
 21
523.2499999998926
 31
0.0
  0
LINE
  5
185
330
1F
100
AcDbEntity
  8
0
  6
Continuous
 62
     7
370
     0
100
AcDbLine
 10
817.7499999999998
 20
525.8499999998925
 30
0.0
 11
791.2499999999998
 21
525.8499999998925
 31
0.0
  0
LINE
  5
186
330
1F
100
AcDbEntity
  8
0
  6
Continuous
 62
     7
370
     0
100
AcDbLine
 10
818.2499999999999
 20
525.8499999998925
 30
0.0
 11
818.2499999999999
 21
523.2499999998926
 31
0.0
  0
LINE
  5
187
330
1F
100
AcDbEntity
  8
0
  6
Continuous
 62
     7
370
     0
100
AcDbLine
 10
818.2499999999999
 20
523.2499999998926
 30
0.0
 11
817.7499999999999
 21
523.2499999998926
 31
0.0
  0
LINE
  5
188
330
1F
100
AcDbEntity
  8
0
  6
Continuous
 62
     7
370
     0
100
AcDbLine
 10
817.7499999999998
 20
525.8499999998925
 30
0.0
 11
818.2499999999998
 21
525.8499999998925
 31
0.0
  0
LINE
  5
189
330
1F
100
AcDbEntity
  8
0
  6
Continuous
 62
     7
370
     0
100
AcDbLine
 10
768.8854156504063
 20
511.9499999998924
 30
0.0
 11
766.75
 21
511.9499999998924
 31
0.0
  0
LINE
  5
18A
330
1F
100
AcDbEntity
  8
0
  6
Continuous
 62
     7
370
     0
100
AcDbLine
 10
766.7499999999998
 20
514.9499999998924
 30
0.0
 11
766.7499999999998
 21
511.9499999998924
 31
0.0
  0
LINE
  5
18B
330
1F
100
AcDbEntity
  8
0
  6
Continuous
 62
     7
370
     0
100
AcDbLine
 10
766.7499999999998
 20
514.9499999998924
 30
0.0
 11
768.8854156504061
 21
514.9499999998924
 31
0.0
  0
LINE
  5
18C
330
1F
100
AcDbEntity
  8
0
  6
Continuous
 62
     7
370
     0
100
AcDbLine
 10
772.7499999999998
 20
511.9499999998924
 30
0.0
 11
772.7499999999998
 21
514.9499999998924
 31
0.0
  0
LINE
  5
18D
330
1F
100
AcDbEntity
  8
0
  6
Continuous
 62
     7
370
     0
100
AcDbLine
 10
772.7499999999998
 20
511.9499999998924
 30
0.0
 11
770.6145843495937
 21
511.9499999998924
 31
0.0
  0
LINE
  5
18E
330
1F
100
AcDbEntity
  8
0
  6
Continuous
 62
     7
370
     0
100
AcDbLine
 10
770.6145843495938
 20
514.9499999998924
 30
0.0
 11
772.7499999999999
 21
514.9499999998924
 31
0.0
  0
LINE
  5
18F
330
1F
100
AcDbEntity
  8
0
  6
Continuous
 62
     7
370
     0
100
AcDbLine
 10
768.8854156504063
 20
511.9499999998924
 30
0.0
 11
770.6145843495939
 21
511.9499999998924
 31
0.0
  0
LINE
  5
190
330
1F
100
AcDbEntity
  8
0
  6
Continuous
 62
     7
370
     0
100
AcDbLine
 10
770.6145843495938
 20
514.9499999998924
 30
0.0
 11
768.8854156504062
 21
514.9499999998924
 31
0.0
  0
LINE
  5
191
330
1F
100
AcDbEntity
  8
0
  6
Continuous
 62
     7
370
     0
100
AcDbLine
 10
788.2499999999999
 20
526.2499999998926
 30
0.0
 11
788.2474984355439
 21
526.3499999998924
 31
0.0
  0
LINE
  5
192
330
1F
100
AcDbEntity
  8
0
  6
Continuous
 62
     7
370
     0
100
AcDbLine
 10
788.2499999999999
 20
526.2499999998926
 30
0.0
 11
788.2499999999999
 21
525.8499999998926
 31
0.0
  0
LINE
  5
193
330
1F
100
AcDbEntity
  8
0
  6
Continuous
 62
     7
370
     0
100
AcDbLine
 10
818.2499999999999
 20
525.8499999998925
 30
0.0
 11
818.2499999999999
 21
526.3499999998925
 31
0.0
  0
ARC
  5
194
330
1F
100
AcDbEntity
  8
0
  6
Continuous
 62
     7
370
     0
100
AcDbCircle
 10
-785.2499999999998
 20
526.2499999998926
 30
0.0
 40
2.000000000000002
210
0.0
220
0.0
230
-1.0
100
AcDbArc
 50
0.0000000000001988
 51
23.5781784782018
  0
LINE
  5
195
330
1F
100
AcDbEntity
  8
0
  6
Continuous
 62
     7
370
     0
100
AcDbLine
 10
783.25
 20
503.2499999998925
 30
0.0
 11
783.25
 21
526.2499999998925
 31
0.0
  0
ARC
  5
196
330
1F
100
AcDbEntity
  8
0
  6
Continuous
 62
     7
370
     0
100
AcDbCircle
 10
-788.2499999999999
 20
503.2499999998925
 30
0.0
 40
4.999999999999893
210
0.0
220
0.0
230
-1.0
100
AcDbArc
 50
270.0
 51
0.0
  0
LINE
  5
197
330
1F
100
AcDbEntity
  8
0
  6
Continuous
 62
     7
370
     0
100
AcDbLine
 10
805.6519237886465
 20
498.2499999998925
 30
0.0
 11
788.2499999999999
 21
498.2499999998925
 31
0.0
  0
ARC
  5
198
330
1F
100
AcDbEntity
  8
0
  6
Continuous
 62
     7
370
     0
100
AcDbCircle
 10
805.6519237886465
 20
493.2499999998925
 30
0.0
 40
5.000000000000115
100
AcDbArc
 50
59.99999999999994
 51
90.0
  0
LINE
  5
199
330
1F
100
AcDbEntity
  8
0
  6
Continuous
 62
     7
370
     0
100
AcDbLine
 10
816.7499999999999
 20
492.616025403677
 30
0.0
 11
808.1519237886466
 21
497.5801270188148
 31
0.0
  0
ARC
  5
19A
330
1F
100
AcDbEntity
  8
0
  6
Continuous
 62
     7
370
     0
100
AcDbCircle
 10
815.2499999999998
 20
490.0179491923236
 30
0.0
 40
3.000000000000114
100
AcDbArc
 50
0.000000000000265
 51
59.99999999999996
  0
LINE
  5
19B
330
1F
100
AcDbEntity
  8
0
  6
Continuous
 62
     7
370
     0
100
AcDbLine
 10
818.2499999999999
 20
487.5499999998925
 30
0.0
 11
818.2499999999999
 21
490.0179491923236
 31
0.0
  0
LINE
  5
19C
330
1F
100
AcDbEntity
  8
0
  6
Continuous
 62
     7
370
     0
100
AcDbLine
 10
758.2500000000001
 20
527.0499999998925
 30
0.0
 11
758.2500000000001
 21
487.5499999998925
 31
0.0
  0
CIRCLE
  5
19D
330
1F
100
AcDbEntity
  8
0
  6
Continuous
 62
     7
370
     0
100
AcDbCircle
 10
770.2499999999999
 20
499.7499999998925
 30
0.0
 40
4.499999999999948
  0
CIRCLE
  5
19E
330
1F
100
AcDbEntity
  8
0
  6
Continuous
 62
     7
370
     0
100
AcDbCircle
 10
769.7499999999999
 20
519.7499999998925
 30
0.0
 40
3.149999999999986
  0
ARC
  5
19F
330
1F
100
AcDbEntity
  8
0
  6
Continuous
 62
     7
370
     0
100
AcDbCircle
 10
-786.2499999999999
 20
526.2499999998926
 30
0.0
 40
2.000000000000002
210
0.0
220
0.0
230
-1.0
100
AcDbArc
 50
156.4218215217981
 51
177.1340160174009
  0
LINE
  5
1A0
330
1F
100
AcDbEntity
  8
0
  6
Continuous
 62
     7
370
     0
100
AcDbLine
 10
818.2499999999999
 20
526.3499999998925
 30
0.0
 11
818.2499999999999
 21
527.0499999998925
 31
0.0
  0
LINE
  5
1A1
330
1F
100
AcDbEntity
  8
0
  6
Continuous
 62
     7
370
     0
100
AcDbLine
 10
818.2499999999999
 20
487.5499999998925
 30
0.0
 11
818.2499999999999
 21
484.7499999998925
 31
0.0
  0
LINE
  5
1A2
330
1F
100
AcDbEntity
  8
0
  6
Continuous
 62
     7
370
     0
100
AcDbLine
 10
818.2499999999999
 20
484.7499999998925
 30
0.0
 11
758.25
 21
484.7499999998925
 31
0.0
  0
LINE
  5
1A3
330
1F
100
AcDbEntity
  8
0
  6
Continuous
 62
     7
370
     0
100
AcDbLine
 10
758.2500000000001
 20
484.7499999998925
 30
0.0
 11
758.2500000000001
 21
487.5499999998925
 31
0.0
  0
LINE
  5
1A4
330
1F
100
AcDbEntity
  8
0
  6
Continuous
 62
     7
370
     0
100
AcDbLine
 10
1028.25
 20
525.8499999998925
 30
0.0
 11
1028.25
 21
523.2499999998926
 31
0.0
  0
LINE
  5
1A5
330
1F
100
AcDbEntity
  8
0
  6
Continuous
 62
     7
370
     0
100
AcDbLine
 10
1028.25
 20
523.2499999998926
 30
0.0
 11
1025.25
 21
523.2499999998926
 31
0.0
  0
LINE
  5
1A6
330
1F
100
AcDbEntity
  8
0
  6
Continuous
 62
     7
370
     0
100
AcDbLine
 10
1025.25
 20
525.8499999998925
 30
0.0
 11
1028.25
 21
525.8499999998925
 31
0.0
  0
LINE
  5
1A7
330
1F
100
AcDbEntity
  8
0
  6
Continuous
 62
     7
370
     0
100
AcDbLine
 10
998.7499999999998
 20
525.8499999998925
 30
0.0
 11
1025.25
 21
525.8499999998925
 31
0.0
  0
LINE
  5
1A8
330
1F
100
AcDbEntity
  8
0
  6
Continuous
 62
     7
370
     0
100
AcDbLine
 10
1025.25
 20
523.2499999998926
 30
0.0
 11
998.75
 21
523.2499999998926
 31
0.0
  0
LINE
  5
1A9
330
1F
100
AcDbEntity
  8
0
  6
Continuous
 62
     7
370
     0
100
AcDbLine
 10
998.2499999999999
 20
523.2499999998926
 30
0.0
 11
998.2499999999999
 21
525.8499999998925
 31
0.0
  0
LINE
  5
1AA
330
1F
100
AcDbEntity
  8
0
  6
Continuous
 62
     7
370
     0
100
AcDbLine
 10
998.2499999999999
 20
525.8499999998925
 30
0.0
 11
998.7499999999999
 21
525.8499999998925
 31
0.0
  0
LINE
  5
1AB
330
1F
100
AcDbEntity
  8
0
  6
Continuous
 62
     7
370
     0
100
AcDbLine
 10
998.7499999999998
 20
523.2499999998926
 30
0.0
 11
998.2499999999998
 21
523.2499999998926
 31
0.0
  0
LINE
  5
1AC
330
1F
100
AcDbEntity
  8
0
  6
Continuous
 62
     7
370
     0
100
AcDbLine
 10
1028.25
 20
526.2499999998926
 30
0.0
 11
1028.252501564456
 21
526.3499999998922
 31
0.0
  0
LINE
  5
1AD
330
1F
100
AcDbEntity
  8
0
  6
Continuous
 62
     7
370
     0
100
AcDbLine
 10
1028.25
 20
526.2499999998926
 30
0.0
 11
1028.25
 21
525.8499999998926
 31
0.0
  0
LINE
  5
1AE
330
1F
100
AcDbEntity
  8
0
  6
Continuous
 62
     7
370
     0
100
AcDbLine
 10
998.2499999999999
 20
525.8499999998925
 30
0.0
 11
998.2499999999999
 21
526.3499999998925
 31
0.0
  0
LINE
  5
1AF
330
1F
100
AcDbEntity
  8
0
  6
Continuous
 62
     7
370
     0
100
AcDbLine
 10
998.2499999999999
 20
484.7499999998925
 30
0.0
 11
1058.25
 21
484.7499999998925
 31
0.0
  0
LINE
  5
1B0
330
1F
100
AcDbEntity
  8
0
  6
Continuous
 62
     7
370
     0
100
AcDbLine
 10
998.2499999999999
 20
487.5499999998925
 30
0.0
 11
998.2499999999999
 21
484.7499999998925
 31
0.0
  0
LINE
  5
1B1
330
1F
100
AcDbEntity
  8
0
  6
Continuous
 62
     7
370
     0
100
AcDbLine
 10
1058.25
 20
484.7499999998925
 30
0.0
 11
1058.25
 21
487.5499999998925
 31
0.0
  0
CIRCLE
  5
1B2
330
1F
100
AcDbEntity
  8
0
  6
Continuous
 62
     7
370
     0
100
AcDbCircle
 10
-1046.75
 20
519.7499999998925
 30
0.0
 40
3.40000000000007
210
0.0
220
0.0
230
-1.0
  0
LINE
  5
1B3
330
1F
100
AcDbEntity
  8
0
  6
Continuous
 62
     7
370
     0
100
AcDbLine
 10
998.2499999999999
 20
487.5499999998925
 30
0.0
 11
998.2499999999999
 21
490.0179491923236
 31
0.0
  0
ARC
  5
1B4
330
1F
100
AcDbEntity
  8
0
  6
Continuous
 62
     7
370
     0
100
AcDbCircle
 10
-1001.25
 20
490.0179491923236
 30
0.0
 40
3.000000000000114
210
0.0
220
0.0
230
-1.0
100
AcDbArc
 50
0.000000000000265
 51
59.99999999999996
  0
LINE
  5
1B5
330
1F
100
AcDbEntity
  8
0
  6
Continuous
 62
     7
370
     0
100
AcDbLine
 10
999.7499999999999
 20
492.616025403677
 30
0.0
 11
1008.348076211353
 21
497.5801270188148
 31
0.0
  0
ARC
  5
1B6
330
1F
100
AcDbEntity
  8
0
  6
Continuous
 62
     7
370
     0
100
AcDbCircle
 10
-1010.848076211353
 20
493.2499999998925
 30
0.0
 40
4.999999999999893
210
0.0
220
0.0
230
-1.0
100
AcDbArc
 50
60.0
 51
90.0
  0
LINE
  5
1B7
330
1F
100
AcDbEntity
  8
0
  6
Continuous
 62
     7
370
     0
100
AcDbLine
 10
1010.848076211353
 20
498.2499999998925
 30
0.0
 11
1028.25
 21
498.2499999998925
 31
0.0
  0
ARC
  5
1B8
330
1F
100
AcDbEntity
  8
0
  6
Continuous
 62
     7
370
     0
100
AcDbCircle
 10
1028.25
 20
503.2499999998925
 30
0.0
 40
5.000000000000115
100
AcDbArc
 50
270.0
 51
0.0
  0
LINE
  5
1B9
330
1F
100
AcDbEntity
  8
0
  6
Continuous
 62
     7
370
     0
100
AcDbLine
 10
1033.25
 20
503.2499999998925
 30
0.0
 11
1033.25
 21
526.2499999998925
 31
0.0
  0
ARC
  5
1BA
330
1F
100
AcDbEntity
  8
0
  6
Continuous
 62
     7
370
     0
100
AcDbCircle
 10
1031.25
 20
526.2499999998926
 30
0.0
 40
2.000000000000224
100
AcDbArc
 50
0.0000000000001988
 51
23.57817847820198
  0
CIRCLE
  5
1BB
330
1F
100
AcDbEntity
  8
0
  6
Continuous
 62
     7
370
     0
100
AcDbCircle
 10
-1046.25
 20
499.7499999998925
 30
0.0
 40
4.500000000000171
210
0.0
220
0.0
230
-1.0
  0
LINE
  5
1BC
330
1F
100
AcDbEntity
  8
0
  6
Continuous
 62
     7
370
     0
100
AcDbLine
 10
1058.25
 20
527.0499999998925
 30
0.0
 11
1058.25
 21
487.5499999998925
 31
0.0
  0
ARC
  5
1BD
330
1F
100
AcDbEntity
  8
0
  6
Continuous
 62
     7
370
     0
100
AcDbCircle
 10
1030.25
 20
526.2499999998926
 30
0.0
 40
1.99999999999978
100
AcDbArc
 50
156.4218215217979
 51
177.134016017401
  0
LINE
  5
1BE
330
1F
100
AcDbEntity
  8
0
  6
Continuous
 62
     7
370
     0
100
AcDbLine
 10
998.2499999999999
 20
526.3499999998925
 30
0.0
 11
998.2499999999999
 21
527.0499999998925
 31
0.0
  0
ARC
  5
1BF
330
1F
100
AcDbEntity
  8
0
  6
Continuous
 62
     7
370
     0
100
AcDbCircle
 10
1030.25
 20
526.2499999998926
 30
0.0
 40
1.99999999999978
100
AcDbArc
 50
177.1340160174009
 51
179.9999999999996
  0
CIRCLE
  5
1C0
330
1F
100
AcDbEntity
  8
0
  6
Continuous
 62
     7
370
     0
100
AcDbCircle
 10
-1046.75
 20
519.7499999998925
 30
0.0
 40
3.149999999999986
210
0.0
220
0.0
230
-1.0
  0
LINE
  5
1C1
330
1F
100
AcDbEntity
  8
0
  6
Continuous
 62
     7
370
     0
100
AcDbLine
 10
1016.250000000003
 20
474.7500000003735
 30
0.0
 11
1009.750000000003
 21
474.7500000001331
 31
0.0
  0
LINE
  5
1C2
330
1F
100
AcDbEntity
  8
0
  6
Continuous
 62
     7
370
     0
100
AcDbLine
 10
1016.250000000003
 20
474.7500000003735
 30
0.0
 11
1016.250000000003
 21
470.093759570904
 31
0.0
  0
ARC
  5
1C3
330
1F
100
AcDbEntity
  8
0
  6
Continuous
 62
     7
370
     0
100
AcDbCircle
 10
1012.838914286448
 20
476.5515393129706
 30
0.0
 40
7.3033160237157
100
AcDbArc
 50
271.2638478201083
 51
297.8436139040138
  0
ARC
  5
1C4
330
1F
100
AcDbEntity
  8
0
  6
Continuous
 62
     7
370
     0
100
AcDbCircle
 10
1013.179157772219
 20
476.6211494178678
 30
0.0
 40
7.373326335117669
100
AcDbArc
 50
242.284853513992
 51
268.6076847698434
  0
LINE
  5
1C5
330
1F
100
AcDbEntity
  8
0
  6
Continuous
 62
     7
370
     0
100
AcDbLine
 10
1009.750000000003
 20
474.750000000133
 30
0.0
 11
1009.750000000003
 21
470.0937595706629
 31
0.0
  0
LINE
  5
1C6
330
1F
100
AcDbEntity
  8
0
  6
Continuous
 62
     7
370
     0
100
AcDbLine
 10
1019.500000000003
 20
469.2499999998925
 30
0.0
 11
1013.000000000003
 21
469.2499999998925
 31
0.0
  0
ARC
  5
1C7
330
1F
100
AcDbEntity
  8
0
  6
Continuous
 62
     7
370
     0
100
AcDbCircle
 10
1019.6791577728
 20
476.6211494182437
 30
0.0
 40
7.373326335507802
100
AcDbArc
 50
242.2848535104804
 51
268.6076847653978
  0
LINE
  5
1C8
330
1F
100
AcDbEntity
  8
0
  6
Continuous
 62
     7
370
     0
100
AcDbLine
 10
1022.750000000003
 20
474.750000000133
 30
0.0
 11
1016.250000000003
 21
474.7500000003734
 31
0.0
  0
LINE
  5
1C9
330
1F
100
AcDbEntity
  8
0
  6
Continuous
 62
     7
370
     0
100
AcDbLine
 10
1022.750000000003
 20
474.750000000133
 30
0.0
 11
1022.750000000003
 21
470.0937595706635
 31
0.0
  0
ARC
  5
1CA
330
1F
100
AcDbEntity
  8
0
  6
Continuous
 62
     7
370
     0
100
AcDbCircle
 10
1019.338914287017
 20
476.5515393126198
 30
0.0
 40
7.303316023352657
100
AcDbArc
 50
271.2638478157046
 51
297.8436139004689
  0
LINE
  5
1CB
330
1F
100
AcDbEntity
  8
0
  6
Continuous
 62
     7
370
     0
100
AcDbLine
 10
1022.750000000003
 20
470.0937595706635
 30
0.0
 11
1022.750000000003
 21
469.2499999998924
 31
0.0
  0
LINE
  5
1CC
330
1F
100
AcDbEntity
  8
0
  6
Continuous
 62
     7
370
     0
100
AcDbLine
 10
1022.750000000003
 20
469.2499999998925
 30
0.0
 11
1019.500000000003
 21
469.2499999998925
 31
0.0
  0
LINE
  5
1CD
330
1F
100
AcDbEntity
  8
0
  6
Continuous
 62
     7
370
     0
100
AcDbLine
 10
1009.750000000003
 20
469.2499999998925
 30
0.0
 11
1009.750000000003
 21
470.093759570663
 31
0.0
  0
LINE
  5
1CE
330
1F
100
AcDbEntity
  8
0
  6
Continuous
 62
     7
370
     0
100
AcDbLine
 10
1013.000000000003
 20
469.2499999998925
 30
0.0
 11
1009.750000000004
 21
469.2499999998925
 31
0.0
  0
LINE
  5
1CF
330
1F
100
AcDbEntity
  8
0
  6
Continuous
 62
     7
370
     0
100
AcDbLine
 10
1020.250000000003
 20
513.5499999998902
 30
0.0
 11
1012.250000000003
 21
513.5499999998902
 31
0.0
  0
LINE
  5
1D0
330
1F
100
AcDbEntity
  8
0
  6
Continuous
 62
     7
370
     0
100
AcDbLine
 10
1013.450000000003
 20
514.7499999998902
 30
0.0
 11
1019.050000000003
 21
514.7499999998902
 31
0.0
  0
LINE
  5
1D1
330
1F
100
AcDbEntity
  8
0
  6
Continuous
 62
     7
370
     0
100
AcDbLine
 10
800.2499999999957
 20
474.7500000003739
 30
0.0
 11
793.7499999999957
 21
474.750000000133
 31
0.0
  0
LINE
  5
1D2
330
1F
100
AcDbEntity
  8
0
  6
Continuous
 62
     7
370
     0
100
AcDbLine
 10
800.2499999999957
 20
474.7500000003739
 30
0.0
 11
800.2499999999957
 21
470.0937595709044
 31
0.0
  0
ARC
  5
1D3
330
1F
100
AcDbEntity
  8
0
  6
Continuous
 62
     7
370
     0
100
AcDbCircle
 10
796.8389142864401
 20
476.551539312973
 30
0.0
 40
7.303316023717921
100
AcDbArc
 50
271.2638478201128
 51
297.8436139040115
  0
ARC
  5
1D4
330
1F
100
AcDbEntity
  8
0
  6
Continuous
 62
     7
370
     0
100
AcDbCircle
 10
797.1791577722119
 20
476.6211494178679
 30
0.0
 40
7.373326335117447
100
AcDbArc
 50
242.284853513992
 51
268.6076847698434
  0
LINE
  5
1D5
330
1F
100
AcDbEntity
  8
0
  6
Continuous
 62
     7
370
     0
100
AcDbLine
 10
793.7499999999957
 20
474.750000000133
 30
0.0
 11
793.7499999999957
 21
470.0937595706635
 31
0.0
  0
LINE
  5
1D6
330
1F
100
AcDbEntity
  8
0
  6
Continuous
 62
     7
370
     0
100
AcDbLine
 10
806.7499999999958
 20
474.750000000133
 30
0.0
 11
800.2499999999958
 21
474.7500000003739
 31
0.0
  0
LINE
  5
1D7
330
1F
100
AcDbEntity
  8
0
  6
Continuous
 62
     7
370
     0
100
AcDbLine
 10
806.7499999999958
 20
474.750000000133
 30
0.0
 11
806.7499999999958
 21
470.0937595706635
 31
0.0
  0
ARC
  5
1D8
330
1F
100
AcDbEntity
  8
0
  6
Continuous
 62
     7
370
     0
100
AcDbCircle
 10
803.3389142870086
 20
476.5515393126255
 30
0.0
 40
7.303316023357986
100
AcDbArc
 50
271.2638478157136
 51
297.8436139004574
  0
ARC
  5
1D9
330
1F
100
AcDbEntity
  8
0
  6
Continuous
 62
     7
370
     0
100
AcDbCircle
 10
803.6791577727953
 20
476.6211494182505
 30
0.0
 40
7.373326335514019
100
AcDbArc
 50
242.284853510491
 51
268.6076847653839
  0
LINE
  5
1DA
330
1F
100
AcDbEntity
  8
0
  6
Continuous
 62
     7
370
     0
100
AcDbLine
 10
803.4999999999955
 20
469.2499999998925
 30
0.0
 11
796.9999999999957
 21
469.2499999998925
 31
0.0
  0
LINE
  5
1DB
330
1F
100
AcDbEntity
  8
0
  6
Continuous
 62
     7
370
     0
100
AcDbLine
 10
806.7499999999958
 20
470.0937595706635
 30
0.0
 11
806.7499999999958
 21
469.2499999998924
 31
0.0
  0
LINE
  5
1DC
330
1F
100
AcDbEntity
  8
0
  6
Continuous
 62
     7
370
     0
100
AcDbLine
 10
806.7499999999952
 20
469.2499999998925
 30
0.0
 11
803.4999999999957
 21
469.2499999998925
 31
0.0
  0
LINE
  5
1DD
330
1F
100
AcDbEntity
  8
0
  6
Continuous
 62
     7
370
     0
100
AcDbLine
 10
793.7499999999957
 20
469.2499999998925
 30
0.0
 11
793.7499999999957
 21
470.0937595706635
 31
0.0
  0
LINE
  5
1DE
330
1F
100
AcDbEntity
  8
0
  6
Continuous
 62
     7
370
     0
100
AcDbLine
 10
796.9999999999959
 20
469.2499999998925
 30
0.0
 11
793.7499999999965
 21
469.2499999998925
 31
0.0
  0
LINE
  5
1DF
330
1F
100
AcDbEntity
  8
0
  6
Continuous
 62
     7
370
     0
100
AcDbLine
 10
804.2499999999955
 20
513.5499999998895
 30
0.0
 11
796.2499999999962
 21
513.5499999998895
 31
0.0
  0
LINE
  5
1E0
330
1F
100
AcDbEntity
  8
0
  6
Continuous
 62
     7
370
     0
100
AcDbLine
 10
797.4499999999957
 20
514.7499999998895
 30
0.0
 11
803.0499999999954
 21
514.7499999998895
 31
0.0
  0
LINE
  5
1E1
330
1F
100
AcDbEntity
  8
0
  6
Continuous
 62
     7
370
     0
100
AcDbLine
 10
496.7499999999998
 20
519.2418113348333
 30
0.0
 11
496.7499999999998
 21
513.1778273000928
 31
0.0
  0
LINE
  5
1E2
330
1F
100
AcDbEntity
  8
0
  6
Continuous
 62
     7
370
     0
100
AcDbLine
 10
519.7499999999999
 20
519.2418113348333
 30
0.0
 11
519.7499999999999
 21
513.1778273000933
 31
0.0
  0
LINE
  5
1E3
330
1F
100
AcDbEntity
  8
0
  6
Continuous
 62
     7
370
     0
100
AcDbLine
 10
496.7499999999998
 20
522.248869329876
 30
0.0
 11
496.7499999999998
 21
519.2418113348333
 31
0.0
  0
LINE
  5
1E4
330
1F
100
AcDbEntity
  8
0
  6
Continuous
 62
     7
370
     0
100
AcDbLine
 10
519.7499999999999
 20
522.248869329876
 30
0.0
 11
519.7499999999999
 21
519.2418113348333
 31
0.0
  0
LINE
  5
1E5
330
1F
100
AcDbEntity
  8
0
  6
Continuous
 62
     7
370
     0
100
AcDbLine
 10
496.7499999999998
 20
527.0499999998925
 30
0.0
 11
496.7499999999998
 21
522.248869329876
 31
0.0
  0
LINE
  5
1E6
330
1F
100
AcDbEntity
  8
0
  6
Continuous
 62
     7
370
     0
100
AcDbLine
 10
519.7499999999999
 20
527.0499999998925
 30
0.0
 11
519.7499999999999
 21
522.248869329876
 31
0.0
  0
LINE
  5
1E7
330
1F
100
AcDbEntity
  8
0
  6
Continuous
 62
     7
370
     0
100
AcDbLine
 10
549.75
 20
442.7499999998925
 30
0.0
 11
466.7499999999999
 21
442.7499999998925
 31
0.0
  0
LINE
  5
1E8
330
1F
100
AcDbEntity
  8
0
  6
Continuous
 62
     7
370
     0
100
AcDbLine
 10
463.7499999999999
 20
482.7499999998924
 30
0.0
 11
508.2499999999999
 21
482.7499999998924
 31
0.0
  0
LINE
  5
1E9
330
1F
100
AcDbEntity
  8
0
  6
Continuous
 62
     7
370
     0
100
AcDbLine
 10
508.2499999999999
 20
482.7499999998924
 30
0.0
 11
552.7499999999999
 21
482.7499999998924
 31
0.0
  0
ARC
  5
1EA
330
1F
100
AcDbEntity
  8
0
  6
Continuous
 62
     7
370
     0
100
AcDbCircle
 10
508.2500000000001
 20
510.7499999998926
 30
0.0
 40
6.499999999997952
100
AcDbArc
 50
88.85972836291987
 51
148.85972836292
  0
LINE
  5
1EB
330
1F
100
AcDbEntity
  8
0
  6
Continuous
 62
     7
370
     0
100
AcDbLine
 10
502.6866251962403
 20
514.111377811572
 30
0.0
 11
504.6273175806614
 21
517.3233937521479
 31
0.0
  0
LINE
  5
1EC
330
1F
100
AcDbEntity
  8
0
  6
Continuous
 62
     7
370
     0
100
AcDbLine
 10
504.6273175806613
 20
517.3233937521479
 30
0.0
 11
508.3793511747518
 21
517.2487128165625
 31
0.0
  0
ARC
  5
1ED
330
1F
100
AcDbEntity
  8
0
  6
Continuous
 62
     7
370
     0
100
AcDbCircle
 10
508.2500000000001
 20
510.7499999998926
 30
0.0
 40
6.499999999997952
100
AcDbArc
 50
328.8597283629202
 51
28.85972836292024
  0
LINE
  5
1EE
330
1F
100
AcDbEntity
  8
0
  6
Continuous
 62
     7
370
     0
100
AcDbLine
 10
513.9427259785116
 20
513.8873350048831
 30
0.0
 11
515.7540671881808
 21
510.6006381287891
 31
0.0
  0
LINE
  5
1EF
330
1F
100
AcDbEntity
  8
0
  6
Continuous
 62
     7
370
     0
100
AcDbLine
 10
515.7540671881808
 20
510.6006381287891
 30
0.0
 11
513.8133748037598
 21
507.3886221882131
 31
0.0
  0
ARC
  5
1F0
330
1F
100
AcDbEntity
  8
0
  6
Continuous
 62
     7
370
     0
100
AcDbCircle
 10
508.2500000000001
 20
510.7499999998926
 30
0.0
 40
6.499999999997952
100
AcDbArc
 50
28.85972836292022
 51
88.85972836291984
  0
LINE
  5
1F1
330
1F
100
AcDbEntity
  8
0
  6
Continuous
 62
     7
370
     0
100
AcDbLine
 10
512.1313847688422
 20
517.174031881022
 30
0.0
 11
513.9427259785116
 21
513.887335004883
 31
0.0
  0
LINE
  5
1F2
330
1F
100
AcDbEntity
  8
0
  6
Continuous
 62
     7
370
     0
100
AcDbLine
 10
508.3793511747518
 20
517.2487128165625
 30
0.0
 11
512.1313847688422
 21
517.174031881022
 31
0.0
  0
ARC
  5
1F3
330
1F
100
AcDbEntity
  8
0
  6
Continuous
 62
     7
370
     0
100
AcDbCircle
 10
508.2500000000001
 20
510.7499999998926
 30
0.0
 40
6.499999999997952
100
AcDbArc
 50
208.8597283629202
 51
268.8597283629205
  0
LINE
  5
1F4
330
1F
100
AcDbEntity
  8
0
  6
Continuous
 62
     7
370
     0
100
AcDbLine
 10
508.1206488252481
 20
504.2512871832228
 30
0.0
 11
504.3686152311575
 21
504.3259681188079
 31
0.0
  0
LINE
  5
1F5
330
1F
100
AcDbEntity
  8
0
  6
Continuous
 62
     7
370
     0
100
AcDbLine
 10
504.3686152311575
 20
504.325968118808
 30
0.0
 11
502.5572740214883
 21
507.612664994902
 31
0.0
  0
ARC
  5
1F6
330
1F
100
AcDbEntity
  8
0
  6
Continuous
 62
     7
370
     0
100
AcDbCircle
 10
508.2500000000001
 20
510.7499999998926
 30
0.0
 40
6.499999999997952
100
AcDbArc
 50
268.8597283629205
 51
328.8597283629202
  0
LINE
  5
1F7
330
1F
100
AcDbEntity
  8
0
  6
Continuous
 62
     7
370
     0
100
AcDbLine
 10
511.872682419338
 20
504.1766062476812
 30
0.0
 11
508.1206488252481
 21
504.2512871832228
 31
0.0
  0
LINE
  5
1F8
330
1F
100
AcDbEntity
  8
0
  6
Continuous
 62
     7
370
     0
100
AcDbLine
 10
513.8133748037599
 20
507.388622188213
 30
0.0
 11
511.8726824193381
 21
504.1766062476812
 31
0.0
  0
ARC
  5
1F9
330
1F
100
AcDbEntity
  8
0
  6
Continuous
 62
     7
370
     0
100
AcDbCircle
 10
508.2500000000001
 20
510.7499999998926
 30
0.0
 40
6.499999999997952
100
AcDbArc
 50
148.85972836292
 51
208.8597283629203
  0
LINE
  5
1FA
330
1F
100
AcDbEntity
  8
0
  6
Continuous
 62
     7
370
     0
100
AcDbLine
 10
502.5572740214883
 20
507.612664994902
 30
0.0
 11
500.7459328118189
 21
510.899361871041
 31
0.0
  0
LINE
  5
1FB
330
1F
100
AcDbEntity
  8
0
  6
Continuous
 62
     7
370
     0
100
AcDbLine
 10
500.7459328118189
 20
510.899361871041
 30
0.0
 11
502.6866251962402
 21
514.111377811572
 31
0.0
  0
LINE
  5
1FC
330
1F
100
AcDbEntity
  8
0
  6
Continuous
 62
     7
370
     0
100
AcDbLine
 10
506.8480762113534
 20
500.8499999998925
 30
0.0
 11
504.2500000000001
 21
500.8499999998925
 31
0.0
  0
LINE
  5
1FD
330
1F
100
AcDbEntity
  8
0
  6
Continuous
 62
     7
370
     0
100
AcDbLine
 10
504.2499999999998
 20
504.3499999998925
 30
0.0
 11
504.2499999999998
 21
504.2689973081877
 31
0.0
  0
LINE
  5
1FE
330
1F
100
AcDbEntity
  8
0
  6
Continuous
 62
     7
370
     0
100
AcDbLine
 10
504.2499999999998
 20
504.2689973081877
 30
0.0
 11
504.2499999999998
 21
500.8499999998925
 31
0.0
  0
LINE
  5
1FF
330
1F
100
AcDbEntity
  8
0
  6
Continuous
 62
     7
370
     0
100
AcDbLine
 10
511.9774465115556
 20
504.3499999998925
 30
0.0
 11
512.25
 21
504.3499999998925
 31
0.0
  0
LINE
  5
200
330
1F
100
AcDbEntity
  8
0
  6
Continuous
 62
     7
370
     0
100
AcDbLine
 10
512.2499999999999
 20
500.8499999998925
 30
0.0
 11
512.2499999999999
 21
504.3499999998925
 31
0.0
  0
LINE
  5
201
330
1F
100
AcDbEntity
  8
0
  6
Continuous
 62
     7
370
     0
100
AcDbLine
 10
512.2499999999999
 20
500.8499999998925
 30
0.0
 11
509.6519237886465
 21
500.8499999998925
 31
0.0
  0
LINE
  5
202
330
1F
100
AcDbEntity
  8
0
  6
Continuous
 62
     7
370
     0
100
AcDbLine
 10
509.6519237886465
 20
500.8499999998925
 30
0.0
 11
506.8480762113532
 21
500.8499999998925
 31
0.0
  0
LINE
  5
203
330
1F
100
AcDbEntity
  8
0
  6
Continuous
 62
     7
370
     0
100
AcDbLine
 10
521.5000000000001
 20
484.7499999998925
 30
0.0
 11
547.0
 21
484.7499999998925
 31
0.0
  0
ARC
  5
204
330
1F
100
AcDbEntity
  8
0
  6
Continuous
 62
     7
370
     0
100
AcDbCircle
 10
-508.2499999999999
 20
509.7499999998925
 30
0.0
 40
11.99999999999996
210
0.0
220
0.0
230
-1.0
100
AcDbArc
 50
0.0
 51
90.0
  0
ARC
  5
205
330
1F
100
AcDbEntity
  8
0
  6
Continuous
 62
     7
370
     0
100
AcDbCircle
 10
-508.2499999999999
 20
509.7499999998925
 30
0.0
 40
11.99999999999996
210
0.0
220
0.0
230
-1.0
100
AcDbArc
 50
90.0
 51
180.0
  0
LINE
  5
206
330
1F
100
AcDbEntity
  8
0
  6
Continuous
 62
     7
370
     0
100
AcDbLine
 10
520.2499999999999
 20
495.2583072752042
 30
0.0
 11
520.2499999999999
 21
509.7499999998925
 31
0.0
  0
LINE
  5
207
330
1F
100
AcDbEntity
  8
0
  6
Continuous
 62
     7
370
     0
100
AcDbLine
 10
496.25
 20
495.2583072752042
 30
0.0
 11
496.25
 21
509.7499999998925
 31
0.0
  0
LINE
  5
208
330
1F
100
AcDbEntity
  8
0
  6
Continuous
 62
     7
370
     0
100
AcDbLine
 10
520.2499999999999
 20
494.8589164665702
 30
0.0
 11
520.2499999999999
 21
495.2583072752042
 31
0.0
  0
LINE
  5
209
330
1F
100
AcDbEntity
  8
0
  6
Continuous
 62
     7
370
     0
100
AcDbLine
 10
496.25
 20
494.8589164665702
 30
0.0
 11
496.25
 21
495.2583072752042
 31
0.0
  0
LINE
  5
20A
330
1F
100
AcDbEntity
  8
0
  6
Continuous
 62
     7
370
     0
100
AcDbLine
 10
496.25
 20
484.6506091912585
 30
0.0
 11
496.25
 21
494.8589164665702
 31
0.0
  0
LINE
  5
20B
330
1F
100
AcDbEntity
  8
0
  6
Continuous
 62
     7
370
     0
100
AcDbLine
 10
520.2499999999999
 20
484.6506091912585
 30
0.0
 11
520.2499999999999
 21
494.8589164665702
 31
0.0
  0
LINE
  5
20C
330
1F
100
AcDbEntity
  8
0
  6
Continuous
 62
     7
370
     0
100
AcDbLine
 10
496.25
 20
482.7499999998924
 30
0.0
 11
496.25
 21
484.6506091912584
 31
0.0
  0
LINE
  5
20D
330
1F
100
AcDbEntity
  8
0
  6
Continuous
 62
     7
370
     0
100
AcDbLine
 10
520.2499999999999
 20
482.7499999998924
 30
0.0
 11
520.2499999999999
 21
484.6506091912584
 31
0.0
  0
LINE
  5
20E
330
1F
100
AcDbEntity
  8
0
  6
Continuous
 62
     7
370
     0
100
AcDbLine
 10
1063.25
 20
551.7499999998925
 30
0.0
 11
1063.25
 21
529.0499999998925
 31
0.0
  0
LINE
  5
20F
330
1F
100
AcDbEntity
  8
0
  6
Continuous
 62
     7
370
     0
100
AcDbLine
 10
1061.25
 20
527.0499999998925
 30
0.0
 11
1063.25
 21
529.0499999998925
 31
0.0
  0
LINE
  5
210
330
1F
100
AcDbEntity
  8
0
  6
Continuous
 62
     7
370
     0
100
AcDbLine
 10
1061.25
 20
527.0499999998925
 30
0.0
 11
495.2499999999999
 21
527.0499999998925
 31
0.0
  0
LINE
  5
211
330
1F
100
AcDbEntity
  8
0
  6
Continuous
 62
     7
370
     0
100
AcDbLine
 10
493.2499999999998
 20
529.0499999998925
 30
0.0
 11
495.2499999999998
 21
527.0499999998925
 31
0.0
  0
LINE
  5
212
330
1F
100
AcDbEntity
  8
0
  6
Continuous
 62
     7
370
     0
100
AcDbLine
 10
493.2499999999998
 20
551.7499999998925
 30
0.0
 11
493.2499999999998
 21
529.0499999998925
 31
0.0
  0
LINE
  5
213
330
1F
100
AcDbEntity
  8
0
  6
Continuous
 62
     7
370
     0
100
AcDbLine
 10
1063.25
 20
554.0499999998925
 30
0.0
 11
1063.25
 21
551.7499999998925
 31
0.0
  0
LINE
  5
214
330
1F
100
AcDbEntity
  8
0
  6
Continuous
 62
     7
370
     0
100
AcDbLine
 10
1063.25
 20
554.0499999998925
 30
0.0
 11
493.2499999999998
 21
554.0499999998925
 31
0.0
  0
LINE
  5
215
330
1F
100
AcDbEntity
  8
0
  6
Continuous
 62
     7
370
     0
100
AcDbLine
 10
493.2499999999998
 20
554.0499999998925
 30
0.0
 11
493.2499999999998
 21
551.7499999998925
 31
0.0
  0
LINE
  5
216
330
1F
100
AcDbEntity
  8
0
  6
Continuous
 62
     7
370
     0
100
AcDbLine
 10
496.5499999999998
 20
527.0499999998925
 30
0.0
 11
496.5499999999998
 21
526.1165631458921
 31
0.0
  0
LINE
  5
217
330
1F
100
AcDbEntity
  8
0
  6
Continuous
 62
     7
370
     0
100
AcDbLine
 10
494.2499999999998
 20
526.116563145892
 30
0.0
 11
494.2499999999998
 21
527.4582039323917
 31
0.0
  0
LINE
  5
218
330
1F
100
AcDbEntity
  8
0
  6
Continuous
 62
     7
370
     0
100
AcDbLine
 10
519.9499999999999
 20
526.116563145892
 30
0.0
 11
519.9499999999999
 21
527.0499999998924
 31
0.0
  0
LINE
  5
219
330
1F
100
AcDbEntity
  8
0
  6
Continuous
 62
     7
370
     0
100
AcDbLine
 10
522.2499999999999
 20
527.0499999998925
 30
0.0
 11
522.2499999999999
 21
526.1165631458921
 31
0.0
  0
LINE
  5
21A
330
1F
100
AcDbEntity
  8
0
  6
Continuous
 62
     7
370
     0
100
AcDbLine
 10
494.2499999999998
 20
527.4582039323918
 30
0.0
 11
494.2499999999998
 21
528.0499999998925
 31
0.0
  0
LINE
  5
21B
330
1F
100
AcDbEntity
  8
0
  6
Continuous
 62
     7
370
     0
100
AcDbLine
 10
496.5499999999998
 20
526.116563145892
 30
0.0
 11
496.5499999999998
 21
518.4083592133927
 31
0.0
  0
LINE
  5
21C
330
1F
100
AcDbEntity
  8
0
  6
Continuous
 62
     7
370
     0
100
AcDbLine
 10
494.2499999999998
 20
518.4083592133928
 30
0.0
 11
494.2499999999998
 21
526.1165631458921
 31
0.0
  0
LINE
  5
21D
330
1F
100
AcDbEntity
  8
0
  6
Continuous
 62
     7
370
     0
100
AcDbLine
 10
519.9499999999999
 20
518.4083592133928
 30
0.0
 11
519.9499999999999
 21
526.1165631458921
 31
0.0
  0
LINE
  5
21E
330
1F
100
AcDbEntity
  8
0
  6
Continuous
 62
     7
370
     0
100
AcDbLine
 10
522.2499999999999
 20
526.116563145892
 30
0.0
 11
522.2499999999999
 21
518.4083592133927
 31
0.0
  0
LINE
  5
21F
330
1F
100
AcDbEntity
  8
0
  6
Continuous
 62
     7
370
     0
100
AcDbLine
 10
789.2499999999998
 20
555.0499999998925
 30
0.0
 11
778.2499999999998
 21
555.0499999998925
 31
0.0
  0
LINE
  5
220
330
1F
100
AcDbEntity
  8
0
  6
Continuous
 62
     7
370
     0
100
AcDbLine
 10
778.2500000000001
 20
555.0499999998925
 30
0.0
 11
767.2500000000001
 21
555.0499999998925
 31
0.0
  0
LINE
  5
221
330
1F
100
AcDbEntity
  8
0
  6
Continuous
 62
     7
370
     0
100
AcDbLine
 10
1049.25
 20
555.0499999998925
 30
0.0
 11
1027.25
 21
555.0499999998925
 31
0.0
  0
LINE
  5
222
330
1F
100
AcDbEntity
  8
0
  6
Continuous
 62
     7
370
     0
100
AcDbLine
 10
496.5499999999998
 20
516.7499999998925
 30
0.0
 11
494.2499999999998
 21
516.7499999998925
 31
0.0
  0
LINE
  5
223
330
1F
100
AcDbEntity
  8
0
  6
Continuous
 62
     7
370
     0
100
AcDbLine
 10
496.5499999999998
 20
518.4083592133928
 30
0.0
 11
496.5499999999998
 21
516.7499999998926
 31
0.0
  0
LINE
  5
224
330
1F
100
AcDbEntity
  8
0
  6
Continuous
 62
     7
370
     0
100
AcDbLine
 10
494.2499999999998
 20
516.7499999998925
 30
0.0
 11
494.2499999999998
 21
518.4083592133928
 31
0.0
  0
LINE
  5
225
330
1F
100
AcDbEntity
  8
0
  6
Continuous
 62
     7
370
     0
100
AcDbLine
 10
522.2499999999999
 20
516.7499999998925
 30
0.0
 11
519.9499999999999
 21
516.7499999998925
 31
0.0
  0
LINE
  5
226
330
1F
100
AcDbEntity
  8
0
  6
Continuous
 62
     7
370
     0
100
AcDbLine
 10
519.9499999999999
 20
516.7499999998925
 30
0.0
 11
519.9499999999999
 21
518.4083592133928
 31
0.0
  0
LINE
  5
227
330
1F
100
AcDbEntity
  8
0
  6
Continuous
 62
     7
370
     0
100
AcDbLine
 10
522.2499999999999
 20
518.4083592133928
 30
0.0
 11
522.2499999999999
 21
516.7499999998926
 31
0.0
  0
LINE
  5
228
330
1F
100
AcDbEntity
  8
0
  6
Continuous
 62
     7
370
     0
100
AcDbLine
 10
508.2499999999987
 20
564.0454367563027
 30
0.0
 11
508.2499999999987
 21
557.0499999992632
 31
0.0
  0
LINE
  5
229
330
1F
100
AcDbEntity
  8
0
  6
Continuous
 62
     7
370
     0
100
AcDbLine
 10
499.7499999999989
 20
557.0499999995781
 30
0.0
 11
508.2499999999989
 21
557.0499999992633
 31
0.0
  0
LINE
  5
22A
330
1F
100
AcDbEntity
  8
0
  6
Continuous
 62
     7
370
     0
100
AcDbLine
 10
499.7499999999989
 20
564.0454367566174
 30
0.0
 11
499.7499999999989
 21
557.049999999578
 31
0.0
  0
ARC
  5
22B
330
1F
100
AcDbEntity
  8
0
  6
Continuous
 62
     7
370
     0
100
AcDbCircle
 10
-503.9999999995719
 20
552.5181823096237
 30
0.0
 40
12.28576798910447
210
0.0
220
0.0
230
-1.0
100
AcDbArc
 50
69.7615013824931
 51
110.2384986217493
  0
LINE
  5
22C
330
1F
100
AcDbEntity
  8
0
  6
Continuous
 62
     7
370
     0
100
AcDbLine
 10
516.749999999999
 20
564.0454367566174
 30
0.0
 11
516.749999999999
 21
557.049999999578
 31
0.0
  0
LINE
  5
22D
330
1F
100
AcDbEntity
  8
0
  6
Continuous
 62
     7
370
     0
100
AcDbLine
 10
508.2499999999987
 20
557.0499999992633
 30
0.0
 11
516.7499999999989
 21
557.0499999995781
 31
0.0
  0
ARC
  5
22E
330
1F
100
AcDbEntity
  8
0
  6
Continuous
 62
     7
370
     0
100
AcDbCircle
 10
-512.5000000004256
 20
552.5181823096041
 30
0.0
 40
12.28576798912329
210
0.0
220
0.0
230
-1.0
100
AcDbArc
 50
69.76150137828286
 51
110.2384986174748
  0
LINE
  5
22F
330
1F
100
AcDbEntity
  8
0
  6
Continuous
 62
     7
370
     0
100
AcDbLine
 10
499.7499999999989
 20
564.8046261283503
 30
0.0
 11
499.7499999999989
 21
564.0454367566174
 31
0.0
  0
LINE
  5
230
330
1F
100
AcDbEntity
  8
0
  6
Continuous
 62
     7
370
     0
100
AcDbLine
 10
500.1749999999987
 20
565.0499999998925
 30
0.0
 11
516.3249999999987
 21
565.0499999998925
 31
0.0
  0
LINE
  5
231
330
1F
100
AcDbEntity
  8
0
  6
Continuous
 62
     7
370
     0
100
AcDbLine
 10
516.749999999999
 20
564.0454367566174
 30
0.0
 11
516.749999999999
 21
564.8046261302107
 31
0.0
  0
ARC
  5
232
330
1F
100
AcDbEntity
  8
0
  6
Continuous
 62
     7
370
     0
100
AcDbCircle
 10
774.3860111231003
 20
469.4351813545703
 30
0.0
 40
12.3155697104429
100
AcDbArc
 50
90.63277801380826
 51
109.6233799866077
  0
ARC
  5
233
330
1F
100
AcDbEntity
  8
0
  6
Continuous
 62
     7
370
     0
100
AcDbCircle
 10
774.074689060219
 20
469.2151779857002
 30
0.0
 40
12.53604789609097
100
AcDbArc
 50
70.5451235887136
 51
89.19871841087074
  0
LINE
  5
234
330
1F
100
AcDbEntity
  8
0
  6
Continuous
 62
     7
370
     0
100
AcDbLine
 10
778.2500000000001
 20
481.0354688200763
 30
0.0
 11
778.2500000000001
 21
474.0645311797088
 31
0.0
  0
ARC
  5
235
330
1F
100
AcDbEntity
  8
0
  6
Continuous
 62
     7
370
     0
100
AcDbCircle
 10
774.1139888768993
 20
485.6648186452163
 30
0.0
 40
12.31556971044467
100
AcDbArc
 50
270.6327780138095
 51
289.6233799866066
  0
ARC
  5
236
330
1F
100
AcDbEntity
  8
0
  6
Continuous
 62
     7
370
     0
100
AcDbCircle
 10
774.4253109397807
 20
485.8848220140848
 30
0.0
 40
12.53604789609075
100
AcDbArc
 50
250.5451235887136
 51
269.1987184108707
  0
LINE
  5
237
330
1F
100
AcDbEntity
  8
0
  6
Continuous
 62
     7
370
     0
100
AcDbLine
 10
770.2499999999999
 20
481.0354688200763
 30
0.0
 11
770.2499999999999
 21
474.0645311797088
 31
0.0
  0
ARC
  5
238
330
1F
100
AcDbEntity
  8
0
  6
Continuous
 62
     7
370
     0
100
AcDbCircle
 10
782.3860111231003
 20
469.4351813545687
 30
0.0
 40
12.31556971044467
100
AcDbArc
 50
90.63277801380885
 51
109.6233799866064
  0
ARC
  5
239
330
1F
100
AcDbEntity
  8
0
  6
Continuous
 62
     7
370
     0
100
AcDbCircle
 10
782.0746890602193
 20
469.2151779857002
 30
0.0
 40
12.53604789609075
100
AcDbArc
 50
70.5451235887136
 51
89.19871841087074
  0
LINE
  5
23A
330
1F
100
AcDbEntity
  8
0
  6
Continuous
 62
     7
370
     0
100
AcDbLine
 10
786.2499999999999
 20
481.0354688200763
 30
0.0
 11
786.2499999999999
 21
474.0645311797088
 31
0.0
  0
ARC
  5
23B
330
1F
100
AcDbEntity
  8
0
  6
Continuous
 62
     7
370
     0
100
AcDbCircle
 10
782.1139888768995
 20
485.6648186452155
 30
0.0
 40
12.31556971044379
100
AcDbArc
 50
270.6327780138089
 51
289.6233799866073
  0
ARC
  5
23C
330
1F
100
AcDbEntity
  8
0
  6
Continuous
 62
     7
370
     0
100
AcDbCircle
 10
782.4253109397805
 20
485.8848220140848
 30
0.0
 40
12.53604789609075
100
AcDbArc
 50
250.5451235887136
 51
269.198718410871
  0
ARC
  5
23D
330
1F
100
AcDbEntity
  8
0
  6
Continuous
 62
     7
370
     0
100
AcDbCircle
 10
1034.3860111231
 20
469.4351813545687
 30
0.0
 40
12.31556971044445
100
AcDbArc
 50
90.63277801380916
 51
109.6233799866064
  0
ARC
  5
23E
330
1F
100
AcDbEntity
  8
0
  6
Continuous
 62
     7
370
     0
100
AcDbCircle
 10
1034.074689060219
 20
469.215177985702
 30
0.0
 40
12.53604789608898
100
AcDbArc
 50
70.54512358871236
 51
89.1987184108722
  0
LINE
  5
23F
330
1F
100
AcDbEntity
  8
0
  6
Continuous
 62
     7
370
     0
100
AcDbLine
 10
1038.25
 20
481.0354688200763
 30
0.0
 11
1038.25
 21
474.0645311797088
 31
0.0
  0
ARC
  5
240
330
1F
100
AcDbEntity
  8
0
  6
Continuous
 62
     7
370
     0
100
AcDbCircle
 10
1034.1139888769
 20
485.6648186452148
 30
0.0
 40
12.31556971044312
100
AcDbArc
 50
270.632778013808
 51
289.6233799866075
  0
ARC
  5
241
330
1F
100
AcDbEntity
  8
0
  6
Continuous
 62
     7
370
     0
100
AcDbCircle
 10
1034.425310939781
 20
485.8848220140848
 30
0.0
 40
12.53604789609075
100
AcDbArc
 50
250.5451235887133
 51
269.1987184108704
  0
LINE
  5
242
330
1F
100
AcDbEntity
  8
0
  6
Continuous
 62
     7
370
     0
100
AcDbLine
 10
1030.25
 20
481.0354688200763
 30
0.0
 11
1030.25
 21
474.0645311797088
 31
0.0
  0
LINE
  5
243
330
1F
100
AcDbEntity
  8
0
  6
Continuous
 62
     7
370
     0
100
AcDbLine
 10
774.2499999999999
 20
473.3499999998925
 30
0.0
 11
782.2499999999999
 21
473.3499999998925
 31
0.0
  0
ARC
  5
244
330
1F
100
AcDbEntity
  8
0
  6
Continuous
 62
     7
370
     0
100
AcDbCircle
 10
1042.3860111231
 20
469.435181354569
 30
0.0
 40
12.31556971044445
100
AcDbArc
 50
90.63277801380852
 51
109.6233799866065
  0
ARC
  5
245
330
1F
100
AcDbEntity
  8
0
  6
Continuous
 62
     7
370
     0
100
AcDbCircle
 10
1042.074689060219
 20
469.2151779857002
 30
0.0
 40
12.53604789609075
100
AcDbArc
 50
70.54512358871331
 51
89.19871841087044
  0
LINE
  5
246
330
1F
100
AcDbEntity
  8
0
  6
Continuous
 62
     7
370
     0
100
AcDbLine
 10
1046.25
 20
481.0354688200763
 30
0.0
 11
1046.25
 21
474.0645311797088
 31
0.0
  0
ARC
  5
247
330
1F
100
AcDbEntity
  8
0
  6
Continuous
 62
     7
370
     0
100
AcDbCircle
 10
1042.1139888769
 20
485.6648186452163
 30
0.0
 40
12.31556971044445
100
AcDbArc
 50
270.6327780138092
 51
289.6233799866064
  0
ARC
  5
248
330
1F
100
AcDbEntity
  8
0
  6
Continuous
 62
     7
370
     0
100
AcDbCircle
 10
1042.425310939781
 20
485.8848220140865
 30
0.0
 40
12.53604789609275
100
AcDbArc
 50
250.5451235887148
 51
269.1987184108698
  0
LINE
  5
249
330
1F
100
AcDbEntity
  8
0
  6
Continuous
 62
     7
370
     0
100
AcDbLine
 10
1034.25
 20
473.3499999998925
 30
0.0
 11
1042.25
 21
473.3499999998925
 31
0.0
  0
ELLIPSE
  5
24A
330
1F
100
AcDbEntity
  8
0
  6
Continuous
 62
     7
370
     0
100
AcDbEllipse
 10
778.2500000000001
 20
483.3653846152772
 30
0.0
 11
0.0
 21
-63.46153846153846
 31
0.0
210
0.0
220
0.0
230
1.0
 40
0.1299999999999979
 41
4.71238898038469
 42
4.737846275451434
  0
ELLIPSE
  5
24B
330
1F
100
AcDbEntity
  8
0
  6
Continuous
 62
     7
370
     0
100
AcDbEllipse
 10
778.2500000000001
 20
483.3653846152772
 30
0.0
 11
0.0
 21
-63.46153846153846
 31
0.0
210
0.0
220
0.0
230
1.0
 40
0.1299999999999979
 41
4.690569067166289
 42
4.71238898038469
  0
ELLIPSE
  5
24C
330
1F
100
AcDbEntity
  8
0
  6
Continuous
 62
     7
370
     0
100
AcDbEllipse
 10
778.2500000000001
 20
480.134615384508
 30
0.0
 11
0.0
 21
-63.46153846153846
 31
0.0
210
0.0
220
0.0
230
-1.0
 40
0.1300000000000014
 41
1.596253621861641
 42
1.643587864798307
  0
LINE
  5
24D
330
1F
100
AcDbEntity
  8
0
  6
Continuous
 62
     7
370
     0
100
AcDbLine
 10
770.0026731603506
 20
481.7499999998924
 30
0.0
 11
786.4999999999999
 21
481.7499999998924
 31
0.0
  0
ELLIPSE
  5
24E
330
1F
100
AcDbEntity
  8
0
  6
Continuous
 62
     7
370
     0
100
AcDbEllipse
 10
1038.25
 20
483.3653846152772
 30
0.0
 11
0.0
 21
-63.46153846153846
 31
0.0
210
0.0
220
0.0
230
-1.0
 40
0.1299999999999979
 41
4.71238898038469
 42
4.737846275451434
  0
LINE
  5
24F
330
1F
100
AcDbEntity
  8
0
  6
Continuous
 62
     7
370
     0
100
AcDbLine
 10
1030.0
 20
481.7499999998924
 30
0.0
 11
1046.497326839649
 21
481.7499999998924
 31
0.0
  0
ELLIPSE
  5
250
330
1F
100
AcDbEntity
  8
0
  6
Continuous
 62
     7
370
     0
100
AcDbEllipse
 10
508.2499999999999
 20
555.6653846152773
 30
0.0
 11
0.0
 21
-63.46153846153835
 31
0.0
210
0.0
220
0.0
230
-1.0
 40
0.1300000000000008
 41
4.71238898038469
 42
4.737846275451434
  0
LINE
  5
251
330
1F
100
AcDbEntity
  8
0
  6
Continuous
 62
     7
370
     0
100
AcDbLine
 10
527.7499999999994
 20
527.0499999998923
 30
0.0
 11
527.7499999999994
 21
525.4637210001655
 31
0.0
  0
LINE
  5
252
330
1F
100
AcDbEntity
  8
0
  6
Continuous
 62
     7
370
     0
100
AcDbLine
 10
527.7499999999993
 20
525.4637210001666
 30
0.0
 11
527.5359298055122
 21
527.0503035604257
 31
0.0
  0
ARC
  5
253
330
1F
100
AcDbEntity
  8
0
  6
Continuous
 62
     7
370
     0
100
AcDbCircle
 10
520.4283551216313
 20
525.642858518371
 30
0.0
 40
7.323836015051155
100
AcDbArc
 50
332.1892548333006
 51
358.5984329223242
  0
LINE
  5
254
330
1F
100
AcDbEntity
  8
0
  6
Continuous
 62
     7
370
     0
100
AcDbLine
 10
522.2499999999994
 20
522.2259043316926
 30
0.0
 11
526.9062404294692
 21
522.2259043316926
 31
0.0
  0
LINE
  5
255
330
1F
100
AcDbEntity
  8
0
  6
Continuous
 62
     7
370
     0
100
AcDbLine
 10
770.2499999999999
 20
481.0354688200763
 30
0.0
 11
770.2499999999999
 21
481.7499999998925
 31
0.0
  0
LINE
  5
256
330
1F
100
AcDbEntity
  8
0
  6
Continuous
 62
     7
370
     0
100
AcDbLine
 10
786.2499999999999
 20
481.7499999998924
 30
0.0
 11
786.2499999999999
 21
481.0354688200762
 31
0.0
  0
LINE
  5
257
330
1F
100
AcDbEntity
  8
0
  6
Continuous
 62
     7
370
     0
100
AcDbLine
 10
1046.25
 20
481.7499999998924
 30
0.0
 11
1046.25
 21
481.0354688200762
 31
0.0
  0
LINE
  5
258
330
1F
100
AcDbEntity
  8
0
  6
Continuous
 62
     7
370
     0
100
AcDbLine
 10
1030.25
 20
481.0354688200763
 30
0.0
 11
1030.25
 21
481.7499999998925
 31
0.0
  0
LINE
  5
259
330
1F
100
AcDbEntity
  8
0
  6
Continuous
 62
     7
370
     0
100
AcDbLine
 10
1046.25
 20
474.0645311797087
 30
0.0
 11
1046.25
 21
473.3499999998925
 31
0.0
  0
LINE
  5
25A
330
1F
100
AcDbEntity
  8
0
  6
Continuous
 62
     7
370
     0
100
AcDbLine
 10
1042.25
 20
473.3499999998925
 30
0.0
 11
1046.25
 21
473.3499999998925
 31
0.0
  0
LINE
  5
25B
330
1F
100
AcDbEntity
  8
0
  6
Continuous
 62
     7
370
     0
100
AcDbLine
 10
1030.25
 20
473.3499999998925
 30
0.0
 11
1030.25
 21
474.0645311797087
 31
0.0
  0
LINE
  5
25C
330
1F
100
AcDbEntity
  8
0
  6
Continuous
 62
     7
370
     0
100
AcDbLine
 10
1030.25
 20
473.3499999998925
 30
0.0
 11
1034.25
 21
473.3499999998925
 31
0.0
  0
LINE
  5
25D
330
1F
100
AcDbEntity
  8
0
  6
Continuous
 62
     7
370
     0
100
AcDbLine
 10
770.2499999999999
 20
473.3499999998925
 30
0.0
 11
770.2499999999999
 21
474.0645311797087
 31
0.0
  0
LINE
  5
25E
330
1F
100
AcDbEntity
  8
0
  6
Continuous
 62
     7
370
     0
100
AcDbLine
 10
770.2499999999999
 20
473.3499999998925
 30
0.0
 11
774.2499999999999
 21
473.3499999998925
 31
0.0
  0
LINE
  5
25F
330
1F
100
AcDbEntity
  8
0
  6
Continuous
 62
     7
370
     0
100
AcDbLine
 10
786.2499999999999
 20
474.0645311797087
 30
0.0
 11
786.2499999999999
 21
473.3499999998925
 31
0.0
  0
LINE
  5
260
330
1F
100
AcDbEntity
  8
0
  6
Continuous
 62
     7
370
     0
100
AcDbLine
 10
782.2499999999999
 20
473.3499999998925
 30
0.0
 11
786.2499999999999
 21
473.3499999998925
 31
0.0
  0
LINE
  5
261
330
1F
100
AcDbEntity
  8
0
  6
Continuous
 62
     7
370
     0
100
AcDbLine
 10
493.9999999999997
 20
522.0499999998925
 30
0.0
 11
493.9999999999997
 21
528.2999999998925
 31
0.0
  0
LINE
  5
262
330
1F
100
AcDbEntity
  8
0
  6
Continuous
 62
     7
370
     0
100
AcDbLine
 10
491.4999999999999
 20
528.9199999998924
 30
0.0
 11
491.4999999999999
 21
530.3748076808702
 31
0.0
  0
LINE
  5
263
330
1F
100
AcDbEntity
  8
0
  6
Continuous
 62
     7
370
     0
100
AcDbLine
 10
491.4999999999985
 20
533.5667612840098
 30
0.0
 11
491.4999999999981
 21
535.191568964962
 31
0.0
  0
LINE
  5
264
330
1F
100
AcDbEntity
  8
0
  6
Continuous
 62
     7
370
     0
100
AcDbLine
 10
491.4999999999979
 20
522.3084310348227
 30
0.0
 11
491.4999999999983
 21
523.9332387157751
 31
0.0
  0
LINE
  5
265
330
1F
100
AcDbEntity
  8
0
  6
Continuous
 62
     7
370
     0
100
AcDbLine
 10
491.4999999999997
 20
527.1251923189147
 30
0.0
 11
491.4999999999998
 21
528.5799999998925
 31
0.0
  0
LINE
  5
266
330
1F
100
AcDbEntity
  8
0
  6
Continuous
 62
     7
370
     0
100
AcDbLine
 10
493.4646017699112
 20
528.835398229981
 30
0.0
 11
491.4999999999998
 21
528.5799999998925
 31
0.0
  0
LINE
  5
267
330
1F
100
AcDbEntity
  8
0
  6
Continuous
 62
     7
370
     0
100
AcDbLine
 10
491.4999999999999
 20
528.9199999998924
 30
0.0
 11
493.2499999999998
 21
529.1474999998924
 31
0.0
  0
LINE
  5
268
330
1F
100
AcDbEntity
  8
0
  6
Continuous
 62
     7
370
     0
100
AcDbLine
 10
485.7681954210851
 20
536.2555534993577
 30
0.0
 11
491.4999999999978
 21
536.2555534993577
 31
0.0
  0
LINE
  5
269
330
1F
100
AcDbEntity
  8
0
  6
Continuous
 62
     7
370
     0
100
AcDbLine
 10
491.4999999999978
 20
535.191568964962
 30
0.0
 11
491.4999999999978
 21
536.2555534993577
 31
0.0
  0
LINE
  5
26A
330
1F
100
AcDbEntity
  8
0
  6
Continuous
 62
     7
370
     0
100
AcDbLine
 10
485.7681954210849
 20
532.502776749625
 30
0.0
 11
491.4999999999975
 21
532.502776749625
 31
0.0
  0
LWPOLYLINE
  5
26B
330
1F
100
AcDbEntity
  8
0
  6
Continuous
 62
     7
370
     0
100
AcDbPolyline
 90
        3
 70
     0
 43
0.0
 10
-485.7681954210849
 20
532.502776749625
 42
0.1461656898249441
 10
-485.1907992424441
 20
534.5125740166214
 42
0.1206843488012239
 10
-485.7681954210851
 20
536.2555534993577
210
0.0
220
0.0
230
-1.0
  0
LINE
  5
26C
330
1F
100
AcDbEntity
  8
0
  6
Continuous
 62
     7
370
     0
100
AcDbLine
 10
491.4999999999974
 20
532.502776749625
 30
0.0
 11
491.4999999999975
 21
533.5667612840098
 31
0.0
  0
LINE
  5
26D
330
1F
100
AcDbEntity
  8
0
  6
Continuous
 62
     7
370
     0
100
AcDbLine
 10
491.4999999999974
 20
528.5799999998923
 30
0.0
 11
491.4999999999974
 21
528.9199999998923
 31
0.0
  0
LINE
  5
26E
330
1F
100
AcDbEntity
  8
0
  6
Continuous
 62
     7
370
     0
100
AcDbLine
 10
491.4999999999974
 20
524.99722325016
 30
0.0
 11
491.4999999999974
 21
527.1251923189147
 31
0.0
  0
LINE
  5
26F
330
1F
100
AcDbEntity
  8
0
  6
Continuous
 62
     7
370
     0
100
AcDbLine
 10
485.7681954210849
 20
524.99722325016
 30
0.0
 11
491.4999999999975
 21
524.99722325016
 31
0.0
  0
ARC
  5
270
330
1F
100
AcDbEntity
  8
0
  6
Continuous
 62
     7
370
     0
100
AcDbCircle
 10
-497.615425088011
 20
528.7499999998925
 30
0.0
 40
12.42739651392144
210
0.0
220
0.0
230
-1.0
100
AcDbArc
 50
342.4236689168285
 51
17.57633108317117
  0
LINE
  5
271
330
1F
100
AcDbEntity
  8
0
  6
Continuous
 62
     7
370
     0
100
AcDbLine
 10
491.4999999999974
 20
530.3748076808702
 30
0.0
 11
491.4999999999974
 21
532.502776749625
 31
0.0
  0
LINE
  5
272
330
1F
100
AcDbEntity
  8
0
  6
Continuous
 62
     7
370
     0
100
AcDbLine
 10
491.4999999999978
 20
521.2444465004274
 30
0.0
 11
491.4999999999977
 21
522.3084310348227
 31
0.0
  0
LINE
  5
273
330
1F
100
AcDbEntity
  8
0
  6
Continuous
 62
     7
370
     0
100
AcDbLine
 10
485.7681954210851
 20
521.2444465004274
 30
0.0
 11
491.4999999999978
 21
521.2444465004274
 31
0.0
  0
LWPOLYLINE
  5
274
330
1F
100
AcDbEntity
  8
0
  6
Continuous
 62
     7
370
     0
100
AcDbPolyline
 90
        3
 70
     0
 43
0.0
 10
-485.7681954210851
 20
521.2444465004274
 42
0.1461656898249101
 10
-485.1907992424441
 20
523.2542437674236
 42
0.1206843488013451
 10
-485.7681954210849
 20
524.99722325016
210
0.0
220
0.0
230
-1.0
  0
LINE
  5
275
330
1F
100
AcDbEntity
  8
0
  6
Continuous
 62
     7
370
     0
100
AcDbLine
 10
491.4999999999974
 20
523.9332387157752
 30
0.0
 11
491.4999999999974
 21
524.99722325016
 31
0.0
  0
LINE
  5
276
330
1F
100
AcDbEntity
  8
0
  6
Continuous
 62
     7
370
     0
100
AcDbLine
 10
484.9999999999977
 20
522.5749999998924
 30
0.0
 11
484.9999999999977
 21
528.7499999998925
 31
0.0
  0
LINE
  5
277
330
1F
100
AcDbEntity
  8
0
  6
Continuous
 62
     7
370
     0
100
AcDbLine
 10
484.9999999999977
 20
528.7499999998925
 30
0.0
 11
484.9999999999977
 21
534.9249999998927
 31
0.0
  0
LINE
  5
278
330
1F
100
AcDbEntity
  8
0
  6
Continuous
 62
     7
370
     0
100
AcDbLine
 10
527.7499999999994
 20
522.2501354973184
 30
0.0
 11
526.9062404294692
 21
522.2259043316926
 31
0.0
  0
LINE
  5
279
330
1F
100
AcDbEntity
  8
0
  6
Continuous
 62
     7
370
     0
100
AcDbLine
 10
527.7499999999994
 20
525.4637210001658
 30
0.0
 11
527.7499999999994
 21
522.2499999998913
 31
0.0
  0
LINE
  5
27A
330
1F
100
AcDbEntity
  8
0
  6
Continuous
 62
     7
370
     0
100
AcDbLine
 10
783.25
 20
469.0499999998925
 30
0.0
 11
773.25
 21
469.0499999998925
 31
0.0
  0
LINE
  5
27B
330
1F
100
AcDbEntity
  8
0
  6
Continuous
 62
     7
370
     0
100
AcDbLine
 10
1043.25
 20
469.0499999998925
 30
0.0
 11
1033.25
 21
469.0499999998925
 31
0.0
  0
LINE
  5
27C
330
1F
100
AcDbEntity
  8
0
  6
Continuous
 62
     7
370
     0
100
AcDbLine
 10
513.2499999999893
 20
570.249999999884
 30
0.0
 11
503.2499999999947
 21
570.249999999884
 31
0.0
  0
LINE
  5
27D
330
1F
100
AcDbEntity
  8
0
  6
Continuous
 62
     7
370
     0
100
AcDbLine
 10
504.749999999994
 20
571.7499999998835
 30
0.0
 11
511.7499999999904
 21
571.7499999998835
 31
0.0
  0
LINE
  5
27E
330
1F
100
AcDbEntity
  8
0
  6
Continuous
 62
     7
370
     0
100
AcDbLine
 10
483.4499999999994
 20
532.749999999893
 30
0.0
 11
483.4499999999994
 21
524.749999999892
 31
0.0
  0
LINE
  5
27F
330
1F
100
AcDbEntity
  8
0
  6
Continuous
 62
     7
370
     0
100
AcDbLine
 10
482.2499999999994
 20
525.9499999998923
 30
0.0
 11
482.2499999999994
 21
531.5499999998927
 31
0.0
  0
LINE
  5
280
330
1F
100
AcDbEntity
  8
0
  6
Continuous
 62
     7
370
     0
100
AcDbLine
 10
1012.250000000003
 20
513.5499999998902
 30
0.0
 11
1012.250000000003
 21
498.2499999998925
 31
0.0
  0
LINE
  5
281
330
1F
100
AcDbEntity
  8
0
  6
Continuous
 62
     7
370
     0
100
AcDbLine
 10
1012.250000000003
 20
484.7499999998925
 30
0.0
 11
1012.250000000003
 21
474.7499999998922
 31
0.0
  0
LINE
  5
282
330
1F
100
AcDbEntity
  8
0
  6
Continuous
 62
     7
370
     0
100
AcDbLine
 10
1020.250000000003
 20
474.7499999998922
 30
0.0
 11
1020.250000000003
 21
484.7499999998925
 31
0.0
  0
LINE
  5
283
330
1F
100
AcDbEntity
  8
0
  6
Continuous
 62
     7
370
     0
100
AcDbLine
 10
1020.250000000003
 20
498.2499999998925
 30
0.0
 11
1020.250000000003
 21
513.5499999998902
 31
0.0
  0
LINE
  5
284
330
1F
100
AcDbEntity
  8
0
  6
Continuous
 62
     7
370
     0
100
AcDbLine
 10
1020.250000000003
 20
513.5499999998902
 30
0.0
 11
1019.050000000003
 21
514.7499999998902
 31
0.0
  0
LINE
  5
285
330
1F
100
AcDbEntity
  8
0
  6
Continuous
 62
     7
370
     0
100
AcDbLine
 10
1013.450000000003
 20
514.7499999998902
 30
0.0
 11
1012.250000000003
 21
513.5499999998902
 31
0.0
  0
LINE
  5
286
330
1F
100
AcDbEntity
  8
0
  6
Continuous
 62
     7
370
     0
100
AcDbLine
 10
796.2499999999959
 20
513.5499999998895
 30
0.0
 11
796.2499999999959
 21
498.2499999998925
 31
0.0
  0
LINE
  5
287
330
1F
100
AcDbEntity
  8
0
  6
Continuous
 62
     7
370
     0
100
AcDbLine
 10
796.2499999999959
 20
484.7499999998925
 30
0.0
 11
796.2499999999959
 21
474.7499999998922
 31
0.0
  0
LINE
  5
288
330
1F
100
AcDbEntity
  8
0
  6
Continuous
 62
     7
370
     0
100
AcDbLine
 10
804.2499999999957
 20
474.7499999998922
 30
0.0
 11
804.2499999999957
 21
484.7499999998925
 31
0.0
  0
LINE
  5
289
330
1F
100
AcDbEntity
  8
0
  6
Continuous
 62
     7
370
     0
100
AcDbLine
 10
804.2499999999957
 20
498.2499999998925
 30
0.0
 11
804.2499999999957
 21
513.5499999998895
 31
0.0
  0
LINE
  5
28A
330
1F
100
AcDbEntity
  8
0
  6
Continuous
 62
     7
370
     0
100
AcDbLine
 10
804.2499999999957
 20
513.5499999998895
 30
0.0
 11
803.0499999999957
 21
514.7499999998895
 31
0.0
  0
LINE
  5
28B
330
1F
100
AcDbEntity
  8
0
  6
Continuous
 62
     7
370
     0
100
AcDbLine
 10
797.4499999999957
 20
514.7499999998895
 30
0.0
 11
796.2499999999958
 21
513.5499999998895
 31
0.0
  0
ARC
  5
28C
330
1F
100
AcDbEntity
  8
0
  6
Continuous
 62
     7
370
     0
100
AcDbCircle
 10
466.7499999999999
 20
445.7499999998925
 30
0.0
 40
3.000000000000003
100
AcDbArc
 50
180.0
 51
270.0
  0
ARC
  5
28D
330
1F
100
AcDbEntity
  8
0
  6
Continuous
 62
     7
370
     0
100
AcDbCircle
 10
549.75
 20
445.7499999998925
 30
0.0
 40
3.000000000000114
100
AcDbArc
 50
270.0
 51
0.0
  0
LINE
  5
28E
330
1F
100
AcDbEntity
  8
0
  6
Continuous
 62
     7
370
     0
100
AcDbLine
 10
463.7499999999999
 20
482.7499999998924
 30
0.0
 11
463.7499999999999
 21
445.7499999998925
 31
0.0
  0
LINE
  5
28F
330
1F
100
AcDbEntity
  8
0
  6
Continuous
 62
     7
370
     0
100
AcDbLine
 10
552.7499999999999
 20
445.7499999998925
 30
0.0
 11
552.7499999999999
 21
482.7499999998924
 31
0.0
  0
LINE
  5
290
330
1F
100
AcDbEntity
  8
0
  6
Continuous
 62
     7
370
     0
100
AcDbLine
 10
547.9999999999998
 20
482.7499999998924
 30
0.0
 11
547.9999999999998
 21
483.7499999998924
 31
0.0
  0
LINE
  5
291
330
1F
100
AcDbEntity
  8
0
  6
Continuous
 62
     7
370
     0
100
AcDbLine
 10
520.5
 20
483.7499999998925
 30
0.0
 11
520.5
 21
482.7499999998925
 31
0.0
  0
ARC
  5
292
330
1F
100
AcDbEntity
  8
0
  6
Continuous
 62
     7
370
     0
100
AcDbCircle
 10
521.5000000000001
 20
483.7499999998925
 30
0.0
 40
0.9999999999998899
100
AcDbArc
 50
90.0
 51
180.0
  0
ARC
  5
293
330
1F
100
AcDbEntity
  8
0
  6
Continuous
 62
     7
370
     0
100
AcDbCircle
 10
546.9999999999999
 20
483.7499999998925
 30
0.0
 40
0.9999999999998899
100
AcDbArc
 50
0.0
 51
90.0
  0
ARC
  5
294
330
1F
100
AcDbEntity
  8
0
  6
Continuous
 62
     7
370
     0
100
AcDbCircle
 10
778.2500000000001
 20
541.9249999998925
 30
0.0
 40
17.12500000000006
100
AcDbArc
 50
50.03378695620003
 51
129.9662130438
  0
LINE
  5
295
330
1F
100
AcDbEntity
  8
0
  6
Continuous
 62
     7
370
     0
100
AcDbLine
 10
789.2499999999998
 20
554.0499999998925
 30
0.0
 11
789.2499999999998
 21
555.0499999998925
 31
0.0
  0
LINE
  5
296
330
1F
100
AcDbEntity
  8
0
  6
Continuous
 62
     7
370
     0
100
AcDbLine
 10
767.2499999999998
 20
555.0499999998925
 30
0.0
 11
767.2499999999998
 21
554.0499999998925
 31
0.0
  0
LINE
  5
297
330
1F
100
AcDbEntity
  8
0
  6
Continuous
 62
     7
370
     0
100
AcDbLine
 10
1049.25
 20
554.0499999998925
 30
0.0
 11
1049.25
 21
555.0499999998925
 31
0.0
  0
LINE
  5
298
330
1F
100
AcDbEntity
  8
0
  6
Continuous
 62
     7
370
     0
100
AcDbLine
 10
1027.25
 20
555.0499999998925
 30
0.0
 11
1027.25
 21
554.0499999998925
 31
0.0
  0
ARC
  5
299
330
1F
100
AcDbEntity
  8
0
  6
Continuous
 62
     7
370
     0
100
AcDbCircle
 10
1038.25
 20
541.9249999998925
 30
0.0
 40
17.12500000000006
100
AcDbArc
 50
50.03378695620006
 51
129.9662130437999
  0
LINE
  5
29A
330
1F
100
AcDbEntity
  8
0
  6
Continuous
 62
     7
370
     0
100
AcDbLine
 10
516.749999999999
 20
564.8046261354871
 30
0.0
 11
516.3249999999989
 21
565.0499999998925
 31
0.0
  0
LINE
  5
29B
330
1F
100
AcDbEntity
  8
0
  6
Continuous
 62
     7
370
     0
100
AcDbLine
 10
500.1749999999987
 20
565.0499999998925
 30
0.0
 11
499.7499999999986
 21
564.8046261354871
 31
0.0
  0
LINE
  5
29C
330
1F
100
AcDbEntity
  8
0
  6
Continuous
 62
     7
370
     0
100
AcDbLine
 10
786.5
 20
481.7499999998924
 30
0.0
 11
786.5
 21
484.7499999998925
 31
0.0
  0
LINE
  5
29D
330
1F
100
AcDbEntity
  8
0
  6
Continuous
 62
     7
370
     0
100
AcDbLine
 10
769.9999999999998
 20
484.7499999998925
 30
0.0
 11
769.9999999999998
 21
483.3653846152772
 31
0.0
  0
LINE
  5
29E
330
1F
100
AcDbEntity
  8
0
  6
Continuous
 62
     7
370
     0
100
AcDbLine
 10
1046.5
 20
483.3653846152772
 30
0.0
 11
1046.5
 21
484.7499999998925
 31
0.0
  0
LINE
  5
29F
330
1F
100
AcDbEntity
  8
0
  6
Continuous
 62
     7
370
     0
100
AcDbLine
 10
1030.0
 20
484.7499999998925
 30
0.0
 11
1030.0
 21
481.7499999998925
 31
0.0
  0
LINE
  5
2A0
330
1F
100
AcDbEntity
  8
0
  6
Continuous
 62
     7
370
     0
100
AcDbLine
 10
516.5
 20
555.6653846152773
 30
0.0
 11
516.5
 21
557.0499999998924
 31
0.0
  0
LINE
  5
2A1
330
1F
100
AcDbEntity
  8
0
  6
Continuous
 62
     7
370
     0
100
AcDbLine
 10
499.9999999999998
 20
557.0499999998924
 30
0.0
 11
499.9999999999998
 21
554.0499999998924
 31
0.0
  0
LINE
  5
2A2
330
1F
100
AcDbEntity
  8
0
  6
Continuous
 62
     7
370
     0
100
AcDbLine
 10
491.4999999999999
 20
522.0499999998925
 30
0.0
 11
493.9999999999998
 21
522.0499999998925
 31
0.0
  0
LINE
  5
2A3
330
1F
100
AcDbEntity
  8
0
  6
Continuous
 62
     7
370
     0
100
AcDbLine
 10
493.2499999999998
 20
535.4499999998925
 30
0.0
 11
491.4999999999999
 21
535.4499999998925
 31
0.0
  0
LINE
  5
2A4
330
1F
100
AcDbEntity
  8
0
  6
Continuous
 62
     7
370
     0
100
AcDbLine
 10
485.7681954210851
 20
536.2555534993577
 30
0.0
 11
484.9999999999978
 21
534.9249999998927
 31
0.0
  0
LINE
  5
2A5
330
1F
100
AcDbEntity
  8
0
  6
Continuous
 62
     7
370
     0
100
AcDbLine
 10
484.9999999999977
 20
522.5749999998924
 30
0.0
 11
485.7681954210851
 21
521.2444465004274
 31
0.0
  0
LINE
  5
2A6
330
1F
100
AcDbEntity
  8
0
  6
Continuous
 62
     7
370
     0
100
AcDbLine
 10
773.25
 20
503.1041019661423
 30
0.0
 11
773.25
 21
496.3958980336428
 31
0.0
  0
LINE
  5
2A7
330
1F
100
AcDbEntity
  8
0
  6
Continuous
 62
     7
370
     0
100
AcDbLine
 10
773.25
 20
473.3499999998925
 30
0.0
 11
773.25
 21
469.0499999998925
 31
0.0
  0
LINE
  5
2A8
330
1F
100
AcDbEntity
  8
0
  6
Continuous
 62
     7
370
     0
100
AcDbLine
 10
783.25
 20
469.0499999998925
 30
0.0
 11
783.25
 21
473.3499999998925
 31
0.0
  0
LINE
  5
2A9
330
1F
100
AcDbEntity
  8
0
  6
Continuous
 62
     7
370
     0
100
AcDbLine
 10
1033.25
 20
473.3499999998925
 30
0.0
 11
1033.25
 21
469.0499999998925
 31
0.0
  0
LINE
  5
2AA
330
1F
100
AcDbEntity
  8
0
  6
Continuous
 62
     7
370
     0
100
AcDbLine
 10
1043.25
 20
469.0499999998925
 30
0.0
 11
1043.25
 21
473.3499999998925
 31
0.0
  0
LINE
  5
2AB
330
1F
100
AcDbEntity
  8
0
  6
Continuous
 62
     7
370
     0
100
AcDbLine
 10
1043.25
 20
496.3958980336427
 30
0.0
 11
1043.25
 21
503.1041019661423
 31
0.0
  0
LINE
  5
2AC
330
1F
100
AcDbEntity
  8
0
  6
Continuous
 62
     7
370
     0
100
AcDbLine
 10
503.2499999999933
 20
570.249999999884
 30
0.0
 11
503.2499999999933
 21
565.0499999998925
 31
0.0
  0
LINE
  5
2AD
330
1F
100
AcDbEntity
  8
0
  6
Continuous
 62
     7
370
     0
100
AcDbLine
 10
513.2499999999907
 20
565.0499999998925
 30
0.0
 11
513.2499999999907
 21
570.249999999884
 31
0.0
  0
LINE
  5
2AE
330
1F
100
AcDbEntity
  8
0
  6
Continuous
 62
     7
370
     0
100
AcDbLine
 10
513.2499999999907
 20
570.249999999884
 30
0.0
 11
511.749999999991
 21
571.7499999998835
 31
0.0
  0
LINE
  5
2AF
330
1F
100
AcDbEntity
  8
0
  6
Continuous
 62
     7
370
     0
100
AcDbLine
 10
504.7499999999929
 20
571.7499999998835
 30
0.0
 11
503.2499999999933
 21
570.249999999884
 31
0.0
  0
LINE
  5
2B0
330
1F
100
AcDbEntity
  8
0
  6
Continuous
 62
     7
370
     0
100
AcDbLine
 10
493.9999999999914
 20
524.749999999893
 30
0.0
 11
494.2499999999998
 21
524.749999999893
 31
0.0
  0
LINE
  5
2B1
330
1F
100
AcDbEntity
  8
0
  6
Continuous
 62
     7
370
     0
100
AcDbLine
 10
496.5499999999999
 20
524.749999999893
 30
0.0
 11
496.7499999999998
 21
524.749999999893
 31
0.0
  0
LINE
  5
2B2
330
1F
100
AcDbEntity
  8
0
  6
Continuous
 62
     7
370
     0
100
AcDbLine
 10
519.7499999999999
 20
524.749999999893
 30
0.0
 11
519.9499999999999
 21
524.749999999893
 31
0.0
  0
LINE
  5
2B3
330
1F
100
AcDbEntity
  8
0
  6
Continuous
 62
     7
370
     0
100
AcDbLine
 10
483.4499999999994
 20
532.7499999998922
 30
0.0
 11
482.2499999999994
 21
531.5499999998923
 31
0.0
  0
LINE
  5
2B4
330
1F
100
AcDbEntity
  8
0
  6
Continuous
 62
     7
370
     0
100
AcDbLine
 10
482.2499999999994
 20
525.9499999998927
 30
0.0
 11
483.4499999999994
 21
524.749999999893
 31
0.0
  0
LINE
  5
2B5
330
1F
100
AcDbEntity
  8
0
  6
Continuous
 62
     7
370
     0
100
AcDbLine
 10
483.4499999999994
 20
524.749999999893
 30
0.0
 11
484.9999999999976
 21
524.749999999893
 31
0.0
  0
LINE
  5
2B6
330
1F
100
AcDbEntity
  8
0
  6
Continuous
 62
     7
370
     0
100
AcDbLine
 10
484.9999999999977
 20
532.7499999998922
 30
0.0
 11
483.4499999999995
 21
532.7499999998922
 31
0.0
  0
CIRCLE
  5
2B7
330
1F
100
AcDbEntity
  8
0
  6
CENTER
 62
     1
370
     0
100
AcDbCircle
 10
508.2499999999999
 20
377.2500000000001
 30
0.0
 40
36.49999999999998
  0
LINE
  5
2B9
330
1F
100
AcDbEntity
  8
0
  6
CENTER
 62
     1
370
     0
100
AcDbLine
 10
456.25
 20
377.2500000000001
 30
0.0
 11
1070.75
 21
377.2500000000001
 31
0.0
  0
LINE
  5
2BA
330
1F
100
AcDbEntity
  8
0
  6
CENTER
 62
     1
370
     0
100
AcDbLine
 10
508.2499999999999
 20
327.7500000000001
 30
0.0
 11
508.2499999999999
 21
426.7499999999999
 31
0.0
  0
POINT
  5
2BB
330
1F
100
AcDbEntity
  8
0
 62
     1
100
AcDbPoint
 10
763.4999999999999
 20
377.2500000000001
 30
0.0
  0
POINT
  5
2BC
330
1F
100
AcDbEntity
  8
0
 62
     1
100
AcDbPoint
 10
508.2499999999999
 20
500.8499999998925
 30
0.0
  0
POINT
  5
2BD
330
1F
100
AcDbEntity
  8
0
 62
   253
420
 10526880
100
AcDbPoint
 10
998.2499999999999
 20
382.75
 30
0.0
  0
POINT
  5
2BE
330
1F
100
AcDbEntity
  8
0
 62
     1
100
AcDbPoint
 10
508.2499999999999
 20
377.2500000000001
 30
0.0
  0
POINT
  5
2BF
330
1F
100
AcDbEntity
  8
0
 62
     1
100
AcDbPoint
 10
512.0
 20
524.25
 30
0.0
  0
POINT
  5
2C0
330
1F
100
AcDbEntity
  8
0
 62
     7
100
AcDbPoint
 10
1028.25
 20
391.95
 30
0.0
  0
POINT
  5
2C1
330
1F
100
AcDbEntity
  8
0
 62
     7
100
AcDbPoint
 10
822.7499999999999
 20
371.75
 30
0.0
  0
POINT
  5
2C2
330
1F
100
AcDbEntity
  8
0
 62
     7
100
AcDbPoint
 10
788.2499999999999
 20
394.25
 30
0.0
  0
POINT
  5
2C3
330
1F
100
AcDbEntity
  8
0
 62
     7
100
AcDbPoint
 10
818.2499999999999
 20
360.2499999999999
 30
0.0
  0
POINT
  5
2C4
330
1F
100
AcDbEntity
  8
0
 62
     7
100
AcDbPoint
 10
1028.25
 20
394.25
 30
0.0
  0
POINT
  5
2C5
330
1F
100
AcDbEntity
  8
0
 62
     7
100
AcDbPoint
 10
788.2499999999999
 20
391.95
 30
0.0
  0
POINT
  5
2C6
330
1F
100
AcDbEntity
  8
0
 62
     7
100
AcDbPoint
 10
998.2499999999999
 20
360.2499999999999
 30
0.0
  0
POINT
  5
2C7
330
1F
100
AcDbEntity
  8
0
 62
   253
420
 10526880
100
AcDbPoint
 10
784.7499999999998
 20
377.2500000000001
 30
0.0
  0
POINT
  5
2C8
330
1F
100
AcDbEntity
  8
0
 62
     7
100
AcDbPoint
 10
998.2499999999999
 20
394.25
 30
0.0
  0
POINT
  5
2C9
330
1F
100
AcDbEntity
  8
0
 62
     7
100
AcDbPoint
 10
822.7499999999999
 20
382.75
 30
0.0
  0
POINT
  5
2CA
330
1F
100
AcDbEntity
  8
0
 62
     7
100
AcDbPoint
 10
818.2499999999999
 20
391.95
 30
0.0
  0
POINT
  5
2CB
330
1F
100
AcDbEntity
  8
0
 62
     7
100
AcDbPoint
 10
818.2499999999999
 20
362.55
 30
0.0
  0
POINT
  5
2CC
330
1F
100
AcDbEntity
  8
0
 62
     7
100
AcDbPoint
 10
788.2499999999999
 20
360.2499999999999
 30
0.0
  0
POINT
  5
2CD
330
1F
100
AcDbEntity
  8
0
 62
     7
100
AcDbPoint
 10
818.2499999999999
 20
394.25
 30
0.0
  0
POINT
  5
2CE
330
1F
100
AcDbEntity
  8
0
 62
     7
100
AcDbPoint
 10
1028.25
 20
362.55
 30
0.0
  0
POINT
  5
2CF
330
1F
100
AcDbEntity
  8
0
 62
     7
100
AcDbPoint
 10
998.2499999999999
 20
362.55
 30
0.0
  0
POINT
  5
2D0
330
1F
100
AcDbEntity
  8
0
 62
     7
100
AcDbPoint
 10
1028.25
 20
360.2499999999999
 30
0.0
  0
POINT
  5
2D1
330
1F
100
AcDbEntity
  8
0
 62
     7
100
AcDbPoint
 10
998.2499999999999
 20
391.95
 30
0.0
  0
POINT
  5
2D2
330
1F
100
AcDbEntity
  8
0
 62
     7
100
AcDbPoint
 10
788.2499999999999
 20
362.55
 30
0.0
  0
POINT
  5
2D3
330
1F
100
AcDbEntity
  8
0
 62
   253
420
 10526880
100
AcDbPoint
 10
998.2499999999999
 20
371.75
 30
0.0
  0
MTEXT
  5
2D4
330
1F
100
AcDbEntity
  8
0
 62
     7
100
AcDbMText
 10
1000.273553968877
 20
293.8068181818179
 30
0.0
 40
7.5
 41
0.0
 46
0.0
 71
     1
 72
     1
  1
{\fＭＳ ゴシック;ＳＧＢＪ－５５Ｕ}
 73
     1
 44
1.0
  0
LINE
  5
2D5
330
1F
100
AcDbEntity
  8
0
  6
DOT
 62
   253
420
 10526880
370
     0
100
AcDbLine
 10
784.7499999999998
 20
372.75
 30
0.0
 11
784.7499999999998
 21
381.75
 31
0.0
  0
LINE
  5
2D6
330
1F
100
AcDbEntity
  8
0
  6
DOT
 62
   253
420
 10526880
370
     0
100
AcDbLine
 10
771.7499999999999
 20
381.75
 30
0.0
 11
771.7499999999999
 21
372.75
 31
0.0
  0
LWPOLYLINE
  5
2D7
330
1F
100
AcDbEntity
  8
0
  6
Continuous
 62
     7
370
     0
100
AcDbPolyline
 90
        6
 70
     0
 43
0.0
 10
-998.2499999999999
 20
382.75
 10
-1047.25
 20
382.75
 42
0.4142135623730748
 10
-1048.25
 20
381.75
 10
-1048.25
 20
372.75
 42
0.4142135623730748
 10
-1047.25
 20
371.75
 10
-998.2499999999999
 20
371.75
210
0.0
220
0.0
230
-1.0
  0
LINE
  5
2D8
330
1F
100
AcDbEntity
  8
0
  6
Continuous
 62
     7
370
     0
100
AcDbLine
 10
998.2499999999999
 20
362.55
 30
0.0
 11
1028.25
 21
362.55
 31
0.0
  0
LINE
  5
2D9
330
1F
100
AcDbEntity
  8
0
  6
Continuous
 62
     7
370
     0
100
AcDbLine
 10
818.2499999999999
 20
362.55
 30
0.0
 11
788.25
 21
362.55
 31
0.0
  0
LWPOLYLINE
  5
2DA
330
1F
100
AcDbEntity
  8
0
  6
Continuous
 62
     7
370
     0
100
AcDbPolyline
 90
        9
 70
     1
 43
0.0
 10
-784.7499999999998
 20
377.2500000000001
 10
-784.7499999999998
 20
372.75
 42
0.4142135623730849
 10
-783.7499999999999
 20
371.75
 10
-772.7499999999998
 20
371.75
 42
0.4142135623730849
 10
-771.7499999999999
 20
372.75
 10
-771.7499999999999
 20
381.75
 42
0.4142135623730849
 10
-772.7499999999998
 20
382.75
 10
-783.7499999999999
 20
382.75
 42
0.4142135623730849
 10
-784.7499999999998
 20
381.75
210
0.0
220
0.0
230
-1.0
  0
LINE
  5
2DB
330
1F
100
AcDbEntity
  8
0
  6
Continuous
 62
     7
370
     0
100
AcDbLine
 10
1028.25
 20
394.25
 30
0.0
 11
998.2499999999999
 21
394.25
 31
0.0
  0
LINE
  5
2DC
330
1F
100
AcDbEntity
  8
0
  6
Continuous
 62
     7
370
     0
100
AcDbLine
 10
1028.25
 20
391.95
 30
0.0
 11
998.2499999999999
 21
391.95
 31
0.0
  0
LINE
  5
2DD
330
1F
100
AcDbEntity
  8
0
  6
Continuous
 62
     7
370
     0
100
AcDbLine
 10
818.2499999999999
 20
360.2499999999999
 30
0.0
 11
788.25
 21
360.2499999999999
 31
0.0
  0
LINE
  5
2DE
330
1F
100
AcDbEntity
  8
0
  6
CENTER
 62
     1
370
     0
100
AcDbLine
 10
508.2499999999999
 20
435.2499999998926
 30
0.0
 11
508.2499999999999
 21
579.2499999998836
 31
0.0
  0
LINE
  5
2DF
330
1F
100
AcDbEntity
  8
0
  6
Continuous
 62
     7
370
     0
100
AcDbLine
 10
998.2499999999999
 20
360.2499999999999
 30
0.0
 11
1028.25
 21
360.2499999999999
 31
0.0
  0
LINE
  5
2E0
330
1F
100
AcDbEntity
  8
0
  6
Continuous
 62
     7
370
     0
100
AcDbLine
 10
788.2499999999999
 20
391.95
 30
0.0
 11
818.2499999999998
 21
391.95
 31
0.0
  0
LINE
  5
2E1
330
1F
100
AcDbEntity
  8
0
  6
Continuous
 62
     7
370
     0
100
AcDbLine
 10
818.2499999999999
 20
394.25
 30
0.0
 11
788.25
 21
394.25
 31
0.0
  0
ENDSEC
  0
SECTION
  2
OBJECTS
  0
DICTIONARY
  5
C
330
0
100
AcDbDictionary
281
     1
  3
ACAD_DETAILVIEWSTYLE
350
2E9
  3
ACAD_GROUP
350
D
  3
ACAD_LAYOUT
350
1A
  3
ACAD_MATERIAL
350
43
  3
ACAD_MLEADERSTYLE
350
6B
  3
ACAD_MLINESTYLE
350
17
  3
ACAD_PLOTSETTINGS
350
19
  3
ACAD_PLOTSTYLENAME
350
E
  3
ACAD_SCALELIST
350
47
  3
ACAD_SECTIONVIEWSTYLE
350
2EA
  3
ACAD_TABLESTYLE
350
69
  3
ACAD_VISUALSTYLE
350
2A
  3
ACDB_RECOMPOSE_DATA
350
2E6
  3
AcDbVariableDictionary
350
2E2
  0
SUN
  5
6D
330
29
100
AcDbSun
 90
        1
290
     0
 63
     7
421
 16777215
 40
1.0
291
     1
 91
  2455826
 92
 54000000
292
     0
 70
     2
 71
   256
280
     1
  0
DICTIONARY
  5
2E9
102
{ACAD_REACTORS
330
C
102
}
330
C
100
AcDbDictionary
281
     1
  0
DICTIONARY
  5
D
102
{ACAD_REACTORS
330
C
102
}
330
C
100
AcDbDictionary
281
     1
  0
DICTIONARY
  5
1A
102
{ACAD_REACTORS
330
C
102
}
330
C
100
AcDbDictionary
281
     1
  3
Layout1
350
1E
  3
Layout2
350
26
  3
Model
350
22
  0
DICTIONARY
  5
43
102
{ACAD_REACTORS
330
C
102
}
330
C
100
AcDbDictionary
281
     1
  3
ByBlock
350
45
  3
ByLayer
350
44
  3
Global
350
46
  0
DICTIONARY
  5
6B
102
{ACAD_REACTORS
330
C
102
}
330
C
100
AcDbDictionary
281
     1
  3
Standard
350
6C
  0
DICTIONARY
  5
17
102
{ACAD_REACTORS
330
C
102
}
330
C
100
AcDbDictionary
281
     1
  3
Standard
350
18
  0
DICTIONARY
  5
19
102
{ACAD_REACTORS
330
C
102
}
330
C
100
AcDbDictionary
281
     1
  0
ACDBDICTIONARYWDFLT
  5
E
102
{ACAD_REACTORS
330
C
102
}
330
C
100
AcDbDictionary
281
     1
  3
Normal
350
F
100
AcDbDictionaryWithDefault
340
F
  0
DICTIONARY
  5
47
102
{ACAD_REACTORS
330
C
102
}
330
C
100
AcDbDictionary
281
     1
  3
A0
350
48
  3
A1
350
49
  3
A2
350
4A
  3
A3
350
4B
  3
A4
350
4C
  3
A5
350
4D
  3
A6
350
4E
  3
A7
350
4F
  3
A8
350
50
  3
A9
350
51
  3
B0
350
52
  3
B1
350
53
  3
B2
350
54
  3
B3
350
55
  3
B4
350
56
  3
B5
350
57
  3
B6
350
58
  3
B7
350
59
  3
B8
350
5A
  3
B9
350
5B
  3
C0
350
5C
  3
C1
350
5D
  3
C2
350
5E
  3
C3
350
5F
  3
C4
350
60
  3
C5
350
61
  3
C6
350
62
  3
C7
350
63
  3
C8
350
64
  3
C9
350
65
  3
D0
350
66
  3
D1
350
67
  3
D2
350
68
  0
DICTIONARY
  5
2EA
102
{ACAD_REACTORS
330
C
102
}
330
C
100
AcDbDictionary
281
     1
  0
DICTIONARY
  5
69
102
{ACAD_REACTORS
330
C
102
}
330
C
100
AcDbDictionary
281
     1
  3
Standard
350
6A
  0
DICTIONARY
  5
2A
102
{ACAD_REACTORS
330
C
102
}
330
C
100
AcDbDictionary
281
     1
  3
2dWireframe
350
2F
  3
Basic
350
32
  3
Brighten
350
36
  3
ColorChange
350
3A
  3
Conceptual
350
34
  3
Dim
350
35
  3
EdgeColorOff
350
3D
  3
Facepattern
350
39
  3
Flat
350
2B
  3
FlatWithEdges
350
2C
  3
Gouraud
350
2D
  3
GouraudWithEdges
350
2E
  3
Hidden
350
31
  3
JitterOff
350
3B
  3
Linepattern
350
38
  3
OverhangOff
350
3C
  3
Realistic
350
33
  3
Shaded
350
42
  3
Shaded with edges
350
41
  3
Shades of Gray
350
3E
  3
Sketchy
350
3F
  3
Thicken
350
37
  3
Wireframe
350
30
  3
X-Ray
350
40
  0
XRECORD
  5
2E6
102
{ACAD_REACTORS
330
C
102
}
330
C
100
AcDbXrecord
280
     1
 90
        1
330
6A
  0
DICTIONARY
  5
2E2
102
{ACAD_REACTORS
330
C
102
}
330
C
100
AcDbDictionary
281
     1
  3
CANNOSCALE
350
2E3
  3
CMLEADERSTYLE
350
2E8
  3
CTABLESTYLE
350
2E7
  0
LAYOUT
  5
1E
102
{ACAD_REACTORS
330
1A
102
}
330
1A
100
AcDbPlotSettings
  1

  2
none_device
  4

  6

 40
0.0
 41
0.0
 42
0.0
 43
0.0
 44
0.0
 45
0.0
 46
0.0
 47
0.0
 48
0.0
 49
0.0
140
0.0
141
0.0
142
1.0
143
1.0
 70
   688
 72
     0
 73
     0
 74
     5
  7

 75
    16
 76
     0
 77
     2
 78
   300
147
1.0
148
0.0
149
0.0
100
AcDbLayout
  1
Layout1
 70
     1
 71
     1
 10
0.0
 20
0.0
 11
12.0
 21
9.0
 12
0.0
 22
0.0
 32
0.0
 14
1.000000000000000E+20
 24
1.000000000000000E+20
 34
1.000000000000000E+20
 15
-1.000000000000000E+20
 25
-1.000000000000000E+20
 35
-1.000000000000000E+20
146
0.0
 13
0.0
 23
0.0
 33
0.0
 16
1.0
 26
0.0
 36
0.0
 17
0.0
 27
1.0
 37
0.0
 76
     0
330
1B
  0
LAYOUT
  5
26
102
{ACAD_REACTORS
330
1A
102
}
330
1A
100
AcDbPlotSettings
  1

  2
none_device
  4

  6

 40
0.0
 41
0.0
 42
0.0
 43
0.0
 44
0.0
 45
0.0
 46
0.0
 47
0.0
 48
0.0
 49
0.0
140
0.0
141
0.0
142
1.0
143
1.0
 70
   688
 72
     0
 73
     0
 74
     5
  7

 75
    16
 76
     0
 77
     2
 78
   300
147
1.0
148
0.0
149
0.0
100
AcDbLayout
  1
Layout2
 70
     1
 71
     2
 10
0.0
 20
0.0
 11
0.0
 21
0.0
 12
0.0
 22
0.0
 32
0.0
 14
0.0
 24
0.0
 34
0.0
 15
0.0
 25
0.0
 35
0.0
146
0.0
 13
0.0
 23
0.0
 33
0.0
 16
1.0
 26
0.0
 36
0.0
 17
0.0
 27
1.0
 37
0.0
 76
     0
330
23
  0
LAYOUT
  5
22
102
{ACAD_REACTORS
330
1A
102
}
330
1A
100
AcDbPlotSettings
  1

  2
none_device
  4
Letter_(8.50_x_11.00_Inches)
  6

 40
6.35
 41
6.35
 42
6.35000508
 43
6.35000508
 44
215.9
 45
279.4
 46
0.0
 47
0.0
 48
0.0
 49
0.0
140
0.0
141
0.0
142
1.0
143
1.0
 70
  1712
 72
     0
 73
     0
 74
     0
  7

 75
     0
 76
     0
 77
     2
 78
   300
147
1.0
148
0.0
149
0.0
100
AcDbLayout
  1
Model
 70
     1
 71
     0
 10
0.0
 20
0.0
 11
12.0
 21
9.0
 12
0.0
 22
0.0
 32
0.0
 14
456.25
 24
287.056818181818
 34
0.0
 15
1070.75
 25
579.2499999998836
 35
0.0
146
0.0
 13
0.0
 23
0.0
 33
0.0
 16
1.0
 26
0.0
 36
0.0
 17
0.0
 27
1.0
 37
0.0
 76
     0
330
1F
331
29
  0
MATERIAL
  5
45
102
{ACAD_REACTORS
330
43
102
}
330
43
100
AcDbMaterial
  1
ByBlock
 72
     1
 94
      127
  0
MATERIAL
  5
44
102
{ACAD_REACTORS
330
43
102
}
330
43
100
AcDbMaterial
  1
ByLayer
 72
     1
 94
      127
  0
MATERIAL
  5
46
102
{ACAD_REACTORS
330
43
102
}
330
43
100
AcDbMaterial
  1
Global
 72
     1
 94
      127
  0
MLEADERSTYLE
  5
6C
102
{ACAD_REACTORS
330
6B
102
}
330
6B
100
AcDbMLeaderStyle
179
     2
170
     2
171
     1
172
     0
 90
        2
 40
0.0
 41
0.0
173
     1
 91
-1056964608
340
14
 92
       -2
290
     1
 42
0.09
291
     1
 43
0.36
  3
Standard
341
0
 44
0.18
300

342
11
174
     1
178
     6
175
     1
176
     0
 93
-1056964608
 45
0.18
292
     0
297
     0
 46
0.18
343
0
 94
-1056964608
 47
1.0
 49
1.0
140
1.0
293
     1
141
0.0
294
     1
177
     0
142
1.0
295
     0
296
     0
143
0.125
271
     0
272
     9
273
     9
298
     0
  0
MLINESTYLE
  5
18
102
{ACAD_REACTORS
330
17
102
}
330
17
100
AcDbMlineStyle
  2
Standard
 70
     0
  3

 62
   256
 51
90.0
 52
90.0
 71
     2
 49
0.5
 62
   256
  6
BYLAYER
 49
-0.5
 62
   256
  6
BYLAYER
  0
ACDBPLACEHOLDER
  5
F
102
{ACAD_REACTORS
330
E
102
}
330
E
  0
SCALE
  5
48
102
{ACAD_REACTORS
330
47
102
}
330
47
100
AcDbScale
 70
     0
300
1:1
140
1.0
141
1.0
290
     1
  0
SCALE
  5
49
102
{ACAD_REACTORS
330
47
102
}
330
47
100
AcDbScale
 70
     0
300
1:2
140
1.0
141
2.0
290
     0
  0
SCALE
  5
4A
102
{ACAD_REACTORS
330
47
102
}
330
47
100
AcDbScale
 70
     0
300
1:4
140
1.0
141
4.0
290
     0
  0
SCALE
  5
4B
102
{ACAD_REACTORS
330
47
102
}
330
47
100
AcDbScale
 70
     0
300
1:5
140
1.0
141
5.0
290
     0
  0
SCALE
  5
4C
102
{ACAD_REACTORS
330
47
102
}
330
47
100
AcDbScale
 70
     0
300
1:8
140
1.0
141
8.0
290
     0
  0
SCALE
  5
4D
102
{ACAD_REACTORS
330
47
102
}
330
47
100
AcDbScale
 70
     0
300
1:10
140
1.0
141
10.0
290
     0
  0
SCALE
  5
4E
102
{ACAD_REACTORS
330
47
102
}
330
47
100
AcDbScale
 70
     0
300
1:16
140
1.0
141
16.0
290
     0
  0
SCALE
  5
4F
102
{ACAD_REACTORS
330
47
102
}
330
47
100
AcDbScale
 70
     0
300
1:20
140
1.0
141
20.0
290
     0
  0
SCALE
  5
50
102
{ACAD_REACTORS
330
47
102
}
330
47
100
AcDbScale
 70
     0
300
1:30
140
1.0
141
30.0
290
     0
  0
SCALE
  5
51
102
{ACAD_REACTORS
330
47
102
}
330
47
100
AcDbScale
 70
     0
300
1:40
140
1.0
141
40.0
290
     0
  0
SCALE
  5
52
102
{ACAD_REACTORS
330
47
102
}
330
47
100
AcDbScale
 70
     0
300
1:50
140
1.0
141
50.0
290
     0
  0
SCALE
  5
53
102
{ACAD_REACTORS
330
47
102
}
330
47
100
AcDbScale
 70
     0
300
1:100
140
1.0
141
100.0
290
     0
  0
SCALE
  5
54
102
{ACAD_REACTORS
330
47
102
}
330
47
100
AcDbScale
 70
     0
300
2:1
140
2.0
141
1.0
290
     0
  0
SCALE
  5
55
102
{ACAD_REACTORS
330
47
102
}
330
47
100
AcDbScale
 70
     0
300
4:1
140
4.0
141
1.0
290
     0
  0
SCALE
  5
56
102
{ACAD_REACTORS
330
47
102
}
330
47
100
AcDbScale
 70
     0
300
8:1
140
8.0
141
1.0
290
     0
  0
SCALE
  5
57
102
{ACAD_REACTORS
330
47
102
}
330
47
100
AcDbScale
 70
     0
300
10:1
140
10.0
141
1.0
290
     0
  0
SCALE
  5
58
102
{ACAD_REACTORS
330
47
102
}
330
47
100
AcDbScale
 70
     0
300
100:1
140
100.0
141
1.0
290
     0
  0
SCALE
  5
59
102
{ACAD_REACTORS
330
47
102
}
330
47
100
AcDbScale
 70
     0
300
1/128" = 1'-0"
140
0.0078125
141
12.0
290
     0
  0
SCALE
  5
5A
102
{ACAD_REACTORS
330
47
102
}
330
47
100
AcDbScale
 70
     0
300
1/64" = 1'-0"
140
0.015625
141
12.0
290
     0
  0
SCALE
  5
5B
102
{ACAD_REACTORS
330
47
102
}
330
47
100
AcDbScale
 70
     0
300
1/32" = 1'-0"
140
0.03125
141
12.0
290
     0
  0
SCALE
  5
5C
102
{ACAD_REACTORS
330
47
102
}
330
47
100
AcDbScale
 70
     0
300
1/16" = 1'-0"
140
0.0625
141
12.0
290
     0
  0
SCALE
  5
5D
102
{ACAD_REACTORS
330
47
102
}
330
47
100
AcDbScale
 70
     0
300
3/32" = 1'-0"
140
0.09375
141
12.0
290
     0
  0
SCALE
  5
5E
102
{ACAD_REACTORS
330
47
102
}
330
47
100
AcDbScale
 70
     0
300
1/8" = 1'-0"
140
0.125
141
12.0
290
     0
  0
SCALE
  5
5F
102
{ACAD_REACTORS
330
47
102
}
330
47
100
AcDbScale
 70
     0
300
3/16" = 1'-0"
140
0.1875
141
12.0
290
     0
  0
SCALE
  5
60
102
{ACAD_REACTORS
330
47
102
}
330
47
100
AcDbScale
 70
     0
300
1/4" = 1'-0"
140
0.25
141
12.0
290
     0
  0
SCALE
  5
61
102
{ACAD_REACTORS
330
47
102
}
330
47
100
AcDbScale
 70
     0
300
3/8" = 1'-0"
140
0.375
141
12.0
290
     0
  0
SCALE
  5
62
102
{ACAD_REACTORS
330
47
102
}
330
47
100
AcDbScale
 70
     0
300
1/2" = 1'-0"
140
0.5
141
12.0
290
     0
  0
SCALE
  5
63
102
{ACAD_REACTORS
330
47
102
}
330
47
100
AcDbScale
 70
     0
300
3/4" = 1'-0"
140
0.75
141
12.0
290
     0
  0
SCALE
  5
64
102
{ACAD_REACTORS
330
47
102
}
330
47
100
AcDbScale
 70
     0
300
1" = 1'-0"
140
1.0
141
12.0
290
     0
  0
SCALE
  5
65
102
{ACAD_REACTORS
330
47
102
}
330
47
100
AcDbScale
 70
     0
300
1-1/2" = 1'-0"
140
1.5
141
12.0
290
     0
  0
SCALE
  5
66
102
{ACAD_REACTORS
330
47
102
}
330
47
100
AcDbScale
 70
     0
300
3" = 1'-0"
140
3.0
141
12.0
290
     0
  0
SCALE
  5
67
102
{ACAD_REACTORS
330
47
102
}
330
47
100
AcDbScale
 70
     0
300
6" = 1'-0"
140
6.0
141
12.0
290
     0
  0
SCALE
  5
68
102
{ACAD_REACTORS
330
47
102
}
330
47
100
AcDbScale
 70
     0
300
1'-0" = 1'-0"
140
12.0
141
12.0
290
     0
  0
TABLESTYLE
  5
6A
102
{ACAD_REACTORS
330
69
102
}
102
{ACAD_XDICTIONARY
360
2E4
102
}
330
69
100
AcDbTableStyle
  3
Standard
 70
     0
 71
     0
 40
0.06
 41
0.06
280
     0
281
     0
  7
Standard
140
0.18
170
     2
 62
     0
 63
   257
283
     0
 90
        4
 91
        0
  1

274
    -2
284
     1
 64
     0
275
    -2
285
     1
 65
     0
276
    -2
286
     1
 66
     0
277
    -2
287
     1
 67
     0
278
    -2
288
     1
 68
     0
279
    -2
289
     1
 69
     0
  7
Standard
140
0.25
170
     5
 62
     0
 63
   257
283
     0
 90
        4
 91
        0
  1

274
    -2
284
     1
 64
     0
275
    -2
285
     1
 65
     0
276
    -2
286
     1
 66
     0
277
    -2
287
     1
 67
     0
278
    -2
288
     1
 68
     0
279
    -2
289
     1
 69
     0
  7
Standard
140
0.18
170
     5
 62
     0
 63
   257
283
     0
 90
        4
 91
        0
  1

274
    -2
284
     1
 64
     0
275
    -2
285
     1
 65
     0
276
    -2
286
     1
 66
     0
277
    -2
287
     1
 67
     0
278
    -2
288
     1
 68
     0
279
    -2
289
     1
 69
     0
  0
VISUALSTYLE
  5
2F
102
{ACAD_REACTORS
330
2A
102
}
330
2A
100
AcDbVisualStyle
  2
2dWireframe
 70
     4
177
     3
291
     0
 70
    58
 90
        0
176
     1
 90
        2
176
     1
 90
        0
176
     1
 90
        0
176
     1
 40
0.6
176
     1
 40
30.0
176
     1
 62
     7
420
 16777215
176
     1
 90
        1
176
     1
 90
        4
176
     1
 62
     7
176
     1
 62
   257
176
     1
 90
        1
176
     1
 90
        1
176
     1
 40
1.0
176
     1
 90
        0
176
     1
 62
   257
176
     1
 40
1.0
176
     1
 90
        1
176
     1
 90
        6
176
     1
 90
        2
176
     1
 62
     7
176
     1
 90
        5
176
     1
 90
        0
176
     1
 90
        0
176
     1
290
     0
176
     1
 90
        1
176
     1
 40
0.0
176
     1
 90
        0
176
     1
290
     1
176
     1
290
     1
176
     1
290
     0
176
     1
290
     0
176
     1
290
     0
176
     1
290
     0
176
     1
290
     0
176
     1
290
     0
176
     1
290
     0
176
     1
 90
       50
176
     1
 40
0.0
176
     1
 40
1.0
176
     1
 90
        0
176
     1
 62
    18
420
        0
176
     1
 90
       50
176
     1
 90
        3
176
     1
 62
     5
420
      255
176
     1
290
     0
176
     1
 90
       50
176
     1
 90
       50
176
     1
 90
       50
176
     1
290
     0
176
     1
 90
       50
176
     1
 62
   256
176
     0
 40
1.0
176
     0
 90
        2
176
     1
  1
strokes_ogs.tif
176
     1
290
     0
176
     1
 40
1.0
176
     1
 40
1.0
176
     1
  0
VISUALSTYLE
  5
32
102
{ACAD_REACTORS
330
2A
102
}
330
2A
100
AcDbVisualStyle
  2
Basic
 70
     7
177
     3
291
     1
 70
    58
 90
        1
176
     1
 90
        0
176
     1
 90
        1
176
     1
 90
        0
176
     1
 40
0.6
176
     1
 40
30.0
176
     1
 62
     7
420
 16777215
176
     1
 90
        0
176
     1
 90
        4
176
     1
 62
     7
176
     1
 62
   257
176
     1
 90
        1
176
     1
 90
        1
176
     1
 40
1.0
176
     1
 90
        8
176
     1
 62
     7
176
     1
 40
1.0
176
     1
 90
        1
176
     1
 90
        6
176
     1
 90
        2
176
     1
 62
     7
176
     1
 90
        5
176
     1
 90
        0
176
     1
 90
        0
176
     1
290
     0
176
     1
 90
        1
176
     1
 40
0.0
176
     1
 90
        0
176
     1
290
     0
176
     1
290
     1
176
     1
290
     1
176
     1
290
     0
176
     1
290
     0
176
     1
290
     0
176
     1
290
     0
176
     1
290
     0
176
     1
290
     0
176
     1
 90
       50
176
     1
 40
0.0
176
     1
 40
1.0
176
     1
 90
        0
176
     1
 62
    18
420
        0
176
     1
 90
       50
176
     1
 90
        3
176
     1
 62
     5
420
      255
176
     1
290
     0
176
     1
 90
       50
176
     1
 90
       50
176
     1
 90
       50
176
     1
290
     0
176
     1
 90
       50
176
     1
 62
   256
176
     0
 40
1.0
176
     0
 90
        2
176
     1
  1
strokes_ogs.tif
176
     1
290
     0
176
     1
 40
1.0
176
     1
 40
1.0
176
     1
  0
VISUALSTYLE
  5
36
102
{ACAD_REACTORS
330
2A
102
}
330
2A
100
AcDbVisualStyle
  2
Brighten
 70
    12
177
     3
291
     1
 70
    58
 90
        2
176
     1
 90
        2
176
     1
 90
        0
176
     1
 90
        0
176
     1
 40
0.6
176
     1
 40
30.0
176
     1
 62
     7
420
 16777215
176
     1
 90
        1
176
     1
 90
        4
176
     1
 62
     7
176
     1
 62
   257
176
     1
 90
        1
176
     1
 90
        1
176
     1
 40
1.0
176
     1
 90
        8
176
     1
 62
     7
176
     1
 40
1.0
176
     1
 90
        1
176
     1
 90
        6
176
     1
 90
        2
176
     1
 62
     7
176
     1
 90
        5
176
     1
 90
        0
176
     1
 90
        0
176
     1
290
     0
176
     1
 90
        1
176
     1
 40
50.0
176
     1
 90
        0
176
     1
290
     0
176
     1
290
     1
176
     1
290
     1
176
     1
290
     0
176
     1
290
     0
176
     1
290
     0
176
     1
290
     0
176
     1
290
     0
176
     1
290
     0
176
     1
 90
       50
176
     1
 40
0.0
176
     1
 40
1.0
176
     1
 90
        0
176
     1
 62
    18
420
        0
176
     1
 90
       50
176
     1
 90
        3
176
     1
 62
     5
420
      255
176
     1
290
     0
176
     1
 90
       50
176
     1
 90
       50
176
     1
 90
       50
176
     1
290
     0
176
     1
 90
       50
176
     1
 62
   256
176
     0
 40
1.0
176
     0
 90
        2
176
     1
  1
strokes_ogs.tif
176
     1
290
     0
176
     1
 40
1.0
176
     1
 40
1.0
176
     1
  0
VISUALSTYLE
  5
3A
102
{ACAD_REACTORS
330
2A
102
}
330
2A
100
AcDbVisualStyle
  2
ColorChange
 70
    16
177
     3
291
     1
 70
    58
 90
        2
176
     1
 90
        2
176
     1
 90
        3
176
     1
 90
        0
176
     1
 40
0.6
176
     1
 40
30.0
176
     1
 62
     8
420
  8421504
176
     1
 90
        1
176
     1
 90
        4
176
     1
 62
     7
176
     1
 62
   257
176
     1
 90
        1
176
     1
 90
        1
176
     1
 40
1.0
176
     1
 90
        8
176
     1
 62
     8
420
  8421504
176
     1
 40
1.0
176
     1
 90
        1
176
     1
 90
        6
176
     1
 90
        2
176
     1
 62
     7
176
     1
 90
        5
176
     1
 90
        0
176
     1
 90
        0
176
     1
290
     0
176
     1
 90
        1
176
     1
 40
0.0
176
     1
 90
        0
176
     1
290
     0
176
     1
290
     1
176
     1
290
     1
176
     1
290
     0
176
     1
290
     0
176
     1
290
     0
176
     1
290
     0
176
     1
290
     0
176
     1
290
     0
176
     1
 90
       50
176
     1
 40
0.0
176
     1
 40
1.0
176
     1
 90
        0
176
     1
 62
    18
420
        0
176
     1
 90
       50
176
     1
 90
        3
176
     1
 62
     5
420
      255
176
     1
290
     0
176
     1
 90
       50
176
     1
 90
       50
176
     1
 90
       50
176
     1
290
     0
176
     1
 90
       50
176
     1
 62
   256
176
     0
 40
1.0
176
     0
 90
        2
176
     1
  1
strokes_ogs.tif
176
     1
290
     0
176
     1
 40
1.0
176
     1
 40
1.0
176
     1
  0
VISUALSTYLE
  5
34
102
{ACAD_REACTORS
330
2A
102
}
330
2A
100
AcDbVisualStyle
  2
Conceptual
 70
     9
177
     3
291
     0
 70
    58
 90
        3
176
     1
 90
        2
176
     1
 90
        0
176
     1
 90
        0
176
     1
 40
0.6
176
     1
 40
30.0
176
     1
 62
     7
420
 16777215
176
     1
 90
        2
176
     1
 90
        2
176
     1
 62
     7
176
     1
 62
   257
176
     1
 90
        1
176
     1
 90
        1
176
     1
 40
179.0
176
     1
 90
        8
176
     1
 62
     7
176
     1
 40
1.0
176
     1
 90
        1
176
     1
 90
        6
176
     1
 90
        2
176
     1
 62
     7
176
     1
 90
        3
176
     1
 90
        0
176
     1
 90
        0
176
     1
290
     0
176
     1
 90
        1
176
     1
 40
0.0
176
     1
 90
        0
176
     1
290
     0
176
     1
290
     1
176
     1
290
     1
176
     1
290
     0
176
     1
290
     0
176
     1
290
     0
176
     1
290
     0
176
     1
290
     0
176
     1
290
     0
176
     1
 90
       50
176
     1
 40
0.0
176
     1
 40
1.0
176
     1
 90
        0
176
     1
 62
    18
420
        0
176
     1
 90
       50
176
     1
 90
        3
176
     1
 62
     5
420
      255
176
     1
290
     0
176
     1
 90
       50
176
     1
 90
       50
176
     1
 90
       50
176
     1
290
     0
176
     1
 90
       50
176
     1
 62
   256
176
     0
 40
1.0
176
     0
 90
        2
176
     1
  1
strokes_ogs.tif
176
     1
290
     0
176
     1
 40
1.0
176
     1
 40
1.0
176
     1
  0
VISUALSTYLE
  5
35
102
{ACAD_REACTORS
330
2A
102
}
330
2A
100
AcDbVisualStyle
  2
Dim
 70
    11
177
     3
291
     1
 70
    58
 90
        2
176
     1
 90
        2
176
     1
 90
        0
176
     1
 90
        0
176
     1
 40
0.6
176
     1
 40
30.0
176
     1
 62
     7
420
 16777215
176
     1
 90
        1
176
     1
 90
        4
176
     1
 62
     7
176
     1
 62
   257
176
     1
 90
        1
176
     1
 90
        1
176
     1
 40
1.0
176
     1
 90
        8
176
     1
 62
     7
176
     1
 40
1.0
176
     1
 90
        1
176
     1
 90
        6
176
     1
 90
        2
176
     1
 62
     7
176
     1
 90
        5
176
     1
 90
        0
176
     1
 90
        0
176
     1
290
     0
176
     1
 90
        1
176
     1
 40
-50.0
176
     1
 90
        0
176
     1
290
     0
176
     1
290
     1
176
     1
290
     1
176
     1
290
     0
176
     1
290
     0
176
     1
290
     0
176
     1
290
     0
176
     1
290
     0
176
     1
290
     0
176
     1
 90
       50
176
     1
 40
0.0
176
     1
 40
1.0
176
     1
 90
        0
176
     1
 62
    18
420
        0
176
     1
 90
       50
176
     1
 90
        3
176
     1
 62
     5
420
      255
176
     1
290
     0
176
     1
 90
       50
176
     1
 90
       50
176
     1
 90
       50
176
     1
290
     0
176
     1
 90
       50
176
     1
 62
   256
176
     0
 40
1.0
176
     0
 90
        2
176
     1
  1
strokes_ogs.tif
176
     1
290
     0
176
     1
 40
1.0
176
     1
 40
1.0
176
     1
  0
VISUALSTYLE
  5
3D
102
{ACAD_REACTORS
330
2A
102
}
330
2A
100
AcDbVisualStyle
  2
EdgeColorOff
 70
    22
177
     3
291
     1
 70
    58
 90
        2
176
     0
 90
        2
176
     0
 90
        0
176
     0
 90
        0
176
     0
 40
0.6
176
     0
 40
30.0
176
     0
 62
     7
420
 16777215
176
     0
 90
        1
176
     0
 90
        4
176
     0
 62
     7
176
     0
 62
   257
176
     0
 90
        1
176
     0
 90
        1
176
     0
 40
1.0
176
     0
 90
        8
176
     2
 62
     7
176
     0
 40
1.0
176
     0
 90
        1
176
     0
 90
        6
176
     0
 90
        2
176
     0
 62
     7
176
     0
 90
        5
176
     0
 90
        0
176
     0
 90
        0
176
     0
290
     0
176
     0
 90
        1
176
     0
 40
0.0
176
     0
 90
        0
176
     0
290
     0
176
     0
290
     1
176
     0
290
     1
176
     0
290
     0
176
     0
290
     0
176
     0
290
     0
176
     0
290
     0
176
     0
290
     0
176
     0
290
     0
176
     0
 90
       50
176
     0
 40
0.0
176
     0
 40
1.0
176
     0
 90
        0
176
     0
 62
    18
420
        0
176
     0
 90
       50
176
     0
 90
        3
176
     0
 62
     5
420
      255
176
     0
290
     0
176
     0
 90
       50
176
     0
 90
       50
176
     0
 90
       50
176
     0
290
     0
176
     0
 90
       50
176
     0
 62
   256
176
     0
 40
1.0
176
     0
 90
        2
176
     0
  1
strokes_ogs.tif
176
     0
290
     0
176
     0
 40
1.0
176
     0
 40
1.0
176
     0
  0
VISUALSTYLE
  5
39
102
{ACAD_REACTORS
330
2A
102
}
330
2A
100
AcDbVisualStyle
  2
Facepattern
 70
    15
177
     3
291
     1
 70
    58
 90
        2
176
     1
 90
        2
176
     1
 90
        0
176
     1
 90
        0
176
     1
 40
0.6
176
     1
 40
30.0
176
     1
 62
     7
420
 16777215
176
     1
 90
        1
176
     1
 90
        4
176
     1
 62
     7
176
     1
 62
   257
176
     1
 90
        1
176
     1
 90
        1
176
     1
 40
1.0
176
     1
 90
        8
176
     1
 62
     7
176
     1
 40
1.0
176
     1
 90
        1
176
     1
 90
        6
176
     1
 90
        2
176
     1
 62
     7
176
     1
 90
        5
176
     1
 90
        0
176
     1
 90
        0
176
     1
290
     0
176
     1
 90
        1
176
     1
 40
0.0
176
     1
 90
        0
176
     1
290
     0
176
     1
290
     1
176
     1
290
     1
176
     1
290
     0
176
     1
290
     0
176
     1
290
     0
176
     1
290
     0
176
     1
290
     0
176
     1
290
     0
176
     1
 90
       50
176
     1
 40
0.0
176
     1
 40
1.0
176
     1
 90
        0
176
     1
 62
    18
420
        0
176
     1
 90
       50
176
     1
 90
        3
176
     1
 62
     5
420
      255
176
     1
290
     0
176
     1
 90
       50
176
     1
 90
       50
176
     1
 90
       50
176
     1
290
     0
176
     1
 90
       50
176
     1
 62
   256
176
     0
 40
1.0
176
     0
 90
        2
176
     1
  1
strokes_ogs.tif
176
     1
290
     0
176
     1
 40
1.0
176
     1
 40
1.0
176
     1
  0
VISUALSTYLE
  5
2B
102
{ACAD_REACTORS
330
2A
102
}
330
2A
100
AcDbVisualStyle
  2
Flat
 70
     0
177
     3
291
     1
 70
    58
 90
        2
176
     1
 90
        1
176
     1
 90
        1
176
     1
 90
        2
176
     1
 40
0.6
176
     1
 40
30.0
176
     1
 62
     7
420
 16777215
176
     1
 90
        0
176
     1
 90
        0
176
     1
 62
     7
176
     1
 62
   257
176
     1
 90
        1
176
     1
 90
        1
176
     1
 40
1.0
176
     1
 90
        8
176
     1
 62
     7
176
     1
 40
1.0
176
     1
 90
        1
176
     1
 90
        6
176
     1
 90
        2
176
     1
 62
     7
176
     1
 90
        5
176
     1
 90
        0
176
     1
 90
        0
176
     1
290
     0
176
     1
 90
       13
176
     1
 40
0.0
176
     1
 90
        0
176
     1
290
     0
176
     1
290
     1
176
     1
290
     1
176
     1
290
     0
176
     1
290
     0
176
     1
290
     0
176
     1
290
     0
176
     1
290
     0
176
     1
290
     0
176
     1
 90
       50
176
     1
 40
0.0
176
     1
 40
1.0
176
     1
 90
        0
176
     1
 62
    18
420
        0
176
     1
 90
       50
176
     1
 90
        3
176
     1
 62
     5
420
      255
176
     1
290
     0
176
     1
 90
       50
176
     1
 90
       50
176
     1
 90
       50
176
     1
290
     0
176
     1
 90
       50
176
     1
 62
   256
176
     0
 40
1.0
176
     0
 90
        2
176
     1
  1
strokes_ogs.tif
176
     1
290
     0
176
     1
 40
1.0
176
     1
 40
1.0
176
     1
  0
VISUALSTYLE
  5
2C
102
{ACAD_REACTORS
330
2A
102
}
330
2A
100
AcDbVisualStyle
  2
FlatWithEdges
 70
     1
177
     3
291
     1
 70
    58
 90
        2
176
     1
 90
        1
176
     1
 90
        1
176
     1
 90
        2
176
     1
 40
0.6
176
     1
 40
30.0
176
     1
 62
     7
420
 16777215
176
     1
 90
        1
176
     1
 90
        0
176
     1
 62
     7
176
     1
 62
   257
176
     1
 90
        1
176
     1
 90
        1
176
     1
 40
1.0
176
     1
 90
        0
176
     1
 62
   257
176
     1
 40
1.0
176
     1
 90
        1
176
     1
 90
        6
176
     1
 90
        2
176
     1
 62
     7
176
     1
 90
        5
176
     1
 90
        0
176
     1
 90
        0
176
     1
290
     0
176
     1
 90
       13
176
     1
 40
0.0
176
     1
 90
        0
176
     1
290
     0
176
     1
290
     1
176
     1
290
     1
176
     1
290
     0
176
     1
290
     0
176
     1
290
     0
176
     1
290
     0
176
     1
290
     0
176
     1
290
     0
176
     1
 90
       50
176
     1
 40
0.0
176
     1
 40
1.0
176
     1
 90
        0
176
     1
 62
    18
420
        0
176
     1
 90
       50
176
     1
 90
        3
176
     1
 62
     5
420
      255
176
     1
290
     0
176
     1
 90
       50
176
     1
 90
       50
176
     1
 90
       50
176
     1
290
     0
176
     1
 90
       50
176
     1
 62
   256
176
     0
 40
1.0
176
     0
 90
        2
176
     1
  1
strokes_ogs.tif
176
     1
290
     0
176
     1
 40
1.0
176
     1
 40
1.0
176
     1
  0
VISUALSTYLE
  5
2D
102
{ACAD_REACTORS
330
2A
102
}
330
2A
100
AcDbVisualStyle
  2
Gouraud
 70
     2
177
     3
291
     1
 70
    58
 90
        2
176
     1
 90
        2
176
     1
 90
        1
176
     1
 90
        2
176
     1
 40
0.6
176
     1
 40
30.0
176
     1
 62
     7
420
 16777215
176
     1
 90
        0
176
     1
 90
        0
176
     1
 62
     7
176
     1
 62
   257
176
     1
 90
        1
176
     1
 90
        1
176
     1
 40
1.0
176
     1
 90
        0
176
     1
 62
     7
176
     1
 40
1.0
176
     1
 90
        1
176
     1
 90
        6
176
     1
 90
        2
176
     1
 62
     7
176
     1
 90
        5
176
     1
 90
        0
176
     1
 90
        0
176
     1
290
     0
176
     1
 90
       13
176
     1
 40
0.0
176
     1
 90
        0
176
     1
290
     0
176
     1
290
     1
176
     1
290
     1
176
     1
290
     0
176
     1
290
     0
176
     1
290
     0
176
     1
290
     0
176
     1
290
     0
176
     1
290
     0
176
     1
 90
       50
176
     1
 40
0.0
176
     1
 40
1.0
176
     1
 90
        0
176
     1
 62
    18
420
        0
176
     1
 90
       50
176
     1
 90
        3
176
     1
 62
     5
420
      255
176
     1
290
     0
176
     1
 90
       50
176
     1
 90
       50
176
     1
 90
       50
176
     1
290
     0
176
     1
 90
       50
176
     1
 62
   256
176
     0
 40
1.0
176
     0
 90
        2
176
     1
  1
strokes_ogs.tif
176
     1
290
     0
176
     1
 40
1.0
176
     1
 40
1.0
176
     1
  0
VISUALSTYLE
  5
2E
102
{ACAD_REACTORS
330
2A
102
}
330
2A
100
AcDbVisualStyle
  2
GouraudWithEdges
 70
     3
177
     3
291
     1
 70
    58
 90
        2
176
     1
 90
        2
176
     1
 90
        1
176
     1
 90
        2
176
     1
 40
0.6
176
     1
 40
30.0
176
     1
 62
     7
420
 16777215
176
     1
 90
        1
176
     1
 90
        0
176
     1
 62
     7
176
     1
 62
   257
176
     1
 90
        1
176
     1
 90
        1
176
     1
 40
1.0
176
     1
 90
        0
176
     1
 62
   257
176
     1
 40
1.0
176
     1
 90
        1
176
     1
 90
        6
176
     1
 90
        2
176
     1
 62
     7
176
     1
 90
        5
176
     1
 90
        0
176
     1
 90
        0
176
     1
290
     0
176
     1
 90
       13
176
     1
 40
0.0
176
     1
 90
        0
176
     1
290
     0
176
     1
290
     1
176
     1
290
     1
176
     1
290
     0
176
     1
290
     0
176
     1
290
     0
176
     1
290
     0
176
     1
290
     0
176
     1
290
     0
176
     1
 90
       50
176
     1
 40
0.0
176
     1
 40
1.0
176
     1
 90
        0
176
     1
 62
    18
420
        0
176
     1
 90
       50
176
     1
 90
        3
176
     1
 62
     5
420
      255
176
     1
290
     0
176
     1
 90
       50
176
     1
 90
       50
176
     1
 90
       50
176
     1
290
     0
176
     1
 90
       50
176
     1
 62
   256
176
     0
 40
1.0
176
     0
 90
        2
176
     1
  1
strokes_ogs.tif
176
     1
290
     0
176
     1
 40
1.0
176
     1
 40
1.0
176
     1
  0
VISUALSTYLE
  5
31
102
{ACAD_REACTORS
330
2A
102
}
330
2A
100
AcDbVisualStyle
  2
Hidden
 70
     6
177
     3
291
     0
 70
    58
 90
        1
176
     1
 90
        2
176
     1
 90
        2
176
     1
 90
        0
176
     1
 40
0.6
176
     1
 40
30.0
176
     1
 62
     7
420
 16777215
176
     1
 90
        2
176
     1
 90
        2
176
     1
 62
     7
176
     1
 62
   257
176
     1
 90
        2
176
     1
 90
        1
176
     1
 40
40.0
176
     1
 90
        0
176
     1
 62
   257
176
     1
 40
1.0
176
     1
 90
        1
176
     1
 90
        6
176
     1
 90
        2
176
     1
 62
     7
176
     1
 90
        3
176
     1
 90
        0
176
     1
 90
        0
176
     1
290
     0
176
     1
 90
        1
176
     1
 40
0.0
176
     1
 90
        0
176
     1
290
     0
176
     1
290
     1
176
     1
290
     1
176
     1
290
     0
176
     1
290
     0
176
     1
290
     0
176
     1
290
     0
176
     1
290
     0
176
     1
290
     0
176
     1
 90
       50
176
     1
 40
0.0
176
     1
 40
1.0
176
     1
 90
        0
176
     1
 62
    18
420
        0
176
     1
 90
       50
176
     1
 90
        3
176
     1
 62
     5
420
      255
176
     1
290
     0
176
     1
 90
       50
176
     1
 90
       50
176
     1
 90
       50
176
     1
290
     0
176
     1
 90
       50
176
     1
 62
   256
176
     0
 40
1.0
176
     0
 90
        2
176
     1
  1
strokes_ogs.tif
176
     1
290
     0
176
     1
 40
1.0
176
     1
 40
1.0
176
     1
  0
VISUALSTYLE
  5
3B
102
{ACAD_REACTORS
330
2A
102
}
330
2A
100
AcDbVisualStyle
  2
JitterOff
 70
    20
177
     3
291
     1
 70
    58
 90
        2
176
     0
 90
        2
176
     0
 90
        0
176
     0
 90
        0
176
     0
 40
0.6
176
     0
 40
30.0
176
     0
 62
     7
420
 16777215
176
     0
 90
        1
176
     0
 90
        4
176
     0
 62
     7
176
     0
 62
   257
176
     0
 90
        1
176
     0
 90
        1
176
     0
 40
1.0
176
     0
 90
       10
176
     2
 62
     7
176
     0
 40
1.0
176
     0
 90
        1
176
     0
 90
        6
176
     0
 90
        2
176
     0
 62
     7
176
     0
 90
        5
176
     0
 90
        0
176
     0
 90
        0
176
     0
290
     0
176
     0
 90
        1
176
     0
 40
0.0
176
     0
 90
        0
176
     0
290
     0
176
     0
290
     1
176
     0
290
     1
176
     0
290
     0
176
     0
290
     0
176
     0
290
     0
176
     0
290
     0
176
     0
290
     0
176
     0
290
     0
176
     0
 90
       50
176
     0
 40
0.0
176
     0
 40
1.0
176
     0
 90
        0
176
     0
 62
    18
420
        0
176
     0
 90
       50
176
     0
 90
        3
176
     0
 62
     5
420
      255
176
     0
290
     0
176
     0
 90
       50
176
     0
 90
       50
176
     0
 90
       50
176
     0
290
     0
176
     0
 90
       50
176
     0
 62
   256
176
     0
 40
1.0
176
     0
 90
        2
176
     0
  1
strokes_ogs.tif
176
     0
290
     0
176
     0
 40
1.0
176
     0
 40
1.0
176
     0
  0
VISUALSTYLE
  5
38
102
{ACAD_REACTORS
330
2A
102
}
330
2A
100
AcDbVisualStyle
  2
Linepattern
 70
    14
177
     3
291
     1
 70
    58
 90
        2
176
     1
 90
        2
176
     1
 90
        0
176
     1
 90
        0
176
     1
 40
0.6
176
     1
 40
30.0
176
     1
 62
     7
420
 16777215
176
     1
 90
        1
176
     1
 90
        4
176
     1
 62
     7
176
     1
 62
   257
176
     1
 90
        7
176
     1
 90
        7
176
     1
 40
1.0
176
     1
 90
        8
176
     1
 62
     7
176
     1
 40
1.0
176
     1
 90
        1
176
     1
 90
        6
176
     1
 90
        2
176
     1
 62
     7
176
     1
 90
        5
176
     1
 90
        0
176
     1
 90
        0
176
     1
290
     0
176
     1
 90
        1
176
     1
 40
0.0
176
     1
 90
        0
176
     1
290
     0
176
     1
290
     1
176
     1
290
     1
176
     1
290
     0
176
     1
290
     0
176
     1
290
     0
176
     1
290
     0
176
     1
290
     0
176
     1
290
     0
176
     1
 90
       50
176
     1
 40
0.0
176
     1
 40
1.0
176
     1
 90
        0
176
     1
 62
    18
420
        0
176
     1
 90
       50
176
     1
 90
        3
176
     1
 62
     5
420
      255
176
     1
290
     0
176
     1
 90
       50
176
     1
 90
       50
176
     1
 90
       50
176
     1
290
     0
176
     1
 90
       50
176
     1
 62
   256
176
     0
 40
1.0
176
     0
 90
        2
176
     1
  1
strokes_ogs.tif
176
     1
290
     0
176
     1
 40
1.0
176
     1
 40
1.0
176
     1
  0
VISUALSTYLE
  5
3C
102
{ACAD_REACTORS
330
2A
102
}
330
2A
100
AcDbVisualStyle
  2
OverhangOff
 70
    21
177
     3
291
     1
 70
    58
 90
        2
176
     0
 90
        2
176
     0
 90
        0
176
     0
 90
        0
176
     0
 40
0.6
176
     0
 40
30.0
176
     0
 62
     7
420
 16777215
176
     0
 90
        1
176
     0
 90
        4
176
     0
 62
     7
176
     0
 62
   257
176
     0
 90
        1
176
     0
 90
        1
176
     0
 40
1.0
176
     0
 90
        9
176
     2
 62
     7
176
     0
 40
1.0
176
     0
 90
        1
176
     0
 90
        6
176
     0
 90
        2
176
     0
 62
     7
176
     0
 90
        5
176
     0
 90
        0
176
     0
 90
        0
176
     0
290
     0
176
     0
 90
        1
176
     0
 40
0.0
176
     0
 90
        0
176
     0
290
     0
176
     0
290
     1
176
     0
290
     1
176
     0
290
     0
176
     0
290
     0
176
     0
290
     0
176
     0
290
     0
176
     0
290
     0
176
     0
290
     0
176
     0
 90
       50
176
     0
 40
0.0
176
     0
 40
1.0
176
     0
 90
        0
176
     0
 62
    18
420
        0
176
     0
 90
       50
176
     0
 90
        3
176
     0
 62
     5
420
      255
176
     0
290
     0
176
     0
 90
       50
176
     0
 90
       50
176
     0
 90
       50
176
     0
290
     0
176
     0
 90
       50
176
     0
 62
   256
176
     0
 40
1.0
176
     0
 90
        2
176
     0
  1
strokes_ogs.tif
176
     0
290
     0
176
     0
 40
1.0
176
     0
 40
1.0
176
     0
  0
VISUALSTYLE
  5
33
102
{ACAD_REACTORS
330
2A
102
}
330
2A
100
AcDbVisualStyle
  2
Realistic
 70
     8
177
     3
291
     0
 70
    58
 90
        2
176
     1
 90
        3
176
     1
 90
        0
176
     1
 90
        2
176
     1
 40
0.6
176
     1
 40
30.0
176
     1
 62
     7
420
 16777215
176
     1
 90
        0
176
     1
 90
        0
176
     1
 62
     7
176
     1
 62
   257
176
     1
 90
        1
176
     1
 90
        1
176
     1
 40
1.0
176
     1
 90
        8
176
     1
 62
   257
176
     1
 40
1.0
176
     1
 90
        1
176
     1
 90
        6
176
     1
 90
        2
176
     1
 62
     7
176
     1
 90
        3
176
     1
 90
        0
176
     1
 90
        0
176
     1
290
     0
176
     1
 90
       13
176
     1
 40
0.0
176
     1
 90
        0
176
     1
290
     0
176
     1
290
     1
176
     1
290
     1
176
     1
290
     0
176
     1
290
     0
176
     1
290
     0
176
     1
290
     0
176
     1
290
     0
176
     1
290
     0
176
     1
 90
       50
176
     1
 40
0.0
176
     1
 40
1.0
176
     1
 90
        0
176
     1
 62
    18
420
        0
176
     1
 90
       50
176
     1
 90
        3
176
     1
 62
     5
420
      255
176
     1
290
     0
176
     1
 90
       50
176
     1
 90
       50
176
     1
 90
       50
176
     1
290
     0
176
     1
 90
       50
176
     1
 62
   256
176
     0
 40
1.0
176
     0
 90
        2
176
     1
  1
strokes_ogs.tif
176
     1
290
     0
176
     1
 40
1.0
176
     1
 40
1.0
176
     1
  0
VISUALSTYLE
  5
42
102
{ACAD_REACTORS
330
2A
102
}
330
2A
100
AcDbVisualStyle
  2
Shaded
 70
    27
177
     3
291
     0
 70
    58
 90
        2
176
     1
 90
        2
176
     1
 90
        1
176
     1
 90
        2
176
     1
 40
0.6
176
     1
 40
30.0
176
     1
 62
     7
420
 16777215
176
     1
 90
        0
176
     1
 90
        4
176
     1
 62
     7
176
     1
 62
   257
176
     1
 90
        1
176
     1
 90
        1
176
     1
 40
1.0
176
     1
 90
        8
176
     1
 62
   257
176
     1
 40
1.0
176
     1
 90
        1
176
     1
 90
        6
176
     1
 90
        2
176
     1
 62
     8
420
  7895160
176
     1
 90
        3
176
     1
 90
        0
176
     1
 90
        0
176
     1
290
     0
176
     1
 90
        5
176
     1
 40
0.0
176
     1
 90
        0
176
     1
290
     0
176
     1
290
     1
176
     1
290
     1
176
     1
290
     0
176
     1
290
     0
176
     1
290
     0
176
     1
290
     0
176
     1
290
     0
176
     1
290
     0
176
     1
 90
       50
176
     1
 40
0.0
176
     1
 40
1.0
176
     1
 90
        0
176
     1
 62
    18
420
        0
176
     1
 90
       50
176
     1
 90
        3
176
     1
 62
     5
420
      255
176
     1
290
     0
176
     1
 90
       50
176
     1
 90
       50
176
     1
 90
       50
176
     1
290
     0
176
     1
 90
       50
176
     1
 62
   256
176
     0
 40
1.0
176
     0
 90
        2
176
     1
  1
strokes_ogs.tif
176
     1
290
     0
176
     1
 40
1.0
176
     1
 40
1.0
176
     1
  0
VISUALSTYLE
  5
41
102
{ACAD_REACTORS
330
2A
102
}
330
2A
100
AcDbVisualStyle
  2
Shaded with edges
 70
    26
177
     3
291
     0
 70
    58
 90
        2
176
     1
 90
        2
176
     1
 90
        1
176
     1
 90
        2
176
     1
 40
0.6
176
     1
 40
30.0
176
     1
 62
     7
420
 16777215
176
     1
 90
        1
176
     1
 90
       10
176
     1
 62
     7
176
     1
 62
   257
176
     1
 90
        2
176
     1
 90
        1
176
     1
 40
1.0
176
     1
 90
        8
176
     1
 62
   257
176
     1
 40
1.0
176
     1
 90
        1
176
     1
 90
        6
176
     1
 90
        2
176
     1
 62
     7
176
     1
 90
        3
176
     1
 90
        0
176
     1
 90
        0
176
     1
290
     0
176
     1
 90
        5
176
     1
 40
0.0
176
     1
 90
        0
176
     1
290
     0
176
     1
290
     1
176
     1
290
     1
176
     1
290
     0
176
     1
290
     0
176
     1
290
     0
176
     1
290
     0
176
     1
290
     0
176
     1
290
     0
176
     1
 90
       50
176
     1
 40
0.0
176
     1
 40
1.0
176
     1
 90
        0
176
     1
 62
    18
420
        0
176
     1
 90
       50
176
     1
 90
        3
176
     1
 62
     5
420
      255
176
     1
290
     0
176
     1
 90
       50
176
     1
 90
       50
176
     1
 90
       50
176
     1
290
     0
176
     1
 90
       50
176
     1
 62
   256
176
     0
 40
1.0
176
     0
 90
        2
176
     1
  1
strokes_ogs.tif
176
     1
290
     0
176
     1
 40
1.0
176
     1
 40
1.0
176
     1
  0
VISUALSTYLE
  5
3E
102
{ACAD_REACTORS
330
2A
102
}
330
2A
100
AcDbVisualStyle
  2
Shades of Gray
 70
    23
177
     3
291
     0
 70
    58
 90
        2
176
     1
 90
        2
176
     1
 90
        3
176
     1
 90
        0
176
     1
 40
0.6
176
     1
 40
30.0
176
     1
 62
     7
420
 16777215
176
     1
 90
        2
176
     1
 90
        2
176
     1
 62
     7
176
     1
 62
     7
176
     1
 90
        1
176
     1
 90
        1
176
     1
 40
40.0
176
     1
 90
        8
176
     1
 62
     7
176
     1
 40
1.0
176
     1
 90
        1
176
     1
 90
        6
176
     1
 90
        2
176
     1
 62
     7
176
     1
 90
        3
176
     1
 90
        0
176
     1
 90
        0
176
     1
290
     0
176
     1
 90
        1
176
     1
 40
0.0
176
     1
 90
        0
176
     1
290
     0
176
     1
290
     1
176
     1
290
     1
176
     1
290
     0
176
     1
290
     0
176
     1
290
     0
176
     1
290
     0
176
     1
290
     0
176
     1
290
     0
176
     1
 90
       50
176
     1
 40
0.0
176
     1
 40
1.0
176
     1
 90
        0
176
     1
 62
    18
420
        0
176
     1
 90
       50
176
     1
 90
        3
176
     1
 62
     5
420
      255
176
     1
290
     0
176
     1
 90
       50
176
     1
 90
       50
176
     1
 90
       50
176
     1
290
     0
176
     1
 90
       50
176
     1
 62
   256
176
     0
 40
1.0
176
     0
 90
        2
176
     1
  1
strokes_ogs.tif
176
     1
290
     0
176
     1
 40
1.0
176
     1
 40
1.0
176
     1
  0
VISUALSTYLE
  5
3F
102
{ACAD_REACTORS
330
2A
102
}
330
2A
100
AcDbVisualStyle
  2
Sketchy
 70
    24
177
     3
291
     0
 70
    58
 90
        1
176
     1
 90
        2
176
     1
 90
        2
176
     1
 90
        0
176
     1
 40
0.6
176
     1
 40
30.0
176
     1
 62
     7
420
 16777215
176
     1
 90
        2
176
     1
 90
        2
176
     1
 62
     7
176
     1
 62
     7
176
     1
 90
        1
176
     1
 90
        1
176
     1
 40
40.0
176
     1
 90
       11
176
     1
 62
     7
176
     1
 40
1.0
176
     1
 90
        1
176
     1
 90
        6
176
     1
 90
        2
176
     1
 62
     7
176
     1
 90
        6
176
     1
 90
        0
176
     1
 90
        0
176
     1
290
     0
176
     1
 90
        1
176
     1
 40
0.0
176
     1
 90
        0
176
     1
290
     0
176
     1
290
     1
176
     1
290
     1
176
     1
290
     0
176
     1
290
     0
176
     1
290
     0
176
     1
290
     0
176
     1
290
     0
176
     1
290
     0
176
     1
 90
       50
176
     1
 40
0.0
176
     1
 40
1.0
176
     1
 90
        0
176
     1
 62
    18
420
        0
176
     1
 90
       50
176
     1
 90
        3
176
     1
 62
     5
420
      255
176
     1
290
     0
176
     1
 90
       50
176
     1
 90
       50
176
     1
 90
       50
176
     1
290
     0
176
     1
 90
       50
176
     1
 62
   256
176
     0
 40
1.0
176
     0
 90
        2
176
     1
  1
strokes_ogs.tif
176
     1
290
     0
176
     1
 40
1.0
176
     1
 40
1.0
176
     1
  0
VISUALSTYLE
  5
37
102
{ACAD_REACTORS
330
2A
102
}
330
2A
100
AcDbVisualStyle
  2
Thicken
 70
    13
177
     3
291
     1
 70
    58
 90
        2
176
     1
 90
        2
176
     1
 90
        0
176
     1
 90
        0
176
     1
 40
0.6
176
     1
 40
30.0
176
     1
 62
     7
420
 16777215
176
     1
 90
        1
176
     1
 90
        4
176
     1
 62
     7
176
     1
 62
   257
176
     1
 90
        1
176
     1
 90
        1
176
     1
 40
1.0
176
     1
 90
       12
176
     1
 62
     7
176
     1
 40
1.0
176
     1
 90
        1
176
     1
 90
        6
176
     1
 90
        2
176
     1
 62
     7
176
     1
 90
        5
176
     1
 90
        0
176
     1
 90
        0
176
     1
290
     0
176
     1
 90
        1
176
     1
 40
0.0
176
     1
 90
        0
176
     1
290
     0
176
     1
290
     1
176
     1
290
     1
176
     1
290
     0
176
     1
290
     0
176
     1
290
     0
176
     1
290
     0
176
     1
290
     0
176
     1
290
     0
176
     1
 90
       50
176
     1
 40
0.0
176
     1
 40
1.0
176
     1
 90
        0
176
     1
 62
    18
420
        0
176
     1
 90
       50
176
     1
 90
        3
176
     1
 62
     5
420
      255
176
     1
290
     0
176
     1
 90
       50
176
     1
 90
       50
176
     1
 90
       50
176
     1
290
     0
176
     1
 90
       50
176
     1
 62
   256
176
     0
 40
1.0
176
     0
 90
        2
176
     1
  1
strokes_ogs.tif
176
     1
290
     0
176
     1
 40
1.0
176
     1
 40
1.0
176
     1
  0
VISUALSTYLE
  5
30
102
{ACAD_REACTORS
330
2A
102
}
330
2A
100
AcDbVisualStyle
  2
Wireframe
 70
     5
177
     3
291
     0
 70
    58
 90
        0
176
     1
 90
        2
176
     1
 90
        0
176
     1
 90
        0
176
     1
 40
0.6
176
     1
 40
30.0
176
     1
 62
     7
420
 16777215
176
     1
 90
        1
176
     1
 90
        4
176
     1
 62
     7
176
     1
 62
   257
176
     1
 90
        1
176
     1
 90
        1
176
     1
 40
1.0
176
     1
 90
        0
176
     1
 62
   257
176
     1
 40
1.0
176
     1
 90
        1
176
     1
 90
        6
176
     1
 90
        2
176
     1
 62
     7
176
     1
 90
        3
176
     1
 90
        0
176
     1
 90
        0
176
     1
290
     0
176
     1
 90
        1
176
     1
 40
0.0
176
     1
 90
        0
176
     1
290
     0
176
     1
290
     1
176
     1
290
     1
176
     1
290
     0
176
     1
290
     0
176
     1
290
     0
176
     1
290
     0
176
     1
290
     0
176
     1
290
     0
176
     1
 90
       50
176
     1
 40
0.0
176
     1
 40
1.0
176
     1
 90
        0
176
     1
 62
    18
420
        0
176
     1
 90
       50
176
     1
 90
        3
176
     1
 62
     5
420
      255
176
     1
290
     0
176
     1
 90
       50
176
     1
 90
       50
176
     1
 90
       50
176
     1
290
     0
176
     1
 90
       50
176
     1
 62
   256
176
     0
 40
1.0
176
     0
 90
        2
176
     1
  1
strokes_ogs.tif
176
     1
290
     0
176
     1
 40
1.0
176
     1
 40
1.0
176
     1
  0
VISUALSTYLE
  5
40
102
{ACAD_REACTORS
330
2A
102
}
330
2A
100
AcDbVisualStyle
  2
X-Ray
 70
    25
177
     3
291
     0
 70
    58
 90
        2
176
     1
 90
        2
176
     1
 90
        1
176
     1
 90
        1
176
     1
 40
0.5
176
     1
 40
30.0
176
     1
 62
     7
420
 16777215
176
     1
 90
        1
176
     1
 90
        0
176
     1
 62
     7
176
     1
 62
   257
176
     1
 90
        1
176
     1
 90
        1
176
     1
 40
1.0
176
     1
 90
        8
176
     1
 62
     7
176
     1
 40
1.0
176
     1
 90
        1
176
     1
 90
        6
176
     1
 90
        2
176
     1
 62
     7
176
     1
 90
        3
176
     1
 90
        0
176
     1
 90
        0
176
     1
290
     0
176
     1
 90
       13
176
     1
 40
0.0
176
     1
 90
        0
176
     1
290
     0
176
     1
290
     1
176
     1
290
     1
176
     1
290
     0
176
     1
290
     0
176
     1
290
     0
176
     1
290
     0
176
     1
290
     0
176
     1
290
     0
176
     1
 90
       50
176
     1
 40
0.0
176
     1
 40
1.0
176
     1
 90
        0
176
     1
 62
    18
420
        0
176
     1
 90
       50
176
     1
 90
        3
176
     1
 62
     5
420
      255
176
     1
290
     0
176
     1
 90
       50
176
     1
 90
       50
176
     1
 90
       50
176
     1
290
     0
176
     1
 90
       50
176
     1
 62
   256
176
     0
 40
1.0
176
     0
 90
        2
176
     1
  1
strokes_ogs.tif
176
     1
290
     0
176
     1
 40
1.0
176
     1
 40
1.0
176
     1
  0
DICTIONARYVAR
  5
2E3
102
{ACAD_REACTORS
330
2E2
102
}
330
2E2
100
DictionaryVariables
280
     0
  1
1:1
  0
DICTIONARYVAR
  5
2E8
102
{ACAD_REACTORS
330
2E2
102
}
330
2E2
100
DictionaryVariables
280
     0
  1
Standard
  0
DICTIONARYVAR
  5
2E7
102
{ACAD_REACTORS
330
2E2
102
}
330
2E2
100
DictionaryVariables
280
     0
  1
Standard
  0
DICTIONARY
  5
2E4
330
6A
100
AcDbDictionary
280
     1
281
     1
  3
ACAD_ROUNDTRIP_2008_TABLESTYLE_CELLSTYLEMAP
360
2E5
  0
CELLSTYLEMAP
  5
2E5
102
{ACAD_REACTORS
330
2E4
102
}
330
2E4
100
AcDbCellStyleMap
 90
        3
300
CELLSTYLE
  1
TABLEFORMAT_BEGIN
 90
        5
170
     1
 91
        0
 92
    32768
 62
   257
 93
        1
300
CONTENTFORMAT
  1
CONTENTFORMAT_BEGIN
 90
        0
 91
        0
 92
        4
 93
        0
300

 40
0.0
140
1.0
 94
        5
 62
     0
340
11
144
0.25
309
CONTENTFORMAT_END
171
     1
301
MARGIN
  1
CELLMARGIN_BEGIN
 40
0.06
 40
0.06
 40
0.06
 40
0.06
 40
0.06
 40
0.06
309
CELLMARGIN_END
 94
        6
 95
        1
302
GRIDFORMAT
  1
GRIDFORMAT_BEGIN
 90
        0
 91
        1
 62
     0
 92
       -2
340
14
 93
        0
 40
0.045
309
GRIDFORMAT_END
 95
        2
302
GRIDFORMAT
  1
GRIDFORMAT_BEGIN
 90
        0
 91
        1
 62
     0
 92
       -2
340
14
 93
        0
 40
0.045
309
GRIDFORMAT_END
 95
        4
302
GRIDFORMAT
  1
GRIDFORMAT_BEGIN
 90
        0
 91
        1
 62
     0
 92
       -2
340
14
 93
        0
 40
0.045
309
GRIDFORMAT_END
 95
        8
302
GRIDFORMAT
  1
GRIDFORMAT_BEGIN
 90
        0
 91
        1
 62
     0
 92
       -2
340
14
 93
        0
 40
0.045
309
GRIDFORMAT_END
 95
       16
302
GRIDFORMAT
  1
GRIDFORMAT_BEGIN
 90
        0
 91
        1
 62
     0
 92
       -2
340
14
 93
        0
 40
0.045
309
GRIDFORMAT_END
 95
       32
302
GRIDFORMAT
  1
GRIDFORMAT_BEGIN
 90
        0
 91
        1
 62
     0
 92
       -2
340
14
 93
        0
 40
0.045
309
GRIDFORMAT_END
309
TABLEFORMAT_END
  1
CELLSTYLE_BEGIN
 90
        1
 91
        1
300
_TITLE
309
CELLSTYLE_END
300
CELLSTYLE
  1
TABLEFORMAT_BEGIN
 90
        5
170
     1
 91
        0
 92
        0
 62
   257
 93
        1
300
CONTENTFORMAT
  1
CONTENTFORMAT_BEGIN
 90
        0
 91
        0
 92
        4
 93
        0
300

 40
0.0
140
1.0
 94
        5
 62
     0
340
11
144
0.18
309
CONTENTFORMAT_END
171
     1
301
MARGIN
  1
CELLMARGIN_BEGIN
 40
0.06
 40
0.06
 40
0.06
 40
0.06
 40
0.06
 40
0.06
309
CELLMARGIN_END
 94
        6
 95
        1
302
GRIDFORMAT
  1
GRIDFORMAT_BEGIN
 90
        0
 91
        1
 62
     0
 92
       -2
340
14
 93
        0
 40
0.045
309
GRIDFORMAT_END
 95
        2
302
GRIDFORMAT
  1
GRIDFORMAT_BEGIN
 90
        0
 91
        1
 62
     0
 92
       -2
340
14
 93
        0
 40
0.045
309
GRIDFORMAT_END
 95
        4
302
GRIDFORMAT
  1
GRIDFORMAT_BEGIN
 90
        0
 91
        1
 62
     0
 92
       -2
340
14
 93
        0
 40
0.045
309
GRIDFORMAT_END
 95
        8
302
GRIDFORMAT
  1
GRIDFORMAT_BEGIN
 90
        0
 91
        1
 62
     0
 92
       -2
340
14
 93
        0
 40
0.045
309
GRIDFORMAT_END
 95
       16
302
GRIDFORMAT
  1
GRIDFORMAT_BEGIN
 90
        0
 91
        1
 62
     0
 92
       -2
340
14
 93
        0
 40
0.045
309
GRIDFORMAT_END
 95
       32
302
GRIDFORMAT
  1
GRIDFORMAT_BEGIN
 90
        0
 91
        1
 62
     0
 92
       -2
340
14
 93
        0
 40
0.045
309
GRIDFORMAT_END
309
TABLEFORMAT_END
  1
CELLSTYLE_BEGIN
 90
        2
 91
        1
300
_HEADER
309
CELLSTYLE_END
300
CELLSTYLE
  1
TABLEFORMAT_BEGIN
 90
        5
170
     1
 91
        0
 92
        0
 62
   257
 93
        1
300
CONTENTFORMAT
  1
CONTENTFORMAT_BEGIN
 90
        0
 91
        0
 92
        4
 93
        0
300

 40
0.0
140
1.0
 94
        2
 62
     0
340
11
144
0.18
309
CONTENTFORMAT_END
171
     1
301
MARGIN
  1
CELLMARGIN_BEGIN
 40
0.06
 40
0.06
 40
0.06
 40
0.06
 40
0.06
 40
0.06
309
CELLMARGIN_END
 94
        6
 95
        1
302
GRIDFORMAT
  1
GRIDFORMAT_BEGIN
 90
        0
 91
        1
 62
     0
 92
       -2
340
14
 93
        0
 40
0.045
309
GRIDFORMAT_END
 95
        2
302
GRIDFORMAT
  1
GRIDFORMAT_BEGIN
 90
        0
 91
        1
 62
     0
 92
       -2
340
14
 93
        0
 40
0.045
309
GRIDFORMAT_END
 95
        4
302
GRIDFORMAT
  1
GRIDFORMAT_BEGIN
 90
        0
 91
        1
 62
     0
 92
       -2
340
14
 93
        0
 40
0.045
309
GRIDFORMAT_END
 95
        8
302
GRIDFORMAT
  1
GRIDFORMAT_BEGIN
 90
        0
 91
        1
 62
     0
 92
       -2
340
14
 93
        0
 40
0.045
309
GRIDFORMAT_END
 95
       16
302
GRIDFORMAT
  1
GRIDFORMAT_BEGIN
 90
        0
 91
        1
 62
     0
 92
       -2
340
14
 93
        0
 40
0.045
309
GRIDFORMAT_END
 95
       32
302
GRIDFORMAT
  1
GRIDFORMAT_BEGIN
 90
        0
 91
        1
 62
     0
 92
       -2
340
14
 93
        0
 40
0.045
309
GRIDFORMAT_END
309
TABLEFORMAT_END
  1
CELLSTYLE_BEGIN
 90
        3
 91
        2
300
_DATA
309
CELLSTYLE_END
  0
ENDSEC
  0
EOF
