  0
SECTION
  2
HEADER
  9
$ACADVER
  1
AC1006
  9
$DWGCODEPAGE
  3
ansi_932
  9
$INSBASE
 10
0.0
 20
0.0
 30
0.0
  9
$EXTMIN
 10
-341.6666666666667
 20
42.69999999999999
  9
$EXTMAX
 10
-151.0333333333333
 20
255.0
  9
$LIMMIN
 10
0.0
 20
0.0
  9
$LIMMAX
 10
12.0
 20
9.0
  9
$ORTHOMODE
 70
     0
  9
$REGENMODE
 70
     1
  9
$FILLMODE
 70
     1
  9
$QTEXTMODE
 70
     0
  9
$MIRRTEXT
 70
     1
  9
$DRAGMODE
 70
     2
  9
$LTSCALE
 40
1.0
  9
$OSMODE
 70
    37
  9
$ATTMODE
 70
     1
  9
$TEXTSIZE
 40
0.2
  9
$TRACEWID
 40
0.05
  9
$TEXTSTYLE
  7
STANDARD
  9
$CLAYER
  8
0
  9
$CELTYPE
  6
BYLAYER
  9
$CECOLOR
 62
   256
  9
$DIMSCALE
 40
1.0
  9
$DIMASZ
 40
3.0
  9
$DIMEXO
 40
0.0625
  9
$DIMDLI
 40
0.38
  9
$DIMRND
 40
0.0
  9
$DIMDLE
 40
0.0
  9
$DIMEXE
 40
1.5
  9
$DIMTP
 40
0.0
  9
$DIMTM
 40
0.0
  9
$DIMTXT
 40
3.0
  9
$DIMCEN
 40
0.09
  9
$DIMTSZ
 40
0.0
  9
$DIMTOL
 70
     0
  9
$DIMLIM
 70
     0
  9
$DIMTIH
 70
     1
  9
$DIMTOH
 70
     1
  9
$DIMSE1
 70
     0
  9
$DIMSE2
 70
     0
  9
$DIMTAD
 70
     1
  9
$DIMZIN
 70
     0
  9
$DIMBLK
  1

  9
$DIMASO
 70
     1
  9
$DIMSHO
 70
     1
  9
$DIMPOST
  1

  9
$DIMAPOST
  1

  9
$DIMALT
 70
     0
  9
$DIMALTD
 70
     2
  9
$DIMALTF
 40
25.4
  9
$DIMLFAC
 40
1.0
  9
$DIMTOFL
 70
     0
  9
$DIMTVP
 40
0.0
  9
$DIMTIX
 70
     0
  9
$DIMSOXD
 70
     0
  9
$DIMSAH
 70
     0
  9
$DIMBLK1
  1

  9
$DIMBLK2
  1

  9
$LUNITS
 70
     2
  9
$LUPREC
 70
     4
  9
$SKETCHINC
 40
0.1
  9
$FILLETRAD
 40
0.5
  9
$AUNITS
 70
     0
  9
$AUPREC
 70
     0
  9
$MENU
  1
.
  9
$ELEVATION
 40
0.0
  9
$THICKNESS
 40
0.0
  9
$LIMCHECK
 70
     0
  9
$CHAMFERA
 40
0.0
  9
$CHAMFERB
 40
0.0
  9
$SKPOLY
 70
     0
  9
$TDCREATE
 40
2460710.538971921
  9
$TDUPDATE
 40
2460710.538972257
  9
$TDINDWG
 40
0.0000000116
  9
$TDUSRTIMER
 40
0.0000000116
  9
$USRTIMER
 70
     1
  9
$ANGBASE
 50
0.0
  9
$ANGDIR
 70
     0
  9
$PDMODE
 70
     0
  9
$PDSIZE
 40
0.0
  9
$PLINEWID
 40
0.0
  9
$COORDS
 70
     1
  9
$SPLFRAME
 70
     0
  9
$SPLINETYPE
 70
     6
  9
$SPLINESEGS
 70
     8
  9
$ATTDIA
 70
     0
  9
$ATTREQ
 70
     1
  9
$HANDLING
 70
     1
  9
$HANDSEED
  5
9CB
  9
$SURFTAB1
 70
     6
  9
$SURFTAB2
 70
     6
  9
$SURFTYPE
 70
     6
  9
$SURFU
 70
     6
  9
$SURFV
 70
     6
  9
$UCSNAME
  2

  9
$UCSORG
 10
0.0
 20
0.0
 30
0.0
  9
$UCSXDIR
 10
1.0
 20
0.0
 30
0.0
  9
$UCSYDIR
 10
0.0
 20
1.0
 30
0.0
  9
$USERI1
 70
     0
  9
$USERI2
 70
     0
  9
$USERI3
 70
     0
  9
$USERI4
 70
     0
  9
$USERI5
 70
     0
  9
$USERR1
 40
0.0
  9
$USERR2
 40
0.0
  9
$USERR3
 40
0.0
  9
$USERR4
 40
0.0
  9
$USERR5
 40
0.0
  9
$WORLDVIEW
 70
     1
  0
ENDSEC
  0
SECTION
  2
TABLES
  0
TABLE
  2
VPORT
 70
     1
  0
VPORT
  2
*ACTIVE
 70
     0
 10
0.0
 20
0.0
 11
1.0
 21
1.0
 12
-246.35
 22
148.85
 13
0.0
 23
0.0
 14
0.5
 24
0.5
 15
0.5
 25
0.5
 16
0.0
 26
0.0
 36
1.0
 17
0.0
 27
0.0
 37
0.0
 40
212.3
 41
1.6
 42
50.0
 43
0.0
 44
0.0
 50
0.0
 51
0.0
 71
     0
 72
   100
 73
     1
 74
     3
 75
     0
 76
     0
 77
     0
 78
     0
  0
ENDTAB
  0
TABLE
  2
LTYPE
 70
     2
  0
LTYPE
  2
CONTINUOUS
 70
     0
  3
Solid line
 72
    65
 73
     0
 40
0.0
  0
LTYPE
  2
CENTER
 70
     0
  3

 72
    65
 73
     0
 40
0.0
  0
ENDTAB
  0
TABLE
  2
LAYER
 70
     2
  0
LAYER
  2
0
 70
     0
 62
     7
  6
CONTINUOUS
  0
LAYER
  2
1
 70
     0
 62
     7
  6
CONTINUOUS
  0
ENDTAB
  0
TABLE
  2
STYLE
 70
     2
  0
STYLE
  2
STANDARD
 70
     0
 40
0.0
 41
1.0
 50
0.0
 71
     0
 42
0.2
  3
txt
  4

  0
STYLE
  2
ＭＳ_ゴシック
 70
     0
 40
0.0
 41
1.0
 50
0.0
 71
     0
 42
0.2
  3
ＭＳ ゴシック.shx
  4

  0
ENDTAB
  0
TABLE
  2
VIEW
 70
     0
  0
ENDTAB
  0
TABLE
  2
UCS
 70
     0
  0
ENDTAB
  0
ENDSEC
  0
SECTION
  2
BLOCKS
  0
BLOCK
  8
0
  2
D_FRAME_VIEW_2483
 70
     0
 10
0.0
 20
0.0
 30
0.0
  0
ARC
  5
76
  8
1
  6
CONTINUOUS
 62
     7
 10
-167.530482321372
 20
246.4610880556046
 30
0.0
 40
6.516171131530037
 50
90.90439208857553
 51
113.5434780721954
  0
ARC
  5
77
  8
1
  6
CONTINUOUS
 62
     7
 10
-167.7600227743393
 20
246.351053516351
 30
0.0
 40
6.626605076092254
 50
66.6475946299648
 51
88.90453520928422
  0
LINE
  5
78
  8
1
  6
CONTINUOUS
 62
     7
 10
-165.1333333333334
 20
249.5180598539181
 30
0.0
 11
-165.1333333333333
 21
252.4348350225361
 31
0.0
  0
ARC
  5
79
  8
1
  6
CONTINUOUS
 62
     7
 10
-167.7373764186962
 20
255.4973092491866
 30
0.0
 40
6.5216917836743
 50
270.9141006308735
 51
293.5337695298974
  0
ARC
  5
7A
  8
1
  6
CONTINUOUS
 62
     7
 10
-167.5066964836733
 20
255.6015986064952
 30
0.0
 40
6.626361361569293
 50
246.6471801038652
 51
268.9049497353639
  0
LINE
  5
7B
  8
1
  6
CONTINUOUS
 62
     7
 10
-170.1333333333333
 20
249.5180598539181
 30
0.0
 11
-170.1333333333333
 21
252.4348350225357
 31
0.0
  0
ARC
  5
7C
  8
1
  6
CONTINUOUS
 62
     7
 10
-172.5303675928648
 20
246.4605584863777
 30
0.0
 40
6.516702446524712
 50
90.9053271814527
 51
113.5425429793178
  0
ARC
  5
7D
  8
1
  6
CONTINUOUS
 62
     7
 10
-172.7602369581504
 20
246.3500648766719
 30
0.0
 40
6.627597632783069
 50
66.64928251628302
 51
88.90284732294647
  0
ARC
  5
7E
  8
1
  6
CONTINUOUS
 62
     7
 10
-172.7362990738022
 20
255.4923363900775
 30
0.0
 40
6.516702446526105
 50
270.9053271814549
 51
293.5425429793154
  0
ARC
  5
7F
  8
1
  6
CONTINUOUS
 62
     7
 10
-172.5064297085163
 20
255.6028299997819
 30
0.0
 40
6.627597632783095
 50
246.6492825162831
 51
268.9028473229461
  0
LINE
  5
80
  8
1
  6
CONTINUOUS
 62
     7
 10
-175.1333333333333
 20
249.5180598539181
 30
0.0
 11
-175.1333333333333
 21
252.4348350225357
 31
0.0
  0
LINE
  5
81
  8
1
  6
CONTINUOUS
 62
     7
 10
-172.6333333333333
 20
248.9764474382269
 30
0.0
 11
-167.6333333333333
 21
248.9764474382269
 31
0.0
  0
LINE
  5
82
  8
1
  6
CONTINUOUS
 62
     7
 10
-172.6333333333333
 20
252.9764474382269
 30
0.0
 11
-167.6333333333333
 21
252.9764474382269
 31
0.0
  0
LINE
  5
83
  8
1
  6
CONTINUOUS
 62
     7
 10
-165.1333333333333
 20
252.9764474382269
 30
0.0
 11
-165.1333333333333
 21
252.7028141972899
 31
0.0
  0
LINE
  5
84
  8
1
  6
CONTINUOUS
 62
     7
 10
-165.1333333333333
 20
252.7028141972899
 30
0.0
 11
-165.1333333333333
 21
252.4348350225361
 31
0.0
  0
LINE
  5
85
  8
1
  6
CONTINUOUS
 62
     7
 10
-167.6333333333333
 20
252.9764474382269
 30
0.0
 11
-165.1333333333333
 21
252.9764474382269
 31
0.0
  0
LINE
  5
86
  8
1
  6
CONTINUOUS
 62
     7
 10
-165.1333333333334
 20
249.5180598539181
 30
0.0
 11
-165.1333333333333
 21
249.2510252037756
 31
0.0
  0
LINE
  5
87
  8
1
  6
CONTINUOUS
 62
     7
 10
-165.1333333333333
 20
249.2510252037756
 30
0.0
 11
-165.1333333333333
 21
248.9764474382269
 31
0.0
  0
LINE
  5
88
  8
1
  6
CONTINUOUS
 62
     7
 10
-167.6333333333333
 20
248.9764474382269
 30
0.0
 11
-165.1333333333333
 21
248.9764474382269
 31
0.0
  0
LINE
  5
89
  8
1
  6
CONTINUOUS
 62
     7
 10
-175.1333333333333
 20
248.9764474382269
 30
0.0
 11
-175.1333333333333
 21
249.2500806793868
 31
0.0
  0
LINE
  5
8A
  8
1
  6
CONTINUOUS
 62
     7
 10
-175.1333333333333
 20
249.2500806793868
 30
0.0
 11
-175.1333333333333
 21
249.5180598539181
 31
0.0
  0
LINE
  5
8B
  8
1
  6
CONTINUOUS
 62
     7
 10
-175.1333333333334
 20
248.9764474382269
 30
0.0
 11
-172.6333333333333
 21
248.9764474382269
 31
0.0
  0
LINE
  5
8C
  8
1
  6
CONTINUOUS
 62
     7
 10
-175.1333333333333
 20
252.4348350225357
 30
0.0
 11
-175.1333333333333
 21
252.7018696724543
 31
0.0
  0
LINE
  5
8D
  8
1
  6
CONTINUOUS
 62
     7
 10
-175.1333333333333
 20
252.7018696724543
 30
0.0
 11
-175.1333333333333
 21
252.9764474382269
 31
0.0
  0
LINE
  5
8E
  8
1
  6
CONTINUOUS
 62
     7
 10
-175.1333333333334
 20
252.9764474382269
 30
0.0
 11
-172.6333333333333
 21
252.9764474382269
 31
0.0
  0
LINE
  5
8F
  8
1
  6
CONTINUOUS
 62
     7
 10
-173.1333333333333
 20
223.9764474382269
 30
0.0
 11
-167.1333333333333
 21
223.9764474382269
 31
0.0
  0
LINE
  5
90
  8
1
  6
CONTINUOUS
 62
     9
 10
-159.1333333333333
 20
201.3235525617731
 30
0.0
 11
-159.1333333333333
 21
222.623552561773
 31
0.0
  0
LINE
  5
91
  8
1
  6
CONTINUOUS
 62
     9
 10
-159.1333333333333
 20
201.3235525617731
 30
0.0
 11
-159.6333333333333
 21
201.3235525617731
 31
0.0
  0
LINE
  5
92
  8
1
  6
CONTINUOUS
 62
     9
 10
-159.6333333333333
 20
201.3235525617731
 30
0.0
 11
-159.6333333333333
 21
222.623552561773
 31
0.0
  0
LINE
  5
93
  8
1
  6
CONTINUOUS
 62
     9
 10
-159.1333333333333
 20
222.623552561773
 30
0.0
 11
-159.6333333333333
 21
222.623552561773
 31
0.0
  0
LINE
  5
94
  8
1
  6
CONTINUOUS
 62
     9
 10
-159.6333333333333
 20
201.3235525617731
 30
0.0
 11
-161.631064472705
 21
201.3235525617731
 31
0.0
  0
LINE
  5
95
  8
1
  6
CONTINUOUS
 62
     9
 10
-161.631064472705
 20
201.3235525617731
 30
0.0
 11
-161.631064472705
 21
222.623552561773
 31
0.0
  0
LINE
  5
96
  8
1
  6
CONTINUOUS
 62
     9
 10
-159.6333333333333
 20
222.623552561773
 30
0.0
 11
-161.631064472705
 21
222.623552561773
 31
0.0
  0
ARC
  5
97
  8
1
  6
CONTINUOUS
 62
     7
 10
-159.1333333333333
 20
228.1235525617731
 30
0.0
 40
4.500000000000004
 50
0.0000000000000883
 51
89.99999999999987
  0
LINE
  5
98
  8
1
  6
CONTINUOUS
 62
     7
 10
-154.6333333333333
 20
222.623552561773
 30
0.0
 11
-154.6333333333333
 21
228.123552561773
 31
0.0
  0
LINE
  5
99
  8
1
  6
CONTINUOUS
 62
     9
 10
-154.6333333333333
 20
222.623552561773
 30
0.0
 11
-159.1333333333333
 21
222.623552561773
 31
0.0
  0
LINE
  5
9A
  8
1
  6
CONTINUOUS
 62
     9
 10
-159.1333333333333
 20
222.623552561773
 30
0.0
 11
-159.1333333333333
 21
232.623552561773
 31
0.0
  0
LINE
  5
9B
  8
1
  6
CONTINUOUS
 62
     7
 10
-159.1333333333333
 20
232.6235525617731
 30
0.0
 11
-159.6333333333333
 21
232.623552561773
 31
0.0
  0
LINE
  5
9C
  8
1
  6
CONTINUOUS
 62
     9
 10
-159.6333333333333
 20
222.623552561773
 30
0.0
 11
-159.6333333333333
 21
232.623552561773
 31
0.0
  0
LINE
  5
9D
  8
1
  6
CONTINUOUS
 62
     7
 10
-185.6333333333333
 20
195.8235525617731
 30
0.0
 11
-185.6333333333333
 21
201.3235525617731
 31
0.0
  0
LINE
  5
9E
  8
1
  6
CONTINUOUS
 62
     9
 10
-181.1333333333333
 20
201.3235525617731
 30
0.0
 11
-185.6333333333334
 21
201.3235525617731
 31
0.0
  0
LINE
  5
9F
  8
1
  6
CONTINUOUS
 62
     9
 10
-181.1333333333333
 20
191.3235525617731
 30
0.0
 11
-181.1333333333333
 21
201.3235525617731
 31
0.0
  0
ARC
  5
A0
  8
1
  6
CONTINUOUS
 62
     7
 10
-181.1333333333333
 20
195.8235525617731
 30
0.0
 40
4.500000000000004
 50
180.0
 51
269.9999999999998
  0
LINE
  5
A1
  8
1
  6
CONTINUOUS
 62
     7
 10
-154.6333333333334
 20
201.3235525617731
 30
0.0
 11
-154.6333333333333
 21
222.623552561773
 31
0.0
  0
LINE
  5
A2
  8
1
  6
CONTINUOUS
 62
     9
 10
-154.6333333333334
 20
201.3235525617731
 30
0.0
 11
-159.1333333333333
 21
201.3235525617731
 31
0.0
  0
LINE
  5
A3
  8
1
  6
CONTINUOUS
 62
     9
 10
-180.6333333333333
 20
201.3235525617731
 30
0.0
 11
-181.1333333333333
 21
201.3235525617731
 31
0.0
  0
LINE
  5
A4
  8
1
  6
CONTINUOUS
 62
     9
 10
-180.6333333333333
 20
191.3235525617731
 30
0.0
 11
-180.6333333333333
 21
201.3235525617731
 31
0.0
  0
LINE
  5
A5
  8
1
  6
CONTINUOUS
 62
     7
 10
-180.6333333333333
 20
191.3235525617731
 30
0.0
 11
-181.1333333333333
 21
191.3235525617731
 31
0.0
  0
LINE
  5
A6
  8
1
  6
CONTINUOUS
 62
     9
 10
-181.1333333333333
 20
201.3235525617731
 30
0.0
 11
-181.1333333333333
 21
222.623552561773
 31
0.0
  0
LINE
  5
A7
  8
1
  6
CONTINUOUS
 62
     7
 10
-185.6333333333333
 20
201.3235525617731
 30
0.0
 11
-185.6333333333333
 21
222.623552561773
 31
0.0
  0
LINE
  5
A8
  8
1
  6
CONTINUOUS
 62
     9
 10
-181.1333333333333
 20
222.623552561773
 30
0.0
 11
-185.6333333333333
 21
222.623552561773
 31
0.0
  0
LINE
  5
A9
  8
1
  6
CONTINUOUS
 62
     9
 10
-180.6333333333333
 20
201.3235525617731
 30
0.0
 11
-180.6333333333333
 21
222.623552561773
 31
0.0
  0
LINE
  5
AA
  8
1
  6
CONTINUOUS
 62
     9
 10
-180.6333333333333
 20
222.623552561773
 30
0.0
 11
-181.1333333333333
 21
222.623552561773
 31
0.0
  0
LINE
  5
AB
  8
1
  6
CONTINUOUS
 62
     9
 10
-178.6356021939616
 20
201.3235525617731
 30
0.0
 11
-180.6333333333333
 21
201.3235525617731
 31
0.0
  0
LINE
  5
AC
  8
1
  6
CONTINUOUS
 62
     7
 10
-178.6356021939616
 20
193.228314466535
 30
0.0
 11
-178.6356021939616
 21
201.3235525617731
 31
0.0
  0
ARC
  5
AD
  8
1
  6
CONTINUOUS
 62
     7
 10
-180.6333333333333
 20
193.3235525617731
 30
0.0
 40
2.000000000000022
 50
269.9999999999997
 51
357.2705973632212
  0
LINE
  5
AE
  8
1
  6
CONTINUOUS
 62
     9
 10
-159.6333333333333
 20
191.3235525617731
 30
0.0
 11
-159.6333333333333
 21
201.3235525617731
 31
0.0
  0
ARC
  5
AF
  8
1
  6
CONTINUOUS
 62
     7
 10
-159.6333333333333
 20
193.3235525617731
 30
0.0
 40
2.000000000000002
 50
182.7294026367788
 51
270.0000000000006
  0
LINE
  5
B0
  8
1
  6
CONTINUOUS
 62
     7
 10
-161.631064472705
 20
193.228314466535
 30
0.0
 11
-161.631064472705
 21
201.3235525617731
 31
0.0
  0
LINE
  5
B1
  8
1
  6
CONTINUOUS
 62
     9
 10
-178.6356021939616
 20
201.3235525617731
 30
0.0
 11
-178.6356021939616
 21
222.623552561773
 31
0.0
  0
LINE
  5
B2
  8
1
  6
CONTINUOUS
 62
     9
 10
-178.6356021939616
 20
222.623552561773
 30
0.0
 11
-180.6333333333333
 21
222.623552561773
 31
0.0
  0
LINE
  5
B3
  8
1
  6
CONTINUOUS
 62
     9
 10
-159.1333333333333
 20
191.3235525617731
 30
0.0
 11
-159.1333333333333
 21
201.3235525617731
 31
0.0
  0
LINE
  5
B4
  8
1
  6
CONTINUOUS
 62
     7
 10
-159.1333333333333
 20
191.3235525617731
 30
0.0
 11
-159.6333333333333
 21
191.3235525617731
 31
0.0
  0
LINE
  5
B5
  8
1
  6
CONTINUOUS
 62
     7
 10
-180.6333333333333
 20
232.6235525617731
 30
0.0
 11
-181.1333333333333
 21
232.623552561773
 31
0.0
  0
LINE
  5
B6
  8
1
  6
CONTINUOUS
 62
     9
 10
-180.6333333333333
 20
222.623552561773
 30
0.0
 11
-180.6333333333333
 21
232.623552561773
 31
0.0
  0
LINE
  5
B7
  8
1
  6
CONTINUOUS
 62
     9
 10
-181.1333333333333
 20
222.623552561773
 30
0.0
 11
-181.1333333333333
 21
232.623552561773
 31
0.0
  0
ARC
  5
B8
  8
1
  6
CONTINUOUS
 62
     7
 10
-180.6333333333333
 20
230.6235525617731
 30
0.0
 40
2.000000000000022
 50
2.729402636778715
 51
90.00000000000038
  0
LINE
  5
B9
  8
1
  6
CONTINUOUS
 62
     7
 10
-178.6356021939616
 20
222.623552561773
 30
0.0
 11
-178.6356021939616
 21
230.7187906570111
 31
0.0
  0
ARC
  5
BA
  8
1
  6
CONTINUOUS
 62
     7
 10
-159.6333333333333
 20
230.6235525617731
 30
0.0
 40
2.000000000000002
 50
89.99999999999962
 51
177.2705973632214
  0
LINE
  5
BB
  8
1
  6
CONTINUOUS
 62
     7
 10
-161.631064472705
 20
222.623552561773
 30
0.0
 11
-161.631064472705
 21
230.7187906570111
 31
0.0
  0
LINE
  5
BC
  8
1
  6
CONTINUOUS
 62
     7
 10
-154.6333333333334
 20
195.8235525617731
 30
0.0
 11
-154.6333333333334
 21
201.3235525617731
 31
0.0
  0
ARC
  5
BD
  8
1
  6
CONTINUOUS
 62
     7
 10
-159.1333333333333
 20
195.8235525617731
 30
0.0
 40
4.499999999999976
 50
270.0000000000001
 51
359.9999999999998
  0
LINE
  5
BE
  8
1
  6
CONTINUOUS
 62
     7
 10
-185.6333333333333
 20
222.623552561773
 30
0.0
 11
-185.6333333333333
 21
228.123552561773
 31
0.0
  0
ARC
  5
BF
  8
1
  6
CONTINUOUS
 62
     7
 10
-181.1333333333333
 20
228.1235525617731
 30
0.0
 40
4.500000000000004
 50
90.00000000000028
 51
180.0
  0
LINE
  5
C0
  8
1
  6
CONTINUOUS
 62
     9
 10
-178.535715636993
 20
201.3235525617731
 30
0.0
 11
-178.535715636993
 21
222.623552561773
 31
0.0
  0
LINE
  5
C1
  8
1
  6
CONTINUOUS
 62
     9
 10
-178.6356021939616
 20
201.3235525617731
 30
0.0
 11
-178.535715636993
 21
201.3235525617731
 31
0.0
  0
LINE
  5
C2
  8
1
  6
CONTINUOUS
 62
     9
 10
-178.6356021939616
 20
222.623552561773
 30
0.0
 11
-178.535715636993
 21
222.623552561773
 31
0.0
  0
LINE
  5
C3
  8
1
  6
CONTINUOUS
 62
     9
 10
-178.535715636993
 20
193.3235525617731
 30
0.0
 11
-178.535715636993
 21
201.3235525617731
 31
0.0
  0
ARC
  5
C4
  8
1
  6
CONTINUOUS
 62
     7
 10
-178.535715636993
 20
193.2235525617731
 30
0.0
 40
0.1000000000000167
 50
89.99999999998609
 51
177.2705973632222
  0
LINE
  5
C5
  8
1
  6
CONTINUOUS
 62
     9
 10
-161.7309510296736
 20
201.3235525617731
 30
0.0
 11
-161.631064472705
 21
201.3235525617731
 31
0.0
  0
ARC
  5
C6
  8
1
  6
CONTINUOUS
 62
     7
 10
-161.7309510296736
 20
193.2235525617731
 30
0.0
 40
0.1000000000000186
 50
2.729402636778047
 51
90.00000000000692
  0
LINE
  5
C7
  8
1
  6
CONTINUOUS
 62
     9
 10
-161.7309510296736
 20
193.3235525617731
 30
0.0
 11
-161.7309510296736
 21
201.3235525617731
 31
0.0
  0
LINE
  5
C8
  8
1
  6
CONTINUOUS
 62
     9
 10
-161.7309510296736
 20
201.3235525617731
 30
0.0
 11
-161.7309510296736
 21
222.623552561773
 31
0.0
  0
LINE
  5
C9
  8
1
  6
CONTINUOUS
 62
     9
 10
-161.7309510296736
 20
222.623552561773
 30
0.0
 11
-161.631064472705
 21
222.623552561773
 31
0.0
  0
ARC
  5
CA
  8
1
  6
CONTINUOUS
 62
     7
 10
-161.7309510296736
 20
230.7235525617731
 30
0.0
 40
0.0999999999999896
 50
269.999999999993
 51
357.2705973632219
  0
LINE
  5
CB
  8
1
  6
CONTINUOUS
 62
     9
 10
-161.7309510296736
 20
222.623552561773
 30
0.0
 11
-161.7309510296736
 21
230.623552561773
 31
0.0
  0
ARC
  5
CC
  8
1
  6
CONTINUOUS
 62
     7
 10
-178.535715636993
 20
230.7235525617731
 30
0.0
 40
0.099999999999989
 50
182.7294026367778
 51
270.0000000000119
  0
LINE
  5
CD
  8
1
  6
CONTINUOUS
 62
     9
 10
-178.535715636993
 20
222.623552561773
 30
0.0
 11
-178.535715636993
 21
230.623552561773
 31
0.0
  0
LINE
  5
CE
  8
1
  6
CONTINUOUS
 62
     9
 10
-161.7309510296736
 20
201.3235525617731
 30
0.0
 11
-178.535715636993
 21
201.3235525617731
 31
0.0
  0
LINE
  5
CF
  8
1
  6
CONTINUOUS
 62
     9
 10
-161.7309510296736
 20
222.623552561773
 30
0.0
 11
-178.535715636993
 21
222.623552561773
 31
0.0
  0
LINE
  5
D0
  8
1
  6
CONTINUOUS
 62
     7
 10
-172.9914069137076
 20
205.073552561773
 30
0.0
 11
-177.0333333333333
 21
209.1154789813987
 31
0.0
  0
LINE
  5
D1
  8
1
  6
CONTINUOUS
 62
     7
 10
-163.2333333333333
 20
209.1154789813987
 30
0.0
 11
-167.275259752959
 21
205.073552561773
 31
0.0
  0
LINE
  5
D2
  8
1
  6
CONTINUOUS
 62
     7
 10
-163.2333333333333
 20
214.8316261421474
 30
0.0
 11
-163.2333333333333
 21
209.1154789813987
 31
0.0
  0
LINE
  5
D3
  8
1
  6
CONTINUOUS
 62
     7
 10
-172.9914069137077
 20
218.873552561773
 30
0.0
 11
-167.275259752959
 21
218.873552561773
 31
0.0
  0
LINE
  5
D4
  8
1
  6
CONTINUOUS
 62
     7
 10
-177.0333333333333
 20
214.8316261421474
 30
0.0
 11
-172.9914069137077
 21
218.873552561773
 31
0.0
  0
LINE
  5
D5
  8
1
  6
CONTINUOUS
 62
     7
 10
-177.0333333333333
 20
209.1154789813987
 30
0.0
 11
-177.0333333333333
 21
214.8316261421474
 31
0.0
  0
LINE
  5
D6
  8
1
  6
CONTINUOUS
 62
     7
 10
-167.275259752959
 20
205.073552561773
 30
0.0
 11
-172.9914069137076
 21
205.073552561773
 31
0.0
  0
LINE
  5
D7
  8
1
  6
CONTINUOUS
 62
     7
 10
-167.275259752959
 20
218.873552561773
 30
0.0
 11
-163.2333333333333
 21
214.8316261421474
 31
0.0
  0
LINE
  5
D8
  8
1
  6
CONTINUOUS
 62
     7
 10
-174.3833333333333
 20
225.8735525617731
 30
0.0
 11
-174.6333333333333
 21
225.8735525617731
 31
0.0
  0
ARC
  5
D9
  8
1
  6
CONTINUOUS
 62
     7
 10
-174.6333180227567
 20
224.3735372511964
 30
0.0
 40
1.500015310654778
 50
90.00058481497966
 51
179.9994151850204
  0
LINE
  5
DA
  8
1
  6
CONTINUOUS
 62
     7
 10
-174.6333333333333
 20
222.8735525617731
 30
0.0
 11
-165.6333333333333
 21
222.8735525617731
 31
0.0
  0
ARC
  5
DB
  8
1
  6
CONTINUOUS
 62
     7
 10
-165.6333535456393
 20
224.3735323494671
 30
0.0
 40
1.500020212442146
 50
0.0007720428131717
 51
89.99922795718577
  0
LINE
  5
DC
  8
1
  6
CONTINUOUS
 62
     7
 10
-165.6333333333333
 20
225.8735525617731
 30
0.0
 11
-165.8833333333333
 21
225.873552561773
 31
0.0
  0
POLYLINE
  5
DD
  8
1
  6
CONTINUOUS
 62
     7
 66
     1
 10
0.0
 20
0.0
 30
0.0
  0
VERTEX
  5
52D
  8
1
  6
CONTINUOUS
 62
     7
 10
-165.8833333333333
 20
225.873552561773
 30
0.0
  0
VERTEX
  5
52E
  8
1
  6
CONTINUOUS
 62
     7
 10
-165.9219865529232
 20
225.8743033689861
 30
0.0
  0
VERTEX
  5
52F
  8
1
  6
CONTINUOUS
 62
     7
 10
-165.9606049937269
 20
225.8765487133213
 30
0.0
  0
VERTEX
  5
530
  8
1
  6
CONTINUOUS
 62
     7
 10
-165.9990857362968
 20
225.8802779788233
 30
0.0
  0
VERTEX
  5
531
  8
1
  6
CONTINUOUS
 62
     7
 10
-166.0373258611854
 20
225.8854805495362
 30
0.0
  0
VERTEX
  5
532
  8
1
  6
CONTINUOUS
 62
     7
 10
-166.0764197561222
 20
225.8923746719621
 30
0.0
  0
VERTEX
  5
533
  8
1
  6
CONTINUOUS
 62
     7
 10
-166.1151868103503
 20
225.9008087792996
 30
0.0
  0
VERTEX
  5
534
  8
1
  6
CONTINUOUS
 62
     7
 10
-166.153521521959
 20
225.910748976125
 30
0.0
  0
VERTEX
  5
535
  8
1
  6
CONTINUOUS
 62
     7
 10
-166.1913183890375
 20
225.9221613670151
 30
0.0
  0
VERTEX
  5
536
  8
1
  6
CONTINUOUS
 62
     7
 10
-166.2274633914695
 20
225.9346339141136
 30
0.0
  0
VERTEX
  5
537
  8
1
  6
CONTINUOUS
 62
     7
 10
-166.2630431855193
 20
225.9484529745449
 30
0.0
  0
VERTEX
  5
538
  8
1
  6
CONTINUOUS
 62
     7
 10
-166.2979730892048
 20
225.9635703783403
 30
0.0
  0
VERTEX
  5
539
  8
1
  6
CONTINUOUS
 62
     7
 10
-166.3321684205441
 20
225.9799379555314
 30
0.0
  0
VERTEX
  5
53A
  8
1
  6
CONTINUOUS
 62
     7
 10
-166.3665151219284
 20
225.9980361015568
 30
0.0
  0
VERTEX
  5
53B
  8
1
  6
CONTINUOUS
 62
     7
 10
-166.4000388212808
 20
226.0173959013444
 30
0.0
  0
VERTEX
  5
53C
  8
1
  6
CONTINUOUS
 62
     7
 10
-166.4326646895815
 20
226.0379517359681
 30
0.0
  0
VERTEX
  5
53D
  8
1
  6
CONTINUOUS
 62
     7
 10
-166.4643178978106
 20
226.0596379865017
 30
0.0
  0
VERTEX
  5
53E
  8
1
  6
CONTINUOUS
 62
     7
 10
-166.5054058614593
 20
226.0906219147901
 30
0.0
  0
VERTEX
  5
53F
  8
1
  6
CONTINUOUS
 62
     7
 10
-166.5446956292568
 20
226.1235639920422
 30
0.0
  0
VERTEX
  5
540
  8
1
  6
CONTINUOUS
 62
     7
 10
-166.582074539909
 20
226.1582822409893
 30
0.0
  0
VERTEX
  5
541
  8
1
  6
CONTINUOUS
 62
     7
 10
-166.6174299321217
 20
226.1945946843624
 30
0.0
  0
VERTEX
  5
542
  8
1
  6
CONTINUOUS
 62
     7
 10
-166.6506491446009
 20
226.2323193448927
 30
0.0
  0
VERTEX
  5
543
  8
1
  6
CONTINUOUS
 62
     7
 10
-166.6816195160523
 20
226.2712742453113
 30
0.0
  0
VERTEX
  5
544
  8
1
  6
CONTINUOUS
 62
     7
 10
-166.7125590746585
 20
226.3146739161025
 30
0.0
  0
VERTEX
  5
545
  8
1
  6
CONTINUOUS
 62
     7
 10
-166.7409791790971
 20
226.3594108656204
 30
0.0
  0
VERTEX
  5
546
  8
1
  6
CONTINUOUS
 62
     7
 10
-166.7668419884579
 20
226.4052768939336
 30
0.0
  0
VERTEX
  5
547
  8
1
  6
CONTINUOUS
 62
     7
 10
-166.7901096618303
 20
226.4520638011109
 30
0.0
  0
VERTEX
  5
548
  8
1
  6
CONTINUOUS
 62
     7
 10
-166.810744358304
 20
226.499563387221
 30
0.0
  0
VERTEX
  5
549
  8
1
  6
CONTINUOUS
 62
     7
 10
-166.8287082369684
 20
226.5475674523325
 30
0.0
  0
VERTEX
  5
54A
  8
1
  6
CONTINUOUS
 62
     7
 10
-166.8455166220165
 20
226.6012109875522
 30
0.0
  0
VERTEX
  5
54B
  8
1
  6
CONTINUOUS
 62
     7
 10
-166.8592057634545
 20
226.6554102486709
 30
0.0
  0
VERTEX
  5
54C
  8
1
  6
CONTINUOUS
 62
     7
 10
-166.8698038332937
 20
226.7099546361705
 30
0.0
  0
VERTEX
  5
54D
  8
1
  6
CONTINUOUS
 62
     7
 10
-166.8773390035456
 20
226.7646335505328
 30
0.0
  0
VERTEX
  5
54E
  8
1
  6
CONTINUOUS
 62
     7
 10
-166.8818394462216
 20
226.8192363922397
 30
0.0
  0
VERTEX
  5
54F
  8
1
  6
CONTINUOUS
 62
     7
 10
-166.8833333333333
 20
226.873552561773
 30
0.0
  0
SEQEND
  5
998
  8
1
  6
CONTINUOUS
 62
     7
  0
LINE
  5
DE
  8
1
  6
CONTINUOUS
 62
     7
 10
-166.8833333333333
 20
226.873552561773
 30
0.0
 11
-166.8833333333333
 21
229.2379308394345
 31
0.0
  0
ARC
  5
DF
  8
1
  6
CONTINUOUS
 62
     7
 10
-168.2886178549989
 20
227.6782300465809
 30
0.0
 40
2.363419655093561
 50
62.02106539738543
 51
92.29677824000032
  0
POLYLINE
  5
E0
  8
1
  6
CONTINUOUS
 62
     7
 66
     1
 10
0.0
 20
0.0
 30
0.0
  0
VERTEX
  5
550
  8
1
  6
CONTINUOUS
 62
     7
 10
-167.1798268360623
 20
229.7654135417265
 30
0.0
  0
VERTEX
  5
551
  8
1
  6
CONTINUOUS
 62
     7
 10
-167.0928340807461
 20
229.6978097171524
 30
0.0
  0
VERTEX
  5
552
  8
1
  6
CONTINUOUS
 62
     7
 10
-167.0209472200532
 20
229.6237411881991
 30
0.0
  0
VERTEX
  5
553
  8
1
  6
CONTINUOUS
 62
     7
 10
-166.9393842031392
 20
229.4966793331853
 30
0.0
  0
VERTEX
  5
554
  8
1
  6
CONTINUOUS
 62
     7
 10
-166.9032715592566
 20
229.3969519184033
 30
0.0
  0
VERTEX
  5
555
  8
1
  6
CONTINUOUS
 62
     7
 10
-166.8855220154129
 20
229.2919592268694
 30
0.0
  0
VERTEX
  5
556
  8
1
  6
CONTINUOUS
 62
     7
 10
-166.8833333333333
 20
229.2379308394345
 30
0.0
  0
SEQEND
  5
999
  8
1
  6
CONTINUOUS
 62
     7
  0
LINE
  5
E1
  8
1
  6
CONTINUOUS
 62
     7
 10
-171.8833333333333
 20
230.0397510488687
 30
0.0
 11
-168.3833333333333
 21
230.0397510488687
 31
0.0
  0
POLYLINE
  5
E2
  8
1
  6
CONTINUOUS
 62
     7
 66
     1
 10
0.0
 20
0.0
 30
0.0
  0
VERTEX
  5
557
  8
1
  6
CONTINUOUS
 62
     7
 10
-173.3833333333333
 20
229.2379308394345
 30
0.0
  0
VERTEX
  5
558
  8
1
  6
CONTINUOUS
 62
     7
 10
-173.372882947736
 20
229.3547576128986
 30
0.0
  0
VERTEX
  5
559
  8
1
  6
CONTINUOUS
 62
     7
 10
-173.3456427855185
 20
229.4532918750179
 30
0.0
  0
VERTEX
  5
55A
  8
1
  6
CONTINUOUS
 62
     7
 10
-173.2834190512247
 20
229.5737239462272
 30
0.0
  0
VERTEX
  5
55B
  8
1
  6
CONTINUOUS
 62
     7
 10
-173.1926904213581
 20
229.6805180715867
 30
0.0
  0
VERTEX
  5
55C
  8
1
  6
CONTINUOUS
 62
     7
 10
-173.1139491395202
 20
229.746273623322
 30
0.0
  0
SEQEND
  5
99A
  8
1
  6
CONTINUOUS
 62
     7
  0
ARC
  5
E3
  8
1
  6
CONTINUOUS
 62
     7
 10
-172.0118456028622
 20
227.8517704929407
 30
0.0
 40
2.191751426722098
 50
86.63856209361755
 51
120.1881697026952
  0
LINE
  5
E4
  8
1
  6
CONTINUOUS
 62
     7
 10
-173.3833333333333
 20
229.2379308394345
 30
0.0
 11
-173.3833333333333
 21
226.873552561773
 31
0.0
  0
POLYLINE
  5
E5
  8
1
  6
CONTINUOUS
 62
     7
 66
     1
 10
0.0
 20
0.0
 30
0.0
  0
VERTEX
  5
55D
  8
1
  6
CONTINUOUS
 62
     7
 10
-173.3833333333333
 20
226.873552561773
 30
0.0
  0
VERTEX
  5
55E
  8
1
  6
CONTINUOUS
 62
     7
 10
-173.3843464358525
 20
226.8286072976223
 30
0.0
  0
VERTEX
  5
55F
  8
1
  6
CONTINUOUS
 62
     7
 10
-173.3873999478645
 20
226.7835096785462
 30
0.0
  0
VERTEX
  5
560
  8
1
  6
CONTINUOUS
 62
     7
 10
-173.392515176051
 20
226.7383697406646
 30
0.0
  0
VERTEX
  5
561
  8
1
  6
CONTINUOUS
 62
     7
 10
-173.3997134270938
 20
226.6932975200977
 30
0.0
  0
VERTEX
  5
562
  8
1
  6
CONTINUOUS
 62
     7
 10
-173.4093165313343
 20
226.6470943110421
 30
0.0
  0
VERTEX
  5
563
  8
1
  6
CONTINUOUS
 62
     7
 10
-173.42118246899
 20
226.6010607895567
 30
0.0
  0
VERTEX
  5
564
  8
1
  6
CONTINUOUS
 62
     7
 10
-173.4353174471548
 20
226.5553417381115
 30
0.0
  0
VERTEX
  5
565
  8
1
  6
CONTINUOUS
 62
     7
 10
-173.4517276729225
 20
226.5100819391768
 30
0.0
  0
VERTEX
  5
566
  8
1
  6
CONTINUOUS
 62
     7
 10
-173.4699386199458
 20
226.4664896823343
 30
0.0
  0
VERTEX
  5
567
  8
1
  6
CONTINUOUS
 62
     7
 10
-173.4903618572684
 20
226.4234587102015
 30
0.0
  0
VERTEX
  5
568
  8
1
  6
CONTINUOUS
 62
     7
 10
-173.512973028645
 20
226.3811470262996
 30
0.0
  0
VERTEX
  5
569
  8
1
  6
CONTINUOUS
 62
     7
 10
-173.5377477778304
 20
226.3397126341497
 30
0.0
  0
VERTEX
  5
56A
  8
1
  6
CONTINUOUS
 62
     7
 10
-173.5657633980175
 20
226.2977367309294
 30
0.0
  0
VERTEX
  5
56B
  8
1
  6
CONTINUOUS
 62
     7
 10
-173.5961363796305
 20
226.2568731259649
 30
0.0
  0
VERTEX
  5
56C
  8
1
  6
CONTINUOUS
 62
     7
 10
-173.6287875007061
 20
226.217316872238
 30
0.0
  0
VERTEX
  5
56D
  8
1
  6
CONTINUOUS
 62
     7
 10
-173.6636375392811
 20
226.1792630227308
 30
0.0
  0
VERTEX
  5
56E
  8
1
  6
CONTINUOUS
 62
     7
 10
-173.6948903009946
 20
226.148269146298
 30
0.0
  0
VERTEX
  5
56F
  8
1
  6
CONTINUOUS
 62
     7
 10
-173.7277062066785
 20
226.118479663481
 30
0.0
  0
VERTEX
  5
570
  8
1
  6
CONTINUOUS
 62
     7
 10
-173.7619994086228
 20
226.0900131017058
 30
0.0
  0
VERTEX
  5
571
  8
1
  6
CONTINUOUS
 62
     7
 10
-173.7976840591171
 20
226.0629879883984
 30
0.0
  0
VERTEX
  5
572
  8
1
  6
CONTINUOUS
 62
     7
 10
-173.8361489445852
 20
226.0365488183885
 30
0.0
  0
VERTEX
  5
573
  8
1
  6
CONTINUOUS
 62
     7
 10
-173.8760582479283
 20
226.0117827537391
 30
0.0
  0
VERTEX
  5
574
  8
1
  6
CONTINUOUS
 62
     7
 10
-173.9172748482262
 20
225.9888064970508
 30
0.0
  0
VERTEX
  5
575
  8
1
  6
CONTINUOUS
 62
     7
 10
-173.9596616245586
 20
225.9677367509241
 30
0.0
  0
VERTEX
  5
576
  8
1
  6
CONTINUOUS
 62
     7
 10
-173.9967379119627
 20
225.9513076565558
 30
0.0
  0
VERTEX
  5
577
  8
1
  6
CONTINUOUS
 62
     7
 10
-174.0346046985325
 20
225.9363366974636
 30
0.0
  0
VERTEX
  5
578
  8
1
  6
CONTINUOUS
 62
     7
 10
-174.0731555252316
 20
225.9228783582932
 30
0.0
  0
VERTEX
  5
579
  8
1
  6
CONTINUOUS
 62
     7
 10
-174.1122839330235
 20
225.9109871236902
 30
0.0
  0
VERTEX
  5
57A
  8
1
  6
CONTINUOUS
 62
     7
 10
-174.1532831039278
 20
225.9003789957071
 30
0.0
  0
VERTEX
  5
57B
  8
1
  6
CONTINUOUS
 62
     7
 10
-174.1948194396436
 20
225.8914911784555
 30
0.0
  0
VERTEX
  5
57C
  8
1
  6
CONTINUOUS
 62
     7
 10
-174.236760372747
 20
225.8843577964903
 30
0.0
  0
VERTEX
  5
57D
  8
1
  6
CONTINUOUS
 62
     7
 10
-174.2789733358141
 20
225.879012974367
 30
0.0
  0
VERTEX
  5
57E
  8
1
  6
CONTINUOUS
 62
     7
 10
-174.3136714908493
 20
225.8759829288723
 30
0.0
  0
VERTEX
  5
57F
  8
1
  6
CONTINUOUS
 62
     7
 10
-174.3484834115119
 20
225.8741610328122
 30
0.0
  0
VERTEX
  5
580
  8
1
  6
CONTINUOUS
 62
     7
 10
-174.3833333333333
 20
225.8735525617731
 30
0.0
  0
SEQEND
  5
99B
  8
1
  6
CONTINUOUS
 62
     7
  0
LINE
  5
E6
  8
1
  6
CONTINUOUS
 62
     7
 10
-170.1333333333334
 20
230.6235525617731
 30
0.0
 11
-178.535715636993
 21
230.6235525617731
 31
0.0
  0
LINE
  5
E7
  8
1
  6
CONTINUOUS
 62
     7
 10
-161.7309510296736
 20
230.6235525617731
 30
0.0
 11
-170.1333333333334
 21
230.6235525617731
 31
0.0
  0
ARC
  5
E8
  8
1
  6
CONTINUOUS
 62
     7
 10
-165.6333557779481
 20
224.3735750063878
 30
0.0
 40
1.500022444782641
 50
270.0008573083028
 51
359.9991426916961
  0
ARC
  5
E9
  8
1
  6
CONTINUOUS
 62
     7
 10
-174.6333110826168
 20
224.3735748124896
 30
0.0
 40
1.500022250881522
 50
180.0008499021567
 51
269.9991500978433
  0
ARC
  5
EA
  8
1
  6
CONTINUOUS
 62
     7
 10
-174.6333131210274
 20
199.573572774079
 30
0.0
 40
1.500020212442146
 50
180.0007720428142
 51
269.9992279571858
  0
LINE
  5
EB
  8
1
  6
CONTINUOUS
 62
     7
 10
-174.6333333333333
 20
198.0735525617731
 30
0.0
 11
-165.6333333333333
 21
198.0735525617731
 31
0.0
  0
ARC
  5
EC
  8
1
  6
CONTINUOUS
 62
     7
 10
-165.63334864391
 20
199.5735678723497
 30
0.0
 40
1.500015310654778
 50
270.0005848149797
 51
359.9994151850203
  0
LINE
  5
ED
  8
1
  6
CONTINUOUS
 62
     7
 10
-165.6333333333333
 20
201.0735525617731
 30
0.0
 11
-174.6333333333333
 21
201.0735525617731
 31
0.0
  0
LINE
  5
EE
  8
1
  6
CONTINUOUS
 62
     7
 10
-161.7309510296736
 20
193.3235525617731
 30
0.0
 11
-178.535715636993
 21
193.3235525617731
 31
0.0
  0
ARC
  5
EF
  8
1
  6
CONTINUOUS
 62
     7
 10
-174.6333108887186
 20
199.5735301171583
 30
0.0
 40
1.500022444782669
 50
90.00085730830395
 51
179.9991426916961
  0
ARC
  5
F0
  8
1
  6
CONTINUOUS
 62
     7
 10
-165.6333555840498
 20
199.5735303110565
 30
0.0
 40
1.50002225088155
 50
0.0008499021577812
 51
89.99915009784222
  0
ARC
  5
F1
  8
1
  6
CONTINUOUS
 62
     7
 10
-171.9505537317746
 20
225.9437203482225
 30
0.0
 40
1.877188572690474
 50
87.94785203200439
 51
123.312545160753
  0
POLYLINE
  5
F2
  8
1
  6
CONTINUOUS
 62
     7
 66
     1
 10
0.0
 20
0.0
 30
0.0
  0
VERTEX
  5
581
  8
1
  6
CONTINUOUS
 62
     7
 10
-172.9815165995507
 20
227.5124626797437
 30
0.0
  0
VERTEX
  5
582
  8
1
  6
CONTINUOUS
 62
     7
 10
-173.0729057423844
 20
227.433782377175
 30
0.0
  0
VERTEX
  5
583
  8
1
  6
CONTINUOUS
 62
     7
 10
-173.1552653536535
 20
227.3428951465497
 30
0.0
  0
VERTEX
  5
584
  8
1
  6
CONTINUOUS
 62
     7
 10
-173.2237794917053
 20
227.2447079826304
 30
0.0
  0
VERTEX
  5
585
  8
1
  6
CONTINUOUS
 62
     7
 10
-173.2820000353131
 20
227.1328453938728
 30
0.0
  0
VERTEX
  5
586
  8
1
  6
CONTINUOUS
 62
     7
 10
-173.3283407029973
 20
227.0063779187821
 30
0.0
  0
VERTEX
  5
587
  8
1
  6
CONTINUOUS
 62
     7
 10
-173.3597876261305
 20
226.8735525617731
 30
0.0
  0
SEQEND
  5
99C
  8
1
  6
CONTINUOUS
 62
     7
  0
LINE
  5
F3
  8
1
  6
CONTINUOUS
 62
     7
 10
-168.3833333333333
 20
227.8197049844797
 30
0.0
 11
-171.8833333333333
 21
227.8197049844797
 31
0.0
  0
POLYLINE
  5
F4
  8
1
  6
CONTINUOUS
 62
     7
 66
     1
 10
0.0
 20
0.0
 30
0.0
  0
VERTEX
  5
588
  8
1
  6
CONTINUOUS
 62
     7
 10
-166.9068790405362
 20
226.873552561773
 30
0.0
  0
VERTEX
  5
589
  8
1
  6
CONTINUOUS
 62
     7
 10
-166.9372047380097
 20
227.0026499329602
 30
0.0
  0
VERTEX
  5
58A
  8
1
  6
CONTINUOUS
 62
     7
 10
-166.9815176425956
 20
227.1256672977374
 30
0.0
  0
VERTEX
  5
58B
  8
1
  6
CONTINUOUS
 62
     7
 10
-167.0432448416964
 20
227.2453083433391
 30
0.0
  0
VERTEX
  5
58C
  8
1
  6
CONTINUOUS
 62
     7
 10
-167.1222636315417
 20
227.35644672942
 30
0.0
  0
VERTEX
  5
58D
  8
1
  6
CONTINUOUS
 62
     7
 10
-167.2091089732573
 20
227.4483975067881
 30
0.0
  0
SEQEND
  5
99D
  8
1
  6
CONTINUOUS
 62
     7
  0
ARC
  5
F5
  8
1
  6
CONTINUOUS
 62
     7
 10
-168.2827855079836
 20
226.0953380433799
 30
0.0
 40
1.727295925063329
 50
51.56738006144517
 51
93.33713781039822
  0
LINE
  5
F6
  8
1
  6
CONTINUOUS
 62
     9
 10
-171.8833333333333
 20
230.0397510488687
 30
0.0
 11
-171.8833333333333
 21
227.8197049844797
 31
0.0
  0
LINE
  5
F7
  8
1
  6
CONTINUOUS
 62
     9
 10
-168.3833333333333
 20
227.8197049844797
 30
0.0
 11
-168.3833333333333
 21
230.0397510488687
 31
0.0
  0
LINE
  5
F8
  8
1
  6
CONTINUOUS
 62
     7
 10
-166.8500630032817
 20
226.6235525617731
 30
0.0
 11
-173.4164817130209
 21
226.6235525617731
 31
0.0
  0
LINE
  5
F9
  8
1
  6
CONTINUOUS
 62
     7
 10
-162.8961367385415
 20
175.2735525617731
 30
0.0
 11
-162.8961367385415
 21
184.7735525617731
 31
0.0
  0
LINE
  5
FA
  8
1
  6
CONTINUOUS
 62
     7
 10
-161.7177243622792
 20
177.5735525617731
 30
0.0
 11
-161.7177243622792
 21
177.6481578577292
 31
0.0
  0
LINE
  5
FB
  8
1
  6
CONTINUOUS
 62
     7
 10
-161.7177243622792
 20
182.398947265817
 30
0.0
 11
-161.7177243622792
 21
182.4735525617731
 31
0.0
  0
ARC
  5
FC
  8
1
  6
CONTINUOUS
 62
     7
 10
-169.3333333333333
 20
180.0235525617731
 30
0.0
 40
7.977468270071661
 50
4.313393737916621
 51
17.32329179168077
  0
LINE
  5
FD
  8
1
  6
CONTINUOUS
 62
     7
 10
-161.7177243622792
 20
180.6235525617731
 30
0.0
 11
-161.3784606127928
 21
180.6235525617731
 31
0.0
  0
LINE
  5
FE
  8
1
  6
CONTINUOUS
 62
     7
 10
-161.7177243622792
 20
179.4235525617731
 30
0.0
 11
-161.7177243622792
 21
180.6235525617731
 31
0.0
  0
LINE
  5
FF
  8
1
  6
CONTINUOUS
 62
     7
 10
-161.3784606127928
 20
179.4235525617731
 30
0.0
 11
-161.7177243622792
 21
179.4235525617731
 31
0.0
  0
ARC
  5
100
  8
1
  6
CONTINUOUS
 62
     7
 10
-169.3333333333333
 20
180.0235525617731
 30
0.0
 40
7.977468270071652
 50
342.6767082083191
 51
355.6866062620833
  0
LINE
  5
101
  8
1
  6
CONTINUOUS
 62
     7
 10
-184.6333333333333
 20
182.5235525617731
 30
0.0
 11
-184.6333333333333
 21
177.5235525617731
 31
0.0
  0
LINE
  5
102
  8
1
  6
CONTINUOUS
 62
     7
 10
-185.0333333333333
 20
177.9235525617731
 30
0.0
 11
-185.0333333333333
 21
182.1235525617731
 31
0.0
  0
LINE
  5
103
  8
1
  6
CONTINUOUS
 62
     7
 10
-178.7605976895872
 20
184.0235525617731
 30
0.0
 11
-175.2333333333333
 21
184.0235525617731
 31
0.0
  0
LINE
  5
104
  8
1
  6
CONTINUOUS
 62
     7
 10
-178.7605976895872
 20
180.0235525617731
 30
0.0
 11
-175.2333333333333
 21
180.0235525617731
 31
0.0
  0
ARC
  5
105
  8
1
  6
CONTINUOUS
 62
     7
 10
-173.3360048379724
 20
182.0235525617731
 30
0.0
 40
5.781540245106959
 50
159.7615100320836
 51
200.2384899679164
  0
LINE
  5
106
  8
1
  6
CONTINUOUS
 62
     7
 10
-178.7605976895872
 20
176.0235525617731
 30
0.0
 11
-175.2333333333333
 21
176.0235525617731
 31
0.0
  0
ARC
  5
107
  8
1
  6
CONTINUOUS
 62
     7
 10
-173.3360048379724
 20
178.0235525617731
 30
0.0
 40
5.781540245106959
 50
159.7615100320836
 51
200.2384899679164
  0
LINE
  5
108
  8
1
  6
CONTINUOUS
 62
     7
 10
-179.1178632747693
 20
176.0235525617731
 30
0.0
 11
-178.7605976895872
 21
176.0235525617731
 31
0.0
  0
LINE
  5
109
  8
1
  6
CONTINUOUS
 62
     7
 10
-178.7605976895872
 20
184.0235525617731
 30
0.0
 11
-179.1178632747986
 21
184.0235525617731
 31
0.0
  0
LINE
  5
10A
  8
1
  6
CONTINUOUS
 62
     7
 10
-179.2333333333333
 20
176.2235525617731
 30
0.0
 11
-179.2333333333333
 21
183.8235525617731
 31
0.0
  0
LINE
  5
10B
  8
1
  6
CONTINUOUS
 62
     7
 10
-174.7647041832318
 20
198.3235525617731
 30
0.0
 11
-173.1647041832318
 21
198.3235525617731
 31
0.0
  0
LINE
  5
10C
  8
1
  6
CONTINUOUS
 62
     7
 10
-173.1647041832318
 20
198.3235525617731
 30
0.0
 11
-173.1647041832318
 21
198.0735525617731
 31
0.0
  0
LINE
  5
10D
  8
1
  6
CONTINUOUS
 62
     7
 10
-174.7647041832318
 20
198.0794458838
 30
0.0
 11
-174.7647041832318
 21
198.3235525617731
 31
0.0
  0
LINE
  5
10E
  8
1
  6
CONTINUOUS
 62
     9
 10
-173.6333333333333
 20
188.9640509717327
 30
0.0
 11
-175.2333333333333
 21
189.369481853338
 31
0.0
  0
LINE
  5
10F
  8
1
  6
CONTINUOUS
 62
     7
 10
-175.2333333333333
 20
189.369481853338
 30
0.0
 11
-175.2333333333333
 21
190.0235525617731
 31
0.0
  0
LINE
  5
110
  8
1
  6
CONTINUOUS
 62
     7
 10
-175.2333333333333
 20
190.0235525617731
 30
0.0
 11
-175.1560212134413
 21
190.6009652548664
 31
0.0
  0
LINE
  5
111
  8
1
  6
CONTINUOUS
 62
     9
 10
-175.1560212134413
 20
190.6009652548664
 30
0.0
 11
-173.6333333333333
 21
190.8609168415667
 31
0.0
  0
LINE
  5
112
  8
1
  6
CONTINUOUS
 62
     7
 10
-173.6333333333333
 20
190.8609168415667
 30
0.0
 11
-173.6333333333333
 21
190.0235525617731
 31
0.0
  0
LINE
  5
113
  8
1
  6
CONTINUOUS
 62
     7
 10
-173.6333333333333
 20
190.0235525617731
 30
0.0
 11
-173.6333333333333
 21
188.9640509717327
 31
0.0
  0
LINE
  5
114
  8
1
  6
CONTINUOUS
 62
     9
 10
-175.2333333333333
 20
175.9380491224664
 30
0.0
 11
-174.0729914360085
 21
175.9380491224664
 31
0.0
  0
LINE
  5
115
  8
1
  6
CONTINUOUS
 62
     7
 10
-175.2333333333333
 20
175.9380491224664
 30
0.0
 11
-175.2333333333333
 21
189.369481853338
 31
0.0
  0
LINE
  5
116
  8
1
  6
CONTINUOUS
 62
     7
 10
-173.6333333333333
 20
185.7022564458742
 30
0.0
 11
-173.6333333333333
 21
188.9640509717327
 31
0.0
  0
LINE
  5
117
  8
1
  6
CONTINUOUS
 62
     9
 10
-174.0901867961125
 20
173.9676560196588
 30
0.0
 11
-175.2333333333333
 21
173.9676560196588
 31
0.0
  0
LINE
  5
118
  8
1
  6
CONTINUOUS
 62
     7
 10
-175.2333333333333
 20
173.9676560196588
 30
0.0
 11
-175.2333333333333
 21
175.9380491224664
 31
0.0
  0
LINE
  5
119
  8
1
  6
CONTINUOUS
 62
     7
 10
-175.1560212134413
 20
190.6009652548664
 30
0.0
 11
-174.791482991809
 21
193.3235525617731
 31
0.0
  0
LINE
  5
11A
  8
1
  6
CONTINUOUS
 62
     7
 10
-173.6333333333333
 20
190.8609168415667
 30
0.0
 11
-173.6333333333333
 21
193.3235525617731
 31
0.0
  0
LINE
  5
11B
  8
1
  6
CONTINUOUS
 62
     7
 10
-174.7647041832318
 20
198.3235525617731
 30
0.0
 11
-175.4618952667208
 21
198.3235525617731
 31
0.0
  0
LINE
  5
11C
  8
1
  6
CONTINUOUS
 62
     7
 10
-175.2333333333333
 20
173.9676560196588
 30
0.0
 11
-175.2333333333333
 21
173.5235525617731
 31
0.0
  0
LINE
  5
11D
  8
1
  6
CONTINUOUS
 62
     7
 10
-176.4333333333333
 20
184.3235525617731
 30
0.0
 11
-176.4333333333333
 21
187.2235525617731
 31
0.0
  0
LINE
  5
11E
  8
1
  6
CONTINUOUS
 62
     7
 10
-175.2333333333333
 20
184.3235525617731
 30
0.0
 11
-176.4333333333333
 21
184.3235525617731
 31
0.0
  0
LINE
  5
11F
  8
1
  6
CONTINUOUS
 62
     7
 10
-176.4333333333333
 20
187.2235525617731
 30
0.0
 11
-175.2333333333333
 21
187.2235525617731
 31
0.0
  0
LINE
  5
120
  8
1
  6
CONTINUOUS
 62
     7
 10
-167.1019624834349
 20
198.0735525617731
 30
0.0
 11
-167.1019624834349
 21
198.3235525617731
 31
0.0
  0
LINE
  5
121
  8
1
  6
CONTINUOUS
 62
     7
 10
-167.1019624834349
 20
198.3235525617731
 30
0.0
 11
-165.5019624834349
 21
198.3235525617731
 31
0.0
  0
LINE
  5
122
  8
1
  6
CONTINUOUS
 62
     7
 10
-165.5019624834349
 20
198.3235525617731
 30
0.0
 11
-165.5019624834349
 21
198.0796034468516
 31
0.0
  0
LINE
  5
123
  8
1
  6
CONTINUOUS
 62
     7
 10
-165.0333333333333
 20
190.0235525617731
 30
0.0
 11
-165.0333333333333
 21
189.369481853338
 31
0.0
  0
LINE
  5
124
  8
1
  6
CONTINUOUS
 62
     9
 10
-165.0333333333333
 20
189.369481853338
 30
0.0
 11
-166.6333333333333
 21
188.9640509717327
 31
0.0
  0
LINE
  5
125
  8
1
  6
CONTINUOUS
 62
     7
 10
-166.6333333333333
 20
190.0235525617731
 30
0.0
 11
-166.6333333333333
 21
190.8609168415667
 31
0.0
  0
LINE
  5
126
  8
1
  6
CONTINUOUS
 62
     9
 10
-166.6333333333333
 20
190.8609168415667
 30
0.0
 11
-165.1106454532249
 21
190.6009652548662
 31
0.0
  0
LINE
  5
127
  8
1
  6
CONTINUOUS
 62
     7
 10
-165.1106454532249
 20
190.6009652548662
 30
0.0
 11
-165.0333333333333
 21
190.0235525617731
 31
0.0
  0
LINE
  5
128
  8
1
  6
CONTINUOUS
 62
     7
 10
-166.6333333333333
 20
188.9640509717327
 30
0.0
 11
-166.6333333333333
 21
190.0235525617731
 31
0.0
  0
LINE
  5
129
  8
1
  6
CONTINUOUS
 62
     9
 10
-166.1936752306581
 20
175.9380491224664
 30
0.0
 11
-165.0333333333333
 21
175.9380491224664
 31
0.0
  0
LINE
  5
12A
  8
1
  6
CONTINUOUS
 62
     7
 10
-165.0333333333333
 20
175.9380491224664
 30
0.0
 11
-165.0333333333333
 21
189.369481853338
 31
0.0
  0
LINE
  5
12B
  8
1
  6
CONTINUOUS
 62
     7
 10
-166.6333333333333
 20
185.7022564458742
 30
0.0
 11
-166.6333333333333
 21
188.9640509717327
 31
0.0
  0
LINE
  5
12C
  8
1
  6
CONTINUOUS
 62
     9
 10
-165.0333333333333
 20
173.9676560196588
 30
0.0
 11
-166.1764798705541
 21
173.9676560196588
 31
0.0
  0
LINE
  5
12D
  8
1
  6
CONTINUOUS
 62
     7
 10
-165.0333333333333
 20
175.9380491224664
 30
0.0
 11
-165.0333333333333
 21
173.9676560196588
 31
0.0
  0
LINE
  5
12E
  8
1
  6
CONTINUOUS
 62
     7
 10
-165.4751836748549
 20
193.3235525617731
 30
0.0
 11
-165.1106454532249
 21
190.6009652548662
 31
0.0
  0
LINE
  5
12F
  8
1
  6
CONTINUOUS
 62
     7
 10
-166.6333333333333
 20
193.3235525617731
 30
0.0
 11
-166.6333333333333
 21
190.8609168415667
 31
0.0
  0
LINE
  5
130
  8
1
  6
CONTINUOUS
 62
     7
 10
-164.8044308918549
 20
198.3235525617731
 30
0.0
 11
-165.5019624834349
 21
198.3235525617731
 31
0.0
  0
LINE
  5
131
  8
1
  6
CONTINUOUS
 62
     7
 10
-165.0333333333333
 20
173.5235525617731
 30
0.0
 11
-165.0333333333333
 21
173.9676560196588
 31
0.0
  0
LINE
  5
132
  8
1
  6
CONTINUOUS
 62
     7
 10
-172.976580482003
 20
186.9987399198102
 30
0.0
 11
-173.0287886902417
 21
178.9985889211659
 31
0.0
  0
LINE
  5
133
  8
1
  6
CONTINUOUS
 62
     7
 10
-173.0287886902417
 20
178.9985889211659
 30
0.0
 11
-174.0462036843026
 21
179.0076214304478
 31
0.0
  0
LINE
  5
134
  8
1
  6
CONTINUOUS
 62
     7
 10
-174.0462036843026
 20
179.0076214304478
 30
0.0
 11
-173.9939954760639
 21
184.9900895381835
 31
0.0
  0
LINE
  5
135
  8
1
  6
CONTINUOUS
 62
     7
 10
-170.1333333333333
 20
187.023552561773
 30
0.0
 11
-170.1333333333333
 21
179.0238571772597
 31
0.0
  0
LINE
  5
136
  8
1
  6
CONTINUOUS
 62
     7
 10
-170.1333333333333
 20
187.0235525617731
 30
0.0
 11
-167.2900861846636
 21
186.9987399198102
 31
0.0
  0
LINE
  5
137
  8
1
  6
CONTINUOUS
 62
     7
 10
-167.237877976425
 20
178.9985889211659
 30
0.0
 11
-167.2900861846636
 21
186.9987399198102
 31
0.0
  0
LINE
  5
138
  8
1
  6
CONTINUOUS
 62
     9
 10
-167.237877976425
 20
178.9985889211659
 30
0.0
 11
-170.1333333333333
 21
179.0238571772597
 31
0.0
  0
LINE
  5
139
  8
1
  6
CONTINUOUS
 62
     7
 10
-166.2726711906027
 20
184.9900895381835
 30
0.0
 11
-166.2204629823641
 21
179.0076214304478
 31
0.0
  0
LINE
  5
13A
  8
1
  6
CONTINUOUS
 62
     7
 10
-166.2204629823641
 20
179.0076214304478
 30
0.0
 11
-167.237877976425
 21
178.9985889211659
 31
0.0
  0
LINE
  5
13B
  8
1
  6
CONTINUOUS
 62
     9
 10
-170.1333333333333
 20
179.0238571772597
 30
0.0
 11
-173.0287886902416
 21
178.9985889211659
 31
0.0
  0
LINE
  5
13C
  8
1
  6
CONTINUOUS
 62
     7
 10
-172.976580482003
 20
186.9987399198102
 30
0.0
 11
-170.1333333333333
 21
187.0235525617731
 31
0.0
  0
LINE
  5
13D
  8
1
  6
CONTINUOUS
 62
     7
 10
-173.0287886902417
 20
178.9985889211659
 30
0.0
 11
-173.1157620173365
 21
169.0324327721154
 31
0.0
  0
LINE
  5
13E
  8
1
  6
CONTINUOUS
 62
     7
 10
-174.1333333333333
 20
169.0235525617731
 30
0.0
 11
-174.0462036843026
 21
179.0076214304478
 31
0.0
  0
LINE
  5
13F
  8
1
  6
CONTINUOUS
 62
     7
 10
-166.2204629823641
 20
179.0076214304478
 30
0.0
 11
-166.1333333333333
 21
169.0235525617731
 31
0.0
  0
LINE
  5
140
  8
1
  6
CONTINUOUS
 62
     7
 10
-167.1509046493302
 20
169.0324327721154
 30
0.0
 11
-167.237877976425
 21
178.9985889211659
 31
0.0
  0
LINE
  5
141
  8
1
  6
CONTINUOUS
 62
     7
 10
-170.1333333333334
 20
167.0235525617731
 30
0.0
 11
-170.1333333333333
 21
179.0238571772597
 31
0.0
  0
LINE
  5
142
  8
1
  6
CONTINUOUS
 62
     7
 10
-175.1595129398285
 20
167.0674153666916
 30
0.0
 11
-170.1333333333334
 21
167.0235525617731
 31
0.0
  0
LINE
  5
143
  8
1
  6
CONTINUOUS
 62
     9
 10
-175.1595129398285
 20
169.0145972280176
 30
0.0
 11
-175.1595129398285
 21
167.0674153666916
 31
0.0
  0
LINE
  5
144
  8
1
  6
CONTINUOUS
 62
     7
 10
-175.1595129398285
 20
169.0145972280176
 30
0.0
 11
-173.1157620173365
 21
169.0324327721154
 31
0.0
  0
LINE
  5
145
  8
1
  6
CONTINUOUS
 62
     9
 10
-165.1071537268382
 20
167.0674153666916
 30
0.0
 11
-165.1071537268382
 21
169.0145972280176
 31
0.0
  0
LINE
  5
146
  8
1
  6
CONTINUOUS
 62
     7
 10
-170.1333333333334
 20
167.0235525617731
 30
0.0
 11
-165.1071537268382
 21
167.0674153666916
 31
0.0
  0
LINE
  5
147
  8
1
  6
CONTINUOUS
 62
     7
 10
-167.1509046493302
 20
169.0324327721154
 30
0.0
 11
-165.1071537268382
 21
169.0145972280176
 31
0.0
  0
LINE
  5
148
  8
1
  6
CONTINUOUS
 62
     7
 10
-162.1333333333333
 20
168.98864509061
 30
0.0
 11
-162.1333333333333
 21
167.0933675040991
 31
0.0
  0
LINE
  5
149
  8
1
  6
CONTINUOUS
 62
     7
 10
-165.1071537268382
 20
169.0145972280176
 30
0.0
 11
-162.1333333333333
 21
168.98864509061
 31
0.0
  0
LINE
  5
14A
  8
1
  6
CONTINUOUS
 62
     7
 10
-162.1333333333333
 20
167.0933675040991
 30
0.0
 11
-165.1071537268382
 21
167.0674153666916
 31
0.0
  0
LINE
  5
14B
  8
1
  6
CONTINUOUS
 62
     7
 10
-178.1333333333333
 20
167.0933675040991
 30
0.0
 11
-178.1333333333333
 21
168.98864509061
 31
0.0
  0
LINE
  5
14C
  8
1
  6
CONTINUOUS
 62
     7
 10
-178.1333333333333
 20
168.98864509061
 30
0.0
 11
-175.1595129398285
 21
169.0145972280176
 31
0.0
  0
LINE
  5
14D
  8
1
  6
CONTINUOUS
 62
     7
 10
-175.1595129398285
 20
167.0674153666916
 30
0.0
 11
-178.1333333333333
 21
167.0933675040991
 31
0.0
  0
LINE
  5
14E
  8
1
  6
CONTINUOUS
 62
     7
 10
-167.3833333333333
 20
160.7235525617731
 30
0.0
 11
-172.8833333333333
 21
160.7235525617731
 31
0.0
  0
LINE
  5
14F
  8
1
  6
CONTINUOUS
 62
     9
 10
-172.8833333333333
 20
160.1552050593605
 30
0.0
 11
-167.3833333333333
 21
160.1552050593605
 31
0.0
  0
LINE
  5
150
  8
1
  6
CONTINUOUS
 62
     9
 10
-167.4174075070443
 20
159.896386014258
 30
0.0
 11
-172.8492591596224
 21
159.896386014258
 31
0.0
  0
LINE
  5
151
  8
1
  6
CONTINUOUS
 62
     7
 10
-167.712616281106
 20
158.794651872026
 30
0.0
 11
-168.9133272454296
 21
154.3941430392218
 31
0.0
  0
LINE
  5
152
  8
1
  6
CONTINUOUS
 62
     9
 10
-171.353339421237
 20
154.3941430392219
 30
0.0
 11
-168.9133272454296
 21
154.3941430392217
 31
0.0
  0
LINE
  5
153
  8
1
  6
CONTINUOUS
 62
     7
 10
-171.3533394212371
 20
154.3941430392219
 30
0.0
 11
-172.5540657202249
 21
158.7947091019766
 31
0.0
  0
POLYLINE
  5
154
  8
1
  6
CONTINUOUS
 62
     7
 66
     1
 10
0.0
 20
0.0
 30
0.0
  0
VERTEX
  5
58E
  8
1
  6
CONTINUOUS
 62
     7
 10
-166.8890198217656
 20
167.0518652568603
 30
0.0
  0
VERTEX
  5
58F
  8
1
  6
CONTINUOUS
 62
     7
 10
-166.8922274226058
 20
167.0518275548544
 30
0.0
  0
VERTEX
  5
590
  8
1
  6
CONTINUOUS
 62
     7
 10
-166.9228919389734
 20
167.0504954564572
 30
0.0
  0
VERTEX
  5
591
  8
1
  6
CONTINUOUS
 62
     7
 10
-166.9536252813687
 20
167.0474178210295
 30
0.0
  0
VERTEX
  5
592
  8
1
  6
CONTINUOUS
 62
     7
 10
-166.9845870945599
 20
167.0425720554823
 30
0.0
  0
VERTEX
  5
593
  8
1
  6
CONTINUOUS
 62
     7
 10
-167.0155149854014
 20
167.0359826971553
 30
0.0
  0
VERTEX
  5
594
  8
1
  6
CONTINUOUS
 62
     7
 10
-167.0430227157603
 20
167.0286382975785
 30
0.0
  0
VERTEX
  5
595
  8
1
  6
CONTINUOUS
 62
     7
 10
-167.0704193734907
 20
167.019906340247
 30
0.0
  0
VERTEX
  5
596
  8
1
  6
CONTINUOUS
 62
     7
 10
-167.0978179166983
 20
167.0097166373443
 30
0.0
  0
VERTEX
  5
597
  8
1
  6
CONTINUOUS
 62
     7
 10
-167.1250113885529
 20
166.9981016245584
 30
0.0
  0
VERTEX
  5
598
  8
1
  6
CONTINUOUS
 62
     7
 10
-167.1524694638148
 20
166.9847731666925
 30
0.0
  0
VERTEX
  5
599
  8
1
  6
CONTINUOUS
 62
     7
 10
-167.1795948983403
 20
166.9699165746266
 30
0.0
  0
VERTEX
  5
59A
  8
1
  6
CONTINUOUS
 62
     7
 10
-167.206517089745
 20
166.9533682794089
 30
0.0
  0
VERTEX
  5
59B
  8
1
  6
CONTINUOUS
 62
     7
 10
-167.2329419244668
 20
166.9351933211508
 30
0.0
  0
VERTEX
  5
59C
  8
1
  6
CONTINUOUS
 62
     7
 10
-167.2502132237816
 20
166.9221659170974
 30
0.0
  0
VERTEX
  5
59D
  8
1
  6
CONTINUOUS
 62
     7
 10
-167.2671863283931
 20
166.9083799657593
 30
0.0
  0
VERTEX
  5
59E
  8
1
  6
CONTINUOUS
 62
     7
 10
-167.2839037081494
 20
166.8937455595281
 30
0.0
  0
VERTEX
  5
59F
  8
1
  6
CONTINUOUS
 62
     7
 10
-167.3002382295197
 20
166.8783094231657
 30
0.0
  0
VERTEX
  5
5A0
  8
1
  6
CONTINUOUS
 62
     7
 10
-167.3164216131928
 20
166.8617540982387
 30
0.0
  0
VERTEX
  5
5A1
  8
1
  6
CONTINUOUS
 62
     7
 10
-167.3320990740582
 20
166.8443282742886
 30
0.0
  0
VERTEX
  5
5A2
  8
1
  6
CONTINUOUS
 62
     7
 10
-167.3473195440874
 20
166.8258668721828
 30
0.0
  0
VERTEX
  5
5A3
  8
1
  6
CONTINUOUS
 62
     7
 10
-167.3618820296115
 20
166.8064843024799
 30
0.0
  0
VERTEX
  5
5A4
  8
1
  6
CONTINUOUS
 62
     7
 10
-167.372944114138
 20
166.7903904674428
 30
0.0
  0
VERTEX
  5
5A5
  8
1
  6
CONTINUOUS
 62
     7
 10
-167.3834909212335
 20
166.7736926652926
 30
0.0
  0
VERTEX
  5
5A6
  8
1
  6
CONTINUOUS
 62
     7
 10
-167.3934594380138
 20
166.756406152587
 30
0.0
  0
VERTEX
  5
5A7
  8
1
  6
CONTINUOUS
 62
     7
 10
-167.4006624661413
 20
166.7427801437831
 30
0.0
  0
VERTEX
  5
5A8
  8
1
  6
CONTINUOUS
 62
     7
 10
-167.4074745838218
 20
166.7288002011499
 30
0.0
  0
VERTEX
  5
5A9
  8
1
  6
CONTINUOUS
 62
     7
 10
-167.4138617095253
 20
166.71448537222
 30
0.0
  0
VERTEX
  5
5AA
  8
1
  6
CONTINUOUS
 62
     7
 10
-167.4197897617218
 20
166.6998547045258
 30
0.0
  0
VERTEX
  5
5AB
  8
1
  6
CONTINUOUS
 62
     7
 10
-167.4251272261278
 20
166.6852161570921
 30
0.0
  0
VERTEX
  5
5AC
  8
1
  6
CONTINUOUS
 62
     7
 10
-167.42997163352
 20
166.6702919472999
 30
0.0
  0
VERTEX
  5
5AD
  8
1
  6
CONTINUOUS
 62
     7
 10
-167.4343266504571
 20
166.6549783412873
 30
0.0
  0
VERTEX
  5
5AE
  8
1
  6
CONTINUOUS
 62
     7
 10
-167.4381243310953
 20
166.6394178907754
 30
0.0
  0
VERTEX
  5
5AF
  8
1
  6
CONTINUOUS
 62
     7
 10
-167.4414188612461
 20
166.6231938902546
 30
0.0
  0
VERTEX
  5
5B0
  8
1
  6
CONTINUOUS
 62
     7
 10
-167.4440713595952
 20
166.6067734504328
 30
0.0
  0
VERTEX
  5
5B1
  8
1
  6
CONTINUOUS
 62
     7
 10
-167.4454844506486
 20
166.5956180661019
 30
0.0
  0
VERTEX
  5
5B2
  8
1
  6
CONTINUOUS
 62
     7
 10
-167.4465907613446
 20
166.5844005164132
 30
0.0
  0
VERTEX
  5
5B3
  8
1
  6
CONTINUOUS
 62
     7
 10
-167.4473850711919
 20
166.5731414160782
 30
0.0
  0
SEQEND
  5
99E
  8
1
  6
CONTINUOUS
 62
     7
  0
LINE
  5
155
  8
1
  6
CONTINUOUS
 62
     7
 10
-167.4473850711919
 20
166.5731414160782
 30
0.0
 11
-167.4481304956273
 21
166.5512275527646
 31
0.0
  0
LINE
  5
156
  8
1
  6
CONTINUOUS
 62
     9
 10
-167.4481304956273
 20
166.5512275527646
 30
0.0
 11
-170.1333333333333
 21
166.5235335225802
 31
0.0
  0
LINE
  5
157
  8
1
  6
CONTINUOUS
 62
     7
 10
-170.1333333333333
 20
167.0235525617731
 30
0.0
 11
-170.1333333333333
 21
166.5235335225802
 31
0.0
  0
POLYLINE
  5
158
  8
1
  6
CONTINUOUS
 62
     7
 66
     1
 10
0.0
 20
0.0
 30
0.0
  0
VERTEX
  5
5B4
  8
1
  6
CONTINUOUS
 62
     7
 10
-172.8192815954747
 20
166.5731414160782
 30
0.0
  0
VERTEX
  5
5B5
  8
1
  6
CONTINUOUS
 62
     7
 10
-172.8205126946526
 20
166.5892207989664
 30
0.0
  0
VERTEX
  5
5B6
  8
1
  6
CONTINUOUS
 62
     7
 10
-172.8223764489708
 20
166.6051961857436
 30
0.0
  0
VERTEX
  5
5B7
  8
1
  6
CONTINUOUS
 62
     7
 10
-172.8248873120858
 20
166.6211890936542
 30
0.0
  0
VERTEX
  5
5B8
  8
1
  6
CONTINUOUS
 62
     7
 10
-172.8280085736187
 20
166.6370003830642
 30
0.0
  0
VERTEX
  5
5B9
  8
1
  6
CONTINUOUS
 62
     7
 10
-172.8318378597268
 20
166.653059949164
 30
0.0
  0
VERTEX
  5
5BA
  8
1
  6
CONTINUOUS
 62
     7
 10
-172.8362618800028
 20
166.6688611550584
 30
0.0
  0
VERTEX
  5
5BB
  8
1
  6
CONTINUOUS
 62
     7
 10
-172.841298181059
 20
166.6845141471523
 30
0.0
  0
VERTEX
  5
5BC
  8
1
  6
CONTINUOUS
 62
     7
 10
-172.8468769049448
 20
166.6998547045258
 30
0.0
  0
VERTEX
  5
5BD
  8
1
  6
CONTINUOUS
 62
     7
 10
-172.854711693114
 20
166.7188989892886
 30
0.0
  0
VERTEX
  5
5BE
  8
1
  6
CONTINUOUS
 62
     7
 10
-172.8633112569366
 20
166.7373939935236
 30
0.0
  0
VERTEX
  5
5BF
  8
1
  6
CONTINUOUS
 62
     7
 10
-172.8725995876644
 20
166.7552969411205
 30
0.0
  0
VERTEX
  5
5C0
  8
1
  6
CONTINUOUS
 62
     7
 10
-172.8827449456676
 20
166.7729782198071
 30
0.0
  0
VERTEX
  5
5C1
  8
1
  6
CONTINUOUS
 62
     7
 10
-172.8934957056583
 20
166.7900461624312
 30
0.0
  0
VERTEX
  5
5C2
  8
1
  6
CONTINUOUS
 62
     7
 10
-172.9047846370552
 20
166.8064843024799
 30
0.0
  0
VERTEX
  5
5C3
  8
1
  6
CONTINUOUS
 62
     7
 10
-172.918861800582
 20
166.8252499042059
 30
0.0
  0
VERTEX
  5
5C4
  8
1
  6
CONTINUOUS
 62
     7
 10
-172.9335571759954
 20
166.8431528510922
 30
0.0
  0
VERTEX
  5
5C5
  8
1
  6
CONTINUOUS
 62
     7
 10
-172.9489211352456
 20
166.8603383795151
 30
0.0
  0
VERTEX
  5
5C6
  8
1
  6
CONTINUOUS
 62
     7
 10
-172.9647784607981
 20
166.8766819793436
 30
0.0
  0
VERTEX
  5
5C7
  8
1
  6
CONTINUOUS
 62
     7
 10
-172.9814086428117
 20
166.8925103757356
 30
0.0
  0
VERTEX
  5
5C8
  8
1
  6
CONTINUOUS
 62
     7
 10
-172.998441497456
 20
166.9075022969911
 30
0.0
  0
VERTEX
  5
5C9
  8
1
  6
CONTINUOUS
 62
     7
 10
-173.0159240504946
 20
166.9217511711451
 30
0.0
  0
VERTEX
  5
5CA
  8
1
  6
CONTINUOUS
 62
     7
 10
-173.0337247421998
 20
166.9351933211508
 30
0.0
  0
VERTEX
  5
5CB
  8
1
  6
CONTINUOUS
 62
     7
 10
-173.0592498573643
 20
166.9527820955781
 30
0.0
  0
VERTEX
  5
5CC
  8
1
  6
CONTINUOUS
 62
     7
 10
-173.0852421324233
 20
166.9688506929951
 30
0.0
  0
VERTEX
  5
5CD
  8
1
  6
CONTINUOUS
 62
     7
 10
-173.1118215425215
 20
166.9835409422303
 30
0.0
  0
VERTEX
  5
5CE
  8
1
  6
CONTINUOUS
 62
     7
 10
-173.1387266754302
 20
166.9967583547552
 30
0.0
  0
VERTEX
  5
5CF
  8
1
  6
CONTINUOUS
 62
     7
 10
-173.1664688549473
 20
167.0087608932244
 30
0.0
  0
VERTEX
  5
5D0
  8
1
  6
CONTINUOUS
 62
     7
 10
-173.1944294995561
 20
167.0192759895188
 30
0.0
  0
VERTEX
  5
5D1
  8
1
  6
CONTINUOUS
 62
     7
 10
-173.2227305317746
 20
167.02837016748
 30
0.0
  0
VERTEX
  5
5D2
  8
1
  6
CONTINUOUS
 62
     7
 10
-173.2511516812653
 20
167.0359826971553
 30
0.0
  0
VERTEX
  5
5D3
  8
1
  6
CONTINUOUS
 62
     7
 10
-173.2818699215199
 20
167.0425332816056
 30
0.0
  0
VERTEX
  5
5D4
  8
1
  6
CONTINUOUS
 62
     7
 10
-173.3126219778987
 20
167.0473638624358
 30
0.0
  0
VERTEX
  5
5D5
  8
1
  6
CONTINUOUS
 62
     7
 10
-173.3435653206588
 20
167.0504803587057
 30
0.0
  0
VERTEX
  5
5D6
  8
1
  6
CONTINUOUS
 62
     7
 10
-173.3744392440609
 20
167.0518275548544
 30
0.0
  0
VERTEX
  5
5D7
  8
1
  6
CONTINUOUS
 62
     7
 10
-173.377646844901
 20
167.0518652568603
 30
0.0
  0
SEQEND
  5
99F
  8
1
  6
CONTINUOUS
 62
     7
  0
LINE
  5
159
  8
1
  6
CONTINUOUS
 62
     9
 10
-170.1333333333333
 20
166.5235335225802
 30
0.0
 11
-172.8185361710394
 21
166.5512275527646
 31
0.0
  0
LINE
  5
15A
  8
1
  6
CONTINUOUS
 62
     7
 10
-172.8185361710394
 20
166.5512275527646
 30
0.0
 11
-172.8192815954747
 21
166.5731414160782
 31
0.0
  0
LINE
  5
15B
  8
1
  6
CONTINUOUS
 62
     7
 10
-172.8185361710394
 20
166.5512275527646
 30
0.0
 11
-172.7322824548929
 21
160.7235525617731
 31
0.0
  0
LINE
  5
15C
  8
1
  6
CONTINUOUS
 62
     7
 10
-167.5343842117738
 20
160.7235525617731
 30
0.0
 11
-167.4481304956273
 21
166.5512275527646
 31
0.0
  0
LINE
  5
15D
  8
1
  6
CONTINUOUS
 62
     7
 10
-169.4170675306524
 20
154.0235525617731
 30
0.0
 11
-170.8495991360142
 21
154.0235525617731
 31
0.0
  0
POLYLINE
  5
15E
  8
1
  6
CONTINUOUS
 62
     7
 66
     1
 10
0.0
 20
0.0
 30
0.0
  0
VERTEX
  5
5D8
  8
1
  6
CONTINUOUS
 62
     7
 10
-170.8495991360142
 20
154.0235525617731
 30
0.0
  0
VERTEX
  5
5D9
  8
1
  6
CONTINUOUS
 62
     7
 10
-170.8733283222095
 20
154.0240563655628
 30
0.0
  0
VERTEX
  5
5DA
  8
1
  6
CONTINUOUS
 62
     7
 10
-170.8970142204782
 20
154.0255713569995
 30
0.0
  0
VERTEX
  5
5DB
  8
1
  6
CONTINUOUS
 62
     7
 10
-170.9207890339656
 20
154.0281264964878
 30
0.0
  0
VERTEX
  5
5DC
  8
1
  6
CONTINUOUS
 62
     7
 10
-170.9444293049422
 20
154.0317161086267
 30
0.0
  0
VERTEX
  5
5DD
  8
1
  6
CONTINUOUS
 62
     7
 10
-170.9684519084423
 20
154.0364661345429
 30
0.0
  0
VERTEX
  5
5DE
  8
1
  6
CONTINUOUS
 62
     7
 10
-170.9922339460765
 20
154.0422993081002
 30
0.0
  0
VERTEX
  5
5DF
  8
1
  6
CONTINUOUS
 62
     7
 10
-171.0159212556601
 20
154.0492747503822
 30
0.0
  0
VERTEX
  5
5E0
  8
1
  6
CONTINUOUS
 62
     7
 10
-171.0392594738702
 20
154.057338420766
 30
0.0
  0
VERTEX
  5
5E1
  8
1
  6
CONTINUOUS
 62
     7
 10
-171.0601904546465
 20
154.0656312047926
 30
0.0
  0
VERTEX
  5
5E2
  8
1
  6
CONTINUOUS
 62
     7
 10
-171.0807476244355
 20
154.0748090845709
 30
0.0
  0
VERTEX
  5
5E3
  8
1
  6
CONTINUOUS
 62
     7
 10
-171.1010396080763
 20
154.0849385060882
 30
0.0
  0
VERTEX
  5
5E4
  8
1
  6
CONTINUOUS
 62
     7
 10
-171.1208718480416
 20
154.0959384433764
 30
0.0
  0
VERTEX
  5
5E5
  8
1
  6
CONTINUOUS
 62
     7
 10
-171.1406579114413
 20
154.1080850586586
 30
0.0
  0
VERTEX
  5
5E6
  8
1
  6
CONTINUOUS
 62
     7
 10
-171.1598785370219
 20
154.1211055324646
 30
0.0
  0
VERTEX
  5
5E7
  8
1
  6
CONTINUOUS
 62
     7
 10
-171.1786424103728
 20
154.1350954827429
 30
0.0
  0
VERTEX
  5
5E8
  8
1
  6
CONTINUOUS
 62
     7
 10
-171.1967483656092
 20
154.1499247370311
 30
0.0
  0
VERTEX
  5
5E9
  8
1
  6
CONTINUOUS
 62
     7
 10
-171.2127843006211
 20
154.1642807633538
 30
0.0
  0
VERTEX
  5
5EA
  8
1
  6
CONTINUOUS
 62
     7
 10
-171.228199290126
 20
154.1792997389663
 30
0.0
  0
VERTEX
  5
5EB
  8
1
  6
CONTINUOUS
 62
     7
 10
-171.2430680111401
 20
154.1950732692183
 30
0.0
  0
VERTEX
  5
5EC
  8
1
  6
CONTINUOUS
 62
     7
 10
-171.2572478358325
 20
154.2114671490566
 30
0.0
  0
VERTEX
  5
5ED
  8
1
  6
CONTINUOUS
 62
     7
 10
-171.2710111256292
 20
154.2288508731748
 30
0.0
  0
VERTEX
  5
5EE
  8
1
  6
CONTINUOUS
 62
     7
 10
-171.2839957506395
 20
154.2468220409931
 30
0.0
  0
VERTEX
  5
5EF
  8
1
  6
CONTINUOUS
 62
     7
 10
-171.2962665025906
 20
154.265495889877
 30
0.0
  0
VERTEX
  5
5F0
  8
1
  6
CONTINUOUS
 62
     7
 10
-171.3076924936784
 20
154.2846967854113
 30
0.0
  0
VERTEX
  5
5F1
  8
1
  6
CONTINUOUS
 62
     7
 10
-171.3170307284165
 20
154.30200623282
 30
0.0
  0
VERTEX
  5
5F2
  8
1
  6
CONTINUOUS
 62
     7
 10
-171.3256830152791
 20
154.3196760743805
 30
0.0
  0
VERTEX
  5
5F3
  8
1
  6
CONTINUOUS
 62
     7
 10
-171.3336280112879
 20
154.3376657457341
 30
0.0
  0
VERTEX
  5
5F4
  8
1
  6
CONTINUOUS
 62
     7
 10
-171.3409526539381
 20
154.3562205321105
 30
0.0
  0
VERTEX
  5
5F5
  8
1
  6
CONTINUOUS
 62
     7
 10
-171.3475287899259
 20
154.3750613616396
 30
0.0
  0
VERTEX
  5
5F6
  8
1
  6
CONTINUOUS
 62
     7
 10
-171.3533394212371
 20
154.3941430392219
 30
0.0
  0
SEQEND
  5
9A0
  8
1
  6
CONTINUOUS
 62
     7
  0
POLYLINE
  5
15F
  8
1
  6
CONTINUOUS
 62
     7
 66
     1
 10
0.0
 20
0.0
 30
0.0
  0
VERTEX
  5
5F7
  8
1
  6
CONTINUOUS
 62
     7
 10
-168.9133272454296
 20
154.3941430392218
 30
0.0
  0
VERTEX
  5
5F8
  8
1
  6
CONTINUOUS
 62
     7
 10
-168.9193884111439
 20
154.3742949131494
 30
0.0
  0
VERTEX
  5
5F9
  8
1
  6
CONTINUOUS
 62
     7
 10
-168.9262749941417
 20
154.3547170987578
 30
0.0
  0
VERTEX
  5
5FA
  8
1
  6
CONTINUOUS
 62
     7
 10
-168.9340317350941
 20
154.335308573235
 30
0.0
  0
VERTEX
  5
5FB
  8
1
  6
CONTINUOUS
 62
     7
 10
-168.942597139573
 20
154.3162421431927
 30
0.0
  0
VERTEX
  5
5FC
  8
1
  6
CONTINUOUS
 62
     7
 10
-168.9521703441142
 20
154.2971439363117
 30
0.0
  0
VERTEX
  5
5FD
  8
1
  6
CONTINUOUS
 62
     7
 10
-168.9625519456624
 20
154.2784716207199
 30
0.0
  0
VERTEX
  5
5FE
  8
1
  6
CONTINUOUS
 62
     7
 10
-168.9738075022575
 20
154.260126100191
 30
0.0
  0
VERTEX
  5
5FF
  8
1
  6
CONTINUOUS
 62
     7
 10
-168.9858401590316
 20
154.2422792047515
 30
0.0
  0
VERTEX
  5
600
  8
1
  6
CONTINUOUS
 62
     7
 10
-168.9981592560138
 20
154.2255695647157
 30
0.0
  0
VERTEX
  5
601
  8
1
  6
CONTINUOUS
 62
     7
 10
-169.0111564927879
 20
154.2093803014256
 30
0.0
  0
VERTEX
  5
602
  8
1
  6
CONTINUOUS
 62
     7
 10
-169.0249043630674
 20
154.1936329497954
 30
0.0
  0
VERTEX
  5
603
  8
1
  6
CONTINUOUS
 62
     7
 10
-169.0392906026677
 20
154.1784649027343
 30
0.0
  0
VERTEX
  5
604
  8
1
  6
CONTINUOUS
 62
     7
 10
-169.0546140256826
 20
154.1635987600936
 30
0.0
  0
VERTEX
  5
605
  8
1
  6
CONTINUOUS
 62
     7
 10
-169.0705471285202
 20
154.1493861058858
 30
0.0
  0
VERTEX
  5
606
  8
1
  6
CONTINUOUS
 62
     7
 10
-169.0871794456883
 20
154.1357571077046
 30
0.0
  0
VERTEX
  5
607
  8
1
  6
CONTINUOUS
 62
     7
 10
-169.1043687782095
 20
154.1228356584063
 30
0.0
  0
VERTEX
  5
608
  8
1
  6
CONTINUOUS
 62
     7
 10
-169.1217147564413
 20
154.1108854768522
 30
0.0
  0
VERTEX
  5
609
  8
1
  6
CONTINUOUS
 62
     7
 10
-169.1395338052403
 20
154.099650768447
 30
0.0
  0
VERTEX
  5
60A
  8
1
  6
CONTINUOUS
 62
     7
 10
-169.1579185376034
 20
154.0890803340521
 30
0.0
  0
VERTEX
  5
60B
  8
1
  6
CONTINUOUS
 62
     7
 10
-169.1767187597275
 20
154.0792656274277
 30
0.0
  0
VERTEX
  5
60C
  8
1
  6
CONTINUOUS
 62
     7
 10
-169.1963010110069
 20
154.0700421790928
 30
0.0
  0
VERTEX
  5
60D
  8
1
  6
CONTINUOUS
 62
     7
 10
-169.216246914019
 20
154.0616315112288
 30
0.0
  0
VERTEX
  5
60E
  8
1
  6
CONTINUOUS
 62
     7
 10
-169.2366606764738
 20
154.0539958172194
 30
0.0
  0
VERTEX
  5
60F
  8
1
  6
CONTINUOUS
 62
     7
 10
-169.2573711159576
 20
154.0472032200158
 30
0.0
  0
VERTEX
  5
610
  8
1
  6
CONTINUOUS
 62
     7
 10
-169.283087507745
 20
154.0400451360399
 30
0.0
  0
VERTEX
  5
611
  8
1
  6
CONTINUOUS
 62
     7
 10
-169.3091442007112
 20
154.0341666902305
 30
0.0
  0
VERTEX
  5
612
  8
1
  6
CONTINUOUS
 62
     7
 10
-169.33544338664
 20
154.0295801516267
 30
0.0
  0
VERTEX
  5
613
  8
1
  6
CONTINUOUS
 62
     7
 10
-169.3625348739347
 20
154.0262284335947
 30
0.0
  0
VERTEX
  5
614
  8
1
  6
CONTINUOUS
 62
     7
 10
-169.3897764397675
 20
154.0242207654779
 30
0.0
  0
VERTEX
  5
615
  8
1
  6
CONTINUOUS
 62
     7
 10
-169.4170675306524
 20
154.0235525617731
 30
0.0
  0
SEQEND
  5
9A1
  8
1
  6
CONTINUOUS
 62
     7
  0
ARC
  5
160
  8
1
  6
CONTINUOUS
 62
     7
 10
-177.1333333333333
 20
170.497333880015
 30
0.0
 40
1.0
 50
90.4999999999989
 51
180.0
  0
LINE
  5
161
  8
1
  6
CONTINUOUS
 62
     7
 10
-174.111514502173
 20
171.5237429718279
 30
0.0
 11
-177.1420598688317
 21
171.4972958030792
 31
0.0
  0
LINE
  5
162
  8
1
  6
CONTINUOUS
 62
     7
 10
-178.1333333333333
 20
170.497333880015
 30
0.0
 11
-178.1333333333333
 21
168.98864509061
 31
0.0
  0
ARC
  5
163
  8
1
  6
CONTINUOUS
 62
     7
 10
-163.1333333333333
 20
170.497333880015
 30
0.0
 40
1.0
 50
0.0
 51
89.50000000000111
  0
LINE
  5
164
  8
1
  6
CONTINUOUS
 62
     7
 10
-163.124606797835
 20
171.4972958030792
 30
0.0
 11
-166.1551521644936
 21
171.5237429718279
 31
0.0
  0
LINE
  5
165
  8
1
  6
CONTINUOUS
 62
     7
 10
-162.1333333333333
 20
170.497333880015
 30
0.0
 11
-162.1333333333333
 21
168.98864509061
 31
0.0
  0
LINE
  5
166
  8
1
  6
CONTINUOUS
 62
     7
 10
-178.1333333333333
 20
171.4624644872378
 30
0.0
 11
-177.3691415655539
 21
171.469133487762
 31
0.0
  0
LINE
  5
167
  8
1
  6
CONTINUOUS
 62
     7
 10
-178.1333333333333
 20
171.4624644872378
 30
0.0
 11
-178.1333333333333
 21
170.497333880015
 31
0.0
  0
LINE
  5
168
  8
1
  6
CONTINUOUS
 62
     7
 10
-162.8975251011128
 20
171.469133487762
 30
0.0
 11
-162.1333333333333
 21
171.4624644872378
 31
0.0
  0
LINE
  5
169
  8
1
  6
CONTINUOUS
 62
     7
 10
-162.1333333333333
 20
171.4624644872378
 30
0.0
 11
-162.1333333333333
 21
170.497333880015
 31
0.0
  0
LINE
  5
16A
  8
1
  6
CONTINUOUS
 62
     9
 10
-162.1333333333333
 20
164.0934817349066
 30
0.0
 11
-167.4805412885225
 21
164.046817358032
 31
0.0
  0
LINE
  5
16B
  8
1
  6
CONTINUOUS
 62
     7
 10
-162.1333333333333
 20
164.0934817349066
 30
0.0
 11
-162.1333333333333
 21
167.0933675040991
 31
0.0
  0
LINE
  5
16C
  8
1
  6
CONTINUOUS
 62
     9
 10
-172.7861253781442
 20
164.046817358032
 30
0.0
 11
-178.1333333333333
 21
164.0934817349066
 31
0.0
  0
LINE
  5
16D
  8
1
  6
CONTINUOUS
 62
     7
 10
-178.1333333333333
 20
167.0933675040991
 30
0.0
 11
-178.1333333333333
 21
164.0934817349066
 31
0.0
  0
LINE
  5
16E
  8
1
  6
CONTINUOUS
 62
     7
 10
-162.1333333333333
 20
186.953737619447
 30
0.0
 11
-162.1333333333333
 21
185.9537756963828
 31
0.0
  0
LINE
  5
16F
  8
1
  6
CONTINUOUS
 62
     9
 10
-162.1333333333333
 20
185.9537756963828
 30
0.0
 11
-165.0333333333333
 21
185.979083612976
 31
0.0
  0
LINE
  5
170
  8
1
  6
CONTINUOUS
 62
     9
 10
-166.6333333333333
 20
185.9930466014413
 30
0.0
 11
-166.7813399424242
 21
185.9943382355509
 31
0.0
  0
LINE
  5
171
  8
1
  6
CONTINUOUS
 62
     7
 10
-167.2900861846636
 20
186.9987399198102
 30
0.0
 11
-166.6333333333333
 21
186.9930085245054
 31
0.0
  0
LINE
  5
172
  8
1
  6
CONTINUOUS
 62
     7
 10
-165.0333333333333
 20
186.9790455360402
 30
0.0
 11
-162.1333333333333
 21
186.953737619447
 31
0.0
  0
LINE
  5
173
  8
1
  6
CONTINUOUS
 62
     9
 10
-173.4853267242424
 20
185.9943382355509
 30
0.0
 11
-173.6333333333333
 21
185.9930466014413
 31
0.0
  0
LINE
  5
174
  8
1
  6
CONTINUOUS
 62
     9
 10
-176.4333333333333
 20
185.9686113716271
 30
0.0
 11
-178.1333333333333
 21
185.9537756963828
 31
0.0
  0
LINE
  5
175
  8
1
  6
CONTINUOUS
 62
     7
 10
-178.1333333333333
 20
186.953737619447
 30
0.0
 11
-176.4333333333333
 21
186.9685732946913
 31
0.0
  0
LINE
  5
176
  8
1
  6
CONTINUOUS
 62
     7
 10
-173.6333333333333
 20
186.9930085245054
 30
0.0
 11
-172.976580482003
 21
186.9987399198102
 31
0.0
  0
LINE
  5
177
  8
1
  6
CONTINUOUS
 62
     7
 10
-178.1333333333333
 20
185.9537756963828
 30
0.0
 11
-178.1333333333333
 21
186.953737619447
 31
0.0
  0
LINE
  5
178
  8
1
  6
CONTINUOUS
 62
     7
 10
-162.1333333333333
 20
185.9537756963828
 30
0.0
 11
-162.1333333333333
 21
183.5106717166057
 31
0.0
  0
LINE
  5
179
  8
1
  6
CONTINUOUS
 62
     7
 10
-156.1333333333334
 20
182.1235525617731
 30
0.0
 11
-161.6372304234185
 21
182.1235525617731
 31
0.0
  0
ARC
  5
17A
  8
1
  6
CONTINUOUS
 62
     7
 10
-156.1333333333334
 20
177.0235525617731
 30
0.0
 40
5.1
 50
42.36979856937582
 51
90.0
  0
POLYLINE
  5
17B
  8
1
  6
CONTINUOUS
 62
     7
 66
     1
 10
0.0
 20
0.0
 30
0.0
  0
VERTEX
  5
616
  8
1
  6
CONTINUOUS
 62
     7
 10
-152.7348042397401
 20
179.6235525617731
 30
0.0
  0
VERTEX
  5
617
  8
1
  6
CONTINUOUS
 62
     7
 10
-152.7107480218438
 20
179.6241315986763
 30
0.0
  0
VERTEX
  5
618
  8
1
  6
CONTINUOUS
 62
     7
 10
-152.6867475216991
 20
179.625867368251
 30
0.0
  0
VERTEX
  5
619
  8
1
  6
CONTINUOUS
 62
     7
 10
-152.6628583280072
 20
179.6287558501986
 30
0.0
  0
VERTEX
  5
61A
  8
1
  6
CONTINUOUS
 62
     7
 10
-152.6391357716671
 20
179.6327903543686
 30
0.0
  0
VERTEX
  5
61B
  8
1
  6
CONTINUOUS
 62
     7
 10
-152.6156347976209
 20
179.6379615362537
 30
0.0
  0
VERTEX
  5
61C
  8
1
  6
CONTINUOUS
 62
     7
 10
-152.5924098375936
 20
179.6442574186333
 30
0.0
  0
VERTEX
  5
61D
  8
1
  6
CONTINUOUS
 62
     7
 10
-152.5695146840209
 20
179.6516634193146
 30
0.0
  0
VERTEX
  5
61E
  8
1
  6
CONTINUOUS
 62
     7
 10
-152.5470023654581
 20
179.6601623849068
 30
0.0
  0
VERTEX
  5
61F
  8
1
  6
CONTINUOUS
 62
     7
 10
-152.5249250237581
 20
179.6697346305509
 30
0.0
  0
VERTEX
  5
620
  8
1
  6
CONTINUOUS
 62
     7
 10
-152.5033337933032
 20
179.680357985513
 30
0.0
  0
VERTEX
  5
621
  8
1
  6
CONTINUOUS
 62
     7
 10
-152.4822786825702
 20
179.692007844535
 30
0.0
  0
VERTEX
  5
622
  8
1
  6
CONTINUOUS
 62
     7
 10
-152.4618084583037
 20
179.7046572248237
 30
0.0
  0
VERTEX
  5
623
  8
1
  6
CONTINUOUS
 62
     7
 10
-152.4419705325646
 20
179.718276828547
 30
0.0
  0
VERTEX
  5
624
  8
1
  6
CONTINUOUS
 62
     7
 10
-152.4228108529175
 20
179.7328351106924
 30
0.0
  0
VERTEX
  5
625
  8
1
  6
CONTINUOUS
 62
     7
 10
-152.4043737960083
 20
179.7482983521295
 30
0.0
  0
VERTEX
  5
626
  8
1
  6
CONTINUOUS
 62
     7
 10
-152.3867020647827
 20
179.7646307377083
 30
0.0
  0
VERTEX
  5
627
  8
1
  6
CONTINUOUS
 62
     7
 10
-152.3698365895786
 20
179.7817944392132
 30
0.0
  0
VERTEX
  5
628
  8
1
  6
CONTINUOUS
 62
     7
 10
-152.3538164333262
 20
179.7997497029779
 30
0.0
  0
VERTEX
  5
629
  8
1
  6
CONTINUOUS
 62
     7
 10
-152.3386787010721
 20
179.8184549419609
 30
0.0
  0
VERTEX
  5
62A
  8
1
  6
CONTINUOUS
 62
     7
 10
-152.3244584540388
 20
179.8378668320678
 30
0.0
  0
VERTEX
  5
62B
  8
1
  6
CONTINUOUS
 62
     7
 10
-152.3111886284175
 20
179.8579404124956
 30
0.0
  0
VERTEX
  5
62C
  8
1
  6
CONTINUOUS
 62
     7
 10
-152.2988999590831
 20
179.8786291898688
 30
0.0
  0
VERTEX
  5
62D
  8
1
  6
CONTINUOUS
 62
     7
 10
-152.2876209084078
 20
179.8998852459252
 30
0.0
  0
VERTEX
  5
62E
  8
1
  6
CONTINUOUS
 62
     7
 10
-152.2773776003378
 20
179.9216593485013
 30
0.0
  0
VERTEX
  5
62F
  8
1
  6
CONTINUOUS
 62
     7
 10
-152.2681937598868
 20
179.9439010655613
 30
0.0
  0
VERTEX
  5
630
  8
1
  6
CONTINUOUS
 62
     7
 10
-152.2600906581848
 20
179.9665588820054
 30
0.0
  0
VERTEX
  5
631
  8
1
  6
CONTINUOUS
 62
     7
 10
-152.2530870632115
 20
179.9895803189862
 30
0.0
  0
VERTEX
  5
632
  8
1
  6
CONTINUOUS
 62
     7
 10
-152.2471991963266
 20
180.0129120554573
 30
0.0
  0
VERTEX
  5
633
  8
1
  6
CONTINUOUS
 62
     7
 10
-152.2424406946991
 20
180.0365000516729
 30
0.0
  0
VERTEX
  5
634
  8
1
  6
CONTINUOUS
 62
     7
 10
-152.2388225797211
 20
180.060289674352
 30
0.0
  0
VERTEX
  5
635
  8
1
  6
CONTINUOUS
 62
     7
 10
-152.2363532314809
 20
180.0842258232168
 30
0.0
  0
VERTEX
  5
636
  8
1
  6
CONTINUOUS
 62
     7
 10
-152.2350383693537
 20
180.1082530586133
 30
0.0
  0
VERTEX
  5
637
  8
1
  6
CONTINUOUS
 62
     7
 10
-152.2348810387541
 20
180.1323157299175
 30
0.0
  0
VERTEX
  5
638
  8
1
  6
CONTINUOUS
 62
     7
 10
-152.235881604083
 20
180.1563581044306
 30
0.0
  0
VERTEX
  5
639
  8
1
  6
CONTINUOUS
 62
     7
 10
-152.2380377478836
 20
180.1803244964645
 30
0.0
  0
VERTEX
  5
63A
  8
1
  6
CONTINUOUS
 62
     7
 10
-152.2413444762084
 20
180.2041593963173
 30
0.0
  0
VERTEX
  5
63B
  8
1
  6
CONTINUOUS
 62
     7
 10
-152.2457941301865
 20
180.2278075988427
 30
0.0
  0
VERTEX
  5
63C
  8
1
  6
CONTINUOUS
 62
     7
 10
-152.2513764037625
 20
180.251214331313
 30
0.0
  0
VERTEX
  5
63D
  8
1
  6
CONTINUOUS
 62
     7
 10
-152.2580783675668
 20
180.2743253802804
 30
0.0
  0
VERTEX
  5
63E
  8
1
  6
CONTINUOUS
 62
     7
 10
-152.2658844988619
 20
180.2970872171442
 30
0.0
  0
VERTEX
  5
63F
  8
1
  6
CONTINUOUS
 62
     7
 10
-152.2747767174955
 20
180.3194471221301
 30
0.0
  0
VERTEX
  5
640
  8
1
  6
CONTINUOUS
 62
     7
 10
-152.2847344277765
 20
180.3413533063978
 30
0.0
  0
VERTEX
  5
641
  8
1
  6
CONTINUOUS
 62
     7
 10
-152.2957345661781
 20
180.3627550319907
 30
0.0
  0
VERTEX
  5
642
  8
1
  6
CONTINUOUS
 62
     7
 10
-152.307751654756
 20
180.3836027293532
 30
0.0
  0
VERTEX
  5
643
  8
1
  6
CONTINUOUS
 62
     7
 10
-152.3207578601592
 20
180.4038481121409
 30
0.0
  0
VERTEX
  5
644
  8
1
  6
CONTINUOUS
 62
     7
 10
-152.334723058096
 20
180.4234442890587
 30
0.0
  0
VERTEX
  5
645
  8
1
  6
CONTINUOUS
 62
     7
 10
-152.3496149031067
 20
180.4423458724682
 30
0.0
  0
VERTEX
  5
646
  8
1
  6
CONTINUOUS
 62
     7
 10
-152.3653989034799
 20
180.4605090835122
 30
0.0
  0
SEQEND
  5
9A2
  8
1
  6
CONTINUOUS
 62
     7
  0
LINE
  5
17C
  8
1
  6
CONTINUOUS
 62
     7
 10
-152.7348042397401
 20
179.6235525617731
 30
0.0
 11
-155.7333333333333
 21
179.6235525617731
 31
0.0
  0
ARC
  5
17D
  8
1
  6
CONTINUOUS
 62
     7
 10
-155.7333333333333
 20
177.0235525617731
 30
0.0
 40
2.6
 50
90.0
 51
270.0
  0
LINE
  5
17E
  8
1
  6
CONTINUOUS
 62
     7
 10
-155.7333333333333
 20
174.4235525617731
 30
0.0
 11
-152.73480423974
 21
174.4235525617731
 31
0.0
  0
POLYLINE
  5
17F
  8
1
  6
CONTINUOUS
 62
     7
 66
     1
 10
0.0
 20
0.0
 30
0.0
  0
VERTEX
  5
647
  8
1
  6
CONTINUOUS
 62
     7
 10
-152.3653989034799
 20
173.586596040034
 30
0.0
  0
VERTEX
  5
648
  8
1
  6
CONTINUOUS
 62
     7
 10
-152.3496149031067
 20
173.6047592510779
 30
0.0
  0
VERTEX
  5
649
  8
1
  6
CONTINUOUS
 62
     7
 10
-152.334723058096
 20
173.6236608344875
 30
0.0
  0
VERTEX
  5
64A
  8
1
  6
CONTINUOUS
 62
     7
 10
-152.3207578601592
 20
173.6432570114053
 30
0.0
  0
VERTEX
  5
64B
  8
1
  6
CONTINUOUS
 62
     7
 10
-152.307751654756
 20
173.6635023941929
 30
0.0
  0
VERTEX
  5
64C
  8
1
  6
CONTINUOUS
 62
     7
 10
-152.2957345661781
 20
173.6843500915555
 30
0.0
  0
VERTEX
  5
64D
  8
1
  6
CONTINUOUS
 62
     7
 10
-152.2847344277764
 20
173.7057518171484
 30
0.0
  0
VERTEX
  5
64E
  8
1
  6
CONTINUOUS
 62
     7
 10
-152.2747767174954
 20
173.727658001416
 30
0.0
  0
VERTEX
  5
64F
  8
1
  6
CONTINUOUS
 62
     7
 10
-152.2658844988619
 20
173.750017906402
 30
0.0
  0
VERTEX
  5
650
  8
1
  6
CONTINUOUS
 62
     7
 10
-152.2580783675668
 20
173.7727797432658
 30
0.0
  0
VERTEX
  5
651
  8
1
  6
CONTINUOUS
 62
     7
 10
-152.2513764037625
 20
173.7958907922332
 30
0.0
  0
VERTEX
  5
652
  8
1
  6
CONTINUOUS
 62
     7
 10
-152.2457941301865
 20
173.8192975247034
 30
0.0
  0
VERTEX
  5
653
  8
1
  6
CONTINUOUS
 62
     7
 10
-152.2413444762084
 20
173.8429457272289
 30
0.0
  0
VERTEX
  5
654
  8
1
  6
CONTINUOUS
 62
     7
 10
-152.2380377478835
 20
173.8667806270817
 30
0.0
  0
VERTEX
  5
655
  8
1
  6
CONTINUOUS
 62
     7
 10
-152.235881604083
 20
173.8907470191155
 30
0.0
  0
VERTEX
  5
656
  8
1
  6
CONTINUOUS
 62
     7
 10
-152.2348810387541
 20
173.9147893936287
 30
0.0
  0
VERTEX
  5
657
  8
1
  6
CONTINUOUS
 62
     7
 10
-152.2350383693536
 20
173.9388520649329
 30
0.0
  0
VERTEX
  5
658
  8
1
  6
CONTINUOUS
 62
     7
 10
-152.2363532314809
 20
173.9628793003293
 30
0.0
  0
VERTEX
  5
659
  8
1
  6
CONTINUOUS
 62
     7
 10
-152.2388225797211
 20
173.9868154491941
 30
0.0
  0
VERTEX
  5
65A
  8
1
  6
CONTINUOUS
 62
     7
 10
-152.2424406946991
 20
174.0106050718732
 30
0.0
  0
VERTEX
  5
65B
  8
1
  6
CONTINUOUS
 62
     7
 10
-152.2471991963266
 20
174.0341930680889
 30
0.0
  0
VERTEX
  5
65C
  8
1
  6
CONTINUOUS
 62
     7
 10
-152.2530870632115
 20
174.05752480456
 30
0.0
  0
VERTEX
  5
65D
  8
1
  6
CONTINUOUS
 62
     7
 10
-152.2600906581848
 20
174.0805462415407
 30
0.0
  0
VERTEX
  5
65E
  8
1
  6
CONTINUOUS
 62
     7
 10
-152.2681937598868
 20
174.1032040579848
 30
0.0
  0
VERTEX
  5
65F
  8
1
  6
CONTINUOUS
 62
     7
 10
-152.2773776003378
 20
174.1254457750449
 30
0.0
  0
VERTEX
  5
660
  8
1
  6
CONTINUOUS
 62
     7
 10
-152.2876209084078
 20
174.147219877621
 30
0.0
  0
VERTEX
  5
661
  8
1
  6
CONTINUOUS
 62
     7
 10
-152.2988999590831
 20
174.1684759336774
 30
0.0
  0
VERTEX
  5
662
  8
1
  6
CONTINUOUS
 62
     7
 10
-152.3111886284175
 20
174.1891647110506
 30
0.0
  0
VERTEX
  5
663
  8
1
  6
CONTINUOUS
 62
     7
 10
-152.3244584540388
 20
174.2092382914784
 30
0.0
  0
VERTEX
  5
664
  8
1
  6
CONTINUOUS
 62
     7
 10
-152.3386787010721
 20
174.2286501815852
 30
0.0
  0
VERTEX
  5
665
  8
1
  6
CONTINUOUS
 62
     7
 10
-152.3538164333262
 20
174.2473554205683
 30
0.0
  0
VERTEX
  5
666
  8
1
  6
CONTINUOUS
 62
     7
 10
-152.3698365895786
 20
174.2653106843329
 30
0.0
  0
VERTEX
  5
667
  8
1
  6
CONTINUOUS
 62
     7
 10
-152.3867020647827
 20
174.2824743858378
 30
0.0
  0
VERTEX
  5
668
  8
1
  6
CONTINUOUS
 62
     7
 10
-152.4043737960083
 20
174.2988067714167
 30
0.0
  0
VERTEX
  5
669
  8
1
  6
CONTINUOUS
 62
     7
 10
-152.4228108529174
 20
174.3142700128537
 30
0.0
  0
VERTEX
  5
66A
  8
1
  6
CONTINUOUS
 62
     7
 10
-152.4419705325646
 20
174.3288282949991
 30
0.0
  0
VERTEX
  5
66B
  8
1
  6
CONTINUOUS
 62
     7
 10
-152.4618084583037
 20
174.3424478987225
 30
0.0
  0
VERTEX
  5
66C
  8
1
  6
CONTINUOUS
 62
     7
 10
-152.4822786825702
 20
174.3550972790111
 30
0.0
  0
VERTEX
  5
66D
  8
1
  6
CONTINUOUS
 62
     7
 10
-152.5033337933032
 20
174.3667471380331
 30
0.0
  0
VERTEX
  5
66E
  8
1
  6
CONTINUOUS
 62
     7
 10
-152.5249250237581
 20
174.3773704929953
 30
0.0
  0
VERTEX
  5
66F
  8
1
  6
CONTINUOUS
 62
     7
 10
-152.5470023654581
 20
174.3869427386394
 30
0.0
  0
VERTEX
  5
670
  8
1
  6
CONTINUOUS
 62
     7
 10
-152.5695146840209
 20
174.3954417042315
 30
0.0
  0
VERTEX
  5
671
  8
1
  6
CONTINUOUS
 62
     7
 10
-152.5924098375936
 20
174.4028477049128
 30
0.0
  0
VERTEX
  5
672
  8
1
  6
CONTINUOUS
 62
     7
 10
-152.6156347976209
 20
174.4091435872925
 30
0.0
  0
VERTEX
  5
673
  8
1
  6
CONTINUOUS
 62
     7
 10
-152.6391357716671
 20
174.4143147691776
 30
0.0
  0
VERTEX
  5
674
  8
1
  6
CONTINUOUS
 62
     7
 10
-152.6628583280072
 20
174.4183492733476
 30
0.0
  0
VERTEX
  5
675
  8
1
  6
CONTINUOUS
 62
     7
 10
-152.6867475216991
 20
174.4212377552952
 30
0.0
  0
VERTEX
  5
676
  8
1
  6
CONTINUOUS
 62
     7
 10
-152.7107480218438
 20
174.4229735248699
 30
0.0
  0
VERTEX
  5
677
  8
1
  6
CONTINUOUS
 62
     7
 10
-152.7348042397401
 20
174.4235525617731
 30
0.0
  0
SEQEND
  5
9A3
  8
1
  6
CONTINUOUS
 62
     7
  0
ARC
  5
180
  8
1
  6
CONTINUOUS
 62
     7
 10
-156.1333333333334
 20
177.0235525617731
 30
0.0
 40
5.1
 50
270.0
 51
317.6302014306247
  0
LINE
  5
181
  8
1
  6
CONTINUOUS
 62
     7
 10
-162.1333333333333
 20
171.9235525617731
 30
0.0
 11
-156.1333333333334
 21
171.9235525617731
 31
0.0
  0
LINE
  5
182
  8
1
  6
CONTINUOUS
 62
     7
 10
-162.1333333333333
 20
171.9235525617731
 30
0.0
 11
-162.1333333333333
 21
171.4624644872378
 31
0.0
  0
LINE
  5
183
  8
1
  6
CONTINUOUS
 62
     7
 10
-178.1333333333333
 20
185.9537756963828
 30
0.0
 11
-178.1333333333333
 21
184.0235525617731
 31
0.0
  0
LINE
  5
184
  8
1
  6
CONTINUOUS
 62
     7
 10
-178.1333333333333
 20
176.0235525617731
 30
0.0
 11
-178.1333333333333
 21
171.4624644872378
 31
0.0
  0
ARC
  5
185
  8
1
  6
CONTINUOUS
 62
     7
 10
-177.1333333333333
 20
137.8152227519618
 30
0.0
 40
1.0
 50
180.0
 51
269.4999999999995
  0
LINE
  5
186
  8
1
  6
CONTINUOUS
 62
     7
 10
-170.1333333333333
 20
136.7540965990408
 30
0.0
 11
-170.1333333333333
 21
154.0235525617731
 31
0.0
  0
LINE
  5
187
  8
1
  6
CONTINUOUS
 62
     7
 10
-170.1333333333333
 20
136.7540965990408
 30
0.0
 11
-177.1420598688317
 21
136.8152608288976
 31
0.0
  0
LINE
  5
188
  8
1
  6
CONTINUOUS
 62
     7
 10
-178.1333333333333
 20
164.0934817349066
 30
0.0
 11
-178.1333333333333
 21
137.8152227519618
 31
0.0
  0
ARC
  5
189
  8
1
  6
CONTINUOUS
 62
     7
 10
-163.1333333333333
 20
128.0846787146941
 30
0.0
 40
1.0
 50
270.4999999999989
 51
0.0
  0
LINE
  5
18A
  8
1
  6
CONTINUOUS
 62
     7
 10
-170.1333333333333
 20
127.0235525617731
 30
0.0
 11
-163.124606797835
 21
127.08471679163
 31
0.0
  0
LINE
  5
18B
  8
1
  6
CONTINUOUS
 62
     7
 10
-170.1333333333333
 20
127.0235525617731
 30
0.0
 11
-170.1333333333333
 21
129.6930085245054
 31
0.0
  0
LINE
  5
18C
  8
1
  6
CONTINUOUS
 62
     7
 10
-170.1333333333333
 20
129.6930085245054
 30
0.0
 11
-167.624606797835
 21
129.7149018493039
 31
0.0
  0
ARC
  5
18D
  8
1
  6
CONTINUOUS
 62
     7
 10
-167.6333333333333
 20
130.7148637723681
 30
0.0
 40
1.0
 50
270.4999999999989
 51
0.0
  0
LINE
  5
18E
  8
1
  6
CONTINUOUS
 62
     7
 10
-166.6333333333333
 20
130.7148637723681
 30
0.0
 11
-166.6333333333333
 21
135.7322413511781
 31
0.0
  0
ARC
  5
18F
  8
1
  6
CONTINUOUS
 62
     7
 10
-167.6333333333333
 20
135.7322413511781
 30
0.0
 40
1.0
 50
0.0
 51
89.50000000000114
  0
LINE
  5
190
  8
1
  6
CONTINUOUS
 62
     7
 10
-167.624606797835
 20
136.7322032742423
 30
0.0
 11
-170.1333333333333
 21
136.7540965990408
 31
0.0
  0
LINE
  5
191
  8
1
  6
CONTINUOUS
 62
     7
 10
-162.1333333333333
 20
164.0934817349066
 30
0.0
 11
-162.1333333333333
 21
128.0846787146941
 31
0.0
  0
LINE
  5
192
  8
1
  6
CONTINUOUS
 62
     7
 10
-177.1420598688317
 20
127.08471679163
 30
0.0
 11
-170.1333333333333
 21
127.0235525617731
 31
0.0
  0
ARC
  5
193
  8
1
  6
CONTINUOUS
 62
     7
 10
-177.1333333333333
 20
128.0846787146941
 30
0.0
 40
1.0
 50
180.0
 51
269.4999999999995
  0
ARC
  5
194
  8
1
  6
CONTINUOUS
 62
     7
 10
-177.1333333333333
 20
128.6318823715844
 30
0.0
 40
1.0
 50
90.5000000000005
 51
180.0
  0
LINE
  5
195
  8
1
  6
CONTINUOUS
 62
     7
 10
-177.1420598688317
 20
129.6318442946485
 30
0.0
 11
-170.1333333333333
 21
129.6930085245054
 31
0.0
  0
LINE
  5
196
  8
1
  6
CONTINUOUS
 62
     7
 10
-178.1333333333333
 20
128.6318823715844
 30
0.0
 11
-178.1333333333333
 21
128.0846787146941
 31
0.0
  0
LINE
  5
197
  8
1
  6
CONTINUOUS
 62
     7
 10
-170.1333333333333
 20
135.4235525617731
 30
0.0
 11
-166.6333333333333
 21
135.4540965990407
 31
0.0
  0
ARC
  5
198
  8
1
  6
CONTINUOUS
 62
     7
 10
-170.1333333333333
 20
133.2235525617731
 30
0.0
 40
2.200000000000001
 50
90.0
 51
270.0
  0
LINE
  5
199
  8
1
  6
CONTINUOUS
 62
     7
 10
-170.1333333333333
 20
131.0235525617731
 30
0.0
 11
-166.6333333333333
 21
130.9930085245054
 31
0.0
  0
LINE
  5
19A
  8
1
  6
CONTINUOUS
 62
     7
 10
-178.1333333333333
 20
128.6318823715844
 30
0.0
 11
-178.1333333333333
 21
137.8152227519618
 31
0.0
  0
ARC
  5
19B
  8
1
  6
CONTINUOUS
 62
     7
 10
-156.1333333333334
 20
177.0235525617731
 30
0.0
 40
2.200000000000007
 50
270.0000000000001
 51
90.00000000000006
  0
LINE
  5
19C
  8
1
  6
CONTINUOUS
 62
     7
 10
-157.1054127470914
 20
179.2320357702991
 30
0.0
 11
-156.1333333333334
 21
179.2235525617731
 31
0.0
  0
LINE
  5
19D
  8
1
  6
CONTINUOUS
 62
     7
 10
-156.1333333333334
 20
174.8235525617731
 30
0.0
 11
-157.1054127470914
 21
174.8150693532471
 31
0.0
  0
ARC
  5
19E
  8
1
  6
CONTINUOUS
 62
     7
 10
-156.1333333333334
 20
177.0235525617731
 30
0.0
 40
5.100000000000012
 50
317.6302014306243
 51
42.36979856937592
  0
LINE
  5
19F
  8
1
  6
CONTINUOUS
 62
     7
 10
-167.1333333333333
 20
223.9764474382269
 30
0.0
 11
-167.1333333333333
 21
226.6235525617731
 31
0.0
  0
LINE
  5
1A0
  8
1
  6
CONTINUOUS
 62
     7
 10
-167.1333333333333
 20
230.6235525617731
 30
0.0
 11
-167.1333333333333
 21
248.9764474382269
 31
0.0
  0
LINE
  5
1A1
  8
1
  6
CONTINUOUS
 62
     7
 10
-173.1333333333333
 20
248.9764474382269
 30
0.0
 11
-173.1333333333333
 21
230.6235525617731
 31
0.0
  0
LINE
  5
1A2
  8
1
  6
CONTINUOUS
 62
     7
 10
-173.1333333333333
 20
226.6235525617731
 30
0.0
 11
-173.1333333333333
 21
223.9764474382269
 31
0.0
  0
LINE
  5
1A3
  8
1
  6
CONTINUOUS
 62
     7
 10
-165.0333333333333
 20
175.2735525617731
 30
0.0
 11
-162.8961367385415
 21
175.2735525617731
 31
0.0
  0
LINE
  5
1A4
  8
1
  6
CONTINUOUS
 62
     7
 10
-162.8961367385415
 20
184.7735525617731
 30
0.0
 11
-165.0333333333333
 21
184.7735525617731
 31
0.0
  0
ARC
  5
1A5
  8
1
  6
CONTINUOUS
 62
     7
 10
-169.3333333333333
 20
180.0235525617731
 30
0.0
 40
7.999999999999998
 50
323.5764263576689
 51
342.166617290187
  0
ARC
  5
1A6
  8
1
  6
CONTINUOUS
 62
     7
 10
-169.3333333333333
 20
180.0235525617731
 30
0.0
 40
7.999999999999995
 50
17.83338270981301
 51
36.42357364233112
  0
LINE
  5
1A7
  8
1
  6
CONTINUOUS
 62
     7
 10
-184.6333333333333
 20
177.5235525617731
 30
0.0
 11
-179.2333333333333
 21
177.5235525617731
 31
0.0
  0
LINE
  5
1A8
  8
1
  6
CONTINUOUS
 62
     7
 10
-179.2333333333333
 20
182.5235525617731
 30
0.0
 11
-184.6333333333333
 21
182.5235525617731
 31
0.0
  0
LINE
  5
1A9
  8
1
  6
CONTINUOUS
 62
     7
 10
-184.6333333333333
 20
182.5235525617731
 30
0.0
 11
-185.0333333333333
 21
182.1235525617731
 31
0.0
  0
LINE
  5
1AA
  8
1
  6
CONTINUOUS
 62
     7
 10
-185.0333333333333
 20
177.9235525617731
 30
0.0
 11
-184.6333333333333
 21
177.5235525617731
 31
0.0
  0
LINE
  5
1AB
  8
1
  6
CONTINUOUS
 62
     7
 10
-179.1178632794954
 20
184.0235525617731
 30
0.0
 11
-179.2333333333333
 21
183.8235525617731
 31
0.0
  0
LINE
  5
1AC
  8
1
  6
CONTINUOUS
 62
     7
 10
-179.2333333333333
 20
176.2235525617731
 30
0.0
 11
-179.1178632794954
 21
176.0235525617731
 31
0.0
  0
LINE
  5
1AD
  8
1
  6
CONTINUOUS
 62
     7
 10
-176.9304761904762
 20
193.3235525617731
 30
0.0
 11
-175.2333333333333
 21
190.0235525617731
 31
0.0
  0
LINE
  5
1AE
  8
1
  6
CONTINUOUS
 62
     7
 10
-175.2333333333333
 20
173.5235525617731
 30
0.0
 11
-174.0940624282749
 21
173.5235525617731
 31
0.0
  0
LINE
  5
1AF
  8
1
  6
CONTINUOUS
 62
     7
 10
-165.0333333333333
 20
190.0235525617731
 30
0.0
 11
-163.3361904761905
 21
193.3235525617731
 31
0.0
  0
LINE
  5
1B0
  8
1
  6
CONTINUOUS
 62
     7
 10
-166.1726042383918
 20
173.5235525617731
 30
0.0
 11
-165.0333333333334
 21
173.5235525617731
 31
0.0
  0
LINE
  5
1B1
  8
1
  6
CONTINUOUS
 62
     7
 10
-172.9767200192913
 20
186.9987287105
 30
0.0
 11
-173.9939950729416
 21
184.9901357314228
 31
0.0
  0
LINE
  5
1B2
  8
1
  6
CONTINUOUS
 62
     7
 10
-166.272671593725
 20
184.9901357314228
 30
0.0
 11
-167.2899466473754
 21
186.9987287105
 31
0.0
  0
LINE
  5
1B3
  8
1
  6
CONTINUOUS
 62
     7
 10
-172.8833333333333
 20
160.7235525617731
 30
0.0
 11
-172.8833333333333
 21
160.1552050593604
 31
0.0
  0
LINE
  5
1B4
  8
1
  6
CONTINUOUS
 62
     7
 10
-167.3833333333333
 20
160.1552050593604
 30
0.0
 11
-167.3833333333333
 21
160.7235525617731
 31
0.0
  0
ARC
  5
1B5
  8
1
  6
CONTINUOUS
 62
     7
 10
-168.3833333333333
 20
160.1552050593605
 30
0.0
 40
1.000000000000004
 50
344.9999999999998
 51
0.0
  0
ARC
  5
1B6
  8
1
  6
CONTINUOUS
 62
     7
 10
-171.8833333333333
 20
160.1552050593605
 30
0.0
 40
1.000000000000001
 50
180.0
 51
195.0000000000001
  0
LINE
  5
1B7
  8
1
  6
CONTINUOUS
 62
     7
 10
-172.8492591596224
 20
159.896386014258
 30
0.0
 11
-172.5540652855946
 21
158.7947074783032
 31
0.0
  0
LINE
  5
1B8
  8
1
  6
CONTINUOUS
 62
     7
 10
-167.7126167069303
 20
158.7946502814214
 30
0.0
 11
-167.4174075070443
 21
159.896386014258
 31
0.0
  0
ENDBLK
  8
0
  0
BLOCK
  8
0
  2
D_FRAME_VIEW_2735
 70
     0
 10
0.0
 20
0.0
 30
0.0
  0
LINE
  5
1BD
  8
1
  6
CONTINUOUS
 62
     9
 10
-279.7043422114969
 20
51.29999999999998
 30
0.0
 11
-247.7043422114969
 21
51.29999999999998
 31
0.0
  0
LINE
  5
1BE
  8
1
  6
CONTINUOUS
 62
     9
 10
-279.7043422114969
 20
53.29773113937172
 30
0.0
 11
-264.2816131130877
 21
53.29773113937172
 31
0.0
  0
LINE
  5
1BF
  8
1
  6
CONTINUOUS
 62
     9
 10
-262.8043422114968
 20
53.29773113937172
 30
0.0
 11
-261.6043422114969
 21
53.29773113937172
 31
0.0
  0
LINE
  5
1C0
  8
1
  6
CONTINUOUS
 62
     9
 10
-260.127071309906
 20
53.29773113937172
 30
0.0
 11
-247.7043422114969
 21
53.29773113937171
 31
0.0
  0
LINE
  5
1C1
  8
1
  6
CONTINUOUS
 62
     9
 10
-247.7043422114969
 20
51.29999999999998
 30
0.0
 11
-247.7043422114969
 21
53.29773113937171
 31
0.0
  0
LINE
  5
1C2
  8
1
  6
CONTINUOUS
 62
     7
 10
-279.7043422114969
 20
51.29999999999998
 30
0.0
 11
-279.7043422114969
 21
53.29773113937172
 31
0.0
  0
LINE
  5
1C3
  8
1
  6
CONTINUOUS
 62
     9
 10
-279.7043422114969
 20
50.8
 30
0.0
 11
-247.7043422114969
 21
50.79999999999998
 31
0.0
  0
LINE
  5
1C4
  8
1
  6
CONTINUOUS
 62
     9
 10
-247.7043422114969
 20
50.79999999999998
 30
0.0
 11
-247.7043422114969
 21
51.29999999999998
 31
0.0
  0
LINE
  5
1C5
  8
1
  6
CONTINUOUS
 62
     7
 10
-279.7043422114969
 20
50.8
 30
0.0
 11
-279.7043422114969
 21
51.29999999999998
 31
0.0
  0
LINE
  5
1C6
  8
1
  6
CONTINUOUS
 62
     9
 10
-279.7043422114969
 20
72.80000000000001
 30
0.0
 11
-264.7043422114969
 21
72.80000000000001
 31
0.0
  0
LINE
  5
1C7
  8
1
  6
CONTINUOUS
 62
     9
 10
-259.7043422114969
 20
72.80000000000001
 30
0.0
 11
-247.7043422114969
 21
72.80000000000001
 31
0.0
  0
LINE
  5
1C8
  8
1
  6
CONTINUOUS
 62
     7
 10
-279.7043422114969
 20
77.3
 30
0.0
 11
-247.7043422114969
 21
77.3
 31
0.0
  0
LINE
  5
1C9
  8
1
  6
CONTINUOUS
 62
     9
 10
-247.7043422114969
 20
72.80000000000001
 30
0.0
 11
-247.7043422114969
 21
77.3
 31
0.0
  0
LINE
  5
1CA
  8
1
  6
CONTINUOUS
 62
     7
 10
-279.7043422114969
 20
72.80000000000001
 30
0.0
 11
-279.7043422114969
 21
77.3
 31
0.0
  0
LINE
  5
1CB
  8
1
  6
CONTINUOUS
 62
     9
 10
-279.7043422114969
 20
72.30000000000001
 30
0.0
 11
-264.7043422114969
 21
72.3
 31
0.0
  0
LINE
  5
1CC
  8
1
  6
CONTINUOUS
 62
     9
 10
-259.7043422114969
 20
72.3
 30
0.0
 11
-247.7043422114969
 21
72.3
 31
0.0
  0
LINE
  5
1CD
  8
1
  6
CONTINUOUS
 62
     9
 10
-247.7043422114969
 20
72.3
 30
0.0
 11
-247.7043422114969
 21
72.80000000000001
 31
0.0
  0
LINE
  5
1CE
  8
1
  6
CONTINUOUS
 62
     7
 10
-279.7043422114969
 20
72.30000000000001
 30
0.0
 11
-279.7043422114969
 21
72.80000000000001
 31
0.0
  0
ARC
  5
1CF
  8
1
  6
CONTINUOUS
 62
     7
 10
-239.7043422114969
 20
51.3
 30
0.0
 40
2.000000000000002
 50
359.9999999999994
 51
87.27059736322144
  0
LINE
  5
1D0
  8
1
  6
CONTINUOUS
 62
     9
 10
-247.7043422114969
 20
51.29999999999998
 30
0.0
 11
-237.7043422114969
 21
51.29999999999998
 31
0.0
  0
LINE
  5
1D1
  8
1
  6
CONTINUOUS
 62
     7
 10
-247.7043422114969
 20
53.29773113937172
 30
0.0
 11
-239.6091041162587
 21
53.29773113937172
 31
0.0
  0
LINE
  5
1D2
  8
1
  6
CONTINUOUS
 62
     7
 10
-237.7043422114969
 20
50.79999999999998
 30
0.0
 11
-237.7043422114969
 21
51.29999999999998
 31
0.0
  0
LINE
  5
1D3
  8
1
  6
CONTINUOUS
 62
     9
 10
-247.7043422114969
 20
50.8
 30
0.0
 11
-237.7043422114969
 21
50.8
 31
0.0
  0
LINE
  5
1D4
  8
1
  6
CONTINUOUS
 62
     7
 10
-247.7043422114969
 20
77.3
 30
0.0
 11
-242.2043422114969
 21
77.3
 31
0.0
  0
ARC
  5
1D5
  8
1
  6
CONTINUOUS
 62
     7
 10
-242.2043422114969
 20
72.8
 30
0.0
 40
4.500000000000004
 50
0.0000000000002209
 51
90.00000000000001
  0
LINE
  5
1D6
  8
1
  6
CONTINUOUS
 62
     9
 10
-247.7043422114969
 20
72.80000000000001
 30
0.0
 11
-237.7043422114969
 21
72.80000000000001
 31
0.0
  0
LINE
  5
1D7
  8
1
  6
CONTINUOUS
 62
     7
 10
-237.7043422114969
 20
72.30000000000001
 30
0.0
 11
-237.7043422114969
 21
72.80000000000001
 31
0.0
  0
LINE
  5
1D8
  8
1
  6
CONTINUOUS
 62
     9
 10
-247.7043422114969
 20
72.3
 30
0.0
 11
-237.7043422114969
 21
72.3
 31
0.0
  0
LINE
  5
1D9
  8
1
  6
CONTINUOUS
 62
     9
 10
-279.7043422114969
 20
70.30226886062829
 30
0.0
 11
-266.8231443650138
 21
70.30226886062829
 31
0.0
  0
LINE
  5
1DA
  8
1
  6
CONTINUOUS
 62
     9
 10
-257.5855400579798
 20
70.30226886062829
 30
0.0
 11
-247.7043422114969
 21
70.30226886062829
 31
0.0
  0
LINE
  5
1DB
  8
1
  6
CONTINUOUS
 62
     9
 10
-247.7043422114969
 20
70.30226886062827
 30
0.0
 11
-247.7043422114969
 21
72.3
 31
0.0
  0
LINE
  5
1DC
  8
1
  6
CONTINUOUS
 62
     7
 10
-279.7043422114969
 20
70.30226886062829
 30
0.0
 11
-279.7043422114969
 21
72.30000000000001
 31
0.0
  0
ARC
  5
1DD
  8
1
  6
CONTINUOUS
 62
     7
 10
-239.7043422114969
 20
72.3
 30
0.0
 40
2.000000000000009
 50
272.7294026367788
 51
0.0000000000003979
  0
LINE
  5
1DE
  8
1
  6
CONTINUOUS
 62
     7
 10
-247.7043422114969
 20
70.30226886062829
 30
0.0
 11
-239.6091041162587
 21
70.30226886062829
 31
0.0
  0
LINE
  5
1DF
  8
1
  6
CONTINUOUS
 62
     7
 10
-279.7043422114969
 20
46.3
 30
0.0
 11
-247.7043422114969
 21
46.29999999999999
 31
0.0
  0
LINE
  5
1E0
  8
1
  6
CONTINUOUS
 62
     9
 10
-247.7043422114969
 20
46.29999999999999
 30
0.0
 11
-247.7043422114969
 21
50.79999999999998
 31
0.0
  0
LINE
  5
1E1
  8
1
  6
CONTINUOUS
 62
     7
 10
-279.7043422114969
 20
46.3
 30
0.0
 11
-279.7043422114969
 21
50.8
 31
0.0
  0
ARC
  5
1E2
  8
1
  6
CONTINUOUS
 62
     7
 10
-242.2043422114969
 20
50.8
 30
0.0
 40
4.500000000000004
 50
270.0000000000002
 51
359.9999999999998
  0
LINE
  5
1E3
  8
1
  6
CONTINUOUS
 62
     7
 10
-247.7043422114969
 20
46.3
 30
0.0
 11
-242.2043422114968
 21
46.3
 31
0.0
  0
LINE
  5
1E4
  8
1
  6
CONTINUOUS
 62
     9
 10
-279.7043422114969
 20
70.20238230365968
 30
0.0
 11
-266.8231443650138
 21
70.20238230365968
 31
0.0
  0
LINE
  5
1E5
  8
1
  6
CONTINUOUS
 62
     9
 10
-257.5855400579798
 20
70.20238230365968
 30
0.0
 11
-247.7043422114969
 21
70.20238230365968
 31
0.0
  0
LINE
  5
1E6
  8
1
  6
CONTINUOUS
 62
     9
 10
-247.7043422114969
 20
70.30226886062829
 30
0.0
 11
-247.7043422114969
 21
70.20238230365968
 31
0.0
  0
LINE
  5
1E7
  8
1
  6
CONTINUOUS
 62
     7
 10
-279.7043422114969
 20
70.30226886062829
 30
0.0
 11
-279.7043422114969
 21
70.20238230365968
 31
0.0
  0
ARC
  5
1E8
  8
1
  6
CONTINUOUS
 62
     7
 10
-239.6043422114968
 20
53.3976176963403
 30
0.0
 40
0.1000000000000048
 50
179.9999999999941
 51
267.270597363218
  0
LINE
  5
1E9
  8
1
  6
CONTINUOUS
 62
     9
 10
-247.7043422114969
 20
53.3976176963403
 30
0.0
 11
-247.7043422114969
 21
53.29773113937169
 31
0.0
  0
LINE
  5
1EA
  8
1
  6
CONTINUOUS
 62
     9
 10
-247.7043422114969
 20
53.3976176963403
 30
0.0
 11
-239.7043422114969
 21
53.3976176963403
 31
0.0
  0
LINE
  5
1EB
  8
1
  6
CONTINUOUS
 62
     9
 10
-279.7043422114969
 20
53.39761769634031
 30
0.0
 11
-264.695081721964
 21
53.39761769634031
 31
0.0
  0
LINE
  5
1EC
  8
1
  6
CONTINUOUS
 62
     9
 10
-259.7136027010297
 20
53.39761769634031
 30
0.0
 11
-247.7043422114969
 21
53.3976176963403
 31
0.0
  0
LINE
  5
1ED
  8
1
  6
CONTINUOUS
 62
     7
 10
-279.7043422114969
 20
53.39761769634031
 30
0.0
 11
-279.7043422114969
 21
53.29773113937171
 31
0.0
  0
ARC
  5
1EE
  8
1
  6
CONTINUOUS
 62
     7
 10
-239.6043422114968
 20
70.2023823036597
 30
0.0
 40
0.1000000000000167
 50
92.7294026367777
 51
180.0000000000139
  0
LINE
  5
1EF
  8
1
  6
CONTINUOUS
 62
     9
 10
-247.7043422114969
 20
70.20238230365968
 30
0.0
 11
-239.7043422114969
 21
70.20238230365968
 31
0.0
  0
LINE
  5
1F0
  8
1
  6
CONTINUOUS
 62
     9
 10
-247.7043422114969
 20
53.3976176963403
 30
0.0
 11
-247.7043422114969
 21
53.79999999999998
 31
0.0
  0
LINE
  5
1F1
  8
1
  6
CONTINUOUS
 62
     9
 10
-247.7043422114969
 20
69.79999999999998
 30
0.0
 11
-247.7043422114969
 21
70.20238230365968
 31
0.0
  0
LINE
  5
1F2
  8
1
  6
CONTINUOUS
 62
     7
 10
-279.7043422114969
 20
53.39761769634031
 30
0.0
 11
-279.7043422114969
 21
53.79999999999998
 31
0.0
  0
LINE
  5
1F3
  8
1
  6
CONTINUOUS
 62
     7
 10
-279.7043422114969
 20
69.79999999999998
 30
0.0
 11
-279.7043422114969
 21
70.20238230365968
 31
0.0
  0
LINE
  5
1F4
  8
1
  6
CONTINUOUS
 62
     7
 10
-239.7043422114969
 20
53.3976176963403
 30
0.0
 11
-239.7043422114969
 21
53.84968857776806
 31
0.0
  0
LINE
  5
1F5
  8
1
  6
CONTINUOUS
 62
     7
 10
-239.7043422114969
 20
69.75031142223193
 30
0.0
 11
-239.7043422114969
 21
70.20238230365968
 31
0.0
  0
LINE
  5
1F6
  8
1
  6
CONTINUOUS
 62
     7
 10
-264.6543422114968
 20
53.38439102894588
 30
0.0
 11
-264.5797369155408
 21
53.38439102894588
 31
0.0
  0
ARC
  5
1F7
  8
1
  6
CONTINUOUS
 62
     7
 10
-262.2043422114969
 20
61.0
 30
0.0
 40
7.977468270071661
 50
252.6767082083191
 51
265.6866062620833
  0
LINE
  5
1F8
  8
1
  6
CONTINUOUS
 62
     7
 10
-259.8289475074529
 20
53.38439102894588
 30
0.0
 11
-259.7543422114969
 21
53.38439102894588
 31
0.0
  0
ARC
  5
1F9
  8
1
  6
CONTINUOUS
 62
     7
 10
-262.2043422114969
 20
61.0
 30
0.0
 40
7.977468270071661
 50
274.3133937379167
 51
287.3232917916808
  0
LINE
  5
1FA
  8
1
  6
CONTINUOUS
 62
     7
 10
-261.6043422114969
 20
53.38439102894588
 30
0.0
 11
-261.6043422114969
 21
53.04512727945945
 31
0.0
  0
LINE
  5
1FB
  8
1
  6
CONTINUOUS
 62
     7
 10
-262.8043422114968
 20
53.38439102894588
 30
0.0
 11
-261.6043422114969
 21
53.38439102894588
 31
0.0
  0
LINE
  5
1FC
  8
1
  6
CONTINUOUS
 62
     7
 10
-262.8043422114968
 20
53.04512727945945
 30
0.0
 11
-262.8043422114968
 21
53.38439102894586
 31
0.0
  0
LINE
  5
1FD
  8
1
  6
CONTINUOUS
 62
     7
 10
-259.7043422114969
 20
76.3
 30
0.0
 11
-264.7043422114969
 21
76.3
 31
0.0
  0
LINE
  5
1FE
  8
1
  6
CONTINUOUS
 62
     7
 10
-264.3043422114968
 20
76.69999999999999
 30
0.0
 11
-260.1043422114969
 21
76.69999999999999
 31
0.0
  0
LINE
  5
1FF
  8
1
  6
CONTINUOUS
 62
     7
 10
-257.5855400579798
 20
70.4272643562539
 30
0.0
 11
-257.5855400579798
 21
69.79999999999998
 31
0.0
  0
LINE
  5
200
  8
1
  6
CONTINUOUS
 62
     7
 10
-259.8949411347384
 20
70.4272643562539
 30
0.0
 11
-259.8949411347384
 21
69.79999999999998
 31
0.0
  0
ARC
  5
201
  8
1
  6
CONTINUOUS
 62
     7
 10
-258.6817806525896
 20
68.53469101853305
 30
0.0
 40
2.248019616039718
 50
89.39840756974114
 51
122.6603214727509
  0
ARC
  5
202
  8
1
  6
CONTINUOUS
 62
     7
 10
-258.8471625382913
 20
68.41539841636985
 30
0.0
 40
2.374720160964817
 50
57.90855660834723
 51
85.43545667907938
  0
LINE
  5
203
  8
1
  6
CONTINUOUS
 62
     7
 10
-264.5137432882554
 20
70.4272643562539
 30
0.0
 11
-264.5137432882554
 21
69.79999999999998
 31
0.0
  0
ARC
  5
204
  8
1
  6
CONTINUOUS
 62
     7
 10
-262.2043422114969
 20
63.1417752982339
 30
0.0
 40
7.642753701897132
 50
72.41209207052742
 51
107.5879079294721
  0
LINE
  5
205
  8
1
  6
CONTINUOUS
 62
     7
 10
-266.0043422114969
 20
70.89999999999999
 30
0.0
 11
-262.2043422114969
 21
70.89999999999999
 31
0.0
  0
ARC
  5
206
  8
1
  6
CONTINUOUS
 62
     7
 10
-265.6684438266346
 20
68.7382638819228
 30
0.0
 40
2.045985321458582
 50
55.64118090065881
 51
124.3588190993413
  0
LINE
  5
207
  8
1
  6
CONTINUOUS
 62
     7
 10
-262.2043422114969
 20
70.89999999999999
 30
0.0
 11
-258.4043422114969
 21
70.89999999999999
 31
0.0
  0
LINE
  5
208
  8
1
  6
CONTINUOUS
 62
     7
 10
-266.8231443650138
 20
70.4272643562539
 30
0.0
 11
-266.8231443650138
 21
69.79999999999998
 31
0.0
  0
LINE
  5
209
  8
1
  6
CONTINUOUS
 62
     7
 10
-332.7043422114969
 20
61.80000000000022
 30
0.0
 11
-326.7043422114969
 21
61.79999999999993
 31
0.0
  0
LINE
  5
20A
  8
1
  6
CONTINUOUS
 62
     7
 10
-332.64317798164
 20
68.80872653549837
 30
0.0
 11
-332.7043422114969
 21
61.80000000000022
 31
0.0
  0
LINE
  5
20B
  8
1
  6
CONTINUOUS
 62
     9
 10
-326.7655064413538
 20
68.80872653549837
 30
0.0
 11
-332.64317798164
 21
68.80872653549837
 31
0.0
  0
LINE
  5
20C
  8
1
  6
CONTINUOUS
 62
     7
 10
-326.7655064413538
 20
68.80872653549837
 30
0.0
 11
-326.7043422114969
 21
61.79999999999993
 31
0.0
  0
LINE
  5
20D
  8
1
  6
CONTINUOUS
 62
     7
 10
-326.7043422114969
 20
61.79999999999993
 30
0.0
 11
-326.7655064413538
 21
54.79127346450162
 31
0.0
  0
LINE
  5
20E
  8
1
  6
CONTINUOUS
 62
     9
 10
-332.64317798164
 20
54.79127346450162
 30
0.0
 11
-326.7655064413538
 21
54.79127346450162
 31
0.0
  0
LINE
  5
20F
  8
1
  6
CONTINUOUS
 62
     7
 10
-332.7043422114969
 20
61.80000000000022
 30
0.0
 11
-332.64317798164
 21
54.79127346450162
 31
0.0
  0
LINE
  5
210
  8
1
  6
CONTINUOUS
 62
     7
 10
-332.6345272691708
 20
69.79999999999998
 30
0.0
 11
-326.774157153823
 21
69.79999999999998
 31
0.0
  0
LINE
  5
211
  8
1
  6
CONTINUOUS
 62
     7
 10
-326.7741571538229
 20
69.79999999999998
 30
0.0
 11
-326.7655064413537
 21
68.80872653549837
 31
0.0
  0
LINE
  5
212
  8
1
  6
CONTINUOUS
 62
     7
 10
-332.64317798164
 20
68.80872653549837
 30
0.0
 11
-332.6345272691708
 21
69.79999999999998
 31
0.0
  0
LINE
  5
213
  8
1
  6
CONTINUOUS
 62
     7
 10
-326.774157153823
 20
53.79999999999998
 30
0.0
 11
-332.6345272691708
 21
53.79999999999998
 31
0.0
  0
LINE
  5
214
  8
1
  6
CONTINUOUS
 62
     7
 10
-326.7655064413537
 20
54.79127346450162
 30
0.0
 11
-326.774157153823
 21
53.79999999999998
 31
0.0
  0
LINE
  5
215
  8
1
  6
CONTINUOUS
 62
     7
 10
-332.6345272691708
 20
53.79999999999998
 30
0.0
 11
-332.64317798164
 21
54.79127346450162
 31
0.0
  0
LINE
  5
216
  8
1
  6
CONTINUOUS
 62
     7
 10
-336.2043422114969
 20
61.80000000000038
 30
0.0
 11
-334.2043422114969
 21
61.79999999999986
 31
0.0
  0
LINE
  5
217
  8
1
  6
CONTINUOUS
 62
     9
 10
-334.2655064413537
 20
68.80872653549837
 30
0.0
 11
-336.14317798164
 21
68.80872653549837
 31
0.0
  0
LINE
  5
218
  8
1
  6
CONTINUOUS
 62
     7
 10
-334.2655064413537
 20
68.80872653549837
 30
0.0
 11
-334.2043422114969
 21
61.79999999999986
 31
0.0
  0
LINE
  5
219
  8
1
  6
CONTINUOUS
 62
     7
 10
-336.14317798164
 20
68.80872653549837
 30
0.0
 11
-336.2043422114969
 21
61.80000000000038
 31
0.0
  0
LINE
  5
21A
  8
1
  6
CONTINUOUS
 62
     9
 10
-336.14317798164
 20
54.79127346450162
 30
0.0
 11
-334.2655064413537
 21
54.79127346450162
 31
0.0
  0
LINE
  5
21B
  8
1
  6
CONTINUOUS
 62
     7
 10
-334.2043422114969
 20
61.79999999999986
 30
0.0
 11
-334.2655064413537
 21
54.79127346450162
 31
0.0
  0
LINE
  5
21C
  8
1
  6
CONTINUOUS
 62
     7
 10
-336.2043422114969
 20
61.80000000000038
 30
0.0
 11
-336.14317798164
 21
54.79127346450162
 31
0.0
  0
LINE
  5
21D
  8
1
  6
CONTINUOUS
 62
     7
 10
-334.2741571538229
 20
69.79999999999998
 30
0.0
 11
-334.2655064413537
 21
68.80872653549837
 31
0.0
  0
LINE
  5
21E
  8
1
  6
CONTINUOUS
 62
     7
 10
-336.14317798164
 20
68.80872653549837
 30
0.0
 11
-336.1345272691708
 21
69.79999999999998
 31
0.0
  0
LINE
  5
21F
  8
1
  6
CONTINUOUS
 62
     7
 10
-336.1345272691708
 20
69.79999999999998
 30
0.0
 11
-334.2741571538229
 21
69.79999999999998
 31
0.0
  0
LINE
  5
220
  8
1
  6
CONTINUOUS
 62
     7
 10
-334.2655064413537
 20
54.79127346450162
 30
0.0
 11
-334.2741571538229
 21
53.79999999999998
 31
0.0
  0
LINE
  5
221
  8
1
  6
CONTINUOUS
 62
     7
 10
-336.1345272691708
 20
53.79999999999998
 30
0.0
 11
-336.14317798164
 21
54.79127346450162
 31
0.0
  0
LINE
  5
222
  8
1
  6
CONTINUOUS
 62
     7
 10
-334.2741571538229
 20
53.79999999999998
 30
0.0
 11
-336.1345272691708
 21
53.79999999999998
 31
0.0
  0
ARC
  5
223
  8
1
  6
CONTINUOUS
 62
     9
 10
-282.2043422114969
 20
61.79999999999999
 30
0.0
 40
0.758641351423769
 50
109.2406440950062
 51
250.7593559049938
  0
LINE
  5
224
  8
1
  6
CONTINUOUS
 62
     7
 10
-282.4543422114969
 20
61.08373419731909
 30
0.0
 11
-282.4349203875503
 21
60.57999391209626
 31
0.0
  0
ARC
  5
225
  8
1
  6
CONTINUOUS
 62
     9
 10
-282.2043422114969
 20
61.79999999999999
 30
0.0
 40
1.241604264568319
 50
100.7025226162913
 51
259.2974773837093
  0
LINE
  5
226
  8
1
  6
CONTINUOUS
 62
     7
 10
-282.4349203875503
 20
63.02000608790369
 30
0.0
 11
-282.4543422114969
 21
62.51626580268088
 31
0.0
  0
LINE
  5
227
  8
1
  6
CONTINUOUS
 62
     7
 10
-282.1032100903005
 20
64.39894912155953
 30
0.0
 11
-282.1032100903005
 21
64.5481397879406
 31
0.0
  0
ARC
  5
228
  8
1
  6
CONTINUOUS
 62
     7
 10
-281.2043422114969
 20
61.79999999999999
 30
0.0
 40
2.750000000000001
 50
102.4625164264977
 51
109.0783641367908
  0
LINE
  5
229
  8
1
  6
CONTINUOUS
 62
     7
 10
-281.7966461287275
 20
64.4859482621414
 30
0.0
 11
-281.7977945856393
 21
64.48520283770605
 31
0.0
  0
LINE
  5
22A
  8
1
  6
CONTINUOUS
 62
     9
 10
-281.797874562639
 20
61.79999999999996
 30
0.0
 11
-281.7966461287275
 21
64.4859482621414
 31
0.0
  0
LINE
  5
22B
  8
1
  6
CONTINUOUS
 62
     9
 10
-281.7966461287275
 20
59.11405173785858
 30
0.0
 11
-281.797874562639
 21
61.79999999999996
 31
0.0
  0
LINE
  5
22C
  8
1
  6
CONTINUOUS
 62
     7
 10
-281.7977945856393
 20
59.11479716229393
 30
0.0
 11
-281.7966461287275
 21
59.11405173785858
 31
0.0
  0
ARC
  5
22D
  8
1
  6
CONTINUOUS
 62
     7
 10
-281.2043422114969
 20
61.79999999999999
 30
0.0
 40
2.750000000000001
 50
250.9216358632092
 51
257.5374835735023
  0
LINE
  5
22E
  8
1
  6
CONTINUOUS
 62
     7
 10
-282.1032100903005
 20
59.05186021205937
 30
0.0
 11
-282.1032100903005
 21
59.20105087844045
 31
0.0
  0
ARC
  5
22F
  8
1
  6
CONTINUOUS
 62
     7
 10
-282.2043422114969
 20
61.79999999999999
 30
0.0
 40
2.75
 50
271.4866545699228
 51
272.1075456741796
  0
LINE
  5
230
  8
1
  6
CONTINUOUS
 62
     7
 10
-282.146560052153
 20
59.08468890991001
 30
0.0
 11
-282.132995920763
 21
59.0509256636463
 31
0.0
  0
LINE
  5
231
  8
1
  6
CONTINUOUS
 62
     7
 10
-282.4349203875503
 20
60.57999391209626
 30
0.0
 11
-282.146560052153
 21
59.08468890991001
 31
0.0
  0
LINE
  5
232
  8
1
  6
CONTINUOUS
 62
     7
 10
-282.4543422114969
 20
61.08373419731909
 30
0.0
 11
-282.4543422114969
 21
62.51626580268088
 31
0.0
  0
LINE
  5
233
  8
1
  6
CONTINUOUS
 62
     7
 10
-282.146560052153
 20
64.51531109008995
 30
0.0
 11
-282.4349203875503
 21
63.02000608790369
 31
0.0
  0
LINE
  5
234
  8
1
  6
CONTINUOUS
 62
     7
 10
-282.132995920763
 20
64.5490743363537
 30
0.0
 11
-282.146560052153
 21
64.51531109008995
 31
0.0
  0
ARC
  5
235
  8
1
  6
CONTINUOUS
 62
     7
 10
-282.2043422114969
 20
61.79999999999999
 30
0.0
 40
2.75
 50
87.89245432582041
 51
88.51334543007721
  0
LINE
  5
236
  8
1
  6
CONTINUOUS
 62
     7
 10
-244.1032100903005
 20
64.39894912155953
 30
0.0
 11
-244.1032100903005
 21
64.54813978794061
 31
0.0
  0
ARC
  5
237
  8
1
  6
CONTINUOUS
 62
     7
 10
-243.2043422114969
 20
61.79999999999999
 30
0.0
 40
2.749999999999998
 50
102.4625164264978
 51
109.0783641367914
  0
LINE
  5
238
  8
1
  6
CONTINUOUS
 62
     7
 10
-243.7966461287275
 20
64.48594826214139
 30
0.0
 11
-243.7977945856393
 21
64.48520283770604
 31
0.0
  0
LINE
  5
239
  8
1
  6
CONTINUOUS
 62
     9
 10
-243.797874562639
 20
61.79999999999995
 30
0.0
 11
-243.7966461287275
 21
64.48594826214139
 31
0.0
  0
LINE
  5
23A
  8
1
  6
CONTINUOUS
 62
     9
 10
-243.7966461287275
 20
59.1140517378586
 30
0.0
 11
-243.797874562639
 21
61.79999999999995
 31
0.0
  0
LINE
  5
23B
  8
1
  6
CONTINUOUS
 62
     7
 10
-243.7977945856393
 20
59.11479716229394
 30
0.0
 11
-243.7966461287275
 21
59.1140517378586
 31
0.0
  0
ARC
  5
23C
  8
1
  6
CONTINUOUS
 62
     7
 10
-243.2043422114969
 20
61.79999999999999
 30
0.0
 40
2.749999999999998
 50
250.9216358632088
 51
257.5374835735022
  0
LINE
  5
23D
  8
1
  6
CONTINUOUS
 62
     7
 10
-244.1032100903005
 20
59.05186021205937
 30
0.0
 11
-244.1032100903005
 21
59.20105087844046
 31
0.0
  0
ARC
  5
23E
  8
1
  6
CONTINUOUS
 62
     7
 10
-244.2043422114969
 20
61.79999999999999
 30
0.0
 40
2.750000000000004
 50
271.4866545699234
 51
272.107545674179
  0
LINE
  5
23F
  8
1
  6
CONTINUOUS
 62
     7
 10
-244.146560052153
 20
59.08468890991003
 30
0.0
 11
-244.132995920763
 21
59.0509256636463
 31
0.0
  0
LINE
  5
240
  8
1
  6
CONTINUOUS
 62
     7
 10
-244.4349203875503
 20
60.57999391209626
 30
0.0
 11
-244.146560052153
 21
59.08468890991003
 31
0.0
  0
LINE
  5
241
  8
1
  6
CONTINUOUS
 62
     7
 10
-244.4543422114969
 20
61.08373419731909
 30
0.0
 11
-244.4349203875503
 21
60.57999391209626
 31
0.0
  0
LINE
  5
242
  8
1
  6
CONTINUOUS
 62
     7
 10
-244.4543422114969
 20
61.08373419731909
 30
0.0
 11
-244.4543422114969
 21
62.51626580268089
 31
0.0
  0
LINE
  5
243
  8
1
  6
CONTINUOUS
 62
     7
 10
-244.4349203875503
 20
63.0200060879037
 30
0.0
 11
-244.4543422114969
 21
62.51626580268089
 31
0.0
  0
LINE
  5
244
  8
1
  6
CONTINUOUS
 62
     7
 10
-244.146560052153
 20
64.51531109008995
 30
0.0
 11
-244.4349203875503
 21
63.0200060879037
 31
0.0
  0
LINE
  5
245
  8
1
  6
CONTINUOUS
 62
     7
 10
-244.132995920763
 20
64.5490743363537
 30
0.0
 11
-244.146560052153
 21
64.51531109008995
 31
0.0
  0
ARC
  5
246
  8
1
  6
CONTINUOUS
 62
     7
 10
-244.2043422114969
 20
61.79999999999999
 30
0.0
 40
2.750000000000004
 50
87.89245432582098
 51
88.51334543007664
  0
LINE
  5
247
  8
1
  6
CONTINUOUS
 62
     7
 10
-280.3054743326933
 20
59.20105087844046
 30
0.0
 11
-280.3054743326933
 21
59.05186021205937
 31
0.0
  0
ARC
  5
248
  8
1
  6
CONTINUOUS
 62
     7
 10
-281.2043422114969
 20
61.79999999999999
 30
0.0
 40
2.750000000000001
 50
282.4625164264977
 51
289.0783641367908
  0
LINE
  5
249
  8
1
  6
CONTINUOUS
 62
     7
 10
-280.6120382942661
 20
59.1140517378586
 30
0.0
 11
-280.6108898373544
 21
59.11479716229393
 31
0.0
  0
LINE
  5
24A
  8
1
  6
CONTINUOUS
 62
     9
 10
-280.6108098603547
 20
61.80000000000002
 30
0.0
 11
-280.6120382942661
 21
59.1140517378586
 31
0.0
  0
LINE
  5
24B
  8
1
  6
CONTINUOUS
 62
     9
 10
-280.6120382942661
 20
64.48594826214139
 30
0.0
 11
-280.6108098603547
 21
61.80000000000002
 31
0.0
  0
LINE
  5
24C
  8
1
  6
CONTINUOUS
 62
     7
 10
-280.6108898373544
 20
64.48520283770604
 30
0.0
 11
-280.6120382942661
 21
64.48594826214139
 31
0.0
  0
ARC
  5
24D
  8
1
  6
CONTINUOUS
 62
     7
 10
-281.2043422114969
 20
61.79999999999999
 30
0.0
 40
2.750000000000001
 50
70.92163586320919
 51
77.5374835735023
  0
LINE
  5
24E
  8
1
  6
CONTINUOUS
 62
     7
 10
-280.3054743326933
 20
64.54813978794061
 30
0.0
 11
-280.3054743326933
 21
64.39894912155953
 31
0.0
  0
ARC
  5
24F
  8
1
  6
CONTINUOUS
 62
     7
 10
-280.2043422114969
 20
61.79999999999999
 30
0.0
 40
2.750000000000001
 50
91.48665456992279
 51
92.10754567417959
  0
LINE
  5
250
  8
1
  6
CONTINUOUS
 62
     7
 10
-280.2621243708408
 20
64.51531109008995
 30
0.0
 11
-280.2756885022307
 21
64.5490743363537
 31
0.0
  0
LINE
  5
251
  8
1
  6
CONTINUOUS
 62
     7
 10
-279.9737640354434
 20
63.02000608790373
 30
0.0
 11
-280.2621243708408
 21
64.51531109008995
 31
0.0
  0
LINE
  5
252
  8
1
  6
CONTINUOUS
 62
     7
 10
-279.9543422114969
 20
62.51626580268088
 30
0.0
 11
-279.9737640354434
 21
63.02000608790373
 31
0.0
  0
LINE
  5
253
  8
1
  6
CONTINUOUS
 62
     7
 10
-279.9543422114969
 20
61.0837341973191
 30
0.0
 11
-279.9543422114969
 21
62.51626580268088
 31
0.0
  0
LINE
  5
254
  8
1
  6
CONTINUOUS
 62
     7
 10
-279.9737640354434
 20
60.5799939120963
 30
0.0
 11
-279.9543422114969
 21
61.0837341973191
 31
0.0
  0
LINE
  5
255
  8
1
  6
CONTINUOUS
 62
     7
 10
-280.2621243708408
 20
59.08468890991003
 30
0.0
 11
-279.9737640354434
 21
60.5799939120963
 31
0.0
  0
LINE
  5
256
  8
1
  6
CONTINUOUS
 62
     7
 10
-280.2756885022307
 20
59.0509256636463
 30
0.0
 11
-280.2621243708408
 21
59.08468890991003
 31
0.0
  0
ARC
  5
257
  8
1
  6
CONTINUOUS
 62
     7
 10
-280.2043422114969
 20
61.79999999999999
 30
0.0
 40
2.750000000000001
 50
267.8924543258204
 51
268.5133454300772
  0
ARC
  5
258
  8
1
  6
CONTINUOUS
 62
     9
 10
-244.2043422114969
 20
61.79999999999999
 30
0.0
 40
0.7586413514237912
 50
109.2406440950068
 51
250.7593559049932
  0
ARC
  5
259
  8
1
  6
CONTINUOUS
 62
     9
 10
-244.2043422114969
 20
61.79999999999999
 30
0.0
 40
1.241604264568324
 50
100.7025226162917
 51
259.297477383709
  0
ARC
  5
25A
  8
1
  6
CONTINUOUS
 62
     9
 10
-242.2043422114969
 20
61.79999999999999
 30
0.0
 40
0.7586413514237912
 50
289.2406440950068
 51
70.75935590499319
  0
LINE
  5
25B
  8
1
  6
CONTINUOUS
 62
     7
 10
-241.9543422114969
 20
62.51626580268089
 30
0.0
 11
-241.9737640354434
 21
63.02000608790373
 31
0.0
  0
ARC
  5
25C
  8
1
  6
CONTINUOUS
 62
     9
 10
-242.2043422114969
 20
61.79999999999999
 30
0.0
 40
1.241604264568324
 50
280.7025226162917
 51
79.29747738370895
  0
LINE
  5
25D
  8
1
  6
CONTINUOUS
 62
     7
 10
-241.9737640354434
 20
60.57999391209628
 30
0.0
 11
-241.9543422114969
 21
61.08373419731909
 31
0.0
  0
ARC
  5
25E
  8
1
  6
CONTINUOUS
 62
     9
 10
-280.2043422114969
 20
61.79999999999999
 30
0.0
 40
0.7586413514237873
 50
289.2406440950074
 51
70.7593559049926
  0
ARC
  5
25F
  8
1
  6
CONTINUOUS
 62
     9
 10
-280.2043422114969
 20
61.79999999999999
 30
0.0
 40
1.241604264568316
 50
280.702522616292
 51
79.2974773837085
  0
LINE
  5
260
  8
1
  6
CONTINUOUS
 62
     7
 10
-242.3054743326932
 20
59.20105087844046
 30
0.0
 11
-242.3054743326932
 21
59.05186021205937
 31
0.0
  0
ARC
  5
261
  8
1
  6
CONTINUOUS
 62
     7
 10
-243.2043422114969
 20
61.79999999999999
 30
0.0
 40
2.749999999999998
 50
282.4625164264978
 51
289.0783641367914
  0
LINE
  5
262
  8
1
  6
CONTINUOUS
 62
     7
 10
-242.6120382942662
 20
59.1140517378586
 30
0.0
 11
-242.6108898373544
 21
59.11479716229394
 31
0.0
  0
LINE
  5
263
  8
1
  6
CONTINUOUS
 62
     9
 10
-242.6108098603547
 20
61.8
 30
0.0
 11
-242.6120382942662
 21
59.1140517378586
 31
0.0
  0
LINE
  5
264
  8
1
  6
CONTINUOUS
 62
     9
 10
-242.6120382942662
 20
64.48594826214139
 30
0.0
 11
-242.6108098603547
 21
61.79999999999999
 31
0.0
  0
LINE
  5
265
  8
1
  6
CONTINUOUS
 62
     7
 10
-242.6108898373544
 20
64.48520283770604
 30
0.0
 11
-242.6120382942662
 21
64.48594826214139
 31
0.0
  0
ARC
  5
266
  8
1
  6
CONTINUOUS
 62
     7
 10
-243.2043422114969
 20
61.79999999999999
 30
0.0
 40
2.749999999999998
 50
70.92163586320875
 51
77.5374835735023
  0
LINE
  5
267
  8
1
  6
CONTINUOUS
 62
     7
 10
-242.3054743326932
 20
64.54813978794061
 30
0.0
 11
-242.3054743326932
 21
64.39894912155953
 31
0.0
  0
ARC
  5
268
  8
1
  6
CONTINUOUS
 62
     7
 10
-242.2043422114969
 20
61.79999999999999
 30
0.0
 40
2.750000000000004
 50
91.48665456992336
 51
92.10754567417902
  0
LINE
  5
269
  8
1
  6
CONTINUOUS
 62
     7
 10
-242.2621243708407
 20
64.51531109008995
 30
0.0
 11
-242.2756885022307
 21
64.5490743363537
 31
0.0
  0
LINE
  5
26A
  8
1
  6
CONTINUOUS
 62
     7
 10
-241.9737640354434
 20
63.02000608790373
 30
0.0
 11
-242.2621243708407
 21
64.51531109008995
 31
0.0
  0
LINE
  5
26B
  8
1
  6
CONTINUOUS
 62
     7
 10
-241.9543422114969
 20
61.08373419731909
 30
0.0
 11
-241.9543422114969
 21
62.51626580268089
 31
0.0
  0
LINE
  5
26C
  8
1
  6
CONTINUOUS
 62
     7
 10
-242.2621243708407
 20
59.08468890991003
 30
0.0
 11
-241.9737640354434
 21
60.57999391209628
 31
0.0
  0
LINE
  5
26D
  8
1
  6
CONTINUOUS
 62
     7
 10
-242.2756885022307
 20
59.0509256636463
 30
0.0
 11
-242.2621243708407
 21
59.08468890991003
 31
0.0
  0
ARC
  5
26E
  8
1
  6
CONTINUOUS
 62
     7
 10
-242.2043422114969
 20
61.79999999999999
 30
0.0
 40
2.750000000000004
 50
267.892454325821
 51
268.5133454300766
  0
ARC
  5
26F
  8
1
  6
CONTINUOUS
 62
     9
 10
-244.2043422114969
 20
61.79999999999999
 30
0.0
 40
2.715925826289071
 50
88.78092264636315
 51
271.2190773536369
  0
ARC
  5
270
  8
1
  6
CONTINUOUS
 62
     9
 10
-280.2043422114969
 20
61.79999999999999
 30
0.0
 40
2.715925826289071
 50
268.7809226463633
 51
91.21907735363675
  0
ARC
  5
271
  8
1
  6
CONTINUOUS
 62
     9
 10
-282.2043422114969
 20
61.79999999999999
 30
0.0
 40
2.715925826289058
 50
88.78092264636297
 51
271.2190773536371
  0
ARC
  5
272
  8
1
  6
CONTINUOUS
 62
     9
 10
-242.2043422114969
 20
61.79999999999999
 30
0.0
 40
2.715925826289071
 50
268.7809226463631
 51
91.21907735363685
  0
LINE
  5
273
  8
1
  6
CONTINUOUS
 62
     7
 10
-334.2043422114969
 20
61.79999999999986
 30
0.0
 11
-332.7043422114969
 21
61.79999999999986
 31
0.0
  0
LINE
  5
274
  8
1
  6
CONTINUOUS
 62
     7
 10
-332.6345272691708
 20
53.79999999999998
 30
0.0
 11
-334.2741571538229
 21
53.79999999999998
 31
0.0
  0
LINE
  5
275
  8
1
  6
CONTINUOUS
 62
     7
 10
-332.6345272691708
 20
69.79999999999998
 30
0.0
 11
-334.2741571538229
 21
69.79999999999998
 31
0.0
  0
ARC
  5
276
  8
1
  6
CONTINUOUS
 62
     7
 10
-282.2043422114969
 20
61.79999999999999
 30
0.0
 40
2.750000000000002
 50
88.51334543007694
 51
271.4866545699232
  0
ARC
  5
277
  8
1
  6
CONTINUOUS
 62
     7
 10
-244.2043422114969
 20
61.79999999999999
 30
0.0
 40
2.750000000000002
 50
88.51334543007727
 51
271.4866545699231
  0
ARC
  5
278
  8
1
  6
CONTINUOUS
 62
     7
 10
-242.2043422114969
 20
61.79999999999999
 30
0.0
 40
2.750000000000002
 50
268.5133454300773
 51
91.48665456992309
  0
ARC
  5
279
  8
1
  6
CONTINUOUS
 62
     7
 10
-280.2043422114969
 20
61.79999999999999
 30
0.0
 40
2.750000000000002
 50
268.5133454300773
 51
91.48665456992296
  0
LINE
  5
27A
  8
1
  6
CONTINUOUS
 62
     7
 10
-323.7044564423043
 20
61.80000000000002
 30
0.0
 11
-326.7043422114969
 21
61.80000000000002
 31
0.0
  0
LINE
  5
27B
  8
1
  6
CONTINUOUS
 62
     9
 10
-323.7044564423043
 20
61.79999999999999
 30
0.0
 11
-323.7742713846304
 21
53.79999999999998
 31
0.0
  0
LINE
  5
27C
  8
1
  6
CONTINUOUS
 62
     7
 10
-326.774157153823
 20
53.79999999999998
 30
0.0
 11
-323.7742713846304
 21
53.79999999999998
 31
0.0
  0
LINE
  5
27D
  8
1
  6
CONTINUOUS
 62
     9
 10
-323.7742713846304
 20
69.79999999999998
 30
0.0
 11
-323.7044564423043
 21
61.79999999999999
 31
0.0
  0
LINE
  5
27E
  8
1
  6
CONTINUOUS
 62
     7
 10
-323.7742713846304
 20
69.79999999999998
 30
0.0
 11
-326.774157153823
 21
69.79999999999998
 31
0.0
  0
LINE
  5
27F
  8
1
  6
CONTINUOUS
 62
     7
 10
-242.6120382942662
 20
64.48594826214139
 30
0.0
 11
-243.1116104287727
 21
65.0443135115677
 31
0.0
  0
ARC
  5
280
  8
1
  6
CONTINUOUS
 62
     9
 10
-243.2043422114969
 20
61.7956367322508
 30
0.0
 40
3.249999999999996
 50
52.27033569419483
 51
88.36496585639179
  0
ARC
  5
281
  8
1
  6
CONTINUOUS
 62
     9
 10
-243.2043422114969
 20
61.80436326774918
 30
0.0
 40
3.249999999999996
 50
271.6350341436082
 51
307.729664305805
  0
LINE
  5
282
  8
1
  6
CONTINUOUS
 62
     7
 10
-243.1116104287727
 20
58.55568648843229
 30
0.0
 11
-242.6120382942662
 21
59.1140517378586
 31
0.0
  0
LINE
  5
283
  8
1
  6
CONTINUOUS
 62
     7
 10
-280.6120382942661
 20
64.48594826214139
 30
0.0
 11
-281.1116104287727
 21
65.0443135115677
 31
0.0
  0
ARC
  5
284
  8
1
  6
CONTINUOUS
 62
     9
 10
-281.2043422114969
 20
61.7956367322508
 30
0.0
 40
3.25
 50
52.27033569419365
 51
88.36496585639134
  0
ARC
  5
285
  8
1
  6
CONTINUOUS
 62
     9
 10
-281.2043422114969
 20
61.80436326774918
 30
0.0
 40
3.25
 50
271.6350341436087
 51
307.7296643058064
  0
LINE
  5
286
  8
1
  6
CONTINUOUS
 62
     7
 10
-281.1116104287727
 20
58.55568648843229
 30
0.0
 11
-280.6120382942661
 21
59.1140517378586
 31
0.0
  0
LINE
  5
287
  8
1
  6
CONTINUOUS
 62
     7
 10
-281.7966461287275
 20
59.11405173785858
 30
0.0
 11
-281.297073994221
 21
58.55568648843229
 31
0.0
  0
ARC
  5
288
  8
1
  6
CONTINUOUS
 62
     9
 10
-281.2043422114969
 20
61.80436326774918
 30
0.0
 40
3.25
 50
232.2703356941927
 51
268.3649658563913
  0
ARC
  5
289
  8
1
  6
CONTINUOUS
 62
     9
 10
-281.2043422114969
 20
61.7956367322508
 30
0.0
 40
3.25
 50
91.63503414360866
 51
127.7296643058073
  0
LINE
  5
28A
  8
1
  6
CONTINUOUS
 62
     7
 10
-281.297073994221
 20
65.0443135115677
 30
0.0
 11
-281.7966461287275
 21
64.4859482621414
 31
0.0
  0
LINE
  5
28B
  8
1
  6
CONTINUOUS
 62
     7
 10
-243.7966461287275
 20
59.1140517378586
 30
0.0
 11
-243.297073994221
 21
58.55568648843229
 31
0.0
  0
ARC
  5
28C
  8
1
  6
CONTINUOUS
 62
     9
 10
-243.2043422114969
 20
61.80436326774918
 30
0.0
 40
3.249999999999996
 50
232.2703356941938
 51
268.3649658563918
  0
ARC
  5
28D
  8
1
  6
CONTINUOUS
 62
     9
 10
-243.2043422114969
 20
61.7956367322508
 30
0.0
 40
3.249999999999996
 50
91.6350341436082
 51
127.7296643058063
  0
LINE
  5
28E
  8
1
  6
CONTINUOUS
 62
     7
 10
-243.297073994221
 20
65.0443135115677
 30
0.0
 11
-243.7966461287275
 21
64.48594826214139
 31
0.0
  0
LINE
  5
28F
  8
1
  6
CONTINUOUS
 62
     7
 10
-242.6108098603547
 20
61.79999999999998
 30
0.0
 11
-243.1101266232977
 21
61.79999999999998
 31
0.0
  0
LINE
  5
290
  8
1
  6
CONTINUOUS
 62
     9
 10
-243.1116104287727
 20
58.55568648843229
 30
0.0
 11
-243.1101266232977
 21
61.79999999999999
 31
0.0
  0
LINE
  5
291
  8
1
  6
CONTINUOUS
 62
     9
 10
-281.297073994221
 20
65.0443135115677
 30
0.0
 11
-281.298557799696
 21
61.79999999999999
 31
0.0
  0
LINE
  5
292
  8
1
  6
CONTINUOUS
 62
     7
 10
-281.298557799696
 20
61.80000000000012
 30
0.0
 11
-281.797874562639
 21
61.80000000000012
 31
0.0
  0
LINE
  5
293
  8
1
  6
CONTINUOUS
 62
     9
 10
-243.297073994221
 20
65.0443135115677
 30
0.0
 11
-243.2985577996961
 21
61.79999999999999
 31
0.0
  0
LINE
  5
294
  8
1
  6
CONTINUOUS
 62
     7
 10
-243.2985577996961
 20
61.80000000000012
 30
0.0
 11
-243.797874562639
 21
61.80000000000012
 31
0.0
  0
LINE
  5
295
  8
1
  6
CONTINUOUS
 62
     9
 10
-243.2985577996961
 20
61.79999999999999
 30
0.0
 11
-243.297073994221
 21
58.55568648843229
 31
0.0
  0
LINE
  5
296
  8
1
  6
CONTINUOUS
 62
     9
 10
-243.1101266232977
 20
61.79999999999999
 30
0.0
 11
-243.1116104287727
 21
65.0443135115677
 31
0.0
  0
LINE
  5
297
  8
1
  6
CONTINUOUS
 62
     9
 10
-281.298557799696
 20
61.79999999999999
 30
0.0
 11
-281.297073994221
 21
58.55568648843229
 31
0.0
  0
LINE
  5
298
  8
1
  6
CONTINUOUS
 62
     7
 10
-280.6108098603547
 20
61.79999999999999
 30
0.0
 11
-281.1101266232976
 21
61.79999999999999
 31
0.0
  0
LINE
  5
299
  8
1
  6
CONTINUOUS
 62
     9
 10
-281.1116104287727
 20
58.55568648843229
 30
0.0
 11
-281.1101266232976
 21
61.79999999999999
 31
0.0
  0
LINE
  5
29A
  8
1
  6
CONTINUOUS
 62
     9
 10
-281.1101266232976
 20
61.79999999999999
 30
0.0
 11
-281.1116104287727
 21
65.0443135115677
 31
0.0
  0
LINE
  5
29B
  8
1
  6
CONTINUOUS
 62
     7
 10
-237.2043422114969
 20
61.80000000000012
 30
0.0
 11
-239.4543422114969
 21
61.79999999999999
 31
0.0
  0
LINE
  5
29C
  8
1
  6
CONTINUOUS
 62
     7
 10
-243.1101266232977
 20
61.79999999999999
 30
0.0
 11
-243.2985577996961
 21
61.79999999999999
 31
0.0
  0
LINE
  5
29D
  8
1
  6
CONTINUOUS
 62
     7
 10
-246.9543422114969
 20
61.79999999999999
 30
0.0
 11
-277.4543422114969
 21
61.79999999999999
 31
0.0
  0
LINE
  5
29E
  8
1
  6
CONTINUOUS
 62
     7
 10
-281.1101266232976
 20
61.79999999999999
 30
0.0
 11
-281.298557799696
 21
61.79999999999999
 31
0.0
  0
LINE
  5
29F
  8
1
  6
CONTINUOUS
 62
     7
 10
-284.9543422114969
 20
61.79999999999999
 30
0.0
 11
-323.7044564423044
 21
61.79999999999999
 31
0.0
  0
ARC
  5
2A0
  8
1
  6
CONTINUOUS
 62
     7
 10
-240.2480907856079
 20
66.8
 30
0.0
 40
3.0
 50
0.4999999999999485
 51
90.0
  0
LINE
  5
2A1
  8
1
  6
CONTINUOUS
 62
     7
 10
-237.2482050164153
 20
66.82617960649512
 30
0.0
 11
-237.2043422114969
 21
61.80000000000012
 31
0.0
  0
LINE
  5
2A2
  8
1
  6
CONTINUOUS
 62
     7
 10
-323.7742713846304
 20
69.79999999999998
 30
0.0
 11
-240.2480907856079
 21
69.79999999999998
 31
0.0
  0
LINE
  5
2A3
  8
1
  6
CONTINUOUS
 62
     7
 10
-237.2043422114969
 20
61.80000000000012
 30
0.0
 11
-237.2482050164153
 21
56.77382039350487
 31
0.0
  0
ARC
  5
2A4
  8
1
  6
CONTINUOUS
 62
     7
 10
-240.2480907856079
 20
56.79999999999999
 30
0.0
 40
3.0
 50
270.0
 51
359.5000000000001
  0
LINE
  5
2A5
  8
1
  6
CONTINUOUS
 62
     7
 10
-323.7742713846304
 20
53.79999999999998
 30
0.0
 11
-240.2480907856079
 21
53.79999999999998
 31
0.0
  0
LINE
  5
2A6
  8
1
  6
CONTINUOUS
 62
     7
 10
-330.7043422114969
 20
42.69999999999999
 30
0.0
 11
-330.7043422114969
 21
44.03206557014656
 31
0.0
  0
LINE
  5
2A7
  8
1
  6
CONTINUOUS
 62
     9
 10
-336.0821660624263
 20
47.8
 30
0.0
 11
-326.7916108894045
 21
47.8
 31
0.0
  0
LINE
  5
2A8
  8
1
  6
CONTINUOUS
 62
     9
 10
-330.7043422114969
 20
44.03206557014656
 30
0.0
 11
-326.824493155018
 21
44.03206557014656
 31
0.0
  0
LINE
  5
2A9
  8
1
  6
CONTINUOUS
 62
     7
 10
-326.7916108894045
 20
47.8
 30
0.0
 11
-326.824493155018
 21
44.03206557014656
 31
0.0
  0
LINE
  5
2AA
  8
1
  6
CONTINUOUS
 62
     7
 10
-336.0821660624263
 20
47.8
 30
0.0
 11
-336.0376590366934
 21
42.69999999999999
 31
0.0
  0
LINE
  5
2AB
  8
1
  6
CONTINUOUS
 62
     7
 10
-326.7392496826599
 20
53.79999999999998
 30
0.0
 11
-326.7916108894045
 21
47.8
 31
0.0
  0
LINE
  5
2AC
  8
1
  6
CONTINUOUS
 62
     7
 10
-336.1345272691708
 20
53.79999999999998
 30
0.0
 11
-336.0821660624263
 21
47.8
 31
0.0
  0
LINE
  5
2AD
  8
1
  6
CONTINUOUS
 62
     7
 10
-326.824493155018
 20
44.03206557014656
 30
0.0
 11
-326.8256328373826
 21
43.90147090640669
 31
0.0
  0
ARC
  5
2AE
  8
1
  6
CONTINUOUS
 62
     7
 10
-262.2043422114969
 20
61.0
 30
0.0
 40
8.000000000000002
 50
244.1580672368329
 51
252.1666172901869
  0
ARC
  5
2AF
  8
1
  6
CONTINUOUS
 62
     7
 10
-262.2043422114969
 20
61.0
 30
0.0
 40
8.000000000000004
 50
287.8333827098131
 51
295.841932763167
  0
LINE
  5
2B0
  8
1
  6
CONTINUOUS
 62
     7
 10
-264.7043422114969
 20
76.3
 30
0.0
 11
-264.7043422114969
 21
70.89999999999999
 31
0.0
  0
LINE
  5
2B1
  8
1
  6
CONTINUOUS
 62
     7
 10
-259.7043422114969
 20
70.89999999999999
 30
0.0
 11
-259.7043422114969
 21
76.3
 31
0.0
  0
LINE
  5
2B2
  8
1
  6
CONTINUOUS
 62
     7
 10
-259.7043422114969
 20
76.3
 30
0.0
 11
-260.1043422114969
 21
76.69999999999999
 31
0.0
  0
LINE
  5
2B3
  8
1
  6
CONTINUOUS
 62
     7
 10
-264.3043422114968
 20
76.69999999999999
 30
0.0
 11
-264.7043422114969
 21
76.3
 31
0.0
  0
LINE
  5
2B4
  8
1
  6
CONTINUOUS
 62
     7
 10
-257.5855400579798
 20
70.4272643562539
 30
0.0
 11
-258.4043422114969
 21
70.89999999999999
 31
0.0
  0
LINE
  5
2B5
  8
1
  6
CONTINUOUS
 62
     7
 10
-266.0043422114969
 20
70.89999999999999
 30
0.0
 11
-266.8231443650138
 21
70.4272643562539
 31
0.0
  0
LINE
  5
2B6
  8
1
  6
CONTINUOUS
 62
     7
 10
-336.0376590366934
 20
42.69999999999999
 30
0.0
 11
-330.7043422114969
 21
42.69999999999999
 31
0.0
  0
LINE
  5
2B7
  8
1
  6
CONTINUOUS
 62
     7
 10
-330.7043422114969
 20
43.90147090640669
 30
0.0
 11
-326.8256328373826
 21
43.90147090640669
 31
0.0
  0
ENDBLK
  8
0
  0
BLOCK
  8
0
  2
D_FRAME_VIEW_1492
 70
     0
 10
0.0
 20
0.0
 30
0.0
  0
LINE
  5
2BC
  8
1
  6
CONTINUOUS
 62
     7
 10
-271.2043422114969
 20
252.9764474382269
 30
0.0
 11
-266.8742151925746
 21
252.9764474382269
 31
0.0
  0
ARC
  5
2BD
  8
1
  6
CONTINUOUS
 62
     7
 10
-266.767802705747
 20
250.4987866110517
 30
0.0
 40
2.479944917104219
 50
92.45927191973321
 51
128.6769368558338
  0
ARC
  5
2BE
  8
1
  6
CONTINUOUS
 62
     7
 10
-271.3365229871059
 20
244.3080499514596
 30
0.0
 40
8.669405212933274
 50
69.62101257314471
 51
89.12638827633342
  0
LINE
  5
2BF
  8
1
  6
CONTINUOUS
 62
     7
 10
-275.5344692304191
 20
252.9764474382269
 30
0.0
 11
-271.2043422114969
 21
252.9764474382269
 31
0.0
  0
ARC
  5
2C0
  8
1
  6
CONTINUOUS
 62
     7
 10
-271.1049881839319
 20
244.4830139226567
 30
0.0
 40
8.494014604779279
 50
90.67020090476346
 51
110.5823982457577
  0
ARC
  5
2C1
  8
1
  6
CONTINUOUS
 62
     7
 10
-275.6656630681597
 20
250.4327452906998
 30
0.0
 40
2.547083123573881
 50
51.81625902308646
 51
87.04753220134675
  0
LINE
  5
2C2
  8
1
  6
CONTINUOUS
 62
     7
 10
-271.2043422114969
 20
248.9764474382269
 30
0.0
 11
-266.8742151925746
 21
248.9764474382269
 31
0.0
  0
ARC
  5
2C3
  8
1
  6
CONTINUOUS
 62
     7
 10
-271.3009261480991
 20
257.4551165880185
 30
0.0
 40
8.479219245215774
 50
270.6526510814263
 51
290.5999480690958
  0
ARC
  5
2C4
  8
1
  6
CONTINUOUS
 62
     7
 10
-266.743021354834
 20
251.5201495857539
 30
0.0
 40
2.547083123573867
 50
231.8162590230856
 51
267.0475322013469
  0
LINE
  5
2C5
  8
1
  6
CONTINUOUS
 62
     7
 10
-275.5344692304191
 20
248.9764474382269
 30
0.0
 11
-271.2043422114969
 21
248.9764474382269
 31
0.0
  0
ARC
  5
2C6
  8
1
  6
CONTINUOUS
 62
     7
 10
-275.6408817172466
 20
251.4541082654017
 30
0.0
 40
2.479944917103846
 50
272.4592719197307
 51
308.676936855837
  0
ARC
  5
2C7
  8
1
  6
CONTINUOUS
 62
     7
 10
-271.0709906389834
 20
257.6510851799104
 30
0.0
 40
8.675662660069882
 50
249.6281154974632
 51
269.1192853520147
  0
LINE
  5
2C8
  8
1
  6
CONTINUOUS
 62
     7
 10
-268.3175908655487
 20
249.5180598539181
 30
0.0
 11
-268.3175908655487
 21
252.4348350225357
 31
0.0
  0
LINE
  5
2C9
  8
1
  6
CONTINUOUS
 62
     7
 10
-274.091093557445
 20
249.5180598539181
 30
0.0
 11
-274.091093557445
 21
252.4348350225357
 31
0.0
  0
ARC
  5
2CA
  8
1
  6
CONTINUOUS
 62
     7
 10
-267.0054090303154
 20
250.4327452906998
 30
0.0
 40
2.547083123573917
 50
51.8162590230862
 51
87.0475322013468
  0
LINE
  5
2CB
  8
1
  6
CONTINUOUS
 62
     7
 10
-265.4308395196006
 20
249.5180598539181
 30
0.0
 11
-265.4308395196006
 21
252.4348350225357
 31
0.0
  0
ARC
  5
2CC
  8
1
  6
CONTINUOUS
 62
     7
 10
-266.9806276794023
 20
251.454108265402
 30
0.0
 40
2.479944917104149
 50
272.4592719197327
 51
308.6769368558346
  0
ARC
  5
2CD
  8
1
  6
CONTINUOUS
 62
     7
 10
-275.4280567435914
 20
250.4987866110518
 30
0.0
 40
2.479944917104156
 50
92.45927191973281
 51
128.6769368558344
  0
ARC
  5
2CE
  8
1
  6
CONTINUOUS
 62
     7
 10
-275.4032753926784
 20
251.520149585754
 30
0.0
 40
2.54708312357393
 50
231.8162590230866
 51
267.0475322013467
  0
LINE
  5
2CF
  8
1
  6
CONTINUOUS
 62
     7
 10
-276.9778449033931
 20
249.5180598539181
 30
0.0
 11
-276.9778449033931
 21
252.4348350225357
 31
0.0
  0
LINE
  5
2D0
  8
1
  6
CONTINUOUS
 62
     7
 10
-266.8742151925746
 20
252.9764474382269
 30
0.0
 11
-266.2043422114969
 21
252.9764474382269
 31
0.0
  0
LINE
  5
2D1
  8
1
  6
CONTINUOUS
 62
     7
 10
-266.8742151925746
 20
248.9764474382269
 30
0.0
 11
-266.2043422114969
 21
248.9764474382269
 31
0.0
  0
LINE
  5
2D2
  8
1
  6
CONTINUOUS
 62
     7
 10
-276.2043422114969
 20
252.9764474382269
 30
0.0
 11
-275.5344692304191
 21
252.9764474382269
 31
0.0
  0
LINE
  5
2D3
  8
1
  6
CONTINUOUS
 62
     7
 10
-276.2043422114969
 20
248.9764474382269
 30
0.0
 11
-275.5344692304191
 21
248.9764474382269
 31
0.0
  0
ARC
  5
2D4
  8
1
  6
CONTINUOUS
 62
     7
 10
-258.7043422114969
 20
203.1735525617731
 30
0.0
 40
1.000000000000002
 50
27.63570990232188
 51
121.3449887996616
  0
LINE
  5
2D5
  8
1
  6
CONTINUOUS
 62
     7
 10
-257.8184275561109
 20
203.6374008380148
 30
0.0
 11
-257.4803132474408
 21
202.9916284236522
 31
0.0
  0
ARC
  5
2D6
  8
1
  6
CONTINUOUS
 62
     7
 10
-257.0373559197479
 20
203.2235525617731
 30
0.0
 40
0.5000000000000004
 50
207.6357099023212
 51
270.0
  0
LINE
  5
2D7
  8
1
  6
CONTINUOUS
 62
     7
 10
-257.0373559197479
 20
202.7235525617731
 30
0.0
 11
-252.1043422114969
 21
202.7235525617731
 31
0.0
  0
ARC
  5
2D8
  8
1
  6
CONTINUOUS
 62
     7
 10
-252.1043422114969
 20
205.7235525617731
 30
0.0
 40
2.999999999999996
 50
270.0
 51
0.0
  0
LINE
  5
2D9
  8
1
  6
CONTINUOUS
 62
     7
 10
-249.1043422114969
 20
205.7235525617731
 30
0.0
 11
-249.1043422114969
 21
218.2235525617731
 31
0.0
  0
ARC
  5
2DA
  8
1
  6
CONTINUOUS
 62
     7
 10
-252.1043422114969
 20
218.2235525617731
 30
0.0
 40
3.000000000000003
 50
359.9999999999998
 51
89.99999999999994
  0
LINE
  5
2DB
  8
1
  6
CONTINUOUS
 62
     7
 10
-252.1043422114969
 20
221.2235525617731
 30
0.0
 11
-272.7577424433889
 21
221.2235525617731
 31
0.0
  0
ARC
  5
2DC
  8
1
  6
CONTINUOUS
 62
     7
 10
-272.7577424433889
 20
223.2235525617731
 30
0.0
 40
1.999999999999998
 50
250.0
 51
270.0000000000001
  0
LINE
  5
2DD
  8
1
  6
CONTINUOUS
 62
     7
 10
-273.4417827300402
 20
221.3441673202012
 30
0.0
 11
-278.3883824981482
 21
223.1445823966206
 31
0.0
  0
ARC
  5
2DE
  8
1
  6
CONTINUOUS
 62
     7
 10
-277.7043422114969
 20
225.0239676381925
 30
0.0
 40
2.0
 50
180.0
 51
250.0
  0
LINE
  5
2DF
  8
1
  6
CONTINUOUS
 62
     7
 10
-279.7043422114969
 20
228.1235525617731
 30
0.0
 11
-279.7043422114969
 21
225.0239676381925
 31
0.0
  0
LINE
  5
2E0
  8
1
  6
CONTINUOUS
 62
     9
 10
-247.7043422114969
 20
228.1235525617731
 30
0.0
 11
-279.7043422114969
 21
228.1235525617731
 31
0.0
  0
ARC
  5
2E1
  8
1
  6
CONTINUOUS
 62
     9
 10
-247.7043422114969
 20
222.6235525617731
 30
0.0
 40
5.500000000000004
 50
359.9999999999999
 51
89.99999999999994
  0
LINE
  5
2E2
  8
1
  6
CONTINUOUS
 62
     9
 10
-242.2043422114969
 20
201.3235525617731
 30
0.0
 11
-242.2043422114969
 21
222.6235525617731
 31
0.0
  0
ARC
  5
2E3
  8
1
  6
CONTINUOUS
 62
     9
 10
-247.7043422114969
 20
201.3235525617731
 30
0.0
 40
5.499999999999988
 50
270.0
 51
0.0000000000000568
  0
LINE
  5
2E4
  8
1
  6
CONTINUOUS
 62
     9
 10
-279.7043422114969
 20
195.8235525617731
 30
0.0
 11
-247.7043422114969
 21
195.8235525617731
 31
0.0
  0
LINE
  5
2E5
  8
1
  6
CONTINUOUS
 62
     7
 10
-279.7043422114969
 20
195.8235525617731
 30
0.0
 11
-279.7043422114969
 21
203.6735525617731
 31
0.0
  0
ARC
  5
2E6
  8
1
  6
CONTINUOUS
 62
     7
 10
-278.7043422114969
 20
203.6735525617731
 30
0.0
 40
1.000000000000001
 50
20.75637919430494
 51
180.0
  0
LINE
  5
2E7
  8
1
  6
CONTINUOUS
 62
     7
 10
-277.7692464536427
 20
204.0279477136065
 30
0.0
 11
-277.3385755783594
 21
202.8915932617317
 31
0.0
  0
ARC
  5
2E8
  8
1
  6
CONTINUOUS
 62
     7
 10
-276.8710276994323
 20
203.0687908376484
 30
0.0
 40
0.5000000000000014
 50
200.7563791943016
 51
306.541357878725
  0
LINE
  5
2E9
  8
1
  6
CONTINUOUS
 62
     7
 10
-276.5733262591003
 20
202.6670771928413
 30
0.0
 11
-274.2997450921611
 21
204.3519798513873
 31
0.0
  0
ARC
  5
2EA
  8
1
  6
CONTINUOUS
 62
     7
 10
-273.7043422114969
 20
203.5485525617731
 30
0.0
 40
1.0
 50
22.18863453422841
 51
126.5413578787271
  0
LINE
  5
2EB
  8
1
  6
CONTINUOUS
 62
     7
 10
-272.7783966945916
 20
203.9262096810268
 30
0.0
 11
-272.3403598372885
 21
202.8522241963612
 31
0.0
  0
ARC
  5
2EC
  8
1
  6
CONTINUOUS
 62
     7
 10
-271.8773870788359
 20
203.0410527559881
 30
0.0
 40
0.4999999999999988
 50
202.1886345342286
 51
304.8647375760589
  0
LINE
  5
2ED
  8
1
  6
CONTINUOUS
 62
     7
 10
-271.5915665756252
 20
202.6308008334522
 30
0.0
 11
-269.2759832179182
 21
204.2440564068449
 31
0.0
  0
ARC
  5
2EE
  8
1
  6
CONTINUOUS
 62
     7
 10
-268.7043422114969
 20
203.4235525617731
 30
0.0
 40
0.9999999999999993
 50
23.79522076063569
 51
124.8647375760567
  0
LINE
  5
2EF
  8
1
  6
CONTINUOUS
 62
     7
 10
-267.7893488857196
 20
203.8270215367676
 30
0.0
 11
-267.3419543114961
 21
202.8124130420025
 31
0.0
  0
ARC
  5
2F0
  8
1
  6
CONTINUOUS
 62
     7
 10
-266.8844576486075
 20
203.0141475294997
 30
0.0
 40
0.500000000000001
 50
203.7952207606271
 51
303.132198207756
  0
LINE
  5
2F1
  8
1
  6
CONTINUOUS
 62
     7
 10
-266.6111713270382
 20
202.5954416823431
 30
0.0
 11
-264.2509148546354
 21
204.1359642560863
 31
0.0
  0
ARC
  5
2F2
  8
1
  6
CONTINUOUS
 62
     7
 10
-263.7043422114969
 20
203.2985525617731
 30
0.0
 40
1.000000000000003
 50
25.60156560454379
 51
123.1321982077546
  0
LINE
  5
2F3
  8
1
  6
CONTINUOUS
 62
     7
 10
-262.8025214921516
 20
203.7306629529461
 30
0.0
 11
-262.3432180364453
 21
202.772089909381
 31
0.0
  0
ARC
  5
2F4
  8
1
  6
CONTINUOUS
 62
     7
 10
-261.8923076767727
 20
202.9881451049675
 30
0.0
 40
0.4999999999999999
 50
205.6015656045367
 51
301.3449887996634
  0
LINE
  5
2F5
  8
1
  6
CONTINUOUS
 62
     7
 10
-261.6322127392619
 20
202.5611197854824
 30
0.0
 11
-259.2245320865184
 21
204.0276032007431
 31
0.0
  0
LINE
  5
2F6
  8
1
  6
CONTINUOUS
 62
     9
 10
-237.7043422114969
 20
201.3235525617731
 30
0.0
 11
-242.2043422114969
 21
201.3235525617731
 31
0.0
  0
ARC
  5
2F7
  8
1
  6
CONTINUOUS
 62
     7
 10
-247.7043422114969
 20
201.3235525617731
 30
0.0
 40
9.999999999999991
 50
270.0
 51
0.0000000000000568
  0
LINE
  5
2F8
  8
1
  6
CONTINUOUS
 62
     9
 10
-247.7043422114969
 20
191.3235525617731
 30
0.0
 11
-247.7043422114969
 21
195.8235525617731
 31
0.0
  0
LINE
  5
2F9
  8
1
  6
CONTINUOUS
 62
     7
 10
-237.7043422114969
 20
201.3235525617731
 30
0.0
 11
-237.7043422114969
 21
222.6235525617731
 31
0.0
  0
LINE
  5
2FA
  8
1
  6
CONTINUOUS
 62
     9
 10
-237.7043422114969
 20
222.6235525617731
 30
0.0
 11
-242.2043422114969
 21
222.6235525617731
 31
0.0
  0
LINE
  5
2FB
  8
1
  6
CONTINUOUS
 62
     7
 10
-279.7043422114969
 20
191.3235525617731
 30
0.0
 11
-247.7043422114969
 21
191.3235525617731
 31
0.0
  0
LINE
  5
2FC
  8
1
  6
CONTINUOUS
 62
     7
 10
-279.7043422114969
 20
191.3235525617731
 30
0.0
 11
-279.7043422114969
 21
195.8235525617731
 31
0.0
  0
LINE
  5
2FD
  8
1
  6
CONTINUOUS
 62
     7
 10
-247.7043422114969
 20
232.6235525617731
 30
0.0
 11
-279.7043422114969
 21
232.6235525617731
 31
0.0
  0
LINE
  5
2FE
  8
1
  6
CONTINUOUS
 62
     9
 10
-247.7043422114969
 20
232.6235525617731
 30
0.0
 11
-247.7043422114969
 21
228.1235525617731
 31
0.0
  0
LINE
  5
2FF
  8
1
  6
CONTINUOUS
 62
     7
 10
-279.7043422114969
 20
232.6235525617731
 30
0.0
 11
-279.7043422114969
 21
228.1235525617731
 31
0.0
  0
ARC
  5
300
  8
1
  6
CONTINUOUS
 62
     7
 10
-247.7043422114969
 20
222.6235525617731
 30
0.0
 40
9.999999999999995
 50
359.9999999999999
 51
89.99999999999994
  0
CIRCLE
  5
301
  8
1
  6
CONTINUOUS
 62
     7
 10
-262.2043422114969
 20
180.0235525617731
 30
0.0
 40
2.099999999999998
  0
CIRCLE
  5
302
  8
1
  6
CONTINUOUS
 62
     7
 10
-262.2043422114969
 20
180.0235525617731
 30
0.0
 40
2.500000000000002
  0
LINE
  5
303
  8
1
  6
CONTINUOUS
 62
     7
 10
-264.5137432882554
 20
184.0235525617731
 30
0.0
 11
-266.8231443650138
 21
180.0235525617731
 31
0.0
  0
LINE
  5
304
  8
1
  6
CONTINUOUS
 62
     7
 10
-259.8949411347384
 20
184.0235525617731
 30
0.0
 11
-264.5137432882554
 21
184.0235525617731
 31
0.0
  0
LINE
  5
305
  8
1
  6
CONTINUOUS
 62
     7
 10
-257.5855400579798
 20
180.0235525617731
 30
0.0
 11
-259.8949411347383
 21
184.0235525617731
 31
0.0
  0
LINE
  5
306
  8
1
  6
CONTINUOUS
 62
     7
 10
-259.8949411347384
 20
176.0235525617731
 30
0.0
 11
-257.5855400579798
 21
180.0235525617731
 31
0.0
  0
LINE
  5
307
  8
1
  6
CONTINUOUS
 62
     7
 10
-264.5137432882554
 20
176.0235525617731
 30
0.0
 11
-259.8949411347384
 21
176.0235525617731
 31
0.0
  0
LINE
  5
308
  8
1
  6
CONTINUOUS
 62
     7
 10
-266.8231443650138
 20
180.0235525617731
 30
0.0
 11
-264.5137432882554
 21
176.0235525617731
 31
0.0
  0
CIRCLE
  5
309
  8
1
  6
CONTINUOUS
 62
     7
 10
-262.2043422114969
 20
180.0235525617731
 30
0.0
 40
3.800000000000001
  0
LINE
  5
30A
  8
1
  6
CONTINUOUS
 62
     7
 10
-268.7517042210495
 20
190.6009652548662
 30
0.0
 11
-268.9376867388788
 21
190.0235525617731
 31
0.0
  0
LINE
  5
30B
  8
1
  6
CONTINUOUS
 62
     7
 10
-268.4355473243907
 20
191.3235525617731
 30
0.0
 11
-268.7517042210495
 21
190.6009652548662
 31
0.0
  0
LINE
  5
30C
  8
1
  6
CONTINUOUS
 62
     7
 10
-255.6569802019439
 20
190.6009652548664
 30
0.0
 11
-255.973137098602
 21
191.3235525617731
 31
0.0
  0
LINE
  5
30D
  8
1
  6
CONTINUOUS
 62
     7
 10
-255.470997684115
 20
190.0235525617731
 30
0.0
 11
-255.6569802019439
 21
190.6009652548664
 31
0.0
  0
LINE
  5
30E
  8
1
  6
CONTINUOUS
 62
     7
 10
-255.470997684115
 20
190.0235525617731
 30
0.0
 11
-268.9376867388788
 21
190.0235525617731
 31
0.0
  0
LINE
  5
30F
  8
1
  6
CONTINUOUS
 62
     9
 10
-262.8713119335146
 20
187.2235525617731
 30
0.0
 11
-262.8713119335146
 21
184.3235525617731
 31
0.0
  0
LINE
  5
310
  8
1
  6
CONTINUOUS
 62
     7
 10
-261.5373724894792
 20
187.2235525617731
 30
0.0
 11
-262.8713119335146
 21
187.2235525617731
 31
0.0
  0
LINE
  5
311
  8
1
  6
CONTINUOUS
 62
     9
 10
-261.5373724894792
 20
184.3235525617731
 30
0.0
 11
-261.5373724894792
 21
187.2235525617731
 31
0.0
  0
LINE
  5
312
  8
1
  6
CONTINUOUS
 62
     7
 10
-262.8713119335146
 20
184.3235525617731
 30
0.0
 11
-261.5373724894792
 21
184.3235525617731
 31
0.0
  0
LINE
  5
313
  8
1
  6
CONTINUOUS
 62
     7
 10
-261.5373724894792
 20
187.2235525617731
 30
0.0
 11
-259.7043422114969
 21
187.2235525617731
 31
0.0
  0
LINE
  5
314
  8
1
  6
CONTINUOUS
 62
     7
 10
-259.7043422114969
 20
187.2235525617731
 30
0.0
 11
-259.7043422114969
 21
184.3235525617731
 31
0.0
  0
LINE
  5
315
  8
1
  6
CONTINUOUS
 62
     7
 10
-259.7043422114969
 20
184.3235525617731
 30
0.0
 11
-261.5373724894791
 21
184.3235525617731
 31
0.0
  0
LINE
  5
316
  8
1
  6
CONTINUOUS
 62
     7
 10
-264.7043422114969
 20
184.3235525617731
 30
0.0
 11
-264.7043422114969
 21
187.2235525617731
 31
0.0
  0
LINE
  5
317
  8
1
  6
CONTINUOUS
 62
     7
 10
-264.7043422114969
 20
187.2235525617731
 30
0.0
 11
-262.8713119335146
 21
187.2235525617731
 31
0.0
  0
LINE
  5
318
  8
1
  6
CONTINUOUS
 62
     7
 10
-262.8713119335146
 20
184.3235525617731
 30
0.0
 11
-264.7043422114969
 21
184.3235525617731
 31
0.0
  0
ARC
  5
319
  8
1
  6
CONTINUOUS
 62
     7
 10
-267.0043422114969
 20
175.9380491224664
 30
0.0
 40
2.000000000000002
 50
180.0
 51
260.1291103938605
  0
LINE
  5
31A
  8
1
  6
CONTINUOUS
 62
     7
 10
-269.0043422114969
 20
175.9380491224664
 30
0.0
 11
-269.0043422114969
 21
189.369481853338
 31
0.0
  0
LINE
  5
31B
  8
1
  6
CONTINUOUS
 62
     7
 10
-255.4043422114969
 20
175.9380491224664
 30
0.0
 11
-255.4043422114969
 21
189.369481853338
 31
0.0
  0
ARC
  5
31C
  8
1
  6
CONTINUOUS
 62
     7
 10
-257.4043422114969
 20
175.9380491224664
 30
0.0
 40
2.0
 50
279.8708896061396
 51
0.0
  0
ARC
  5
31D
  8
1
  6
CONTINUOUS
 62
     7
 10
-262.2043422114969
 20
203.5235525617731
 30
0.0
 40
30.0
 50
260.1291103938604
 51
279.8708896061396
  0
LINE
  5
31E
  8
1
  6
CONTINUOUS
 62
     7
 10
-255.4043422114969
 20
189.369481853338
 30
0.0
 11
-255.470997684115
 21
190.0235525617731
 31
0.0
  0
LINE
  5
31F
  8
1
  6
CONTINUOUS
 62
     7
 10
-268.9376867388788
 20
190.0235525617731
 30
0.0
 11
-269.0043422114969
 21
189.369481853338
 31
0.0
  0
LINE
  5
320
  8
1
  6
CONTINUOUS
 62
     9
 10
-330.3070316732519
 20
137.8152227519618
 30
0.0
 11
-326.774157153823
 21
137.8152227519618
 31
0.0
  0
LINE
  5
321
  8
1
  6
CONTINUOUS
 62
     7
 10
-326.774157153823
 20
137.8152227519618
 30
0.0
 11
-326.7655064413538
 21
136.8152608288976
 31
0.0
  0
LINE
  5
322
  8
1
  6
CONTINUOUS
 62
     9
 10
-326.7655064413538
 20
136.8152608288976
 30
0.0
 11
-330.2550812323151
 21
136.8152608288976
 31
0.0
  0
LINE
  5
323
  8
1
  6
CONTINUOUS
 62
     7
 10
-330.2550812323151
 20
136.8152608288976
 30
0.0
 11
-330.3070316732519
 21
137.8152227519618
 31
0.0
  0
LINE
  5
324
  8
1
  6
CONTINUOUS
 62
     7
 10
-237.2043422114969
 20
167.0235525617731
 30
0.0
 11
-239.9543451404375
 21
167.0235525617731
 31
0.0
  0
LINE
  5
325
  8
1
  6
CONTINUOUS
 62
     9
 10
-243.1116104287727
 20
167.0518652568603
 30
0.0
 11
-239.9543451404375
 21
167.0235525617731
 31
0.0
  0
LINE
  5
326
  8
1
  6
CONTINUOUS
 62
     9
 10
-243.1101266232977
 20
167.0235525617731
 30
0.0
 11
-243.1116104287727
 21
167.0518652568603
 31
0.0
  0
LINE
  5
327
  8
1
  6
CONTINUOUS
 62
     7
 10
-243.1101266232977
 20
167.0235525617731
 30
0.0
 11
-243.2985577996961
 21
167.0235525617731
 31
0.0
  0
LINE
  5
328
  8
1
  6
CONTINUOUS
 62
     9
 10
-243.297073994221
 20
167.0518652568603
 30
0.0
 11
-243.2985577996961
 21
167.0235525617731
 31
0.0
  0
LINE
  5
329
  8
1
  6
CONTINUOUS
 62
     9
 10
-246.4543392825562
 20
167.0235525617731
 30
0.0
 11
-243.297073994221
 21
167.0518652568603
 31
0.0
  0
LINE
  5
32A
  8
1
  6
CONTINUOUS
 62
     7
 10
-246.4543392825562
 20
167.0235525617731
 30
0.0
 11
-277.9543451404375
 21
167.0235525617731
 31
0.0
  0
LINE
  5
32B
  8
1
  6
CONTINUOUS
 62
     9
 10
-281.1116104287727
 20
167.0518652568603
 30
0.0
 11
-277.9543451404375
 21
167.0235525617731
 31
0.0
  0
LINE
  5
32C
  8
1
  6
CONTINUOUS
 62
     9
 10
-281.1101266232977
 20
167.0235525617731
 30
0.0
 11
-281.1116104287727
 21
167.0518652568603
 31
0.0
  0
LINE
  5
32D
  8
1
  6
CONTINUOUS
 62
     7
 10
-281.1101266232977
 20
167.0235525617731
 30
0.0
 11
-281.2985577996961
 21
167.0235525617731
 31
0.0
  0
LINE
  5
32E
  8
1
  6
CONTINUOUS
 62
     9
 10
-281.297073994221
 20
167.0518652568603
 30
0.0
 11
-281.2985577996961
 21
167.0235525617731
 31
0.0
  0
LINE
  5
32F
  8
1
  6
CONTINUOUS
 62
     9
 10
-284.4543392825562
 20
167.0235525617731
 30
0.0
 11
-281.297073994221
 21
167.0518652568603
 31
0.0
  0
LINE
  5
330
  8
1
  6
CONTINUOUS
 62
     7
 10
-284.4543392825562
 20
167.0235525617731
 30
0.0
 11
-323.7044564423044
 21
167.0235525617731
 31
0.0
  0
LINE
  5
331
  8
1
  6
CONTINUOUS
 62
     9
 10
-323.7742713846304
 20
167.0933675040991
 30
0.0
 11
-323.7044564423044
 21
167.0235525617731
 31
0.0
  0
LINE
  5
332
  8
1
  6
CONTINUOUS
 62
     7
 10
-323.7742713846304
 20
167.0933675040991
 30
0.0
 11
-240.2480907856079
 21
167.0933675040991
 31
0.0
  0
LINE
  5
333
  8
1
  6
CONTINUOUS
 62
     7
 10
-237.2482050164153
 20
167.0674153666916
 30
0.0
 11
-240.2480907856079
 21
167.0933675040991
 31
0.0
  0
LINE
  5
334
  8
1
  6
CONTINUOUS
 62
     7
 10
-237.2482050164153
 20
167.0674153666916
 30
0.0
 11
-237.2043422114969
 21
167.0235525617731
 31
0.0
  0
LINE
  5
335
  8
1
  6
CONTINUOUS
 62
     9
 10
-326.774157153823
 20
128.6318823715844
 30
0.0
 11
-330.3070316732519
 21
128.6318823715844
 31
0.0
  0
LINE
  5
336
  8
1
  6
CONTINUOUS
 62
     7
 10
-330.3070316732519
 20
128.6318823715844
 30
0.0
 11
-330.2550812323151
 21
129.6318442946486
 31
0.0
  0
LINE
  5
337
  8
1
  6
CONTINUOUS
 62
     9
 10
-330.2550812323151
 20
129.6318442946485
 30
0.0
 11
-326.7655064413538
 21
129.6318442946485
 31
0.0
  0
LINE
  5
338
  8
1
  6
CONTINUOUS
 62
     7
 10
-326.7655064413538
 20
129.6318442946485
 30
0.0
 11
-326.774157153823
 21
128.6318823715844
 31
0.0
  0
LINE
  5
339
  8
1
  6
CONTINUOUS
 62
     9
 10
-332.6345272691708
 20
156.4759518469034
 30
0.0
 11
-328.6432541369616
 21
156.4759518469034
 31
0.0
  0
LINE
  5
33A
  8
1
  6
CONTINUOUS
 62
     7
 10
-328.6432541369616
 20
156.4759518469034
 30
0.0
 11
-328.6519048494308
 21
155.4759899238392
 31
0.0
  0
LINE
  5
33B
  8
1
  6
CONTINUOUS
 62
     9
 10
-328.6519048494308
 20
155.4759899238392
 30
0.0
 11
-332.64317798164
 21
155.4759899238392
 31
0.0
  0
LINE
  5
33C
  8
1
  6
CONTINUOUS
 62
     7
 10
-332.64317798164
 20
155.4759899238392
 30
0.0
 11
-332.6345272691708
 21
156.4759518469034
 31
0.0
  0
LINE
  5
33D
  8
1
  6
CONTINUOUS
 62
     9
 10
-326.6986871434918
 20
185.9943382355509
 30
0.0
 11
-326.7392496826599
 21
185.9537756963828
 31
0.0
  0
LINE
  5
33E
  8
1
  6
CONTINUOUS
 62
     7
 10
-326.7031262284382
 20
184.9900895381835
 30
0.0
 11
-326.6986871434918
 21
185.9943382355509
 31
0.0
  0
LINE
  5
33F
  8
1
  6
CONTINUOUS
 62
     7
 10
-326.704266050375
 20
170.0235906459591
 30
0.0
 11
-326.7031262284382
 21
184.9900895381835
 31
0.0
  0
LINE
  5
340
  8
1
  6
CONTINUOUS
 62
     9
 10
-326.7392496826599
 20
169.9886070136742
 30
0.0
 11
-326.704266050375
 21
170.0235906459591
 31
0.0
  0
LINE
  5
341
  8
1
  6
CONTINUOUS
 62
     7
 10
-326.7392496826599
 20
185.9537756963828
 30
0.0
 11
-326.7392496826599
 21
169.9886070136742
 31
0.0
  0
LINE
  5
342
  8
1
  6
CONTINUOUS
 62
     7
 10
-329.8877694389875
 20
135.4235525617731
 30
0.0
 11
-329.7043422114969
 21
135.4540965990407
 31
0.0
  0
LINE
  5
343
  8
1
  6
CONTINUOUS
 62
     7
 10
-329.8877694389875
 20
131.0235525617731
 30
0.0
 11
-329.9266118669619
 21
131.1521556183704
 31
0.0
  0
ARC
  5
344
  8
1
  6
CONTINUOUS
 62
     7
 10
-304.0957910070676
 20
133.1426734815865
 30
0.0
 40
25.90740179291879
 50
175.0020234094645
 51
184.4064927909575
  0
LINE
  5
345
  8
1
  6
CONTINUOUS
 62
     7
 10
-329.9046870392901
 20
135.3997408836956
 30
0.0
 11
-329.8877694389875
 21
135.4235525617731
 31
0.0
  0
LINE
  5
346
  8
1
  6
CONTINUOUS
 62
     7
 10
-329.8877694389875
 20
131.0235525617731
 30
0.0
 11
-329.7043422114969
 21
130.9930085245054
 31
0.0
  0
LINE
  5
347
  8
1
  6
CONTINUOUS
 62
     7
 10
-329.7043422114969
 20
130.7148637723681
 30
0.0
 11
-329.7043422114969
 21
130.9930085245055
 31
0.0
  0
LINE
  5
348
  8
1
  6
CONTINUOUS
 62
     7
 10
-329.7562926524336
 20
129.7149018493039
 30
0.0
 11
-329.7043422114969
 21
130.7148637723681
 31
0.0
  0
LINE
  5
349
  8
1
  6
CONTINUOUS
 62
     7
 10
-330.2550812323151
 20
129.6318442946485
 30
0.0
 11
-329.7562926524336
 21
129.7149018493039
 31
0.0
  0
LINE
  5
34A
  8
1
  6
CONTINUOUS
 62
     7
 10
-330.3070316732519
 20
128.6318823715844
 30
0.0
 11
-330.3070316732519
 21
137.8152227519618
 31
0.0
  0
LINE
  5
34B
  8
1
  6
CONTINUOUS
 62
     7
 10
-329.7562926524336
 20
136.7322032742423
 30
0.0
 11
-330.2550812323151
 21
136.8152608288976
 31
0.0
  0
LINE
  5
34C
  8
1
  6
CONTINUOUS
 62
     7
 10
-329.7043422114969
 20
135.7322413511781
 30
0.0
 11
-329.7562926524336
 21
136.7322032742423
 31
0.0
  0
LINE
  5
34D
  8
1
  6
CONTINUOUS
 62
     7
 10
-329.7043422114969
 20
135.4540965990407
 30
0.0
 11
-329.7043422114969
 21
135.7322413511781
 31
0.0
  0
LINE
  5
34E
  8
1
  6
CONTINUOUS
 62
     7
 10
-332.6956153437061
 20
155.4235525617731
 30
0.0
 11
-332.6956153437061
 21
139.4235525617731
 31
0.0
  0
LINE
  5
34F
  8
1
  6
CONTINUOUS
 62
     7
 10
-332.6956153437061
 20
139.4235525617731
 30
0.0
 11
-332.64317798164
 21
139.371115199707
 31
0.0
  0
LINE
  5
350
  8
1
  6
CONTINUOUS
 62
     7
 10
-332.6345272691708
 20
138.3711532766428
 30
0.0
 11
-332.64317798164
 21
139.371115199707
 31
0.0
  0
LINE
  5
351
  8
1
  6
CONTINUOUS
 62
     7
 10
-332.6345272691708
 20
128.0846787146941
 30
0.0
 11
-332.6345272691708
 21
138.3711532766428
 31
0.0
  0
LINE
  5
352
  8
1
  6
CONTINUOUS
 62
     7
 10
-332.64317798164
 20
127.08471679163
 30
0.0
 11
-332.6345272691708
 21
128.0846787146941
 31
0.0
  0
LINE
  5
353
  8
1
  6
CONTINUOUS
 62
     7
 10
-332.64317798164
 20
127.08471679163
 30
0.0
 11
-332.7043422114969
 21
127.0235525617731
 31
0.0
  0
LINE
  5
354
  8
1
  6
CONTINUOUS
 62
     7
 10
-332.7043422114969
 20
131.0235525617731
 30
0.0
 11
-332.7043422114969
 21
127.0235525617731
 31
0.0
  0
LINE
  5
355
  8
1
  6
CONTINUOUS
 62
     7
 10
-332.7043422114969
 20
131.0235525617731
 30
0.0
 11
-332.7043422114969
 21
135.4235525617731
 31
0.0
  0
LINE
  5
356
  8
1
  6
CONTINUOUS
 62
     7
 10
-332.7043422114969
 20
157.0235525617731
 30
0.0
 11
-332.7043422114969
 21
135.4235525617731
 31
0.0
  0
LINE
  5
357
  8
1
  6
CONTINUOUS
 62
     7
 10
-332.6345272691708
 20
157.0933675040991
 30
0.0
 11
-332.7043422114969
 21
157.0235525617731
 31
0.0
  0
LINE
  5
358
  8
1
  6
CONTINUOUS
 62
     7
 10
-332.6345272691708
 20
156.4759518469034
 30
0.0
 11
-332.6345272691708
 21
157.0933675040991
 31
0.0
  0
LINE
  5
359
  8
1
  6
CONTINUOUS
 62
     7
 10
-332.64317798164
 20
155.4759899238392
 30
0.0
 11
-332.6956153437061
 21
155.4235525617731
 31
0.0
  0
LINE
  5
35A
  8
1
  6
CONTINUOUS
 62
     7
 10
-335.1432160585758
 20
186.953737619447
 30
0.0
 11
-327.7392116057241
 21
186.953737619447
 31
0.0
  0
LINE
  5
35B
  8
1
  6
CONTINUOUS
 62
     7
 10
-336.14317798164
 20
186.9623883319162
 30
0.0
 11
-335.1432160585758
 21
186.953737619447
 31
0.0
  0
LINE
  5
35C
  8
1
  6
CONTINUOUS
 62
     7
 10
-336.14317798164
 20
186.9623883319162
 30
0.0
 11
-336.2043422114969
 21
187.0235525617731
 31
0.0
  0
LINE
  5
35D
  8
1
  6
CONTINUOUS
 62
     7
 10
-304.2043422114969
 20
187.0235525617731
 30
0.0
 11
-336.2043422114969
 21
187.0235525617731
 31
0.0
  0
LINE
  5
35E
  8
1
  6
CONTINUOUS
 62
     7
 10
-304.2167485324783
 20
186.9987399198102
 30
0.0
 11
-304.2043422114969
 21
187.0235525617731
 31
0.0
  0
LINE
  5
35F
  8
1
  6
CONTINUOUS
 62
     7
 10
-327.6942093053609
 20
186.9987399198102
 30
0.0
 11
-304.2167485324783
 21
186.9987399198102
 31
0.0
  0
LINE
  5
360
  8
1
  6
CONTINUOUS
 62
     9
 10
-327.7392116057241
 20
186.953737619447
 30
0.0
 11
-327.6942093053609
 21
186.9987399198102
 31
0.0
  0
LINE
  5
361
  8
1
  6
CONTINUOUS
 62
     7
 10
-336.0821660624263
 20
174.8235525617731
 30
0.0
 11
-336.2043422114969
 21
174.7013764127025
 31
0.0
  0
LINE
  5
362
  8
1
  6
CONTINUOUS
 62
     7
 10
-336.0821660624263
 20
174.8235525617731
 30
0.0
 11
-330.7043422114969
 21
174.8235525617731
 31
0.0
  0
LINE
  5
363
  8
1
  6
CONTINUOUS
 62
     7
 10
-330.7043422114969
 20
174.8235525617731
 30
0.0
 11
-330.7043422114969
 21
174.8150693532471
 31
0.0
  0
LINE
  5
364
  8
1
  6
CONTINUOUS
 62
     7
 10
-330.7043422114969
 20
174.8150693532471
 30
0.0
 11
-330.2043422114969
 21
174.8150693532471
 31
0.0
  0
LINE
  5
365
  8
1
  6
CONTINUOUS
 62
     7
 10
-330.2043422114969
 20
174.6315614703764
 30
0.0
 11
-335.1432160585758
 21
174.6315614703764
 31
0.0
  0
LINE
  5
366
  8
1
  6
CONTINUOUS
 62
     7
 10
-336.14317798164
 20
174.6402121828456
 30
0.0
 11
-335.1432160585758
 21
174.6315614703764
 31
0.0
  0
LINE
  5
367
  8
1
  6
CONTINUOUS
 62
     7
 10
-336.2043422114969
 20
174.7013764127025
 30
0.0
 11
-336.14317798164
 21
174.6402121828456
 31
0.0
  0
LINE
  5
368
  8
1
  6
CONTINUOUS
 62
     7
 10
-289.9694347403339
 20
168.98864509061
 30
0.0
 11
-290.0043422114969
 21
169.0235525617731
 31
0.0
  0
LINE
  5
369
  8
1
  6
CONTINUOUS
 62
     7
 10
-289.9694347403339
 20
168.98864509061
 30
0.0
 11
-325.7392877595958
 21
168.98864509061
 31
0.0
  0
LINE
  5
36A
  8
1
  6
CONTINUOUS
 62
     9
 10
-325.7043802884327
 20
169.0235525617731
 30
0.0
 11
-325.7392877595957
 21
168.9886450906101
 31
0.0
  0
LINE
  5
36B
  8
1
  6
CONTINUOUS
 62
     7
 10
-290.0043422114969
 20
169.0235525617731
 30
0.0
 11
-325.7043802884327
 21
169.0235525617731
 31
0.0
  0
LINE
  5
36C
  8
1
  6
CONTINUOUS
 62
     9
 10
-336.1345272691708
 20
157.9625025641736
 30
0.0
 11
-336.1956153437061
 21
158.0235906387089
 31
0.0
  0
POLYLINE
  5
36D
  8
1
  6
CONTINUOUS
 62
     7
 66
     1
 10
0.0
 20
0.0
 30
0.0
  0
VERTEX
  5
67A
  8
1
  6
CONTINUOUS
 62
     7
 10
-335.195653420642
 20
159.0235525617731
 30
0.0
  0
VERTEX
  5
67B
  8
1
  6
CONTINUOUS
 62
     7
 10
-335.390740371144
 20
159.0043389676121
 30
0.0
  0
VERTEX
  5
67C
  8
1
  6
CONTINUOUS
 62
     7
 10
-335.5783280377858
 20
158.9474364814174
 30
0.0
  0
VERTEX
  5
67D
  8
1
  6
CONTINUOUS
 62
     7
 10
-335.7512082284507
 20
158.8550316224826
 30
0.0
  0
VERTEX
  5
67E
  8
1
  6
CONTINUOUS
 62
     7
 10
-335.9027378964512
 20
158.7306751145182
 30
0.0
  0
VERTEX
  5
67F
  8
1
  6
CONTINUOUS
 62
     7
 10
-336.0270944044156
 20
158.5791454465176
 30
0.0
  0
VERTEX
  5
680
  8
1
  6
CONTINUOUS
 62
     7
 10
-336.1194992633503
 20
158.4062652558528
 30
0.0
  0
VERTEX
  5
681
  8
1
  6
CONTINUOUS
 62
     7
 10
-336.1764017495452
 20
158.218677589211
 30
0.0
  0
VERTEX
  5
682
  8
1
  6
CONTINUOUS
 62
     7
 10
-336.1956153437061
 20
158.0235906387089
 30
0.0
  0
SEQEND
  5
9A4
  8
1
  6
CONTINUOUS
 62
     7
  0
LINE
  5
36E
  8
1
  6
CONTINUOUS
 62
     9
 10
-335.1956534206419
 20
159.0235525617731
 30
0.0
 11
-335.1345653461066
 21
158.9624644872378
 31
0.0
  0
POLYLINE
  5
36F
  8
1
  6
CONTINUOUS
 62
     7
 66
     1
 10
0.0
 20
0.0
 30
0.0
  0
VERTEX
  5
683
  8
1
  6
CONTINUOUS
 62
     7
 10
-335.1345653461066
 20
158.9624644872378
 30
0.0
  0
VERTEX
  5
684
  8
1
  6
CONTINUOUS
 62
     7
 10
-335.3296522966087
 20
158.9432508930769
 30
0.0
  0
VERTEX
  5
685
  8
1
  6
CONTINUOUS
 62
     7
 10
-335.5172399632505
 20
158.8863484068821
 30
0.0
  0
VERTEX
  5
686
  8
1
  6
CONTINUOUS
 62
     7
 10
-335.6901201539154
 20
158.7939435479474
 30
0.0
  0
VERTEX
  5
687
  8
1
  6
CONTINUOUS
 62
     7
 10
-335.8416498219159
 20
158.669587039983
 30
0.0
  0
VERTEX
  5
688
  8
1
  6
CONTINUOUS
 62
     7
 10
-335.9660063298804
 20
158.5180573719823
 30
0.0
  0
VERTEX
  5
689
  8
1
  6
CONTINUOUS
 62
     7
 10
-336.0584111888151
 20
158.3451771813175
 30
0.0
  0
VERTEX
  5
68A
  8
1
  6
CONTINUOUS
 62
     7
 10
-336.1153136750099
 20
158.1575895146757
 30
0.0
  0
VERTEX
  5
68B
  8
1
  6
CONTINUOUS
 62
     7
 10
-336.1345272691707
 20
157.9625025641736
 30
0.0
  0
SEQEND
  5
9A5
  8
1
  6
CONTINUOUS
 62
     7
  0
POLYLINE
  5
370
  8
1
  6
CONTINUOUS
 62
     7
 66
     1
 10
0.0
 20
0.0
 30
0.0
  0
VERTEX
  5
68C
  8
1
  6
CONTINUOUS
 62
     7
 10
-323.7742713846304
 20
167.0933675040991
 30
0.0
  0
VERTEX
  5
68D
  8
1
  6
CONTINUOUS
 62
     7
 10
-324.3595322361367
 20
167.0357267216164
 30
0.0
  0
VERTEX
  5
68E
  8
1
  6
CONTINUOUS
 62
     7
 10
-324.922295236062
 20
166.8650192630321
 30
0.0
  0
VERTEX
  5
68F
  8
1
  6
CONTINUOUS
 62
     7
 10
-325.4409358080566
 20
166.5878046862278
 30
0.0
  0
VERTEX
  5
690
  8
1
  6
CONTINUOUS
 62
     7
 10
-325.8955248120584
 20
166.2147351623346
 30
0.0
  0
VERTEX
  5
691
  8
1
  6
CONTINUOUS
 62
     7
 10
-326.2685943359515
 20
165.7601461583328
 30
0.0
  0
VERTEX
  5
692
  8
1
  6
CONTINUOUS
 62
     7
 10
-326.5458089127558
 20
165.2415055863383
 30
0.0
  0
VERTEX
  5
693
  8
1
  6
CONTINUOUS
 62
     7
 10
-326.7165163713401
 20
164.678742586413
 30
0.0
  0
VERTEX
  5
694
  8
1
  6
CONTINUOUS
 62
     7
 10
-326.7741571538229
 20
164.0934817349066
 30
0.0
  0
SEQEND
  5
9A6
  8
1
  6
CONTINUOUS
 62
     7
  0
LINE
  5
371
  8
1
  6
CONTINUOUS
 62
     7
 10
-326.774157153823
 20
164.0934817349066
 30
0.0
 11
-326.774157153823
 21
137.8152227519618
 31
0.0
  0
LINE
  5
372
  8
1
  6
CONTINUOUS
 62
     7
 10
-326.774157153823
 20
128.6318823715844
 30
0.0
 11
-326.774157153823
 21
128.0846787146941
 31
0.0
  0
LINE
  5
373
  8
1
  6
CONTINUOUS
 62
     9
 10
-332.6345272691708
 20
128.0846787146941
 30
0.0
 11
-326.774157153823
 21
128.0846787146941
 31
0.0
  0
LINE
  5
374
  8
1
  6
CONTINUOUS
 62
     9
 10
-328.6432541369616
 20
138.3711532766428
 30
0.0
 11
-332.6345272691708
 21
138.3711532766428
 31
0.0
  0
LINE
  5
375
  8
1
  6
CONTINUOUS
 62
     7
 10
-328.6432541369616
 20
156.4759518469034
 30
0.0
 11
-328.6432541369616
 21
138.3711532766428
 31
0.0
  0
LINE
  5
376
  8
1
  6
CONTINUOUS
 62
     7
 10
-332.6345272691708
 20
157.0933675040991
 30
0.0
 11
-334.2741571538229
 21
157.0933675040991
 31
0.0
  0
LINE
  5
377
  8
1
  6
CONTINUOUS
 62
     7
 10
-334.2741571538229
 20
157.0933675040991
 30
0.0
 11
-334.2741571538229
 21
148.0846787146941
 31
0.0
  0
LINE
  5
378
  8
1
  6
CONTINUOUS
 62
     9
 10
-336.1345272691708
 20
148.0846787146941
 30
0.0
 11
-334.2741571538229
 21
148.0846787146941
 31
0.0
  0
LINE
  5
379
  8
1
  6
CONTINUOUS
 62
     7
 10
-336.1345272691708
 20
148.0846787146941
 30
0.0
 11
-336.1345272691708
 21
157.9625025641736
 31
0.0
  0
LINE
  5
37A
  8
1
  6
CONTINUOUS
 62
     7
 10
-335.1345653461066
 20
158.9624644872378
 30
0.0
 11
-330.1432541369616
 21
158.9624644872378
 31
0.0
  0
LINE
  5
37B
  8
1
  6
CONTINUOUS
 62
     7
 10
-330.1432541369616
 20
158.9624644872378
 30
0.0
 11
-330.1432541369616
 21
167.0846406363084
 31
0.0
  0
LINE
  5
37C
  8
1
  6
CONTINUOUS
 62
     7
 10
-330.1432541369616
 20
167.0846406363084
 30
0.0
 11
-335.1432160585758
 21
167.0846406363084
 31
0.0
  0
LINE
  5
37D
  8
1
  6
CONTINUOUS
 62
     9
 10
-335.1432160585758
 20
168.9624644872378
 30
0.0
 11
-335.1432160585758
 21
167.0846406363084
 31
0.0
  0
LINE
  5
37E
  8
1
  6
CONTINUOUS
 62
     7
 10
-335.1432160585758
 20
168.9624644872378
 30
0.0
 11
-330.1432541369616
 21
168.9624644872378
 31
0.0
  0
LINE
  5
37F
  8
1
  6
CONTINUOUS
 62
     7
 10
-330.1432541369616
 20
168.9624644872378
 30
0.0
 11
-330.1432541369616
 21
171.9846406363084
 31
0.0
  0
LINE
  5
380
  8
1
  6
CONTINUOUS
 62
     7
 10
-330.1432541369616
 20
171.9846406363084
 30
0.0
 11
-335.1432160585758
 21
171.9846406363084
 31
0.0
  0
LINE
  5
381
  8
1
  6
CONTINUOUS
 62
     9
 10
-335.1432160585758
 20
174.6315614703764
 30
0.0
 11
-335.1432160585758
 21
171.9846406363084
 31
0.0
  0
LINE
  5
382
  8
1
  6
CONTINUOUS
 62
     7
 10
-330.2043422114969
 20
179.4155436531698
 30
0.0
 11
-330.2043422114969
 21
174.6315614703764
 31
0.0
  0
LINE
  5
383
  8
1
  6
CONTINUOUS
 62
     7
 10
-335.1432160585758
 20
179.4155436531698
 30
0.0
 11
-330.2043422114969
 21
179.4155436531698
 31
0.0
  0
LINE
  5
384
  8
1
  6
CONTINUOUS
 62
     9
 10
-335.1432160585758
 20
182.0624644872378
 30
0.0
 11
-335.1432160585758
 21
179.4155436531698
 31
0.0
  0
LINE
  5
385
  8
1
  6
CONTINUOUS
 62
     7
 10
-335.1432160585758
 20
182.0624644872378
 30
0.0
 11
-330.1432541369616
 21
182.0624644872378
 31
0.0
  0
LINE
  5
386
  8
1
  6
CONTINUOUS
 62
     7
 10
-330.1432541369616
 20
182.0624644872378
 30
0.0
 11
-330.1432541369616
 21
185.0846406363084
 31
0.0
  0
LINE
  5
387
  8
1
  6
CONTINUOUS
 62
     7
 10
-330.1432541369616
 20
185.0846406363084
 30
0.0
 11
-335.1432160585758
 21
185.0846406363084
 31
0.0
  0
LINE
  5
388
  8
1
  6
CONTINUOUS
 62
     9
 10
-335.1432160585758
 20
186.953737619447
 30
0.0
 11
-335.1432160585758
 21
185.0846406363084
 31
0.0
  0
POLYLINE
  5
389
  8
1
  6
CONTINUOUS
 62
     7
 66
     1
 10
0.0
 20
0.0
 30
0.0
  0
VERTEX
  5
695
  8
1
  6
CONTINUOUS
 62
     7
 10
-326.7392496826599
 20
185.9537756963828
 30
0.0
  0
VERTEX
  5
696
  8
1
  6
CONTINUOUS
 62
     7
 10
-326.7584632768209
 20
186.1488626468849
 30
0.0
  0
VERTEX
  5
697
  8
1
  6
CONTINUOUS
 62
     7
 10
-326.8153657630157
 20
186.3364503135267
 30
0.0
  0
VERTEX
  5
698
  8
1
  6
CONTINUOUS
 62
     7
 10
-326.9077706219504
 20
186.5093305041916
 30
0.0
  0
VERTEX
  5
699
  8
1
  6
CONTINUOUS
 62
     7
 10
-327.0321271299148
 20
186.6608601721921
 30
0.0
  0
VERTEX
  5
69A
  8
1
  6
CONTINUOUS
 62
     7
 10
-327.1836567979154
 20
186.7852166801566
 30
0.0
  0
VERTEX
  5
69B
  8
1
  6
CONTINUOUS
 62
     7
 10
-327.3565369885802
 20
186.8776215390913
 30
0.0
  0
VERTEX
  5
69C
  8
1
  6
CONTINUOUS
 62
     7
 10
-327.5441246552219
 20
186.9345240252861
 30
0.0
  0
VERTEX
  5
69D
  8
1
  6
CONTINUOUS
 62
     7
 10
-327.7392116057241
 20
186.953737619447
 30
0.0
  0
SEQEND
  5
9A7
  8
1
  6
CONTINUOUS
 62
     7
  0
POLYLINE
  5
38A
  8
1
  6
CONTINUOUS
 62
     7
 66
     1
 10
0.0
 20
0.0
 30
0.0
  0
VERTEX
  5
69E
  8
1
  6
CONTINUOUS
 62
     7
 10
-326.7392496826599
 20
169.9886070136742
 30
0.0
  0
VERTEX
  5
69F
  8
1
  6
CONTINUOUS
 62
     7
 10
-326.7200360884989
 20
169.7935200631721
 30
0.0
  0
VERTEX
  5
6A0
  8
1
  6
CONTINUOUS
 62
     7
 10
-326.6631336023041
 20
169.6059323965303
 30
0.0
  0
VERTEX
  5
6A1
  8
1
  6
CONTINUOUS
 62
     7
 10
-326.5707287433694
 20
169.4330522058655
 30
0.0
  0
VERTEX
  5
6A2
  8
1
  6
CONTINUOUS
 62
     7
 10
-326.446372235405
 20
169.2815225378649
 30
0.0
  0
VERTEX
  5
6A3
  8
1
  6
CONTINUOUS
 62
     7
 10
-326.2948425674044
 20
169.1571660299005
 30
0.0
  0
VERTEX
  5
6A4
  8
1
  6
CONTINUOUS
 62
     7
 10
-326.1219623767396
 20
169.0647611709657
 30
0.0
  0
VERTEX
  5
6A5
  8
1
  6
CONTINUOUS
 62
     7
 10
-325.9343747100979
 20
169.007858684771
 30
0.0
  0
VERTEX
  5
6A6
  8
1
  6
CONTINUOUS
 62
     7
 10
-325.7392877595958
 20
168.98864509061
 30
0.0
  0
SEQEND
  5
9A8
  8
1
  6
CONTINUOUS
 62
     7
  0
LINE
  5
38B
  8
1
  6
CONTINUOUS
 62
     7
 10
-289.9694347403339
 20
168.98864509061
 30
0.0
 11
-289.9694347403339
 21
171.4624644872378
 31
0.0
  0
LINE
  5
38C
  8
1
  6
CONTINUOUS
 62
     7
 10
-289.9694347403339
 20
171.4624644872378
 30
0.0
 11
-288.4392496826599
 21
171.4624644872378
 31
0.0
  0
LINE
  5
38D
  8
1
  6
CONTINUOUS
 62
     7
 10
-288.4392496826599
 20
171.4624644872378
 30
0.0
 11
-288.4392496826599
 21
168.9886450906101
 31
0.0
  0
LINE
  5
38E
  8
1
  6
CONTINUOUS
 62
     7
 10
-280.4694347403338
 20
168.98864509061
 30
0.0
 11
-288.4392496826599
 21
168.98864509061
 31
0.0
  0
LINE
  5
38F
  8
1
  6
CONTINUOUS
 62
     7
 10
-280.4694347403338
 20
168.98864509061
 30
0.0
 11
-280.4694347403338
 21
170.497333880015
 31
0.0
  0
LINE
  5
390
  8
1
  6
CONTINUOUS
 62
     9
 10
-278.9392496826599
 20
170.497333880015
 30
0.0
 11
-280.4694347403338
 21
170.497333880015
 31
0.0
  0
LINE
  5
391
  8
1
  6
CONTINUOUS
 62
     7
 10
-278.9392496826599
 20
170.497333880015
 30
0.0
 11
-278.9392496826599
 21
168.98864509061
 31
0.0
  0
LINE
  5
392
  8
1
  6
CONTINUOUS
 62
     7
 10
-240.2480907856079
 20
168.98864509061
 30
0.0
 11
-278.9392496826599
 21
168.98864509061
 31
0.0
  0
LINE
  5
393
  8
1
  6
CONTINUOUS
 62
     9
 10
-240.2480907856079
 20
167.0933675040991
 30
0.0
 11
-240.2480907856079
 21
168.98864509061
 31
0.0
  0
LINE
  5
394
  8
1
  6
CONTINUOUS
 62
     7
 10
-330.2043422114969
 20
179.2320357702991
 30
0.0
 11
-330.7043422114969
 21
179.2320357702991
 31
0.0
  0
LINE
  5
395
  8
1
  6
CONTINUOUS
 62
     7
 10
-330.7043422114969
 20
179.2320357702991
 30
0.0
 11
-330.7043422114969
 21
179.2235525617731
 31
0.0
  0
LINE
  5
396
  8
1
  6
CONTINUOUS
 62
     7
 10
-336.0821660624263
 20
179.2235525617731
 30
0.0
 11
-330.7043422114969
 21
179.2235525617731
 31
0.0
  0
LINE
  5
397
  8
1
  6
CONTINUOUS
 62
     7
 10
-336.2043422114969
 20
179.3457287108437
 30
0.0
 11
-336.0821660624263
 21
179.2235525617731
 31
0.0
  0
LINE
  5
398
  8
1
  6
CONTINUOUS
 62
     7
 10
-336.14317798164
 20
179.4068929407006
 30
0.0
 11
-336.2043422114969
 21
179.3457287108437
 31
0.0
  0
LINE
  5
399
  8
1
  6
CONTINUOUS
 62
     7
 10
-335.1432160585758
 20
179.4155436531698
 30
0.0
 11
-336.14317798164
 21
179.4068929407006
 31
0.0
  0
LINE
  5
39A
  8
1
  6
CONTINUOUS
 62
     9
 10
-326.7655064413538
 20
127.08471679163
 30
0.0
 11
-332.64317798164
 21
127.08471679163
 31
0.0
  0
LINE
  5
39B
  8
1
  6
CONTINUOUS
 62
     7
 10
-326.774157153823
 20
128.0846787146941
 30
0.0
 11
-326.7655064413538
 21
127.08471679163
 31
0.0
  0
POLYLINE
  5
39C
  8
1
  6
CONTINUOUS
 62
     7
 66
     1
 10
0.0
 20
0.0
 30
0.0
  0
VERTEX
  5
6A7
  8
1
  6
CONTINUOUS
 62
     7
 10
-326.704266050375
 20
170.0235906459591
 30
0.0
  0
VERTEX
  5
6A8
  8
1
  6
CONTINUOUS
 62
     7
 10
-326.6850673148209
 20
169.8284888368502
 30
0.0
  0
VERTEX
  5
6A9
  8
1
  6
CONTINUOUS
 62
     7
 10
-326.6281791160573
 20
169.6408868827773
 30
0.0
  0
VERTEX
  5
6AA
  8
1
  6
CONTINUOUS
 62
     7
 10
-326.5357874243732
 20
169.4679935248618
 30
0.0
  0
VERTEX
  5
6AB
  8
1
  6
CONTINUOUS
 62
     7
 10
-326.4114424575177
 20
169.3164523157523
 30
0.0
  0
VERTEX
  5
6AC
  8
1
  6
CONTINUOUS
 62
     7
 10
-326.2599222610089
 20
169.1920863362961
 30
0.0
  0
VERTEX
  5
6AD
  8
1
  6
CONTINUOUS
 62
     7
 10
-326.0870491082698
 20
169.0996744394356
 30
0.0
  0
VERTEX
  5
6AE
  8
1
  6
CONTINUOUS
 62
     7
 10
-325.8994657755502
 20
169.0427676193187
 30
0.0
  0
VERTEX
  5
6AF
  8
1
  6
CONTINUOUS
 62
     7
 10
-325.7043802884327
 20
169.0235525617731
 30
0.0
  0
SEQEND
  5
9A9
  8
1
  6
CONTINUOUS
 62
     7
  0
LINE
  5
39D
  8
1
  6
CONTINUOUS
 62
     7
 10
-326.7043422114969
 20
127.0235525617731
 30
0.0
 11
-326.7043422114969
 21
129.6930085245054
 31
0.0
  0
LINE
  5
39E
  8
1
  6
CONTINUOUS
 62
     7
 10
-326.7655064413538
 20
127.08471679163
 30
0.0
 11
-326.7043422114969
 21
127.0235525617731
 31
0.0
  0
LINE
  5
39F
  8
1
  6
CONTINUOUS
 62
     7
 10
-326.7655064413538
 20
129.6318442946485
 30
0.0
 11
-326.7043422114969
 21
129.6930085245054
 31
0.0
  0
LINE
  5
3A0
  8
1
  6
CONTINUOUS
 62
     7
 10
-328.6519048494308
 20
139.371115199707
 30
0.0
 11
-328.6432541369616
 21
138.3711532766428
 31
0.0
  0
LINE
  5
3A1
  8
1
  6
CONTINUOUS
 62
     7
 10
-328.7043422114969
 20
139.4235525617731
 30
0.0
 11
-328.6519048494308
 21
139.371115199707
 31
0.0
  0
LINE
  5
3A2
  8
1
  6
CONTINUOUS
 62
     7
 10
-328.7043422114969
 20
155.4235525617731
 30
0.0
 11
-328.7043422114969
 21
139.4235525617731
 31
0.0
  0
LINE
  5
3A3
  8
1
  6
CONTINUOUS
 62
     7
 10
-328.6519048494308
 20
155.4759899238392
 30
0.0
 11
-328.7043422114969
 21
155.4235525617731
 31
0.0
  0
LINE
  5
3A4
  8
1
  6
CONTINUOUS
 62
     7
 10
-334.2043422114969
 20
157.0235525617731
 30
0.0
 11
-332.7043422114969
 21
157.0235525617731
 31
0.0
  0
LINE
  5
3A5
  8
1
  6
CONTINUOUS
 62
     7
 10
-334.2741571538229
 20
157.0933675040991
 30
0.0
 11
-334.2043422114969
 21
157.0235525617731
 31
0.0
  0
LINE
  5
3A6
  8
1
  6
CONTINUOUS
 62
     7
 10
-240.2480907856079
 20
168.98864509061
 30
0.0
 11
-237.2482050164153
 21
169.0145972280176
 31
0.0
  0
LINE
  5
3A7
  8
1
  6
CONTINUOUS
 62
     9
 10
-237.2482050164154
 20
169.0145972280176
 30
0.0
 11
-237.2482050164154
 21
167.0674153666916
 31
0.0
  0
LINE
  5
3A8
  8
1
  6
CONTINUOUS
 62
     9
 10
-280.478085452803
 20
171.4972958030792
 30
0.0
 11
-278.9305989701907
 21
171.4972958030792
 31
0.0
  0
LINE
  5
3A9
  8
1
  6
CONTINUOUS
 62
     7
 10
-278.9305989701907
 20
171.4972958030792
 30
0.0
 11
-278.9392496826599
 21
170.497333880015
 31
0.0
  0
LINE
  5
3AA
  8
1
  6
CONTINUOUS
 62
     7
 10
-280.4694347403338
 20
170.497333880015
 30
0.0
 11
-280.478085452803
 21
171.4972958030792
 31
0.0
  0
LINE
  5
3AB
  8
1
  6
CONTINUOUS
 62
     7
 10
-278.9043422114969
 20
169.0235525617731
 30
0.0
 11
-278.9392496826599
 21
168.9886450906101
 31
0.0
  0
LINE
  5
3AC
  8
1
  6
CONTINUOUS
 62
     7
 10
-239.248053727427
 20
169.0235525617731
 30
0.0
 11
-278.9043422114968
 21
169.0235525617731
 31
0.0
  0
LINE
  5
3AD
  8
1
  6
CONTINUOUS
 62
     7
 10
-237.2303694723175
 20
169.0324327721155
 30
0.0
 11
-239.248053727427
 21
169.0235525617731
 31
0.0
  0
LINE
  5
3AE
  8
1
  6
CONTINUOUS
 62
     7
 10
-237.2482050164154
 20
169.0145972280176
 30
0.0
 11
-237.2303694723176
 21
169.0324327721154
 31
0.0
  0
LINE
  5
3AF
  8
1
  6
CONTINUOUS
 62
     9
 10
-334.2655064413538
 20
147.0847167916299
 30
0.0
 11
-336.14317798164
 21
147.0847167916299
 31
0.0
  0
LINE
  5
3B0
  8
1
  6
CONTINUOUS
 62
     7
 10
-336.14317798164
 20
147.0847167916299
 30
0.0
 11
-336.1345272691708
 21
148.0846787146941
 31
0.0
  0
LINE
  5
3B1
  8
1
  6
CONTINUOUS
 62
     7
 10
-334.2741571538229
 20
148.0846787146941
 30
0.0
 11
-334.2655064413537
 21
147.0847167916299
 31
0.0
  0
LINE
  5
3B2
  8
1
  6
CONTINUOUS
 62
     7
 10
-330.1432541369616
 20
168.9624644872378
 30
0.0
 11
-330.2043422114969
 21
169.0235525617731
 31
0.0
  0
LINE
  5
3B3
  8
1
  6
CONTINUOUS
 62
     7
 10
-330.2043422114969
 20
169.0235525617731
 30
0.0
 11
-330.2043422114969
 21
171.9235525617731
 31
0.0
  0
LINE
  5
3B4
  8
1
  6
CONTINUOUS
 62
     7
 10
-330.2043422114969
 20
171.9235525617731
 30
0.0
 11
-330.1432541369616
 21
171.9846406363084
 31
0.0
  0
LINE
  5
3B5
  8
1
  6
CONTINUOUS
 62
     7
 10
-288.4392496826599
 20
168.98864509061
 30
0.0
 11
-288.4043422114969
 21
169.0235525617731
 31
0.0
  0
LINE
  5
3B6
  8
1
  6
CONTINUOUS
 62
     7
 10
-288.4392496826599
 20
171.4624644872378
 30
0.0
 11
-288.4041537954621
 21
171.4975603744356
 31
0.0
  0
LINE
  5
3B7
  8
1
  6
CONTINUOUS
 62
     7
 10
-288.4041537954621
 20
171.4975603744356
 30
0.0
 11
-288.4043422114969
 21
169.0235525617731
 31
0.0
  0
LINE
  5
3B8
  8
1
  6
CONTINUOUS
 62
     7
 10
-288.4041537954621
 20
171.4975603744356
 30
0.0
 11
-284.6783500241594
 21
171.4975603744356
 31
0.0
  0
LINE
  5
3B9
  8
1
  6
CONTINUOUS
 62
     7
 10
-289.9694347403339
 20
171.4624644872378
 30
0.0
 11
-290.0045306275317
 21
171.4975603744356
 31
0.0
  0
LINE
  5
3BA
  8
1
  6
CONTINUOUS
 62
     7
 10
-293.7303343988343
 20
171.4975603744356
 30
0.0
 11
-290.0045306275317
 21
171.4975603744356
 31
0.0
  0
LINE
  5
3BB
  8
1
  6
CONTINUOUS
 62
     7
 10
-293.7043422114969
 20
171.5235525617731
 30
0.0
 11
-293.7303343988343
 21
171.4975603744356
 31
0.0
  0
LINE
  5
3BC
  8
1
  6
CONTINUOUS
 62
     7
 10
-293.7043422114969
 20
171.5235525617731
 30
0.0
 11
-284.7043422114969
 21
171.5235525617731
 31
0.0
  0
LINE
  5
3BD
  8
1
  6
CONTINUOUS
 62
     7
 10
-284.7043422114969
 20
171.5235525617731
 30
0.0
 11
-284.6783500241594
 21
171.4975603744356
 31
0.0
  0
LINE
  5
3BE
  8
1
  6
CONTINUOUS
 62
     7
 10
-330.1432541369616
 20
158.9624644872378
 30
0.0
 11
-330.2043422114969
 21
159.0235525617731
 31
0.0
  0
LINE
  5
3BF
  8
1
  6
CONTINUOUS
 62
     7
 10
-335.1956534206419
 20
159.0235525617731
 30
0.0
 11
-330.2043422114969
 21
159.0235525617731
 31
0.0
  0
LINE
  5
3C0
  8
1
  6
CONTINUOUS
 62
     7
 10
-280.5043422114969
 20
169.0235525617731
 30
0.0
 11
-280.4694347403338
 21
168.9886450906101
 31
0.0
  0
LINE
  5
3C1
  8
1
  6
CONTINUOUS
 62
     7
 10
-280.5045326215518
 20
171.523742971828
 30
0.0
 11
-280.5043422114969
 21
169.0235525617731
 31
0.0
  0
LINE
  5
3C2
  8
1
  6
CONTINUOUS
 62
     7
 10
-280.5045326215518
 20
171.523742971828
 30
0.0
 11
-280.478085452803
 21
171.4972958030793
 31
0.0
  0
LINE
  5
3C3
  8
1
  6
CONTINUOUS
 62
     9
 10
-336.14317798164
 20
185.0759899238392
 30
0.0
 11
-336.14317798164
 21
186.9623883319162
 31
0.0
  0
LINE
  5
3C4
  8
1
  6
CONTINUOUS
 62
     7
 10
-335.1432160585758
 20
185.0846406363084
 30
0.0
 11
-336.14317798164
 21
185.0759899238392
 31
0.0
  0
LINE
  5
3C5
  8
1
  6
CONTINUOUS
 62
     7
 10
-336.2043422114969
 20
174.7013764127025
 30
0.0
 11
-336.2043422114969
 21
147.0235525617731
 31
0.0
  0
LINE
  5
3C6
  8
1
  6
CONTINUOUS
 62
     9
 10
-336.14317798164
 20
171.9759899238392
 30
0.0
 11
-336.14317798164
 21
174.6402121828456
 31
0.0
  0
LINE
  5
3C7
  8
1
  6
CONTINUOUS
 62
     7
 10
-336.1956153437061
 20
171.9235525617731
 30
0.0
 11
-336.14317798164
 21
171.9759899238392
 31
0.0
  0
LINE
  5
3C8
  8
1
  6
CONTINUOUS
 62
     7
 10
-336.1956153437061
 20
169.0235525617731
 30
0.0
 11
-336.1956153437061
 21
171.9235525617731
 31
0.0
  0
LINE
  5
3C9
  8
1
  6
CONTINUOUS
 62
     7
 10
-336.14317798164
 20
168.971115199707
 30
0.0
 11
-336.1956153437061
 21
169.0235525617731
 31
0.0
  0
LINE
  5
3CA
  8
1
  6
CONTINUOUS
 62
     9
 10
-336.14317798164
 20
167.0759899238392
 30
0.0
 11
-336.14317798164
 21
168.971115199707
 31
0.0
  0
LINE
  5
3CB
  8
1
  6
CONTINUOUS
 62
     7
 10
-336.1956153437061
 20
167.0235525617731
 30
0.0
 11
-336.14317798164
 21
167.0759899238392
 31
0.0
  0
LINE
  5
3CC
  8
1
  6
CONTINUOUS
 62
     7
 10
-336.1956153437061
 20
158.0235906387089
 30
0.0
 11
-336.1956153437061
 21
167.0235525617731
 31
0.0
  0
LINE
  5
3CD
  8
1
  6
CONTINUOUS
 62
     7
 10
-336.14317798164
 20
147.0847167916299
 30
0.0
 11
-336.2043422114969
 21
147.0235525617731
 31
0.0
  0
LINE
  5
3CE
  8
1
  6
CONTINUOUS
 62
     7
 10
-280.5043422114969
 20
169.0235525617731
 30
0.0
 11
-288.4043422114969
 21
169.0235525617731
 31
0.0
  0
POLYLINE
  5
3CF
  8
1
  6
CONTINUOUS
 62
     7
 66
     1
 10
0.0
 20
0.0
 30
0.0
  0
VERTEX
  5
6B0
  8
1
  6
CONTINUOUS
 62
     7
 10
-326.6986871434918
 20
185.994338235551
 30
0.0
  0
VERTEX
  5
6B1
  8
1
  6
CONTINUOUS
 62
     7
 10
-326.717034565199
 20
186.1902913585068
 30
0.0
  0
VERTEX
  5
6B2
  8
1
  6
CONTINUOUS
 62
     7
 10
-326.7731041752374
 20
186.3787119013049
 30
0.0
  0
VERTEX
  5
6B3
  8
1
  6
CONTINUOUS
 62
     7
 10
-326.8647414581832
 20
186.5523596679586
 30
0.0
  0
VERTEX
  5
6B4
  8
1
  6
CONTINUOUS
 62
     7
 10
-326.9884251849903
 20
186.7045621171166
 30
0.0
  0
VERTEX
  5
6B5
  8
1
  6
CONTINUOUS
 62
     7
 10
-327.1394027187689
 20
186.829470759303
 30
0.0
  0
VERTEX
  5
6B6
  8
1
  6
CONTINUOUS
 62
     7
 10
-327.311872638305
 20
186.9222858893665
 30
0.0
  0
VERTEX
  5
6B7
  8
1
  6
CONTINUOUS
 62
     7
 10
-327.4992076618768
 20
186.9794410186312
 30
0.0
  0
VERTEX
  5
6B8
  8
1
  6
CONTINUOUS
 62
     7
 10
-327.6942093053609
 20
186.9987399198102
 30
0.0
  0
SEQEND
  5
9AA
  8
1
  6
CONTINUOUS
 62
     7
  0
LINE
  5
3D0
  8
1
  6
CONTINUOUS
 62
     7
 10
-334.2043422114969
 20
147.0235525617731
 30
0.0
 11
-334.2043422114969
 21
157.0235525617731
 31
0.0
  0
LINE
  5
3D1
  8
1
  6
CONTINUOUS
 62
     7
 10
-334.2655064413538
 20
147.0847167916299
 30
0.0
 11
-334.2043422114969
 21
147.0235525617731
 31
0.0
  0
LINE
  5
3D2
  8
1
  6
CONTINUOUS
 62
     7
 10
-330.2043422114969
 20
185.0235525617731
 30
0.0
 11
-330.1432541369616
 21
185.0846406363084
 31
0.0
  0
LINE
  5
3D3
  8
1
  6
CONTINUOUS
 62
     7
 10
-336.1956153437061
 20
185.0235525617731
 30
0.0
 11
-330.2043422114969
 21
185.0235525617731
 31
0.0
  0
LINE
  5
3D4
  8
1
  6
CONTINUOUS
 62
     7
 10
-336.1956153437061
 20
185.0235525617731
 30
0.0
 11
-336.14317798164
 21
185.0759899238392
 31
0.0
  0
LINE
  5
3D5
  8
1
  6
CONTINUOUS
 62
     7
 10
-336.1956153437061
 20
171.9235525617731
 30
0.0
 11
-330.2043422114969
 21
171.9235525617731
 31
0.0
  0
LINE
  5
3D6
  8
1
  6
CONTINUOUS
 62
     7
 10
-335.1432160585758
 20
171.9846406363084
 30
0.0
 11
-336.14317798164
 21
171.9759899238392
 31
0.0
  0
LINE
  5
3D7
  8
1
  6
CONTINUOUS
 62
     7
 10
-326.7043422114969
 20
136.7540965990408
 30
0.0
 11
-326.7655064413537
 21
136.8152608288976
 31
0.0
  0
LINE
  5
3D8
  8
1
  6
CONTINUOUS
 62
     9
 10
-326.7043422114969
 20
164.0236667925806
 30
0.0
 11
-326.7741571538229
 21
164.0934817349066
 31
0.0
  0
LINE
  5
3D9
  8
1
  6
CONTINUOUS
 62
     7
 10
-326.7043422114969
 20
136.7540965990408
 30
0.0
 11
-326.7043422114969
 21
164.0236667925806
 31
0.0
  0
LINE
  5
3DA
  8
1
  6
CONTINUOUS
 62
     9
 10
-332.64317798164
 20
139.371115199707
 30
0.0
 11
-328.6519048494308
 21
139.371115199707
 31
0.0
  0
LINE
  5
3DB
  8
1
  6
CONTINUOUS
 62
     7
 10
-336.1956153437061
 20
182.1235525617731
 30
0.0
 11
-330.2043422114969
 21
182.1235525617731
 31
0.0
  0
LINE
  5
3DC
  8
1
  6
CONTINUOUS
 62
     7
 10
-330.1432541369616
 20
182.0624644872378
 30
0.0
 11
-330.2043422114969
 21
182.1235525617731
 31
0.0
  0
LINE
  5
3DD
  8
1
  6
CONTINUOUS
 62
     7
 10
-336.14317798164
 20
182.071115199707
 30
0.0
 11
-335.1432160585758
 21
182.0624644872378
 31
0.0
  0
LINE
  5
3DE
  8
1
  6
CONTINUOUS
 62
     7
 10
-336.14317798164
 20
182.071115199707
 30
0.0
 11
-336.1956153437061
 21
182.1235525617731
 31
0.0
  0
LINE
  5
3DF
  8
1
  6
CONTINUOUS
 62
     7
 10
-278.9043422114969
 20
169.0235525617731
 30
0.0
 11
-278.904151801442
 21
171.523742971828
 31
0.0
  0
LINE
  5
3E0
  8
1
  6
CONTINUOUS
 62
     7
 10
-278.904151801442
 20
171.523742971828
 30
0.0
 11
-278.9305989701907
 21
171.4972958030793
 31
0.0
  0
LINE
  5
3E1
  8
1
  6
CONTINUOUS
 62
     7
 10
-290.0043422114969
 20
169.0235525617731
 30
0.0
 11
-290.0045306275317
 21
171.4975603744356
 31
0.0
  0
POLYLINE
  5
3E2
  8
1
  6
CONTINUOUS
 62
     7
 66
     1
 10
0.0
 20
0.0
 30
0.0
  0
VERTEX
  5
6B9
  8
1
  6
CONTINUOUS
 62
     7
 10
-323.7044564423044
 20
167.0235525617731
 30
0.0
  0
VERTEX
  5
6BA
  8
1
  6
CONTINUOUS
 62
     7
 10
-324.2897172938107
 20
166.9659117792903
 30
0.0
  0
VERTEX
  5
6BB
  8
1
  6
CONTINUOUS
 62
     7
 10
-324.852480293736
 20
166.795204320706
 30
0.0
  0
VERTEX
  5
6BC
  8
1
  6
CONTINUOUS
 62
     7
 10
-325.3711208657305
 20
166.5179897439017
 30
0.0
  0
VERTEX
  5
6BD
  8
1
  6
CONTINUOUS
 62
     7
 10
-325.8257098697323
 20
166.1449202200085
 30
0.0
  0
VERTEX
  5
6BE
  8
1
  6
CONTINUOUS
 62
     7
 10
-326.1987793936255
 20
165.6903312160067
 30
0.0
  0
VERTEX
  5
6BF
  8
1
  6
CONTINUOUS
 62
     7
 10
-326.4759939704297
 20
165.1716906440122
 30
0.0
  0
VERTEX
  5
6C0
  8
1
  6
CONTINUOUS
 62
     7
 10
-326.6467014290141
 20
164.6089276440869
 30
0.0
  0
VERTEX
  5
6C1
  8
1
  6
CONTINUOUS
 62
     7
 10
-326.7043422114969
 20
164.0236667925805
 30
0.0
  0
SEQEND
  5
9AB
  8
1
  6
CONTINUOUS
 62
     7
  0
LINE
  5
3E3
  8
1
  6
CONTINUOUS
 62
     7
 10
-336.14317798164
 20
168.971115199707
 30
0.0
 11
-335.1432160585758
 21
168.9624644872378
 31
0.0
  0
LINE
  5
3E4
  8
1
  6
CONTINUOUS
 62
     7
 10
-335.1432160585758
 20
167.0846406363084
 30
0.0
 11
-336.14317798164
 21
167.0759899238392
 31
0.0
  0
LINE
  5
3E5
  8
1
  6
CONTINUOUS
 62
     7
 10
-330.2043422114969
 20
167.0235525617731
 30
0.0
 11
-330.1432541369616
 21
167.0846406363084
 31
0.0
  0
LINE
  5
3E6
  8
1
  6
CONTINUOUS
 62
     7
 10
-336.1956153437061
 20
167.0235525617731
 30
0.0
 11
-330.2043422114969
 21
167.0235525617731
 31
0.0
  0
LINE
  5
3E7
  8
1
  6
CONTINUOUS
 62
     7
 10
-330.2043422114969
 20
159.0235525617731
 30
0.0
 11
-330.2043422114969
 21
167.0235525617731
 31
0.0
  0
LINE
  5
3E8
  8
1
  6
CONTINUOUS
 62
     7
 10
-330.2043422114969
 20
182.1235525617731
 30
0.0
 11
-330.2043422114969
 21
185.0235525617731
 31
0.0
  0
LINE
  5
3E9
  8
1
  6
CONTINUOUS
 62
     7
 10
-336.1956153437061
 20
169.0235525617731
 30
0.0
 11
-330.2043422114969
 21
169.0235525617731
 31
0.0
  0
LINE
  5
3EA
  8
1
  6
CONTINUOUS
 62
     9
 10
-336.14317798164
 20
179.4068929407006
 30
0.0
 11
-336.14317798164
 21
182.071115199707
 31
0.0
  0
LINE
  5
3EB
  8
1
  6
CONTINUOUS
 62
     7
 10
-326.7262355362953
 20
136.7322032742423
 30
0.0
 11
-326.7043422114969
 21
136.7540965990408
 31
0.0
  0
LINE
  5
3EC
  8
1
  6
CONTINUOUS
 62
     9
 10
-329.7562926524336
 20
136.7322032742423
 30
0.0
 11
-326.7262355362953
 21
136.7322032742423
 31
0.0
  0
LINE
  5
3ED
  8
1
  6
CONTINUOUS
 62
     9
 10
-326.7262355362953
 20
129.7149018493039
 30
0.0
 11
-329.7562926524336
 21
129.7149018493039
 31
0.0
  0
LINE
  5
3EE
  8
1
  6
CONTINUOUS
 62
     7
 10
-326.7043422114969
 20
129.6930085245054
 30
0.0
 11
-326.7262355362953
 21
129.7149018493039
 31
0.0
  0
LINE
  5
3EF
  8
1
  6
CONTINUOUS
 62
     7
 10
-336.2043422114969
 20
187.0235525617731
 30
0.0
 11
-336.2043422114969
 21
179.3457287108437
 31
0.0
  0
LINE
  5
3F0
  8
1
  6
CONTINUOUS
 62
     7
 10
-336.1956153437061
 20
182.1235525617731
 30
0.0
 11
-336.1956153437061
 21
185.0235525617731
 31
0.0
  0
LINE
  5
3F1
  8
1
  6
CONTINUOUS
 62
     7
 10
-278.904151801442
 20
171.523742971828
 30
0.0
 11
-280.5045326215518
 21
171.523742971828
 31
0.0
  0
LINE
  5
3F2
  8
1
  6
CONTINUOUS
 62
     7
 10
-332.6956153437061
 20
139.4235525617731
 30
0.0
 11
-328.7043422114969
 21
139.4235525617731
 31
0.0
  0
LINE
  5
3F3
  8
1
  6
CONTINUOUS
 62
     7
 10
-332.6956153437061
 20
155.4235525617731
 30
0.0
 11
-328.7043422114969
 21
155.4235525617731
 31
0.0
  0
LINE
  5
3F4
  8
1
  6
CONTINUOUS
 62
     7
 10
-336.2043422114969
 20
147.0235525617731
 30
0.0
 11
-334.2043422114969
 21
147.0235525617731
 31
0.0
  0
LINE
  5
3F5
  8
1
  6
CONTINUOUS
 62
     7
 10
-332.7043422114969
 20
127.0235525617731
 30
0.0
 11
-326.7043422114969
 21
127.0235525617731
 31
0.0
  0
LINE
  5
3F6
  8
1
  6
CONTINUOUS
 62
     7
 10
-237.2043422114969
 20
167.0235525617731
 30
0.0
 11
-237.2043422114969
 21
179.0238571772597
 31
0.0
  0
LINE
  5
3F7
  8
1
  6
CONTINUOUS
 62
     7
 10
-237.2296104675907
 20
178.9985889211659
 30
0.0
 11
-237.2303694723175
 21
169.0324327721155
 31
0.0
  0
LINE
  5
3F8
  8
1
  6
CONTINUOUS
 62
     9
 10
-237.2043422114969
 20
179.0238571772597
 30
0.0
 11
-237.2296104675907
 21
178.9985889211659
 31
0.0
  0
LINE
  5
3F9
  8
1
  6
CONTINUOUS
 62
     7
 10
-239.248053727427
 20
169.0235525617731
 30
0.0
 11
-239.2472933584993
 21
179.0076214304478
 31
0.0
  0
LINE
  5
3FA
  8
1
  6
CONTINUOUS
 62
     7
 10
-237.2296104675907
 20
178.9985889211659
 30
0.0
 11
-239.2472933584993
 21
179.0076214304478
 31
0.0
  0
LINE
  5
3FB
  8
1
  6
CONTINUOUS
 62
     7
 10
-284.6783500241594
 20
171.4975603744356
 30
0.0
 11
-284.6788825076397
 21
178.4893659901252
 31
0.0
  0
LINE
  5
3FC
  8
1
  6
CONTINUOUS
 62
     7
 10
-284.6788825076398
 20
178.4893659901252
 30
0.0
 11
-283.7073856609811
 21
178.4893659901252
 31
0.0
  0
LINE
  5
3FD
  8
1
  6
CONTINUOUS
 62
     7
 10
-283.7513836961574
 20
171.4975603744341
 30
0.0
 11
-283.7073856609811
 21
178.4893659901169
 31
0.0
  0
LINE
  5
3FE
  8
1
  6
CONTINUOUS
 62
     7
 10
-280.6783500241594
 20
171.4975603744356
 30
0.0
 11
-283.7513836961573
 21
171.4975603744356
 31
0.0
  0
LINE
  5
3FF
  8
1
  6
CONTINUOUS
 62
     7
 10
-280.6785030139259
 20
173.5064014890224
 30
0.0
 11
-280.6783500241594
 21
171.4975603744356
 31
0.0
  0
LINE
  5
400
  8
1
  6
CONTINUOUS
 62
     9
 10
-278.7301814090678
 20
173.5064014890224
 30
0.0
 11
-280.6785030139259
 21
173.5064014890224
 31
0.0
  0
LINE
  5
401
  8
1
  6
CONTINUOUS
 62
     7
 10
-278.7303343988343
 20
171.4975603744356
 30
0.0
 11
-278.7301814090678
 21
173.5064014890224
 31
0.0
  0
LINE
  5
402
  8
1
  6
CONTINUOUS
 62
     7
 10
-274.1696231563687
 20
171.4975603744356
 30
0.0
 11
-278.7303343988343
 21
171.4975603744356
 31
0.0
  0
LINE
  5
403
  8
1
  6
CONTINUOUS
 62
     7
 10
-274.1696231563687
 20
171.4975603744356
 30
0.0
 11
-274.1705796849494
 21
184.0573150883206
 31
0.0
  0
LINE
  5
404
  8
1
  6
CONTINUOUS
 62
     7
 10
-274.1705796849494
 20
184.0573150883206
 30
0.0
 11
-275.6705796849494
 21
184.0573150883206
 31
0.0
  0
LINE
  5
405
  8
1
  6
CONTINUOUS
 62
     7
 10
-275.6705796849494
 20
184.0573150883206
 30
0.0
 11
-275.6706507233925
 21
184.9900895381835
 31
0.0
  0
LINE
  5
406
  8
1
  6
CONTINUOUS
 62
     7
 10
-245.2288502379731
 20
184.9900895381835
 30
0.0
 11
-255.4043422114969
 21
184.9900895381835
 31
0.0
  0
LINE
  5
407
  8
1
  6
CONTINUOUS
 62
     7
 10
-269.0043422114969
 20
184.9900895381835
 30
0.0
 11
-275.6706507233924
 21
184.9900895381835
 31
0.0
  0
ARC
  5
408
  8
1
  6
CONTINUOUS
 62
     7
 10
-245.2288893581836
 20
179.0084934750603
 30
0.0
 40
5.981596063251083
 50
359.9916469658781
 51
89.99962528012121
  0
CIRCLE
  5
409
  8
1
  6
CONTINUOUS
 62
     7
 10
-245.2043422114969
 20
180.0235525617731
 30
0.0
 40
2.649999999999999
  0
POLYLINE
  5
40A
  8
1
  6
CONTINUOUS
 62
     7
 66
     1
 10
0.0
 20
0.0
 30
0.0
  0
VERTEX
  5
6C2
  8
1
  6
CONTINUOUS
 62
     7
 10
-271.70319992372
 20
184.0224293124641
 30
0.0
  0
VERTEX
  5
6C3
  8
1
  6
CONTINUOUS
 62
     7
 10
-271.7025958189863
 20
184.0469609811219
 30
0.0
  0
VERTEX
  5
6C4
  8
1
  6
CONTINUOUS
 62
     7
 10
-271.7007886965689
 20
184.0714334648536
 30
0.0
  0
VERTEX
  5
6C5
  8
1
  6
CONTINUOUS
 62
     7
 10
-271.6977829095619
 20
184.0957878130176
 30
0.0
  0
VERTEX
  5
6C6
  8
1
  6
CONTINUOUS
 62
     7
 10
-271.6935856984676
 20
184.1199653595433
 30
0.0
  0
VERTEX
  5
6C7
  8
1
  6
CONTINUOUS
 62
     7
 10
-271.688207173755
 20
184.1439078642498
 30
0.0
  0
VERTEX
  5
6C8
  8
1
  6
CONTINUOUS
 62
     7
 10
-271.681660291505
 20
184.1675576531376
 30
0.0
  0
VERTEX
  5
6C9
  8
1
  6
CONTINUOUS
 62
     7
 10
-271.6739608222016
 20
184.1908577573166
 30
0.0
  0
VERTEX
  5
6CA
  8
1
  6
CONTINUOUS
 62
     7
 10
-271.6651273127427
 20
184.2137520502366
 30
0.0
  0
VERTEX
  5
6CB
  8
1
  6
CONTINUOUS
 62
     7
 10
-271.6551810417633
 20
184.236185382887
 30
0.0
  0
VERTEX
  5
6CC
  8
1
  6
CONTINUOUS
 62
     7
 10
-271.6441459683786
 20
184.2581037166436
 30
0.0
  0
VERTEX
  5
6CD
  8
1
  6
CONTINUOUS
 62
     7
 10
-271.6320486744699
 20
184.2794542534391
 30
0.0
  0
VERTEX
  5
6CE
  8
1
  6
CONTINUOUS
 62
     7
 10
-271.6189183006527
 20
184.3001855629464
 30
0.0
  0
VERTEX
  5
6CF
  8
1
  6
CONTINUOUS
 62
     7
 10
-271.6047864760813
 20
184.3202477064665
 30
0.0
  0
VERTEX
  5
6D0
  8
1
  6
CONTINUOUS
 62
     7
 10
-271.5896872422585
 20
184.3395923572236
 30
0.0
  0
VERTEX
  5
6D1
  8
1
  6
CONTINUOUS
 62
     7
 10
-271.5736569710351
 20
184.3581729167772
 30
0.0
  0
VERTEX
  5
6D2
  8
1
  6
CONTINUOUS
 62
     7
 10
-271.5567342769949
 20
184.3759446272711
 30
0.0
  0
VERTEX
  5
6D3
  8
1
  6
CONTINUOUS
 62
     7
 10
-271.5389599244381
 20
184.3928646792484
 30
0.0
  0
VERTEX
  5
6D4
  8
1
  6
CONTINUOUS
 62
     7
 10
-271.5203767291859
 20
184.4088923147733
 30
0.0
  0
VERTEX
  5
6D5
  8
1
  6
CONTINUOUS
 62
     7
 10
-271.5010294554436
 20
184.4239889256108
 30
0.0
  0
VERTEX
  5
6D6
  8
1
  6
CONTINUOUS
 62
     7
 10
-271.48096470797
 20
184.4381181462287
 30
0.0
  0
VERTEX
  5
6D7
  8
1
  6
CONTINUOUS
 62
     7
 10
-271.4602308198135
 20
184.4512459413967
 30
0.0
  0
VERTEX
  5
6D8
  8
1
  6
CONTINUOUS
 62
     7
 10
-271.4388777358847
 20
184.4633406881721
 30
0.0
  0
VERTEX
  5
6D9
  8
1
  6
CONTINUOUS
 62
     7
 10
-271.4169568926463
 20
184.474373252075
 30
0.0
  0
VERTEX
  5
6DA
  8
1
  6
CONTINUOUS
 62
     7
 10
-271.3945210942107
 20
184.4843170572692
 30
0.0
  0
VERTEX
  5
6DB
  8
1
  6
CONTINUOUS
 62
     7
 10
-271.3716243851418
 20
184.4931481505791
 30
0.0
  0
VERTEX
  5
6DC
  8
1
  6
CONTINUOUS
 62
     7
 10
-271.3483219202701
 20
184.5008452591899
 30
0.0
  0
VERTEX
  5
6DD
  8
1
  6
CONTINUOUS
 62
     7
 10
-271.3246698318327
 20
184.5073898418902
 30
0.0
  0
VERTEX
  5
6DE
  8
1
  6
CONTINUOUS
 62
     7
 10
-271.3007250942587
 20
184.5127661337355
 30
0.0
  0
VERTEX
  5
6DF
  8
1
  6
CONTINUOUS
 62
     7
 10
-271.2765453869264
 20
184.5169611840233
 30
0.0
  0
VERTEX
  5
6E0
  8
1
  6
CONTINUOUS
 62
     7
 10
-271.252188955222
 20
184.5199648874897
 30
0.0
  0
VERTEX
  5
6E1
  8
1
  6
CONTINUOUS
 62
     7
 10
-271.2277144702346
 20
184.5217700086514
 30
0.0
  0
VERTEX
  5
6E2
  8
1
  6
CONTINUOUS
 62
     7
 10
-271.2031808874268
 20
184.5223721992351
 30
0.0
  0
SEQEND
  5
9AC
  8
1
  6
CONTINUOUS
 62
     7
  0
LINE
  5
40B
  8
1
  6
CONTINUOUS
 62
     7
 10
-271.70319992372
 20
184.0224293124641
 30
0.0
 11
-271.704113720881
 21
172.023762013921
 31
0.0
  0
POLYLINE
  5
40C
  8
1
  6
CONTINUOUS
 62
     7
 66
     1
 10
0.0
 20
0.0
 30
0.0
  0
VERTEX
  5
6E3
  8
1
  6
CONTINUOUS
 62
     7
 10
-271.2041708399099
 20
171.5237429718279
 30
0.0
  0
VERTEX
  5
6E4
  8
1
  6
CONTINUOUS
 62
     7
 10
-271.2287043309872
 20
171.5243452541421
 30
0.0
  0
VERTEX
  5
6E5
  8
1
  6
CONTINUOUS
 62
     7
 10
-271.253178541004
 20
171.5261506502744
 30
0.0
  0
VERTEX
  5
6E6
  8
1
  6
CONTINUOUS
 62
     7
 10
-271.2775345151603
 20
171.5291548112891
 30
0.0
  0
VERTEX
  5
6E7
  8
1
  6
CONTINUOUS
 62
     7
 10
-271.3017135834687
 20
171.5333505006008
 30
0.0
  0
VERTEX
  5
6E8
  8
1
  6
CONTINUOUS
 62
     7
 10
-271.3256575020826
 20
171.538727611406
 30
0.0
  0
VERTEX
  5
6E9
  8
1
  6
CONTINUOUS
 62
     7
 10
-271.3493085935965
 20
171.5452731910298
 30
0.0
  0
VERTEX
  5
6EA
  8
1
  6
CONTINUOUS
 62
     7
 10
-271.3726098859827
 20
171.5529714721261
 30
0.0
  0
VERTEX
  5
6EB
  8
1
  6
CONTINUOUS
 62
     7
 10
-271.3955052498284
 20
171.5618039106592
 30
0.0
  0
VERTEX
  5
6EC
  8
1
  6
CONTINUOUS
 62
     7
 10
-271.4179395335437
 20
171.5717492305738
 30
0.0
  0
VERTEX
  5
6ED
  8
1
  6
CONTINUOUS
 62
     7
 10
-271.4398586962132
 20
171.5827834750456
 30
0.0
  0
VERTEX
  5
6EE
  8
1
  6
CONTINUOUS
 62
     7
 10
-271.4612099377729
 20
171.5948800641901
 30
0.0
  0
VERTEX
  5
6EF
  8
1
  6
CONTINUOUS
 62
     7
 10
-271.481941826198
 20
171.6080098590894
 30
0.0
  0
VERTEX
  5
6F0
  8
1
  6
CONTINUOUS
 62
     7
 10
-271.502004421395
 20
171.6221412319839
 30
0.0
  0
VERTEX
  5
6F1
  8
1
  6
CONTINUOUS
 62
     7
 10
-271.5213493955001
 20
171.6372401424586
 30
0.0
  0
VERTEX
  5
6F2
  8
1
  6
CONTINUOUS
 62
     7
 10
-271.539930149294
 20
171.6532702194419
 30
0.0
  0
VERTEX
  5
6F3
  8
1
  6
CONTINUOUS
 62
     7
 10
-271.5577019244524
 20
171.6701928488176
 30
0.0
  0
VERTEX
  5
6F4
  8
1
  6
CONTINUOUS
 62
     7
 10
-271.5746219113627
 20
171.6879672664414
 30
0.0
  0
VERTEX
  5
6F5
  8
1
  6
CONTINUOUS
 62
     7
 10
-271.5906493522459
 20
171.7065506563353
 30
0.0
  0
VERTEX
  5
6F6
  8
1
  6
CONTINUOUS
 62
     7
 10
-271.6057456393357
 20
171.7258982538252
 30
0.0
  0
VERTEX
  5
6F7
  8
1
  6
CONTINUOUS
 62
     7
 10
-271.6198744078802
 20
171.7459634533723
 30
0.0
  0
VERTEX
  5
6F8
  8
1
  6
CONTINUOUS
 62
     7
 10
-271.6330016237375
 20
171.7666979208395
 30
0.0
  0
VERTEX
  5
6F9
  8
1
  6
CONTINUOUS
 62
     7
 10
-271.6450956653607
 20
171.7880517099205
 30
0.0
  0
VERTEX
  5
6FA
  8
1
  6
CONTINUOUS
 62
     7
 10
-271.6561273999685
 20
171.809973382454
 30
0.0
  0
VERTEX
  5
6FB
  8
1
  6
CONTINUOUS
 62
     7
 10
-271.6660702537222
 20
171.8324101323301
 30
0.0
  0
VERTEX
  5
6FC
  8
1
  6
CONTINUOUS
 62
     7
 10
-271.6749002757383
 20
171.8553079126929
 30
0.0
  0
VERTEX
  5
6FD
  8
1
  6
CONTINUOUS
 62
     7
 10
-271.6825961957824
 20
171.8786115661313
 30
0.0
  0
VERTEX
  5
6FE
  8
1
  6
CONTINUOUS
 62
     7
 10
-271.6891394755062
 20
171.9022649575451
 30
0.0
  0
VERTEX
  5
6FF
  8
1
  6
CONTINUOUS
 62
     7
 10
-271.694514353104
 20
171.9262111093665
 30
0.0
  0
VERTEX
  5
700
  8
1
  6
CONTINUOUS
 62
     7
 10
-271.6987078812799
 20
171.9503923388106
 30
0.0
  0
VERTEX
  5
701
  8
1
  6
CONTINUOUS
 62
     7
 10
-271.7017099584367
 20
171.9747503968248
 30
0.0
  0
VERTEX
  5
702
  8
1
  6
CONTINUOUS
 62
     7
 10
-271.7035133530085
 20
171.9992266084021
 30
0.0
  0
VERTEX
  5
703
  8
1
  6
CONTINUOUS
 62
     7
 10
-271.704113720881
 20
172.023762013921
 30
0.0
  0
SEQEND
  5
9AD
  8
1
  6
CONTINUOUS
 62
     7
  0
LINE
  5
40D
  8
1
  6
CONTINUOUS
 62
     7
 10
-271.2041708399099
 20
171.523742971828
 30
0.0
 11
-240.0545135830838
 21
171.523742971828
 31
0.0
  0
POLYLINE
  5
40E
  8
1
  6
CONTINUOUS
 62
     7
 66
     1
 10
0.0
 20
0.0
 30
0.0
  0
VERTEX
  5
704
  8
1
  6
CONTINUOUS
 62
     7
 10
-239.5545707021127
 20
172.023762013921
 30
0.0
  0
VERTEX
  5
705
  8
1
  6
CONTINUOUS
 62
     7
 10
-239.5551710699852
 20
171.999226608402
 30
0.0
  0
VERTEX
  5
706
  8
1
  6
CONTINUOUS
 62
     7
 10
-239.5569744645571
 20
171.9747503968248
 30
0.0
  0
VERTEX
  5
707
  8
1
  6
CONTINUOUS
 62
     7
 10
-239.5599765417138
 20
171.9503923388106
 30
0.0
  0
VERTEX
  5
708
  8
1
  6
CONTINUOUS
 62
     7
 10
-239.5641700698898
 20
171.9262111093665
 30
0.0
  0
VERTEX
  5
709
  8
1
  6
CONTINUOUS
 62
     7
 10
-239.5695449474875
 20
171.9022649575451
 30
0.0
  0
VERTEX
  5
70A
  8
1
  6
CONTINUOUS
 62
     7
 10
-239.5760882272114
 20
171.8786115661313
 30
0.0
  0
VERTEX
  5
70B
  8
1
  6
CONTINUOUS
 62
     7
 10
-239.5837841472555
 20
171.8553079126929
 30
0.0
  0
VERTEX
  5
70C
  8
1
  6
CONTINUOUS
 62
     7
 10
-239.5926141692716
 20
171.8324101323301
 30
0.0
  0
VERTEX
  5
70D
  8
1
  6
CONTINUOUS
 62
     7
 10
-239.6025570230253
 20
171.809973382454
 30
0.0
  0
VERTEX
  5
70E
  8
1
  6
CONTINUOUS
 62
     7
 10
-239.6135887576331
 20
171.7880517099205
 30
0.0
  0
VERTEX
  5
70F
  8
1
  6
CONTINUOUS
 62
     7
 10
-239.6256827992563
 20
171.7666979208395
 30
0.0
  0
VERTEX
  5
710
  8
1
  6
CONTINUOUS
 62
     7
 10
-239.6388100151136
 20
171.7459634533723
 30
0.0
  0
VERTEX
  5
711
  8
1
  6
CONTINUOUS
 62
     7
 10
-239.652938783658
 20
171.7258982538252
 30
0.0
  0
VERTEX
  5
712
  8
1
  6
CONTINUOUS
 62
     7
 10
-239.6680350707479
 20
171.7065506563353
 30
0.0
  0
VERTEX
  5
713
  8
1
  6
CONTINUOUS
 62
     7
 10
-239.6840625116311
 20
171.6879672664414
 30
0.0
  0
VERTEX
  5
714
  8
1
  6
CONTINUOUS
 62
     7
 10
-239.7009824985414
 20
171.6701928488175
 30
0.0
  0
VERTEX
  5
715
  8
1
  6
CONTINUOUS
 62
     7
 10
-239.7187542736997
 20
171.6532702194419
 30
0.0
  0
VERTEX
  5
716
  8
1
  6
CONTINUOUS
 62
     7
 10
-239.7373350274936
 20
171.6372401424586
 30
0.0
  0
VERTEX
  5
717
  8
1
  6
CONTINUOUS
 62
     7
 10
-239.7566800015987
 20
171.6221412319839
 30
0.0
  0
VERTEX
  5
718
  8
1
  6
CONTINUOUS
 62
     7
 10
-239.7767425967958
 20
171.6080098590894
 30
0.0
  0
VERTEX
  5
719
  8
1
  6
CONTINUOUS
 62
     7
 10
-239.7974744852209
 20
171.5948800641901
 30
0.0
  0
VERTEX
  5
71A
  8
1
  6
CONTINUOUS
 62
     7
 10
-239.8188257267806
 20
171.5827834750456
 30
0.0
  0
VERTEX
  5
71B
  8
1
  6
CONTINUOUS
 62
     7
 10
-239.8407448894501
 20
171.5717492305738
 30
0.0
  0
VERTEX
  5
71C
  8
1
  6
CONTINUOUS
 62
     7
 10
-239.8631791731653
 20
171.5618039106592
 30
0.0
  0
VERTEX
  5
71D
  8
1
  6
CONTINUOUS
 62
     7
 10
-239.8860745370111
 20
171.5529714721261
 30
0.0
  0
VERTEX
  5
71E
  8
1
  6
CONTINUOUS
 62
     7
 10
-239.9093758293972
 20
171.5452731910298
 30
0.0
  0
VERTEX
  5
71F
  8
1
  6
CONTINUOUS
 62
     7
 10
-239.9330269209112
 20
171.538727611406
 30
0.0
  0
VERTEX
  5
720
  8
1
  6
CONTINUOUS
 62
     7
 10
-239.9569708395251
 20
171.5333505006007
 30
0.0
  0
VERTEX
  5
721
  8
1
  6
CONTINUOUS
 62
     7
 10
-239.9811499078335
 20
171.5291548112891
 30
0.0
  0
VERTEX
  5
722
  8
1
  6
CONTINUOUS
 62
     7
 10
-240.0055058819897
 20
171.5261506502744
 30
0.0
  0
VERTEX
  5
723
  8
1
  6
CONTINUOUS
 62
     7
 10
-240.0299800920066
 20
171.5243452541421
 30
0.0
  0
VERTEX
  5
724
  8
1
  6
CONTINUOUS
 62
     7
 10
-240.0545135830839
 20
171.523742971828
 30
0.0
  0
SEQEND
  5
9AE
  8
1
  6
CONTINUOUS
 62
     7
  0
LINE
  5
40F
  8
1
  6
CONTINUOUS
 62
     7
 10
-239.5545707021127
 20
172.023762013921
 30
0.0
 11
-239.5549237984946
 21
176.6601147971082
 31
0.0
  0
POLYLINE
  5
410
  8
1
  6
CONTINUOUS
 62
     7
 66
     1
 10
0.0
 20
0.0
 30
0.0
  0
VERTEX
  5
725
  8
1
  6
CONTINUOUS
 62
     7
 10
-240.4735216892194
 20
176.9334644200945
 30
0.0
  0
VERTEX
  5
726
  8
1
  6
CONTINUOUS
 62
     7
 10
-240.459888640012
 20
176.9532556758773
 30
0.0
  0
VERTEX
  5
727
  8
1
  6
CONTINUOUS
 62
     7
 10
-240.4452698441705
 20
176.9724177471473
 30
0.0
  0
VERTEX
  5
728
  8
1
  6
CONTINUOUS
 62
     7
 10
-240.429721959077
 20
176.9908894534078
 30
0.0
  0
VERTEX
  5
729
  8
1
  6
CONTINUOUS
 62
     7
 10
-240.4133016421134
 20
177.0086096141624
 30
0.0
  0
VERTEX
  5
72A
  8
1
  6
CONTINUOUS
 62
     7
 10
-240.3960655506616
 20
177.0255170489145
 30
0.0
  0
VERTEX
  5
72B
  8
1
  6
CONTINUOUS
 62
     7
 10
-240.3780703421038
 20
177.0415505771676
 30
0.0
  0
VERTEX
  5
72C
  8
1
  6
CONTINUOUS
 62
     7
 10
-240.3593726738217
 20
177.0566490184252
 30
0.0
  0
VERTEX
  5
72D
  8
1
  6
CONTINUOUS
 62
     7
 10
-240.3399569335145
 20
177.0708125321248
 30
0.0
  0
VERTEX
  5
72E
  8
1
  6
CONTINUOUS
 62
     7
 10
-240.3198191198948
 20
177.0840558902753
 30
0.0
  0
VERTEX
  5
72F
  8
1
  6
CONTINUOUS
 62
     7
 10
-240.2990329747919
 20
177.0963400861907
 30
0.0
  0
VERTEX
  5
730
  8
1
  6
CONTINUOUS
 62
     7
 10
-240.2776722400348
 20
177.1076261131851
 30
0.0
  0
VERTEX
  5
731
  8
1
  6
CONTINUOUS
 62
     7
 10
-240.2558106574524
 20
177.1178749645725
 30
0.0
  0
VERTEX
  5
732
  8
1
  6
CONTINUOUS
 62
     7
 10
-240.2335219688739
 20
177.1270476336668
 30
0.0
  0
VERTEX
  5
733
  8
1
  6
CONTINUOUS
 62
     7
 10
-240.2108799161282
 20
177.1351051137821
 30
0.0
  0
VERTEX
  5
734
  8
1
  6
CONTINUOUS
 62
     7
 10
-240.1878734213469
 20
177.1420413522425
 30
0.0
  0
VERTEX
  5
735
  8
1
  6
CONTINUOUS
 62
     7
 10
-240.1644902283356
 20
177.1478703452032
 30
0.0
  0
VERTEX
  5
736
  8
1
  6
CONTINUOUS
 62
     7
 10
-240.140812837174
 20
177.1525797019796
 30
0.0
  0
VERTEX
  5
737
  8
1
  6
CONTINUOUS
 62
     7
 10
-240.1169237479416
 20
177.1561570318871
 30
0.0
  0
VERTEX
  5
738
  8
1
  6
CONTINUOUS
 62
     7
 10
-240.0929054607182
 20
177.1585899442412
 30
0.0
  0
VERTEX
  5
739
  8
1
  6
CONTINUOUS
 62
     7
 10
-240.0688404755835
 20
177.1598660483572
 30
0.0
  0
VERTEX
  5
73A
  8
1
  6
CONTINUOUS
 62
     7
 10
-240.0448112926171
 20
177.1599729535507
 30
0.0
  0
VERTEX
  5
73B
  8
1
  6
CONTINUOUS
 62
     7
 10
-240.0208116161162
 20
177.1589014417676
 30
0.0
  0
VERTEX
  5
73C
  8
1
  6
CONTINUOUS
 62
     7
 10
-239.9968231002195
 20
177.1566607438223
 30
0.0
  0
VERTEX
  5
73D
  8
1
  6
CONTINUOUS
 62
     7
 10
-239.9729276587722
 20
177.1532664936797
 30
0.0
  0
VERTEX
  5
73E
  8
1
  6
CONTINUOUS
 62
     7
 10
-239.9492072056195
 20
177.1487343253048
 30
0.0
  0
VERTEX
  5
73F
  8
1
  6
CONTINUOUS
 62
     7
 10
-239.9257436546069
 20
177.1430798726626
 30
0.0
  0
VERTEX
  5
740
  8
1
  6
CONTINUOUS
 62
     7
 10
-239.9026189195794
 20
177.1363187697179
 30
0.0
  0
VERTEX
  5
741
  8
1
  6
CONTINUOUS
 62
     7
 10
-239.8799149143825
 20
177.1284666504357
 30
0.0
  0
VERTEX
  5
742
  8
1
  6
CONTINUOUS
 62
     7
 10
-239.8576271858317
 20
177.1195120936127
 30
0.0
  0
VERTEX
  5
743
  8
1
  6
CONTINUOUS
 62
     7
 10
-239.835736980725
 20
177.1094582790336
 30
0.0
  0
VERTEX
  5
744
  8
1
  6
CONTINUOUS
 62
     7
 10
-239.8143163707206
 20
177.098347078315
 30
0.0
  0
VERTEX
  5
745
  8
1
  6
CONTINUOUS
 62
     7
 10
-239.7934374274768
 20
177.086220363073
 30
0.0
  0
VERTEX
  5
746
  8
1
  6
CONTINUOUS
 62
     7
 10
-239.7731722226521
 20
177.073120004924
 30
0.0
  0
VERTEX
  5
747
  8
1
  6
CONTINUOUS
 62
     7
 10
-239.7535928279048
 20
177.0590878754843
 30
0.0
  0
VERTEX
  5
748
  8
1
  6
CONTINUOUS
 62
     7
 10
-239.7347713148932
 20
177.0441658463704
 30
0.0
  0
VERTEX
  5
749
  8
1
  6
CONTINUOUS
 62
     7
 10
-239.7167046545778
 20
177.0283393174469
 30
0.0
  0
VERTEX
  5
74A
  8
1
  6
CONTINUOUS
 62
     7
 10
-239.6993768925914
 20
177.0116072182191
 30
0.0
  0
VERTEX
  5
74B
  8
1
  6
CONTINUOUS
 62
     7
 10
-239.6828421425411
 20
176.9940329067097
 30
0.0
  0
VERTEX
  5
74C
  8
1
  6
CONTINUOUS
 62
     7
 10
-239.6671545180345
 20
176.9756797409418
 30
0.0
  0
VERTEX
  5
74D
  8
1
  6
CONTINUOUS
 62
     7
 10
-239.6523681326788
 20
176.9566110789382
 30
0.0
  0
VERTEX
  5
74E
  8
1
  6
CONTINUOUS
 62
     7
 10
-239.6385371000814
 20
176.9368902787218
 30
0.0
  0
VERTEX
  5
74F
  8
1
  6
CONTINUOUS
 62
     7
 10
-239.6257155338497
 20
176.9165806983154
 30
0.0
  0
VERTEX
  5
750
  8
1
  6
CONTINUOUS
 62
     7
 10
-239.6139036021566
 20
176.8956642257249
 30
0.0
  0
VERTEX
  5
751
  8
1
  6
CONTINUOUS
 62
     7
 10
-239.6030886956856
 20
176.8741377300917
 30
0.0
  0
VERTEX
  5
752
  8
1
  6
CONTINUOUS
 62
     7
 10
-239.5933009000771
 20
176.8520789047104
 30
0.0
  0
VERTEX
  5
753
  8
1
  6
CONTINUOUS
 62
     7
 10
-239.5845703009718
 20
176.8295654428756
 30
0.0
  0
VERTEX
  5
754
  8
1
  6
CONTINUOUS
 62
     7
 10
-239.5769269840103
 20
176.8066750378821
 30
0.0
  0
VERTEX
  5
755
  8
1
  6
CONTINUOUS
 62
     7
 10
-239.5704010348332
 20
176.7834853830244
 30
0.0
  0
VERTEX
  5
756
  8
1
  6
CONTINUOUS
 62
     7
 10
-239.565022539081
 20
176.760074171597
 30
0.0
  0
VERTEX
  5
757
  8
1
  6
CONTINUOUS
 62
     7
 10
-239.5606200779954
 20
176.7353218983913
 30
0.0
  0
VERTEX
  5
758
  8
1
  6
CONTINUOUS
 62
     7
 10
-239.5574631105274
 20
176.7103480577242
 30
0.0
  0
VERTEX
  5
759
  8
1
  6
CONTINUOUS
 62
     7
 10
-239.5555611721896
 20
176.6852474303713
 30
0.0
  0
VERTEX
  5
75A
  8
1
  6
CONTINUOUS
 62
     7
 10
-239.5549237984946
 20
176.6601147971081
 30
0.0
  0
SEQEND
  5
9AF
  8
1
  6
CONTINUOUS
 62
     7
  0
ARC
  5
411
  8
1
  6
CONTINUOUS
 62
     7
 10
-245.2043422114969
 20
180.0239829195275
 30
0.0
 40
5.650837773211095
 50
180.0043635446805
 51
326.8444888491164
  0
LINE
  5
412
  8
1
  6
CONTINUOUS
 62
     7
 10
-250.8551799519327
 20
180.0235525617731
 30
0.0
 11
-250.8554844992738
 21
184.0224293124641
 31
0.0
  0
POLYLINE
  5
413
  8
1
  6
CONTINUOUS
 62
     7
 66
     1
 10
0.0
 20
0.0
 30
0.0
  0
VERTEX
  5
75B
  8
1
  6
CONTINUOUS
 62
     7
 10
-251.355503535567
 20
184.5223721992351
 30
0.0
  0
VERTEX
  5
75C
  8
1
  6
CONTINUOUS
 62
     7
 10
-251.3309699527591
 20
184.5217700086514
 30
0.0
  0
VERTEX
  5
75D
  8
1
  6
CONTINUOUS
 62
     7
 10
-251.3064954677717
 20
184.5199648874897
 30
0.0
  0
VERTEX
  5
75E
  8
1
  6
CONTINUOUS
 62
     7
 10
-251.2821390360673
 20
184.5169611840233
 30
0.0
  0
VERTEX
  5
75F
  8
1
  6
CONTINUOUS
 62
     7
 10
-251.257959328735
 20
184.5127661337355
 30
0.0
  0
VERTEX
  5
760
  8
1
  6
CONTINUOUS
 62
     7
 10
-251.2340145911611
 20
184.5073898418902
 30
0.0
  0
VERTEX
  5
761
  8
1
  6
CONTINUOUS
 62
     7
 10
-251.2103625027237
 20
184.5008452591899
 30
0.0
  0
VERTEX
  5
762
  8
1
  6
CONTINUOUS
 62
     7
 10
-251.187060037852
 20
184.4931481505791
 30
0.0
  0
VERTEX
  5
763
  8
1
  6
CONTINUOUS
 62
     7
 10
-251.164163328783
 20
184.4843170572692
 30
0.0
  0
VERTEX
  5
764
  8
1
  6
CONTINUOUS
 62
     7
 10
-251.1417275303474
 20
184.474373252075
 30
0.0
  0
VERTEX
  5
765
  8
1
  6
CONTINUOUS
 62
     7
 10
-251.1198066871091
 20
184.4633406881721
 30
0.0
  0
VERTEX
  5
766
  8
1
  6
CONTINUOUS
 62
     7
 10
-251.0984536031803
 20
184.4512459413967
 30
0.0
  0
VERTEX
  5
767
  8
1
  6
CONTINUOUS
 62
     7
 10
-251.0777197150237
 20
184.4381181462287
 30
0.0
  0
VERTEX
  5
768
  8
1
  6
CONTINUOUS
 62
     7
 10
-251.0576549675502
 20
184.4239889256108
 30
0.0
  0
VERTEX
  5
769
  8
1
  6
CONTINUOUS
 62
     7
 10
-251.0383076938079
 20
184.4088923147733
 30
0.0
  0
VERTEX
  5
76A
  8
1
  6
CONTINUOUS
 62
     7
 10
-251.0197244985557
 20
184.3928646792484
 30
0.0
  0
VERTEX
  5
76B
  8
1
  6
CONTINUOUS
 62
     7
 10
-251.0019501459988
 20
184.3759446272711
 30
0.0
  0
VERTEX
  5
76C
  8
1
  6
CONTINUOUS
 62
     7
 10
-250.9850274519586
 20
184.3581729167772
 30
0.0
  0
VERTEX
  5
76D
  8
1
  6
CONTINUOUS
 62
     7
 10
-250.9689971807352
 20
184.3395923572236
 30
0.0
  0
VERTEX
  5
76E
  8
1
  6
CONTINUOUS
 62
     7
 10
-250.9538979469125
 20
184.3202477064665
 30
0.0
  0
VERTEX
  5
76F
  8
1
  6
CONTINUOUS
 62
     7
 10
-250.939766122341
 20
184.3001855629464
 30
0.0
  0
VERTEX
  5
770
  8
1
  6
CONTINUOUS
 62
     7
 10
-250.9266357485239
 20
184.2794542534391
 30
0.0
  0
VERTEX
  5
771
  8
1
  6
CONTINUOUS
 62
     7
 10
-250.9145384546152
 20
184.2581037166436
 30
0.0
  0
VERTEX
  5
772
  8
1
  6
CONTINUOUS
 62
     7
 10
-250.9035033812305
 20
184.236185382887
 30
0.0
  0
VERTEX
  5
773
  8
1
  6
CONTINUOUS
 62
     7
 10
-250.8935571102511
 20
184.2137520502366
 30
0.0
  0
VERTEX
  5
774
  8
1
  6
CONTINUOUS
 62
     7
 10
-250.8847236007921
 20
184.1908577573166
 30
0.0
  0
VERTEX
  5
775
  8
1
  6
CONTINUOUS
 62
     7
 10
-250.8770241314887
 20
184.1675576531376
 30
0.0
  0
VERTEX
  5
776
  8
1
  6
CONTINUOUS
 62
     7
 10
-250.8704772492388
 20
184.1439078642498
 30
0.0
  0
VERTEX
  5
777
  8
1
  6
CONTINUOUS
 62
     7
 10
-250.8650987245261
 20
184.1199653595433
 30
0.0
  0
VERTEX
  5
778
  8
1
  6
CONTINUOUS
 62
     7
 10
-250.8609015134318
 20
184.0957878130176
 30
0.0
  0
VERTEX
  5
779
  8
1
  6
CONTINUOUS
 62
     7
 10
-250.8578957264249
 20
184.0714334648536
 30
0.0
  0
VERTEX
  5
77A
  8
1
  6
CONTINUOUS
 62
     7
 10
-250.8560886040074
 20
184.0469609811219
 30
0.0
  0
VERTEX
  5
77B
  8
1
  6
CONTINUOUS
 62
     7
 10
-250.8554844992738
 20
184.0224293124641
 30
0.0
  0
SEQEND
  5
9B0
  8
1
  6
CONTINUOUS
 62
     7
  0
LINE
  5
414
  8
1
  6
CONTINUOUS
 62
     7
 10
-251.355503535567
 20
184.5223721992351
 30
0.0
 11
-255.4043422114969
 21
184.5223721992351
 31
0.0
  0
LINE
  5
415
  8
1
  6
CONTINUOUS
 62
     7
 10
-269.0043422114969
 20
184.5223721992351
 30
0.0
 11
-271.2031808874268
 21
184.5223721992351
 31
0.0
  0
ARC
  5
416
  8
1
  6
CONTINUOUS
 62
     7
 10
-245.2291196734093
 20
178.9992306927855
 30
0.0
 40
7.99950923156212
 50
359.9954033673578
 51
89.99807019244567
  0
LINE
  5
417
  8
1
  6
CONTINUOUS
 62
     7
 10
-245.2288502379731
 20
186.9987399198102
 30
0.0
 11
-245.2288502379731
 21
184.9900895381835
 31
0.0
  0
LINE
  5
418
  8
1
  6
CONTINUOUS
 62
     7
 10
-302.7381047380443
 20
184.0573150883206
 30
0.0
 11
-304.2381047380443
 21
184.0573150883206
 31
0.0
  0
LINE
  5
419
  8
1
  6
CONTINUOUS
 62
     7
 10
-304.2381047380443
 20
184.0573150883206
 30
0.0
 11
-304.239061266625
 21
171.4975603744356
 31
0.0
  0
LINE
  5
41A
  8
1
  6
CONTINUOUS
 62
     7
 10
-299.6783500241594
 20
171.4975603744356
 30
0.0
 11
-304.239061266625
 21
171.4975603744356
 31
0.0
  0
LINE
  5
41B
  8
1
  6
CONTINUOUS
 62
     7
 10
-299.6785030139258
 20
173.5064014890224
 30
0.0
 11
-299.6783500241594
 21
171.4975603744356
 31
0.0
  0
LINE
  5
41C
  8
1
  6
CONTINUOUS
 62
     9
 10
-297.7301814090679
 20
173.5064014890224
 30
0.0
 11
-299.6785030139258
 21
173.5064014890224
 31
0.0
  0
LINE
  5
41D
  8
1
  6
CONTINUOUS
 62
     7
 10
-297.7303343988343
 20
171.4975603744356
 30
0.0
 11
-297.7301814090679
 21
173.5064014890224
 31
0.0
  0
LINE
  5
41E
  8
1
  6
CONTINUOUS
 62
     7
 10
-294.6573007268363
 20
171.4975603744356
 30
0.0
 11
-297.7303343988343
 21
171.4975603744356
 31
0.0
  0
LINE
  5
41F
  8
1
  6
CONTINUOUS
 62
     7
 10
-294.7012987620126
 20
178.4893659901232
 30
0.0
 11
-294.6573007268364
 21
171.4975603744404
 31
0.0
  0
LINE
  5
420
  8
1
  6
CONTINUOUS
 62
     7
 10
-294.7012987620127
 20
178.4893659901252
 30
0.0
 11
-293.729801915354
 21
178.4893659901252
 31
0.0
  0
LINE
  5
421
  8
1
  6
CONTINUOUS
 62
     7
 10
-293.729801915354
 20
178.4893659901252
 30
0.0
 11
-293.7303343988343
 21
171.4975603744356
 31
0.0
  0
LINE
  5
422
  8
1
  6
CONTINUOUS
 62
     7
 10
-302.7380336996013
 20
184.9900895381835
 30
0.0
 11
-326.7031262284383
 21
184.9900895381835
 31
0.0
  0
LINE
  5
423
  8
1
  6
CONTINUOUS
 62
     7
 10
-302.7380336996013
 20
184.9900895381835
 30
0.0
 11
-302.7381047380444
 21
184.0573150883206
 31
0.0
  0
POLYLINE
  5
424
  8
1
  6
CONTINUOUS
 62
     7
 66
     1
 10
0.0
 20
0.0
 30
0.0
  0
VERTEX
  5
77C
  8
1
  6
CONTINUOUS
 62
     7
 10
-307.2055035355669
 20
184.5223721992351
 30
0.0
  0
VERTEX
  5
77D
  8
1
  6
CONTINUOUS
 62
     7
 10
-307.1809699527591
 20
184.5217700086514
 30
0.0
  0
VERTEX
  5
77E
  8
1
  6
CONTINUOUS
 62
     7
 10
-307.1564954677717
 20
184.5199648874897
 30
0.0
  0
VERTEX
  5
77F
  8
1
  6
CONTINUOUS
 62
     7
 10
-307.1321390360673
 20
184.5169611840233
 30
0.0
  0
VERTEX
  5
780
  8
1
  6
CONTINUOUS
 62
     7
 10
-307.107959328735
 20
184.5127661337355
 30
0.0
  0
VERTEX
  5
781
  8
1
  6
CONTINUOUS
 62
     7
 10
-307.0840145911611
 20
184.5073898418902
 30
0.0
  0
VERTEX
  5
782
  8
1
  6
CONTINUOUS
 62
     7
 10
-307.0603625027236
 20
184.5008452591899
 30
0.0
  0
VERTEX
  5
783
  8
1
  6
CONTINUOUS
 62
     7
 10
-307.037060037852
 20
184.4931481505791
 30
0.0
  0
VERTEX
  5
784
  8
1
  6
CONTINUOUS
 62
     7
 10
-307.0141633287831
 20
184.4843170572692
 30
0.0
  0
VERTEX
  5
785
  8
1
  6
CONTINUOUS
 62
     7
 10
-306.9917275303474
 20
184.474373252075
 30
0.0
  0
VERTEX
  5
786
  8
1
  6
CONTINUOUS
 62
     7
 10
-306.969806687109
 20
184.4633406881721
 30
0.0
  0
VERTEX
  5
787
  8
1
  6
CONTINUOUS
 62
     7
 10
-306.9484536031802
 20
184.4512459413967
 30
0.0
  0
VERTEX
  5
788
  8
1
  6
CONTINUOUS
 62
     7
 10
-306.9277197150237
 20
184.4381181462287
 30
0.0
  0
VERTEX
  5
789
  8
1
  6
CONTINUOUS
 62
     7
 10
-306.9076549675502
 20
184.4239889256108
 30
0.0
  0
VERTEX
  5
78A
  8
1
  6
CONTINUOUS
 62
     7
 10
-306.8883076938079
 20
184.4088923147733
 30
0.0
  0
VERTEX
  5
78B
  8
1
  6
CONTINUOUS
 62
     7
 10
-306.8697244985556
 20
184.3928646792484
 30
0.0
  0
VERTEX
  5
78C
  8
1
  6
CONTINUOUS
 62
     7
 10
-306.8519501459988
 20
184.3759446272711
 30
0.0
  0
VERTEX
  5
78D
  8
1
  6
CONTINUOUS
 62
     7
 10
-306.8350274519586
 20
184.3581729167772
 30
0.0
  0
VERTEX
  5
78E
  8
1
  6
CONTINUOUS
 62
     7
 10
-306.8189971807352
 20
184.3395923572236
 30
0.0
  0
VERTEX
  5
78F
  8
1
  6
CONTINUOUS
 62
     7
 10
-306.8038979469124
 20
184.3202477064665
 30
0.0
  0
VERTEX
  5
790
  8
1
  6
CONTINUOUS
 62
     7
 10
-306.7897661223411
 20
184.3001855629464
 30
0.0
  0
VERTEX
  5
791
  8
1
  6
CONTINUOUS
 62
     7
 10
-306.7766357485239
 20
184.2794542534391
 30
0.0
  0
VERTEX
  5
792
  8
1
  6
CONTINUOUS
 62
     7
 10
-306.7645384546151
 20
184.2581037166436
 30
0.0
  0
VERTEX
  5
793
  8
1
  6
CONTINUOUS
 62
     7
 10
-306.7535033812305
 20
184.236185382887
 30
0.0
  0
VERTEX
  5
794
  8
1
  6
CONTINUOUS
 62
     7
 10
-306.743557110251
 20
184.2137520502366
 30
0.0
  0
VERTEX
  5
795
  8
1
  6
CONTINUOUS
 62
     7
 10
-306.7347236007921
 20
184.1908577573166
 30
0.0
  0
VERTEX
  5
796
  8
1
  6
CONTINUOUS
 62
     7
 10
-306.7270241314887
 20
184.1675576531376
 30
0.0
  0
VERTEX
  5
797
  8
1
  6
CONTINUOUS
 62
     7
 10
-306.7204772492388
 20
184.1439078642498
 30
0.0
  0
VERTEX
  5
798
  8
1
  6
CONTINUOUS
 62
     7
 10
-306.7150987245261
 20
184.1199653595433
 30
0.0
  0
VERTEX
  5
799
  8
1
  6
CONTINUOUS
 62
     7
 10
-306.7109015134318
 20
184.0957878130176
 30
0.0
  0
VERTEX
  5
79A
  8
1
  6
CONTINUOUS
 62
     7
 10
-306.7078957264249
 20
184.0714334648536
 30
0.0
  0
VERTEX
  5
79B
  8
1
  6
CONTINUOUS
 62
     7
 10
-306.7060886040074
 20
184.0469609811219
 30
0.0
  0
VERTEX
  5
79C
  8
1
  6
CONTINUOUS
 62
     7
 10
-306.7054844992738
 20
184.0224293124641
 30
0.0
  0
SEQEND
  5
9B1
  8
1
  6
CONTINUOUS
 62
     7
  0
LINE
  5
425
  8
1
  6
CONTINUOUS
 62
     7
 10
-323.7031808874268
 20
184.5223721992351
 30
0.0
 11
-307.2055035355669
 21
184.5223721992351
 31
0.0
  0
POLYLINE
  5
426
  8
1
  6
CONTINUOUS
 62
     7
 66
     1
 10
0.0
 20
0.0
 30
0.0
  0
VERTEX
  5
79D
  8
1
  6
CONTINUOUS
 62
     7
 10
-324.20319992372
 20
184.0224293124641
 30
0.0
  0
VERTEX
  5
79E
  8
1
  6
CONTINUOUS
 62
     7
 10
-324.2025958189863
 20
184.0469609811219
 30
0.0
  0
VERTEX
  5
79F
  8
1
  6
CONTINUOUS
 62
     7
 10
-324.2007886965688
 20
184.0714334648536
 30
0.0
  0
VERTEX
  5
7A0
  8
1
  6
CONTINUOUS
 62
     7
 10
-324.1977829095619
 20
184.0957878130176
 30
0.0
  0
VERTEX
  5
7A1
  8
1
  6
CONTINUOUS
 62
     7
 10
-324.1935856984676
 20
184.1199653595433
 30
0.0
  0
VERTEX
  5
7A2
  8
1
  6
CONTINUOUS
 62
     7
 10
-324.188207173755
 20
184.1439078642498
 30
0.0
  0
VERTEX
  5
7A3
  8
1
  6
CONTINUOUS
 62
     7
 10
-324.181660291505
 20
184.1675576531376
 30
0.0
  0
VERTEX
  5
7A4
  8
1
  6
CONTINUOUS
 62
     7
 10
-324.1739608222016
 20
184.1908577573166
 30
0.0
  0
VERTEX
  5
7A5
  8
1
  6
CONTINUOUS
 62
     7
 10
-324.1651273127427
 20
184.2137520502366
 30
0.0
  0
VERTEX
  5
7A6
  8
1
  6
CONTINUOUS
 62
     7
 10
-324.1551810417633
 20
184.236185382887
 30
0.0
  0
VERTEX
  5
7A7
  8
1
  6
CONTINUOUS
 62
     7
 10
-324.1441459683786
 20
184.2581037166436
 30
0.0
  0
VERTEX
  5
7A8
  8
1
  6
CONTINUOUS
 62
     7
 10
-324.1320486744698
 20
184.2794542534391
 30
0.0
  0
VERTEX
  5
7A9
  8
1
  6
CONTINUOUS
 62
     7
 10
-324.1189183006528
 20
184.3001855629464
 30
0.0
  0
VERTEX
  5
7AA
  8
1
  6
CONTINUOUS
 62
     7
 10
-324.1047864760813
 20
184.3202477064665
 30
0.0
  0
VERTEX
  5
7AB
  8
1
  6
CONTINUOUS
 62
     7
 10
-324.0896872422585
 20
184.3395923572236
 30
0.0
  0
VERTEX
  5
7AC
  8
1
  6
CONTINUOUS
 62
     7
 10
-324.0736569710351
 20
184.3581729167772
 30
0.0
  0
VERTEX
  5
7AD
  8
1
  6
CONTINUOUS
 62
     7
 10
-324.0567342769949
 20
184.3759446272711
 30
0.0
  0
VERTEX
  5
7AE
  8
1
  6
CONTINUOUS
 62
     7
 10
-324.0389599244381
 20
184.3928646792484
 30
0.0
  0
VERTEX
  5
7AF
  8
1
  6
CONTINUOUS
 62
     7
 10
-324.0203767291859
 20
184.4088923147733
 30
0.0
  0
VERTEX
  5
7B0
  8
1
  6
CONTINUOUS
 62
     7
 10
-324.0010294554436
 20
184.4239889256108
 30
0.0
  0
VERTEX
  5
7B1
  8
1
  6
CONTINUOUS
 62
     7
 10
-323.98096470797
 20
184.4381181462287
 30
0.0
  0
VERTEX
  5
7B2
  8
1
  6
CONTINUOUS
 62
     7
 10
-323.9602308198135
 20
184.4512459413967
 30
0.0
  0
VERTEX
  5
7B3
  8
1
  6
CONTINUOUS
 62
     7
 10
-323.9388777358847
 20
184.4633406881721
 30
0.0
  0
VERTEX
  5
7B4
  8
1
  6
CONTINUOUS
 62
     7
 10
-323.9169568926463
 20
184.474373252075
 30
0.0
  0
VERTEX
  5
7B5
  8
1
  6
CONTINUOUS
 62
     7
 10
-323.8945210942107
 20
184.4843170572692
 30
0.0
  0
VERTEX
  5
7B6
  8
1
  6
CONTINUOUS
 62
     7
 10
-323.8716243851418
 20
184.4931481505791
 30
0.0
  0
VERTEX
  5
7B7
  8
1
  6
CONTINUOUS
 62
     7
 10
-323.8483219202701
 20
184.5008452591899
 30
0.0
  0
VERTEX
  5
7B8
  8
1
  6
CONTINUOUS
 62
     7
 10
-323.8246698318326
 20
184.5073898418902
 30
0.0
  0
VERTEX
  5
7B9
  8
1
  6
CONTINUOUS
 62
     7
 10
-323.8007250942587
 20
184.5127661337355
 30
0.0
  0
VERTEX
  5
7BA
  8
1
  6
CONTINUOUS
 62
     7
 10
-323.7765453869265
 20
184.5169611840233
 30
0.0
  0
VERTEX
  5
7BB
  8
1
  6
CONTINUOUS
 62
     7
 10
-323.752188955222
 20
184.5199648874897
 30
0.0
  0
VERTEX
  5
7BC
  8
1
  6
CONTINUOUS
 62
     7
 10
-323.7277144702347
 20
184.5217700086514
 30
0.0
  0
VERTEX
  5
7BD
  8
1
  6
CONTINUOUS
 62
     7
 10
-323.7031808874268
 20
184.5223721992351
 30
0.0
  0
SEQEND
  5
9B2
  8
1
  6
CONTINUOUS
 62
     7
  0
LINE
  5
427
  8
1
  6
CONTINUOUS
 62
     7
 10
-324.2041137208811
 20
172.023762013921
 30
0.0
 11
-324.20319992372
 21
184.0224293124641
 31
0.0
  0
POLYLINE
  5
428
  8
1
  6
CONTINUOUS
 62
     7
 66
     1
 10
0.0
 20
0.0
 30
0.0
  0
VERTEX
  5
7BE
  8
1
  6
CONTINUOUS
 62
     7
 10
-323.7041708399099
 20
171.523742971828
 30
0.0
  0
VERTEX
  5
7BF
  8
1
  6
CONTINUOUS
 62
     7
 10
-323.7287043309872
 20
171.5243452541421
 30
0.0
  0
VERTEX
  5
7C0
  8
1
  6
CONTINUOUS
 62
     7
 10
-323.753178541004
 20
171.5261506502744
 30
0.0
  0
VERTEX
  5
7C1
  8
1
  6
CONTINUOUS
 62
     7
 10
-323.7775345151602
 20
171.5291548112891
 30
0.0
  0
VERTEX
  5
7C2
  8
1
  6
CONTINUOUS
 62
     7
 10
-323.8017135834687
 20
171.5333505006007
 30
0.0
  0
VERTEX
  5
7C3
  8
1
  6
CONTINUOUS
 62
     7
 10
-323.8256575020826
 20
171.538727611406
 30
0.0
  0
VERTEX
  5
7C4
  8
1
  6
CONTINUOUS
 62
     7
 10
-323.8493085935965
 20
171.5452731910298
 30
0.0
  0
VERTEX
  5
7C5
  8
1
  6
CONTINUOUS
 62
     7
 10
-323.8726098859826
 20
171.5529714721261
 30
0.0
  0
VERTEX
  5
7C6
  8
1
  6
CONTINUOUS
 62
     7
 10
-323.8955052498284
 20
171.5618039106592
 30
0.0
  0
VERTEX
  5
7C7
  8
1
  6
CONTINUOUS
 62
     7
 10
-323.9179395335437
 20
171.5717492305738
 30
0.0
  0
VERTEX
  5
7C8
  8
1
  6
CONTINUOUS
 62
     7
 10
-323.9398586962132
 20
171.5827834750456
 30
0.0
  0
VERTEX
  5
7C9
  8
1
  6
CONTINUOUS
 62
     7
 10
-323.9612099377729
 20
171.5948800641901
 30
0.0
  0
VERTEX
  5
7CA
  8
1
  6
CONTINUOUS
 62
     7
 10
-323.981941826198
 20
171.6080098590894
 30
0.0
  0
VERTEX
  5
7CB
  8
1
  6
CONTINUOUS
 62
     7
 10
-324.002004421395
 20
171.6221412319839
 30
0.0
  0
VERTEX
  5
7CC
  8
1
  6
CONTINUOUS
 62
     7
 10
-324.0213493955001
 20
171.6372401424586
 30
0.0
  0
VERTEX
  5
7CD
  8
1
  6
CONTINUOUS
 62
     7
 10
-324.039930149294
 20
171.6532702194419
 30
0.0
  0
VERTEX
  5
7CE
  8
1
  6
CONTINUOUS
 62
     7
 10
-324.0577019244524
 20
171.6701928488175
 30
0.0
  0
VERTEX
  5
7CF
  8
1
  6
CONTINUOUS
 62
     7
 10
-324.0746219113627
 20
171.6879672664414
 30
0.0
  0
VERTEX
  5
7D0
  8
1
  6
CONTINUOUS
 62
     7
 10
-324.0906493522459
 20
171.7065506563353
 30
0.0
  0
VERTEX
  5
7D1
  8
1
  6
CONTINUOUS
 62
     7
 10
-324.1057456393357
 20
171.7258982538252
 30
0.0
  0
VERTEX
  5
7D2
  8
1
  6
CONTINUOUS
 62
     7
 10
-324.1198744078802
 20
171.7459634533723
 30
0.0
  0
VERTEX
  5
7D3
  8
1
  6
CONTINUOUS
 62
     7
 10
-324.1330016237375
 20
171.7666979208395
 30
0.0
  0
VERTEX
  5
7D4
  8
1
  6
CONTINUOUS
 62
     7
 10
-324.1450956653607
 20
171.7880517099205
 30
0.0
  0
VERTEX
  5
7D5
  8
1
  6
CONTINUOUS
 62
     7
 10
-324.1561273999685
 20
171.809973382454
 30
0.0
  0
VERTEX
  5
7D6
  8
1
  6
CONTINUOUS
 62
     7
 10
-324.1660702537222
 20
171.8324101323301
 30
0.0
  0
VERTEX
  5
7D7
  8
1
  6
CONTINUOUS
 62
     7
 10
-324.1749002757383
 20
171.8553079126929
 30
0.0
  0
VERTEX
  5
7D8
  8
1
  6
CONTINUOUS
 62
     7
 10
-324.1825961957824
 20
171.8786115661312
 30
0.0
  0
VERTEX
  5
7D9
  8
1
  6
CONTINUOUS
 62
     7
 10
-324.1891394755062
 20
171.9022649575451
 30
0.0
  0
VERTEX
  5
7DA
  8
1
  6
CONTINUOUS
 62
     7
 10
-324.194514353104
 20
171.9262111093665
 30
0.0
  0
VERTEX
  5
7DB
  8
1
  6
CONTINUOUS
 62
     7
 10
-324.1987078812799
 20
171.9503923388106
 30
0.0
  0
VERTEX
  5
7DC
  8
1
  6
CONTINUOUS
 62
     7
 10
-324.2017099584367
 20
171.9747503968248
 30
0.0
  0
VERTEX
  5
7DD
  8
1
  6
CONTINUOUS
 62
     7
 10
-324.2035133530085
 20
171.999226608402
 30
0.0
  0
VERTEX
  5
7DE
  8
1
  6
CONTINUOUS
 62
     7
 10
-324.204113720881
 20
172.023762013921
 30
0.0
  0
SEQEND
  5
9B3
  8
1
  6
CONTINUOUS
 62
     7
  0
LINE
  5
429
  8
1
  6
CONTINUOUS
 62
     7
 10
-307.2045135830838
 20
171.523742971828
 30
0.0
 11
-323.7041708399099
 21
171.523742971828
 31
0.0
  0
POLYLINE
  5
42A
  8
1
  6
CONTINUOUS
 62
     7
 66
     1
 10
0.0
 20
0.0
 30
0.0
  0
VERTEX
  5
7DF
  8
1
  6
CONTINUOUS
 62
     7
 10
-306.7045707021127
 20
172.023762013921
 30
0.0
  0
VERTEX
  5
7E0
  8
1
  6
CONTINUOUS
 62
     7
 10
-306.7051710699853
 20
171.999226608402
 30
0.0
  0
VERTEX
  5
7E1
  8
1
  6
CONTINUOUS
 62
     7
 10
-306.706974464557
 20
171.9747503968248
 30
0.0
  0
VERTEX
  5
7E2
  8
1
  6
CONTINUOUS
 62
     7
 10
-306.7099765417138
 20
171.9503923388106
 30
0.0
  0
VERTEX
  5
7E3
  8
1
  6
CONTINUOUS
 62
     7
 10
-306.7141700698897
 20
171.9262111093665
 30
0.0
  0
VERTEX
  5
7E4
  8
1
  6
CONTINUOUS
 62
     7
 10
-306.7195449474875
 20
171.9022649575451
 30
0.0
  0
VERTEX
  5
7E5
  8
1
  6
CONTINUOUS
 62
     7
 10
-306.7260882272114
 20
171.8786115661313
 30
0.0
  0
VERTEX
  5
7E6
  8
1
  6
CONTINUOUS
 62
     7
 10
-306.7337841472555
 20
171.8553079126929
 30
0.0
  0
VERTEX
  5
7E7
  8
1
  6
CONTINUOUS
 62
     7
 10
-306.7426141692716
 20
171.8324101323301
 30
0.0
  0
VERTEX
  5
7E8
  8
1
  6
CONTINUOUS
 62
     7
 10
-306.7525570230254
 20
171.809973382454
 30
0.0
  0
VERTEX
  5
7E9
  8
1
  6
CONTINUOUS
 62
     7
 10
-306.7635887576331
 20
171.7880517099205
 30
0.0
  0
VERTEX
  5
7EA
  8
1
  6
CONTINUOUS
 62
     7
 10
-306.7756827992563
 20
171.7666979208395
 30
0.0
  0
VERTEX
  5
7EB
  8
1
  6
CONTINUOUS
 62
     7
 10
-306.7888100151137
 20
171.7459634533723
 30
0.0
  0
VERTEX
  5
7EC
  8
1
  6
CONTINUOUS
 62
     7
 10
-306.802938783658
 20
171.7258982538252
 30
0.0
  0
VERTEX
  5
7ED
  8
1
  6
CONTINUOUS
 62
     7
 10
-306.8180350707479
 20
171.7065506563353
 30
0.0
  0
VERTEX
  5
7EE
  8
1
  6
CONTINUOUS
 62
     7
 10
-306.834062511631
 20
171.6879672664414
 30
0.0
  0
VERTEX
  5
7EF
  8
1
  6
CONTINUOUS
 62
     7
 10
-306.8509824985414
 20
171.6701928488176
 30
0.0
  0
VERTEX
  5
7F0
  8
1
  6
CONTINUOUS
 62
     7
 10
-306.8687542736997
 20
171.6532702194419
 30
0.0
  0
VERTEX
  5
7F1
  8
1
  6
CONTINUOUS
 62
     7
 10
-306.8873350274936
 20
171.6372401424586
 30
0.0
  0
VERTEX
  5
7F2
  8
1
  6
CONTINUOUS
 62
     7
 10
-306.9066800015987
 20
171.6221412319839
 30
0.0
  0
VERTEX
  5
7F3
  8
1
  6
CONTINUOUS
 62
     7
 10
-306.9267425967957
 20
171.6080098590895
 30
0.0
  0
VERTEX
  5
7F4
  8
1
  6
CONTINUOUS
 62
     7
 10
-306.9474744852209
 20
171.5948800641901
 30
0.0
  0
VERTEX
  5
7F5
  8
1
  6
CONTINUOUS
 62
     7
 10
-306.9688257267806
 20
171.5827834750456
 30
0.0
  0
VERTEX
  5
7F6
  8
1
  6
CONTINUOUS
 62
     7
 10
-306.9907448894501
 20
171.5717492305738
 30
0.0
  0
VERTEX
  5
7F7
  8
1
  6
CONTINUOUS
 62
     7
 10
-307.0131791731653
 20
171.5618039106592
 30
0.0
  0
VERTEX
  5
7F8
  8
1
  6
CONTINUOUS
 62
     7
 10
-307.0360745370111
 20
171.5529714721261
 30
0.0
  0
VERTEX
  5
7F9
  8
1
  6
CONTINUOUS
 62
     7
 10
-307.0593758293973
 20
171.5452731910298
 30
0.0
  0
VERTEX
  5
7FA
  8
1
  6
CONTINUOUS
 62
     7
 10
-307.0830269209112
 20
171.538727611406
 30
0.0
  0
VERTEX
  5
7FB
  8
1
  6
CONTINUOUS
 62
     7
 10
-307.1069708395251
 20
171.5333505006008
 30
0.0
  0
VERTEX
  5
7FC
  8
1
  6
CONTINUOUS
 62
     7
 10
-307.1311499078335
 20
171.5291548112891
 30
0.0
  0
VERTEX
  5
7FD
  8
1
  6
CONTINUOUS
 62
     7
 10
-307.1555058819898
 20
171.5261506502744
 30
0.0
  0
VERTEX
  5
7FE
  8
1
  6
CONTINUOUS
 62
     7
 10
-307.1799800920065
 20
171.5243452541421
 30
0.0
  0
VERTEX
  5
7FF
  8
1
  6
CONTINUOUS
 62
     7
 10
-307.2045135830838
 20
171.523742971828
 30
0.0
  0
SEQEND
  5
9B4
  8
1
  6
CONTINUOUS
 62
     7
  0
LINE
  5
42B
  8
1
  6
CONTINUOUS
 62
     7
 10
-306.7054844992738
 20
184.0224293124641
 30
0.0
 11
-306.7045707021127
 21
172.023762013921
 31
0.0
  0
LINE
  5
42C
  8
1
  6
CONTINUOUS
 62
     7
 10
-304.2130690792876
 20
171.5235525617731
 30
0.0
 11
-304.2130690792876
 21
174.5148256939823
 31
0.0
  0
LINE
  5
42D
  8
1
  6
CONTINUOUS
 62
     7
 10
-304.239061266625
 20
171.4975603744356
 30
0.0
 11
-304.2130690792875
 21
171.5235525617731
 31
0.0
  0
LINE
  5
42E
  8
1
  6
CONTINUOUS
 62
     7
 10
-304.2043422114969
 20
184.0235525617731
 30
0.0
 11
-304.2381047380443
 21
184.0573150883206
 31
0.0
  0
LINE
  5
42F
  8
1
  6
CONTINUOUS
 62
     7
 10
-304.2043422114969
 20
174.5235525617731
 30
0.0
 11
-304.2043422114969
 21
184.0235525617731
 31
0.0
  0
LINE
  5
430
  8
1
  6
CONTINUOUS
 62
     7
 10
-304.2043422114969
 20
174.5235525617731
 30
0.0
 11
-304.2130690792875
 21
174.5148256939823
 31
0.0
  0
LINE
  5
431
  8
1
  6
CONTINUOUS
 62
     7
 10
-295.8798571729062
 20
171.5235525617731
 30
0.0
 11
-295.8798571729062
 21
174.5148256939823
 31
0.0
  0
LINE
  5
432
  8
1
  6
CONTINUOUS
 62
     7
 10
-295.9543422114969
 20
174.5235525617731
 30
0.0
 11
-295.8798571729062
 21
174.5148256939823
 31
0.0
  0
LINE
  5
433
  8
1
  6
CONTINUOUS
 62
     7
 10
-295.9543422114969
 20
178.5235525617731
 30
0.0
 11
-294.7012987620127
 21
178.4893659901252
 31
0.0
  0
LINE
  5
434
  8
1
  6
CONTINUOUS
 62
     7
 10
-294.6573007268363
 20
171.4975603744356
 30
0.0
 11
-295.8798571729062
 21
171.5235525617731
 31
0.0
  0
LINE
  5
435
  8
1
  6
CONTINUOUS
 62
     7
 10
-299.6783500241594
 20
171.4975603744356
 30
0.0
 11
-299.7043422114969
 21
171.5235525617731
 31
0.0
  0
LINE
  5
436
  8
1
  6
CONTINUOUS
 62
     7
 10
-299.7043422114969
 20
171.5235525617731
 30
0.0
 11
-304.2130690792876
 21
171.5235525617731
 31
0.0
  0
LINE
  5
437
  8
1
  6
CONTINUOUS
 62
     7
 10
-297.7303343988343
 20
171.4975603744356
 30
0.0
 11
-297.7043422114969
 21
171.5235525617731
 31
0.0
  0
LINE
  5
438
  8
1
  6
CONTINUOUS
 62
     7
 10
-295.8798571729062
 20
171.5235525617731
 30
0.0
 11
-297.7043422114969
 21
171.5235525617731
 31
0.0
  0
LINE
  5
439
  8
1
  6
CONTINUOUS
 62
     7
 10
-299.7043422114969
 20
174.5148256939823
 30
0.0
 11
-299.7043422114969
 21
171.5235525617731
 31
0.0
  0
LINE
  5
43A
  8
1
  6
CONTINUOUS
 62
     7
 10
-299.6871533941027
 20
174.4976368765881
 30
0.0
 11
-299.7043422114969
 21
174.5148256939823
 31
0.0
  0
LINE
  5
43B
  8
1
  6
CONTINUOUS
 62
     7
 10
-299.6785030139258
 20
173.5064014890224
 30
0.0
 11
-299.6871533941027
 21
174.4976368765881
 31
0.0
  0
LINE
  5
43C
  8
1
  6
CONTINUOUS
 62
     7
 10
-297.7043422114969
 20
171.5235525617731
 30
0.0
 11
-297.7043422114969
 21
174.5148256939823
 31
0.0
  0
LINE
  5
43D
  8
1
  6
CONTINUOUS
 62
     7
 10
-297.7215310288911
 20
174.4976368765881
 30
0.0
 11
-297.7301814090679
 21
173.5064014890224
 31
0.0
  0
LINE
  5
43E
  8
1
  6
CONTINUOUS
 62
     7
 10
-297.7215310288911
 20
174.4976368765881
 30
0.0
 11
-297.7043422114969
 21
174.5148256939823
 31
0.0
  0
LINE
  5
43F
  8
1
  6
CONTINUOUS
 62
     7
 10
-280.6783500241594
 20
171.4975603744356
 30
0.0
 11
-280.7043422114969
 21
171.5235525617731
 31
0.0
  0
LINE
  5
440
  8
1
  6
CONTINUOUS
 62
     7
 10
-280.7043422114969
 20
174.5148256939823
 30
0.0
 11
-280.7043422114969
 21
171.5235525617731
 31
0.0
  0
LINE
  5
441
  8
1
  6
CONTINUOUS
 62
     7
 10
-280.6871533941027
 20
174.4976368765881
 30
0.0
 11
-280.7043422114969
 21
174.5148256939823
 31
0.0
  0
LINE
  5
442
  8
1
  6
CONTINUOUS
 62
     7
 10
-280.6785030139259
 20
173.5064014890224
 30
0.0
 11
-280.6871533941027
 21
174.4976368765881
 31
0.0
  0
LINE
  5
443
  8
1
  6
CONTINUOUS
 62
     7
 10
-278.7043422114969
 20
171.5235525617731
 30
0.0
 11
-278.7043422114969
 21
174.5148256939823
 31
0.0
  0
LINE
  5
444
  8
1
  6
CONTINUOUS
 62
     7
 10
-278.7303343988343
 20
171.4975603744356
 30
0.0
 11
-278.7043422114969
 21
171.5235525617731
 31
0.0
  0
LINE
  5
445
  8
1
  6
CONTINUOUS
 62
     7
 10
-278.7215310288911
 20
174.4976368765881
 30
0.0
 11
-278.7301814090679
 21
173.5064014890224
 31
0.0
  0
LINE
  5
446
  8
1
  6
CONTINUOUS
 62
     7
 10
-278.7215310288911
 20
174.4976368765881
 30
0.0
 11
-278.7043422114969
 21
174.5148256939823
 31
0.0
  0
LINE
  5
447
  8
1
  6
CONTINUOUS
 62
     7
 10
-293.729801915354
 20
178.4893659901252
 30
0.0
 11
-293.7043422114969
 21
178.5148256939823
 31
0.0
  0
LINE
  5
448
  8
1
  6
CONTINUOUS
 62
     7
 10
-293.7043422114969
 20
178.5148256939823
 30
0.0
 11
-293.7043422114969
 21
171.5235525617731
 31
0.0
  0
LINE
  5
449
  8
1
  6
CONTINUOUS
 62
     7
 10
-274.1696231563687
 20
171.4975603744356
 30
0.0
 11
-274.1956153437061
 21
171.5235525617731
 31
0.0
  0
LINE
  5
44A
  8
1
  6
CONTINUOUS
 62
     7
 10
-274.1956153437061
 20
171.5235525617731
 30
0.0
 11
-278.7043422114969
 21
171.5235525617731
 31
0.0
  0
LINE
  5
44B
  8
1
  6
CONTINUOUS
 62
     7
 10
-283.7073856609811
 20
178.4893659901252
 30
0.0
 11
-282.4543422114969
 21
178.5235525617731
 31
0.0
  0
LINE
  5
44C
  8
1
  6
CONTINUOUS
 62
     7
 10
-282.5288272500875
 20
174.5148256939823
 30
0.0
 11
-282.4543422114969
 21
174.5235525617731
 31
0.0
  0
LINE
  5
44D
  8
1
  6
CONTINUOUS
 62
     7
 10
-282.5288272500875
 20
174.5148256939823
 30
0.0
 11
-282.5288272500875
 21
171.5235525617731
 31
0.0
  0
LINE
  5
44E
  8
1
  6
CONTINUOUS
 62
     7
 10
-282.5288272500875
 20
171.5235525617731
 30
0.0
 11
-283.7513836961574
 21
171.4975603744356
 31
0.0
  0
LINE
  5
44F
  8
1
  6
CONTINUOUS
 62
     7
 10
-274.1956153437061
 20
174.5148256939823
 30
0.0
 11
-274.1956153437061
 21
171.5235525617731
 31
0.0
  0
LINE
  5
450
  8
1
  6
CONTINUOUS
 62
     7
 10
-274.2043422114969
 20
174.5235525617731
 30
0.0
 11
-274.1956153437061
 21
174.5148256939823
 31
0.0
  0
LINE
  5
451
  8
1
  6
CONTINUOUS
 62
     7
 10
-274.2043422114969
 20
184.0235525617731
 30
0.0
 11
-274.2043422114969
 21
174.5235525617731
 31
0.0
  0
LINE
  5
452
  8
1
  6
CONTINUOUS
 62
     7
 10
-274.2043422114969
 20
184.0235525617731
 30
0.0
 11
-274.1705796849494
 21
184.0573150883206
 31
0.0
  0
LINE
  5
453
  8
1
  6
CONTINUOUS
 62
     7
 10
-284.7043422114969
 20
178.5148256939823
 30
0.0
 11
-284.6788825076398
 21
178.4893659901252
 31
0.0
  0
LINE
  5
454
  8
1
  6
CONTINUOUS
 62
     7
 10
-284.7043422114969
 20
171.5235525617731
 30
0.0
 11
-284.7043422114969
 21
178.5148256939823
 31
0.0
  0
LINE
  5
455
  8
1
  6
CONTINUOUS
 62
     7
 10
-280.7043422114969
 20
171.5235525617731
 30
0.0
 11
-282.5288272500875
 21
171.5235525617731
 31
0.0
  0
LINE
  5
456
  8
1
  6
CONTINUOUS
 62
     9
 10
-240.0545135830839
 20
171.523742971828
 30
0.0
 11
-240.0805037764013
 21
171.5497331651454
 31
0.0
  0
POLYLINE
  5
457
  8
1
  6
CONTINUOUS
 62
     7
 66
     1
 10
0.0
 20
0.0
 30
0.0
  0
VERTEX
  5
800
  8
1
  6
CONTINUOUS
 62
     7
 10
-240.0805037764012
 20
171.5497331651453
 30
0.0
  0
VERTEX
  5
801
  8
1
  6
CONTINUOUS
 62
     7
 10
-239.9829603011501
 20
171.5593399622258
 30
0.0
  0
VERTEX
  5
802
  8
1
  6
CONTINUOUS
 62
     7
 10
-239.8891664678293
 20
171.5877912053232
 30
0.0
  0
VERTEX
  5
803
  8
1
  6
CONTINUOUS
 62
     7
 10
-239.8027263724969
 20
171.6339936347906
 30
0.0
  0
VERTEX
  5
804
  8
1
  6
CONTINUOUS
 62
     7
 10
-239.7269615384966
 20
171.6961718887728
 30
0.0
  0
VERTEX
  5
805
  8
1
  6
CONTINUOUS
 62
     7
 10
-239.6647832845144
 20
171.7719367227731
 30
0.0
  0
VERTEX
  5
806
  8
1
  6
CONTINUOUS
 62
     7
 10
-239.618580855047
 20
171.8583768181055
 30
0.0
  0
VERTEX
  5
807
  8
1
  6
CONTINUOUS
 62
     7
 10
-239.5901296119496
 20
171.9521706514263
 30
0.0
  0
VERTEX
  5
808
  8
1
  6
CONTINUOUS
 62
     7
 10
-239.5805228148691
 20
172.0497141266774
 30
0.0
  0
SEQEND
  5
9B5
  8
1
  6
CONTINUOUS
 62
     7
  0
LINE
  5
458
  8
1
  6
CONTINUOUS
 62
     9
 10
-239.5805228148692
 20
172.0497141266774
 30
0.0
 11
-239.5545707021127
 21
172.023762013921
 31
0.0
  0
LINE
  5
459
  8
1
  6
CONTINUOUS
 62
     9
 10
-324.2041137208811
 20
172.023762013921
 30
0.0
 11
-324.1781616081246
 21
172.0497141266775
 31
0.0
  0
POLYLINE
  5
45A
  8
1
  6
CONTINUOUS
 62
     7
 66
     1
 10
0.0
 20
0.0
 30
0.0
  0
VERTEX
  5
809
  8
1
  6
CONTINUOUS
 62
     7
 10
-324.1781616081246
 20
172.0497141266774
 30
0.0
  0
VERTEX
  5
80A
  8
1
  6
CONTINUOUS
 62
     7
 10
-324.1685548110441
 20
171.9521706514263
 30
0.0
  0
VERTEX
  5
80B
  8
1
  6
CONTINUOUS
 62
     7
 10
-324.1401035679467
 20
171.8583768181055
 30
0.0
  0
VERTEX
  5
80C
  8
1
  6
CONTINUOUS
 62
     7
 10
-324.0939011384794
 20
171.7719367227731
 30
0.0
  0
VERTEX
  5
80D
  8
1
  6
CONTINUOUS
 62
     7
 10
-324.0317228844972
 20
171.6961718887728
 30
0.0
  0
VERTEX
  5
80E
  8
1
  6
CONTINUOUS
 62
     7
 10
-323.9559580504969
 20
171.6339936347906
 30
0.0
  0
VERTEX
  5
80F
  8
1
  6
CONTINUOUS
 62
     7
 10
-323.8695179551644
 20
171.5877912053232
 30
0.0
  0
VERTEX
  5
810
  8
1
  6
CONTINUOUS
 62
     7
 10
-323.7757241218436
 20
171.5593399622258
 30
0.0
  0
VERTEX
  5
811
  8
1
  6
CONTINUOUS
 62
     7
 10
-323.6781806465925
 20
171.5497331651453
 30
0.0
  0
SEQEND
  5
9B6
  8
1
  6
CONTINUOUS
 62
     7
  0
LINE
  5
45B
  8
1
  6
CONTINUOUS
 62
     9
 10
-323.6781806465925
 20
171.5497331651454
 30
0.0
 11
-323.7041708399099
 21
171.523742971828
 31
0.0
  0
LINE
  5
45C
  8
1
  6
CONTINUOUS
 62
     9
 10
-271.704113720881
 20
172.023762013921
 30
0.0
 11
-271.6781616081246
 21
172.0497141266775
 31
0.0
  0
POLYLINE
  5
45D
  8
1
  6
CONTINUOUS
 62
     7
 66
     1
 10
0.0
 20
0.0
 30
0.0
  0
VERTEX
  5
812
  8
1
  6
CONTINUOUS
 62
     7
 10
-271.6781616081246
 20
172.0497141266774
 30
0.0
  0
VERTEX
  5
813
  8
1
  6
CONTINUOUS
 62
     7
 10
-271.6685548110441
 20
171.9521706514263
 30
0.0
  0
VERTEX
  5
814
  8
1
  6
CONTINUOUS
 62
     7
 10
-271.6401035679467
 20
171.8583768181055
 30
0.0
  0
VERTEX
  5
815
  8
1
  6
CONTINUOUS
 62
     7
 10
-271.5939011384794
 20
171.7719367227731
 30
0.0
  0
VERTEX
  5
816
  8
1
  6
CONTINUOUS
 62
     7
 10
-271.5317228844972
 20
171.6961718887728
 30
0.0
  0
VERTEX
  5
817
  8
1
  6
CONTINUOUS
 62
     7
 10
-271.4559580504969
 20
171.6339936347906
 30
0.0
  0
VERTEX
  5
818
  8
1
  6
CONTINUOUS
 62
     7
 10
-271.3695179551644
 20
171.5877912053232
 30
0.0
  0
VERTEX
  5
819
  8
1
  6
CONTINUOUS
 62
     7
 10
-271.2757241218436
 20
171.5593399622258
 30
0.0
  0
VERTEX
  5
81A
  8
1
  6
CONTINUOUS
 62
     7
 10
-271.1781806465925
 20
171.5497331651453
 30
0.0
  0
SEQEND
  5
9B7
  8
1
  6
CONTINUOUS
 62
     7
  0
LINE
  5
45E
  8
1
  6
CONTINUOUS
 62
     9
 10
-271.1781806465925
 20
171.5497331651453
 30
0.0
 11
-271.2041708399099
 21
171.5237429718279
 31
0.0
  0
LINE
  5
45F
  8
1
  6
CONTINUOUS
 62
     9
 10
-307.2045135830838
 20
171.523742971828
 30
0.0
 11
-307.2305037764012
 21
171.5497331651454
 31
0.0
  0
POLYLINE
  5
460
  8
1
  6
CONTINUOUS
 62
     7
 66
     1
 10
0.0
 20
0.0
 30
0.0
  0
VERTEX
  5
81B
  8
1
  6
CONTINUOUS
 62
     7
 10
-307.2305037764012
 20
171.5497331651454
 30
0.0
  0
VERTEX
  5
81C
  8
1
  6
CONTINUOUS
 62
     7
 10
-307.1329603011501
 20
171.5593399622258
 30
0.0
  0
VERTEX
  5
81D
  8
1
  6
CONTINUOUS
 62
     7
 10
-307.0391664678293
 20
171.5877912053232
 30
0.0
  0
VERTEX
  5
81E
  8
1
  6
CONTINUOUS
 62
     7
 10
-306.9527263724968
 20
171.6339936347906
 30
0.0
  0
VERTEX
  5
81F
  8
1
  6
CONTINUOUS
 62
     7
 10
-306.8769615384965
 20
171.6961718887728
 30
0.0
  0
VERTEX
  5
820
  8
1
  6
CONTINUOUS
 62
     7
 10
-306.8147832845143
 20
171.7719367227731
 30
0.0
  0
VERTEX
  5
821
  8
1
  6
CONTINUOUS
 62
     7
 10
-306.768580855047
 20
171.8583768181055
 30
0.0
  0
VERTEX
  5
822
  8
1
  6
CONTINUOUS
 62
     7
 10
-306.7401296119496
 20
171.9521706514264
 30
0.0
  0
VERTEX
  5
823
  8
1
  6
CONTINUOUS
 62
     7
 10
-306.7305228148691
 20
172.0497141266774
 30
0.0
  0
SEQEND
  5
9B8
  8
1
  6
CONTINUOUS
 62
     7
  0
LINE
  5
461
  8
1
  6
CONTINUOUS
 62
     9
 10
-306.7305228148692
 20
172.0497141266774
 30
0.0
 11
-306.7045707021127
 21
172.023762013921
 31
0.0
  0
LINE
  5
462
  8
1
  6
CONTINUOUS
 62
     7
 10
-271.1781806465925
 20
171.5497331651453
 30
0.0
 11
-240.0805037764012
 21
171.5497331651453
 31
0.0
  0
LINE
  5
463
  8
1
  6
CONTINUOUS
 62
     7
 10
-307.2305037764012
 20
171.5497331651454
 30
0.0
 11
-323.6781806465925
 21
171.5497331651454
 31
0.0
  0
LINE
  5
464
  8
1
  6
CONTINUOUS
 62
     9
 10
-324.1781616081246
 20
183.9973909968687
 30
0.0
 11
-324.20319992372
 21
184.0224293124641
 31
0.0
  0
LINE
  5
465
  8
1
  6
CONTINUOUS
 62
     7
 10
-324.1781616081246
 20
172.0497141266774
 30
0.0
 11
-324.1781616081246
 21
183.9973909968687
 31
0.0
  0
LINE
  5
466
  8
1
  6
CONTINUOUS
 62
     7
 10
-239.5805228148692
 20
172.0497141266774
 30
0.0
 11
-239.5805228148692
 21
176.575183183815
 31
0.0
  0
LINE
  5
467
  8
1
  6
CONTINUOUS
 62
     9
 10
-239.5549237984946
 20
176.6601147971081
 30
0.0
 11
-239.5805228148692
 21
176.575183183815
 31
0.0
  0
LINE
  5
468
  8
1
  6
CONTINUOUS
 62
     9
 10
-306.7054844992738
 20
184.0224293124641
 30
0.0
 11
-306.7305228148691
 21
183.9973909968687
 31
0.0
  0
LINE
  5
469
  8
1
  6
CONTINUOUS
 62
     7
 10
-306.7305228148692
 20
183.9973909968687
 30
0.0
 11
-306.7305228148692
 21
172.0497141266774
 31
0.0
  0
LINE
  5
46A
  8
1
  6
CONTINUOUS
 62
     9
 10
-271.6781616081246
 20
183.9973909968687
 30
0.0
 11
-271.7031999237199
 21
184.0224293124641
 31
0.0
  0
LINE
  5
46B
  8
1
  6
CONTINUOUS
 62
     7
 10
-271.6781616081246
 20
183.9973909968687
 30
0.0
 11
-271.6781616081246
 21
172.0497141266775
 31
0.0
  0
POLYLINE
  5
46C
  8
1
  6
CONTINUOUS
 62
     7
 66
     1
 10
0.0
 20
0.0
 30
0.0
  0
VERTEX
  5
824
  8
1
  6
CONTINUOUS
 62
     7
 10
-239.5805228148692
 20
176.5751831838151
 30
0.0
  0
VERTEX
  5
825
  8
1
  6
CONTINUOUS
 62
     7
 10
-239.5811121659355
 20
176.5992125963196
 30
0.0
  0
VERTEX
  5
826
  8
1
  6
CONTINUOUS
 62
     7
 10
-239.5828709257688
 20
176.6232543543061
 30
0.0
  0
VERTEX
  5
827
  8
1
  6
CONTINUOUS
 62
     7
 10
-239.5857851543204
 20
176.6472262408483
 30
0.0
  0
VERTEX
  5
828
  8
1
  6
CONTINUOUS
 62
     7
 10
-239.5898409115413
 20
176.6710460390198
 30
0.0
  0
VERTEX
  5
829
  8
1
  6
CONTINUOUS
 62
     7
 10
-239.5950242573829
 20
176.6946315318945
 30
0.0
  0
VERTEX
  5
82A
  8
1
  6
CONTINUOUS
 62
     7
 10
-239.6013212517963
 20
176.7179005025461
 30
0.0
  0
VERTEX
  5
82B
  8
1
  6
CONTINUOUS
 62
     7
 10
-239.608717954733
 20
176.7407707340484
 30
0.0
  0
VERTEX
  5
82C
  8
1
  6
CONTINUOUS
 62
     7
 10
-239.6172274545435
 20
176.7632510378897
 30
0.0
  0
VERTEX
  5
82D
  8
1
  6
CONTINUOUS
 62
     7
 10
-239.6268450137571
 20
176.7853558030166
 30
0.0
  0
VERTEX
  5
82E
  8
1
  6
CONTINUOUS
 62
     7
 10
-239.6375302388518
 20
176.8070119920025
 30
0.0
  0
VERTEX
  5
82F
  8
1
  6
CONTINUOUS
 62
     7
 10
-239.6492427363058
 20
176.8281465674214
 30
0.0
  0
VERTEX
  5
830
  8
1
  6
CONTINUOUS
 62
     7
 10
-239.6619421125971
 20
176.8486864918465
 30
0.0
  0
VERTEX
  5
831
  8
1
  6
CONTINUOUS
 62
     7
 10
-239.6755879742041
 20
176.8685587278518
 30
0.0
  0
VERTEX
  5
832
  8
1
  6
CONTINUOUS
 62
     7
 10
-239.6901399276047
 20
176.8876902380107
 30
0.0
  0
VERTEX
  5
833
  8
1
  6
CONTINUOUS
 62
     7
 10
-239.7056081840447
 20
176.9060792635333
 30
0.0
  0
VERTEX
  5
834
  8
1
  6
CONTINUOUS
 62
     7
 10
-239.7219974982809
 20
176.9237471590558
 30
0.0
  0
VERTEX
  5
835
  8
1
  6
CONTINUOUS
 62
     7
 10
-239.7392455656272
 20
176.9406384016498
 30
0.0
  0
VERTEX
  5
836
  8
1
  6
CONTINUOUS
 62
     7
 10
-239.7572900813977
 20
176.9566974683865
 30
0.0
  0
VERTEX
  5
837
  8
1
  6
CONTINUOUS
 62
     7
 10
-239.7760687409063
 20
176.9718688363374
 30
0.0
  0
VERTEX
  5
838
  8
1
  6
CONTINUOUS
 62
     7
 10
-239.795519239467
 20
176.9860969825739
 30
0.0
  0
VERTEX
  5
839
  8
1
  6
CONTINUOUS
 62
     7
 10
-239.8155792723936
 20
176.9993263841673
 30
0.0
  0
VERTEX
  5
83A
  8
1
  6
CONTINUOUS
 62
     7
 10
-239.8362556371313
 20
177.0115507806799
 30
0.0
  0
VERTEX
  5
83B
  8
1
  6
CONTINUOUS
 62
     7
 10
-239.8575619547848
 20
177.0227902344305
 30
0.0
  0
VERTEX
  5
83C
  8
1
  6
CONTINUOUS
 62
     7
 10
-239.8794210964695
 20
177.0330130486297
 30
0.0
  0
VERTEX
  5
83D
  8
1
  6
CONTINUOUS
 62
     7
 10
-239.901755933301
 20
177.0421875264877
 30
0.0
  0
VERTEX
  5
83E
  8
1
  6
CONTINUOUS
 62
     7
 10
-239.9244893363949
 20
177.0502819712149
 30
0.0
  0
VERTEX
  5
83F
  8
1
  6
CONTINUOUS
 62
     7
 10
-239.9475441768666
 20
177.0572646860218
 30
0.0
  0
VERTEX
  5
840
  8
1
  6
CONTINUOUS
 62
     7
 10
-239.9708433258317
 20
177.0631039741187
 30
0.0
  0
VERTEX
  5
841
  8
1
  6
CONTINUOUS
 62
     7
 10
-239.9943954569191
 20
177.067792494977
 30
0.0
  0
VERTEX
  5
842
  8
1
  6
CONTINUOUS
 62
     7
 10
-240.0182157829327
 20
177.0713435354005
 30
0.0
  0
VERTEX
  5
843
  8
1
  6
CONTINUOUS
 62
     7
 10
-240.0422210960975
 20
177.0737527696299
 30
0.0
  0
VERTEX
  5
844
  8
1
  6
CONTINUOUS
 62
     7
 10
-240.0663281886382
 20
177.0750158719057
 30
0.0
  0
VERTEX
  5
845
  8
1
  6
CONTINUOUS
 62
     7
 10
-240.0904538527794
 20
177.0751285164685
 30
0.0
  0
VERTEX
  5
846
  8
1
  6
CONTINUOUS
 62
     7
 10
-240.114514880746
 20
177.0740863775587
 30
0.0
  0
VERTEX
  5
847
  8
1
  6
CONTINUOUS
 62
     7
 10
-240.1384280647627
 20
177.0718851294171
 30
0.0
  0
VERTEX
  5
848
  8
1
  6
CONTINUOUS
 62
     7
 10
-240.162205880169
 20
177.0685139172491
 30
0.0
  0
VERTEX
  5
849
  8
1
  6
CONTINUOUS
 62
     7
 10
-240.1858602863842
 20
177.063980738268
 30
0.0
  0
VERTEX
  5
84A
  8
1
  6
CONTINUOUS
 62
     7
 10
-240.2093113797811
 20
177.0583090682305
 30
0.0
  0
VERTEX
  5
84B
  8
1
  6
CONTINUOUS
 62
     7
 10
-240.2324792567326
 20
177.0515223828935
 30
0.0
  0
VERTEX
  5
84C
  8
1
  6
CONTINUOUS
 62
     7
 10
-240.2552840136114
 20
177.0436441580141
 30
0.0
  0
VERTEX
  5
84D
  8
1
  6
CONTINUOUS
 62
     7
 10
-240.2776457467903
 20
177.0346978693491
 30
0.0
  0
VERTEX
  5
84E
  8
1
  6
CONTINUOUS
 62
     7
 10
-240.2994845526423
 20
177.0247069926553
 30
0.0
  0
VERTEX
  5
84F
  8
1
  6
CONTINUOUS
 62
     7
 10
-240.3208140766636
 20
177.013654192848
 30
0.0
  0
VERTEX
  5
850
  8
1
  6
CONTINUOUS
 62
     7
 10
-240.3416425460721
 20
177.0015455106323
 30
0.0
  0
VERTEX
  5
851
  8
1
  6
CONTINUOUS
 62
     7
 10
-240.3619023225809
 20
176.9884295445712
 30
0.0
  0
VERTEX
  5
852
  8
1
  6
CONTINUOUS
 62
     7
 10
-240.3815257679027
 20
176.9743548932279
 30
0.0
  0
VERTEX
  5
853
  8
1
  6
CONTINUOUS
 62
     7
 10
-240.4004452437505
 20
176.9593701551654
 30
0.0
  0
VERTEX
  5
854
  8
1
  6
CONTINUOUS
 62
     7
 10
-240.4185931118372
 20
176.9435239289469
 30
0.0
  0
VERTEX
  5
855
  8
1
  6
CONTINUOUS
 62
     7
 10
-240.4359017338756
 20
176.9268648131354
 30
0.0
  0
VERTEX
  5
856
  8
1
  6
CONTINUOUS
 62
     7
 10
-240.4519995866975
 20
176.9098067955241
 30
0.0
  0
VERTEX
  5
857
  8
1
  6
CONTINUOUS
 62
     7
 10
-240.4672971462728
 20
176.8919934754322
 30
0.0
  0
VERTEX
  5
858
  8
1
  6
CONTINUOUS
 62
     7
 10
-240.4817454803143
 20
176.8734846791401
 30
0.0
  0
VERTEX
  5
859
  8
1
  6
CONTINUOUS
 62
     7
 10
-240.4952956565346
 20
176.854340232929
 30
0.0
  0
SEQEND
  5
9B9
  8
1
  6
CONTINUOUS
 62
     7
  0
LINE
  5
46D
  8
1
  6
CONTINUOUS
 62
     9
 10
-240.4952956565346
 20
176.854340232929
 30
0.0
 11
-240.4735216892194
 21
176.9334644200945
 31
0.0
  0
LINE
  5
46E
  8
1
  6
CONTINUOUS
 62
     9
 10
-299.6871533941027
 20
174.4976368765881
 30
0.0
 11
-297.7215310288911
 21
174.4976368765881
 31
0.0
  0
LINE
  5
46F
  8
1
  6
CONTINUOUS
 62
     9
 10
-280.6871533941027
 20
174.4976368765881
 30
0.0
 11
-278.7215310288911
 21
174.4976368765881
 31
0.0
  0
LINE
  5
470
  8
1
  6
CONTINUOUS
 62
     7
 10
-275.6707491429469
 20
185.0123548722564
 30
0.0
 11
-274.1919358905154
 21
186.9987399198102
 31
0.0
  0
LINE
  5
471
  8
1
  6
CONTINUOUS
 62
     7
 10
-274.1919358905154
 20
186.9987399198102
 30
0.0
 11
-269.0043422114969
 21
186.9987399198102
 31
0.0
  0
LINE
  5
472
  8
1
  6
CONTINUOUS
 62
     7
 10
-255.4043422114969
 20
186.9987399198102
 30
0.0
 11
-245.2288502379731
 21
186.9987399198102
 31
0.0
  0
LINE
  5
473
  8
1
  6
CONTINUOUS
 62
     7
 10
-275.6706507233924
 20
184.9900895381835
 30
0.0
 11
-275.6707491429469
 21
185.0123548722564
 31
0.0
  0
LINE
  5
474
  8
1
  6
CONTINUOUS
 62
     9
 10
-250.8551799519327
 20
180.0235525617731
 30
0.0
 11
-250.8805228148692
 21
180.0235525617731
 31
0.0
  0
ARC
  5
475
  8
1
  6
CONTINUOUS
 62
     7
 10
-245.2043422114969
 20
180.0235525617731
 30
0.0
 40
5.67618060337228
 50
180.0
 51
326.0592453494596
  0
LINE
  5
476
  8
1
  6
CONTINUOUS
 62
     7
 10
-284.7043422114969
 20
178.5148256939823
 30
0.0
 11
-293.7043422114969
 21
178.5148256939823
 31
0.0
  0
LINE
  5
477
  8
1
  6
CONTINUOUS
 62
     7
 10
-282.4543422114969
 20
178.5235525617731
 30
0.0
 11
-295.9543422114969
 21
178.5235525617731
 31
0.0
  0
LINE
  5
478
  8
1
  6
CONTINUOUS
 62
     7
 10
-250.8805228148692
 20
180.0235525617731
 30
0.0
 11
-250.8805228148692
 21
183.9973909968687
 31
0.0
  0
LINE
  5
479
  8
1
  6
CONTINUOUS
 62
     9
 10
-250.8554844992738
 20
184.0224293124641
 30
0.0
 11
-250.8805228148691
 21
183.9973909968687
 31
0.0
  0
POLYLINE
  5
47A
  8
1
  6
CONTINUOUS
 62
     7
 66
     1
 10
0.0
 20
0.0
 30
0.0
  0
VERTEX
  5
85A
  8
1
  6
CONTINUOUS
 62
     7
 10
-250.8805228148691
 20
183.9973909968687
 30
0.0
  0
VERTEX
  5
85B
  8
1
  6
CONTINUOUS
 62
     7
 10
-250.8901296119496
 20
184.0949344721198
 30
0.0
  0
VERTEX
  5
85C
  8
1
  6
CONTINUOUS
 62
     7
 10
-250.918580855047
 20
184.1887283054407
 30
0.0
  0
VERTEX
  5
85D
  8
1
  6
CONTINUOUS
 62
     7
 10
-250.9647832845144
 20
184.2751684007731
 30
0.0
  0
VERTEX
  5
85E
  8
1
  6
CONTINUOUS
 62
     7
 10
-251.0269615384966
 20
184.3509332347734
 30
0.0
  0
VERTEX
  5
85F
  8
1
  6
CONTINUOUS
 62
     7
 10
-251.1027263724968
 20
184.4131114887556
 30
0.0
  0
VERTEX
  5
860
  8
1
  6
CONTINUOUS
 62
     7
 10
-251.1891664678293
 20
184.4593139182229
 30
0.0
  0
VERTEX
  5
861
  8
1
  6
CONTINUOUS
 62
     7
 10
-251.2829603011501
 20
184.4877651613203
 30
0.0
  0
VERTEX
  5
862
  8
1
  6
CONTINUOUS
 62
     7
 10
-251.3805037764012
 20
184.4973719584008
 30
0.0
  0
SEQEND
  5
9BA
  8
1
  6
CONTINUOUS
 62
     7
  0
LINE
  5
47B
  8
1
  6
CONTINUOUS
 62
     9
 10
-251.3805037764012
 20
184.4973719584008
 30
0.0
 11
-251.355503535567
 21
184.5223721992351
 31
0.0
  0
LINE
  5
47C
  8
1
  6
CONTINUOUS
 62
     9
 10
-271.2031808874268
 20
184.5223721992351
 30
0.0
 11
-271.1781806465925
 21
184.4973719584008
 31
0.0
  0
POLYLINE
  5
47D
  8
1
  6
CONTINUOUS
 62
     7
 66
     1
 10
0.0
 20
0.0
 30
0.0
  0
VERTEX
  5
863
  8
1
  6
CONTINUOUS
 62
     7
 10
-271.1781806465925
 20
184.4973719584008
 30
0.0
  0
VERTEX
  5
864
  8
1
  6
CONTINUOUS
 62
     7
 10
-271.2757241218436
 20
184.4877651613203
 30
0.0
  0
VERTEX
  5
865
  8
1
  6
CONTINUOUS
 62
     7
 10
-271.3695179551644
 20
184.4593139182229
 30
0.0
  0
VERTEX
  5
866
  8
1
  6
CONTINUOUS
 62
     7
 10
-271.4559580504969
 20
184.4131114887556
 30
0.0
  0
VERTEX
  5
867
  8
1
  6
CONTINUOUS
 62
     7
 10
-271.5317228844972
 20
184.3509332347734
 30
0.0
  0
VERTEX
  5
868
  8
1
  6
CONTINUOUS
 62
     7
 10
-271.5939011384794
 20
184.2751684007731
 30
0.0
  0
VERTEX
  5
869
  8
1
  6
CONTINUOUS
 62
     7
 10
-271.6401035679467
 20
184.1887283054407
 30
0.0
  0
VERTEX
  5
86A
  8
1
  6
CONTINUOUS
 62
     7
 10
-271.6685548110441
 20
184.0949344721198
 30
0.0
  0
VERTEX
  5
86B
  8
1
  6
CONTINUOUS
 62
     7
 10
-271.6781616081246
 20
183.9973909968687
 30
0.0
  0
SEQEND
  5
9BB
  8
1
  6
CONTINUOUS
 62
     7
  0
LINE
  5
47E
  8
1
  6
CONTINUOUS
 62
     9
 10
-323.7031808874268
 20
184.5223721992351
 30
0.0
 11
-323.6781806465925
 21
184.4973719584008
 31
0.0
  0
POLYLINE
  5
47F
  8
1
  6
CONTINUOUS
 62
     7
 66
     1
 10
0.0
 20
0.0
 30
0.0
  0
VERTEX
  5
86C
  8
1
  6
CONTINUOUS
 62
     7
 10
-323.6781806465925
 20
184.4973719584008
 30
0.0
  0
VERTEX
  5
86D
  8
1
  6
CONTINUOUS
 62
     7
 10
-323.7757241218436
 20
184.4877651613203
 30
0.0
  0
VERTEX
  5
86E
  8
1
  6
CONTINUOUS
 62
     7
 10
-323.8695179551644
 20
184.459313918223
 30
0.0
  0
VERTEX
  5
86F
  8
1
  6
CONTINUOUS
 62
     7
 10
-323.9559580504969
 20
184.4131114887556
 30
0.0
  0
VERTEX
  5
870
  8
1
  6
CONTINUOUS
 62
     7
 10
-324.0317228844972
 20
184.3509332347734
 30
0.0
  0
VERTEX
  5
871
  8
1
  6
CONTINUOUS
 62
     7
 10
-324.0939011384794
 20
184.2751684007731
 30
0.0
  0
VERTEX
  5
872
  8
1
  6
CONTINUOUS
 62
     7
 10
-324.1401035679467
 20
184.1887283054407
 30
0.0
  0
VERTEX
  5
873
  8
1
  6
CONTINUOUS
 62
     7
 10
-324.1685548110441
 20
184.0949344721198
 30
0.0
  0
VERTEX
  5
874
  8
1
  6
CONTINUOUS
 62
     7
 10
-324.1781616081246
 20
183.9973909968687
 30
0.0
  0
SEQEND
  5
9BC
  8
1
  6
CONTINUOUS
 62
     7
  0
POLYLINE
  5
480
  8
1
  6
CONTINUOUS
 62
     7
 66
     1
 10
0.0
 20
0.0
 30
0.0
  0
VERTEX
  5
875
  8
1
  6
CONTINUOUS
 62
     7
 10
-306.7305228148691
 20
183.9973909968687
 30
0.0
  0
VERTEX
  5
876
  8
1
  6
CONTINUOUS
 62
     7
 10
-306.7401296119496
 20
184.0949344721198
 30
0.0
  0
VERTEX
  5
877
  8
1
  6
CONTINUOUS
 62
     7
 10
-306.768580855047
 20
184.1887283054407
 30
0.0
  0
VERTEX
  5
878
  8
1
  6
CONTINUOUS
 62
     7
 10
-306.8147832845143
 20
184.2751684007731
 30
0.0
  0
VERTEX
  5
879
  8
1
  6
CONTINUOUS
 62
     7
 10
-306.8769615384965
 20
184.3509332347734
 30
0.0
  0
VERTEX
  5
87A
  8
1
  6
CONTINUOUS
 62
     7
 10
-306.9527263724968
 20
184.4131114887556
 30
0.0
  0
VERTEX
  5
87B
  8
1
  6
CONTINUOUS
 62
     7
 10
-307.0391664678293
 20
184.459313918223
 30
0.0
  0
VERTEX
  5
87C
  8
1
  6
CONTINUOUS
 62
     7
 10
-307.1329603011501
 20
184.4877651613203
 30
0.0
  0
VERTEX
  5
87D
  8
1
  6
CONTINUOUS
 62
     7
 10
-307.2305037764012
 20
184.4973719584008
 30
0.0
  0
SEQEND
  5
9BD
  8
1
  6
CONTINUOUS
 62
     7
  0
LINE
  5
481
  8
1
  6
CONTINUOUS
 62
     9
 10
-307.2305037764012
 20
184.4973719584008
 30
0.0
 11
-307.2055035355669
 21
184.5223721992351
 31
0.0
  0
LINE
  5
482
  8
1
  6
CONTINUOUS
 62
     7
 10
-302.7043422114969
 20
184.0235525617731
 30
0.0
 11
-302.7043422114969
 21
185.0235525617731
 31
0.0
  0
LINE
  5
483
  8
1
  6
CONTINUOUS
 62
     7
 10
-302.7043422114969
 20
184.0235525617731
 30
0.0
 11
-302.7381047380443
 21
184.0573150883206
 31
0.0
  0
LINE
  5
484
  8
1
  6
CONTINUOUS
 62
     7
 10
-302.7379352800468
 20
185.0123548722564
 30
0.0
 11
-302.7380336996012
 21
184.9900895381835
 31
0.0
  0
LINE
  5
485
  8
1
  6
CONTINUOUS
 62
     7
 10
-302.7043422114969
 20
185.0235525617731
 30
0.0
 11
-302.7379352800468
 21
185.0123548722564
 31
0.0
  0
LINE
  5
486
  8
1
  6
CONTINUOUS
 62
     7
 10
-275.7043422114969
 20
184.0235525617731
 30
0.0
 11
-275.6705796849494
 21
184.0573150883206
 31
0.0
  0
LINE
  5
487
  8
1
  6
CONTINUOUS
 62
     7
 10
-275.7043422114969
 20
185.0235525617731
 30
0.0
 11
-275.7043422114969
 21
184.0235525617731
 31
0.0
  0
LINE
  5
488
  8
1
  6
CONTINUOUS
 62
     7
 10
-275.6707491429469
 20
185.0123548722564
 30
0.0
 11
-275.7043422114969
 21
185.0235525617731
 31
0.0
  0
LINE
  5
489
  8
1
  6
CONTINUOUS
 62
     7
 10
-275.7043422114969
 20
184.0235525617731
 30
0.0
 11
-274.2043422114969
 21
184.0235525617731
 31
0.0
  0
LINE
  5
48A
  8
1
  6
CONTINUOUS
 62
     7
 10
-304.2043422114969
 20
184.0235525617731
 30
0.0
 11
-302.7043422114969
 21
184.0235525617731
 31
0.0
  0
LINE
  5
48B
  8
1
  6
CONTINUOUS
 62
     7
 10
-251.3805037764012
 20
184.4973719584008
 30
0.0
 11
-255.4043422114969
 21
184.4973719584008
 31
0.0
  0
LINE
  5
48C
  8
1
  6
CONTINUOUS
 62
     7
 10
-269.0043422114969
 20
184.4973719584008
 30
0.0
 11
-271.1781806465925
 21
184.4973719584008
 31
0.0
  0
LINE
  5
48D
  8
1
  6
CONTINUOUS
 62
     7
 10
-323.6781806465925
 20
184.4973719584008
 30
0.0
 11
-307.2305037764012
 21
184.4973719584008
 31
0.0
  0
LINE
  5
48E
  8
1
  6
CONTINUOUS
 62
     7
 10
-304.2167485324783
 20
186.9987399198102
 30
0.0
 11
-302.7379352800469
 21
185.0123548722564
 31
0.0
  0
LINE
  5
48F
  8
1
  6
CONTINUOUS
 62
     7
 10
-302.7043422114969
 20
185.0235525617731
 30
0.0
 11
-304.2043422114969
 21
187.0235525617731
 31
0.0
  0
LINE
  5
490
  8
1
  6
CONTINUOUS
 62
     7
 10
-274.2043422114969
 20
187.0235525617731
 30
0.0
 11
-275.7043422114969
 21
185.0235525617731
 31
0.0
  0
LINE
  5
491
  8
1
  6
CONTINUOUS
 62
     7
 10
-274.2043422114969
 20
187.0235525617731
 30
0.0
 11
-274.1919358905154
 21
186.9987399198102
 31
0.0
  0
POLYLINE
  5
492
  8
1
  6
CONTINUOUS
 62
     7
 66
     1
 10
0.0
 20
0.0
 30
0.0
  0
VERTEX
  5
87E
  8
1
  6
CONTINUOUS
 62
     7
 10
-281.297073994221
 20
167.0518652568603
 30
0.0
  0
VERTEX
  5
87F
  8
1
  6
CONTINUOUS
 62
     7
 10
-281.3001914260228
 20
167.0518275548544
 30
0.0
  0
VERTEX
  5
880
  8
1
  6
CONTINUOUS
 62
     7
 10
-281.3298464456325
 20
167.0504954564572
 30
0.0
  0
VERTEX
  5
881
  8
1
  6
CONTINUOUS
 62
     7
 10
-281.3593000525537
 20
167.0474178210295
 30
0.0
  0
VERTEX
  5
882
  8
1
  6
CONTINUOUS
 62
     7
 10
-281.3887002889252
 20
167.0425720554823
 30
0.0
  0
VERTEX
  5
883
  8
1
  6
CONTINUOUS
 62
     7
 10
-281.4177954946186
 20
167.0359826971553
 30
0.0
  0
VERTEX
  5
884
  8
1
  6
CONTINUOUS
 62
     7
 10
-281.4520144566112
 20
167.0258525352914
 30
0.0
  0
VERTEX
  5
885
  8
1
  6
CONTINUOUS
 62
     7
 10
-281.485663294944
 20
167.0132286861416
 30
0.0
  0
VERTEX
  5
886
  8
1
  6
CONTINUOUS
 62
     7
 10
-281.5186072656394
 20
166.9981016245584
 30
0.0
  0
VERTEX
  5
887
  8
1
  6
CONTINUOUS
 62
     7
 10
-281.5434335779513
 20
166.984726975751
 30
0.0
  0
VERTEX
  5
888
  8
1
  6
CONTINUOUS
 62
     7
 10
-281.5677695109517
 20
166.9697989241314
 30
0.0
  0
VERTEX
  5
889
  8
1
  6
CONTINUOUS
 62
     7
 10
-281.5915318152313
 20
166.9532951468734
 30
0.0
  0
VERTEX
  5
88A
  8
1
  6
CONTINUOUS
 62
     7
 10
-281.6146372413809
 20
166.9351933211508
 30
0.0
  0
VERTEX
  5
88B
  8
1
  6
CONTINUOUS
 62
     7
 10
-281.6346912004219
 20
166.9176144315726
 30
0.0
  0
VERTEX
  5
88C
  8
1
  6
CONTINUOUS
 62
     7
 10
-281.6541297618522
 20
166.8986602603089
 30
0.0
  0
VERTEX
  5
88D
  8
1
  6
CONTINUOUS
 62
     7
 10
-281.6728610665699
 20
166.8783094231657
 30
0.0
  0
VERTEX
  5
88E
  8
1
  6
CONTINUOUS
 62
     7
 10
-281.6867256836472
 20
166.8616951328193
 30
0.0
  0
VERTEX
  5
88F
  8
1
  6
CONTINUOUS
 62
     7
 10
-281.7001019452746
 20
166.8441865959981
 30
0.0
  0
VERTEX
  5
890
  8
1
  6
CONTINUOUS
 62
     7
 10
-281.7129249872801
 20
166.8257831925893
 30
0.0
  0
VERTEX
  5
891
  8
1
  6
CONTINUOUS
 62
     7
 10
-281.7251299454915
 20
166.8064843024799
 30
0.0
  0
VERTEX
  5
892
  8
1
  6
CONTINUOUS
 62
     7
 10
-281.7344098705327
 20
166.7903904674428
 30
0.0
  0
VERTEX
  5
893
  8
1
  6
CONTINUOUS
 62
     7
 10
-281.7432323681309
 20
166.7736926652926
 30
0.0
  0
VERTEX
  5
894
  8
1
  6
CONTINUOUS
 62
     7
 10
-281.7515505161089
 20
166.756406152587
 30
0.0
  0
VERTEX
  5
895
  8
1
  6
CONTINUOUS
 62
     7
 10
-281.7575499430112
 20
166.7427801437831
 30
0.0
  0
VERTEX
  5
896
  8
1
  6
CONTINUOUS
 62
     7
 10
-281.7632168157334
 20
166.7288002011499
 30
0.0
  0
VERTEX
  5
897
  8
1
  6
CONTINUOUS
 62
     7
 10
-281.7685257140377
 20
166.71448537222
 30
0.0
  0
VERTEX
  5
898
  8
1
  6
CONTINUOUS
 62
     7
 10
-281.7734512176863
 20
166.6998547045258
 30
0.0
  0
VERTEX
  5
899
  8
1
  6
CONTINUOUS
 62
     7
 10
-281.7779009206029
 20
166.6851629759616
 30
0.0
  0
VERTEX
  5
89A
  8
1
  6
CONTINUOUS
 62
     7
 10
-281.7819456047151
 20
166.6701684289568
 30
0.0
  0
VERTEX
  5
89B
  8
1
  6
CONTINUOUS
 62
     7
 10
-281.7855608861354
 20
166.6549078162988
 30
0.0
  0
VERTEX
  5
89C
  8
1
  6
CONTINUOUS
 62
     7
 10
-281.7887223809757
 20
166.6394178907754
 30
0.0
  0
VERTEX
  5
89D
  8
1
  6
CONTINUOUS
 62
     7
 10
-281.7915026348943
 20
166.6231155209517
 30
0.0
  0
VERTEX
  5
89E
  8
1
  6
CONTINUOUS
 62
     7
 10
-281.7937616368339
 20
166.606592784197
 30
0.0
  0
VERTEX
  5
89F
  8
1
  6
CONTINUOUS
 62
     7
 10
-281.7954819477823
 20
166.5899134820572
 30
0.0
  0
VERTEX
  5
8A0
  8
1
  6
CONTINUOUS
 62
     7
 10
-281.7966461287276
 20
166.5731414160782
 30
0.0
  0
SEQEND
  5
9BE
  8
1
  6
CONTINUOUS
 62
     7
  0
POLYLINE
  5
493
  8
1
  6
CONTINUOUS
 62
     7
 66
     1
 10
0.0
 20
0.0
 30
0.0
  0
VERTEX
  5
8A1
  8
1
  6
CONTINUOUS
 62
     7
 10
-281.298557799696
 20
167.0235525617731
 30
0.0
  0
VERTEX
  5
8A2
  8
1
  6
CONTINUOUS
 62
     7
 10
-281.3928914502235
 20
167.0145727601542
 30
0.0
  0
VERTEX
  5
8A3
  8
1
  6
CONTINUOUS
 62
     7
 10
-281.4838369115759
 20
166.9879558903646
 30
0.0
  0
VERTEX
  5
8A4
  8
1
  6
CONTINUOUS
 62
     7
 10
-281.5681276193347
 20
166.9446579728422
 30
0.0
  0
VERTEX
  5
8A5
  8
1
  6
CONTINUOUS
 62
     7
 10
-281.6427360334475
 20
166.886234175208
 30
0.0
  0
VERTEX
  5
8A6
  8
1
  6
CONTINUOUS
 62
     7
 10
-281.7049823809246
 20
166.8147829540067
 30
0.0
  0
VERTEX
  5
8A7
  8
1
  6
CONTINUOUS
 62
     7
 10
-281.7526309074926
 20
166.732870682682
 30
0.0
  0
VERTEX
  5
8A8
  8
1
  6
CONTINUOUS
 62
     7
 10
-281.7839701810558
 20
166.6434394729898
 30
0.0
  0
VERTEX
  5
8A9
  8
1
  6
CONTINUOUS
 62
     7
 10
-281.797874562639
 20
166.5497015007017
 30
0.0
  0
SEQEND
  5
9BF
  8
1
  6
CONTINUOUS
 62
     7
  0
LINE
  5
494
  8
1
  6
CONTINUOUS
 62
     7
 10
-283.9873077004976
 20
166.7020877182788
 30
0.0
 11
-283.9543422114969
 21
166.5235335225802
 31
0.0
  0
LINE
  5
495
  8
1
  6
CONTINUOUS
 62
     7
 10
-281.7966461287276
 20
166.5731414160782
 30
0.0
 11
-281.7977945856393
 21
166.5512275527646
 31
0.0
  0
LINE
  5
496
  8
1
  6
CONTINUOUS
 62
     9
 10
-281.7977945856393
 20
166.5512275527646
 30
0.0
 11
-283.9543422114969
 21
166.5235335225802
 31
0.0
  0
POLYLINE
  5
497
  8
1
  6
CONTINUOUS
 62
     7
 66
     1
 10
0.0
 20
0.0
 30
0.0
  0
VERTEX
  5
8AA
  8
1
  6
CONTINUOUS
 62
     7
 10
-284.4543392825562
 20
167.0235525617731
 30
0.0
  0
VERTEX
  5
8AB
  8
1
  6
CONTINUOUS
 62
     7
 10
-284.4335715928347
 20
167.0231193846783
 30
0.0
  0
VERTEX
  5
8AC
  8
1
  6
CONTINUOUS
 62
     7
 10
-284.4128218884222
 20
167.0218228296749
 30
0.0
  0
VERTEX
  5
8AD
  8
1
  6
CONTINUOUS
 62
     7
 10
-284.3921437540333
 20
167.0196673611847
 30
0.0
  0
VERTEX
  5
8AE
  8
1
  6
CONTINUOUS
 62
     7
 10
-284.3715907743821
 20
167.0166574436293
 30
0.0
  0
VERTEX
  5
8AF
  8
1
  6
CONTINUOUS
 62
     7
 10
-284.350590933593
 20
167.0126680773703
 30
0.0
  0
VERTEX
  5
8B0
  8
1
  6
CONTINUOUS
 62
     7
 10
-284.3297617398658
 20
167.0077802895375
 30
0.0
  0
VERTEX
  5
8B1
  8
1
  6
CONTINUOUS
 62
     7
 10
-284.3091599363531
 20
167.002008680021
 30
0.0
  0
VERTEX
  5
8B2
  8
1
  6
CONTINUOUS
 62
     7
 10
-284.288842266208
 20
166.9953678487106
 30
0.0
  0
VERTEX
  5
8B3
  8
1
  6
CONTINUOUS
 62
     7
 10
-284.2693886685016
 20
166.988084850479
 30
0.0
  0
VERTEX
  5
8B4
  8
1
  6
CONTINUOUS
 62
     7
 10
-284.2502378245309
 20
166.9799931015563
 30
0.0
  0
VERTEX
  5
8B5
  8
1
  6
CONTINUOUS
 62
     7
 10
-284.231438818575
 20
166.9711145539218
 30
0.0
  0
VERTEX
  5
8B6
  8
1
  6
CONTINUOUS
 62
     7
 10
-284.2130407349135
 20
166.961471159555
 30
0.0
  0
VERTEX
  5
8B7
  8
1
  6
CONTINUOUS
 62
     7
 10
-284.1945451909543
 20
166.9507556368714
 30
0.0
  0
VERTEX
  5
8B8
  8
1
  6
CONTINUOUS
 62
     7
 10
-284.1765080470824
 20
166.9392488388771
 30
0.0
  0
VERTEX
  5
8B9
  8
1
  6
CONTINUOUS
 62
     7
 10
-284.1589780111125
 20
166.9269833257636
 30
0.0
  0
VERTEX
  5
8BA
  8
1
  6
CONTINUOUS
 62
     7
 10
-284.1420037908596
 20
166.9139916577224
 30
0.0
  0
VERTEX
  5
8BB
  8
1
  6
CONTINUOUS
 62
     7
 10
-284.1260572715424
 20
166.9006798742849
 30
0.0
  0
VERTEX
  5
8BC
  8
1
  6
CONTINUOUS
 62
     7
 10
-284.1106641328595
 20
166.8867051463168
 30
0.0
  0
VERTEX
  5
8BD
  8
1
  6
CONTINUOUS
 62
     7
 10
-284.0958634231665
 20
166.872104435781
 30
0.0
  0
VERTEX
  5
8BE
  8
1
  6
CONTINUOUS
 62
     7
 10
-284.0816941908186
 20
166.8569147046403
 30
0.0
  0
VERTEX
  5
8BF
  8
1
  6
CONTINUOUS
 62
     7
 10
-284.0677878695901
 20
166.8406810507712
 30
0.0
  0
VERTEX
  5
8C0
  8
1
  6
CONTINUOUS
 62
     7
 10
-284.054576004309
 20
166.823852466387
 30
0.0
  0
VERTEX
  5
8C1
  8
1
  6
CONTINUOUS
 62
     7
 10
-284.0420937767545
 20
166.8064757966567
 30
0.0
  0
VERTEX
  5
8C2
  8
1
  6
CONTINUOUS
 62
     7
 10
-284.039663571241
 20
166.8029050280908
 30
0.0
  0
SEQEND
  5
9C0
  8
1
  6
CONTINUOUS
 62
     7
  0
LINE
  5
498
  8
1
  6
CONTINUOUS
 62
     7
 10
-278.3690208517527
 20
166.8029050280908
 30
0.0
 11
-278.3992965850414
 21
166.7516128843481
 31
0.0
  0
LINE
  5
499
  8
1
  6
CONTINUOUS
 62
     9
 10
-278.4553238966462
 20
166.5242912931905
 30
0.0
 11
-280.6108898373545
 21
166.5512275527646
 31
0.0
  0
POLYLINE
  5
49A
  8
1
  6
CONTINUOUS
 62
     7
 66
     1
 10
0.0
 20
0.0
 30
0.0
  0
VERTEX
  5
8C3
  8
1
  6
CONTINUOUS
 62
     7
 10
-280.6120382942662
 20
166.5731414160782
 30
0.0
  0
VERTEX
  5
8C4
  8
1
  6
CONTINUOUS
 62
     7
 10
-280.6131788235245
 20
166.5895460603304
 30
0.0
  0
VERTEX
  5
8C5
  8
1
  6
CONTINUOUS
 62
     7
 10
-280.6148650522985
 20
166.6058887712091
 30
0.0
  0
VERTEX
  5
8C6
  8
1
  6
CONTINUOUS
 62
     7
 10
-280.6170753929189
 20
166.6221197320872
 30
0.0
  0
VERTEX
  5
8C7
  8
1
  6
CONTINUOUS
 62
     7
 10
-280.6197882577172
 20
166.6381891263378
 30
0.0
  0
VERTEX
  5
8C8
  8
1
  6
CONTINUOUS
 62
     7
 10
-280.622982059024
 20
166.654047137334
 30
0.0
  0
VERTEX
  5
8C9
  8
1
  6
CONTINUOUS
 62
     7
 10
-280.6266352091707
 20
166.6696439484487
 30
0.0
  0
VERTEX
  5
8CA
  8
1
  6
CONTINUOUS
 62
     7
 10
-280.6307261204881
 20
166.684929743055
 30
0.0
  0
VERTEX
  5
8CB
  8
1
  6
CONTINUOUS
 62
     7
 10
-280.6352332053074
 20
166.6998547045258
 30
0.0
  0
VERTEX
  5
8CC
  8
1
  6
CONTINUOUS
 62
     7
 10
-280.6418061669842
 20
166.71906413813
 30
0.0
  0
VERTEX
  5
8CD
  8
1
  6
CONTINUOUS
 62
     7
 10
-280.6490428324092
 20
166.7377369173797
 30
0.0
  0
VERTEX
  5
8CE
  8
1
  6
CONTINUOUS
 62
     7
 10
-280.656889598878
 20
166.7558441828571
 30
0.0
  0
VERTEX
  5
8CF
  8
1
  6
CONTINUOUS
 62
     7
 10
-280.6652928636861
 20
166.7733570751448
 30
0.0
  0
VERTEX
  5
8D0
  8
1
  6
CONTINUOUS
 62
     7
 10
-280.674199024129
 20
166.7902467348249
 30
0.0
  0
VERTEX
  5
8D1
  8
1
  6
CONTINUOUS
 62
     7
 10
-280.6835544775022
 20
166.8064843024799
 30
0.0
  0
VERTEX
  5
8D2
  8
1
  6
CONTINUOUS
 62
     7
 10
-280.6973464403246
 20
166.8281618812827
 30
0.0
  0
VERTEX
  5
8D3
  8
1
  6
CONTINUOUS
 62
     7
 10
-280.7119290376846
 20
166.8487276771961
 30
0.0
  0
VERTEX
  5
8D4
  8
1
  6
CONTINUOUS
 62
     7
 10
-280.7272264306981
 20
166.8681906447268
 30
0.0
  0
VERTEX
  5
8D5
  8
1
  6
CONTINUOUS
 62
     7
 10
-280.7431627804815
 20
166.8865597383811
 30
0.0
  0
VERTEX
  5
8D6
  8
1
  6
CONTINUOUS
 62
     7
 10
-280.759662248151
 20
166.9038439126656
 30
0.0
  0
VERTEX
  5
8D7
  8
1
  6
CONTINUOUS
 62
     7
 10
-280.7766489948227
 20
166.9200521220867
 30
0.0
  0
VERTEX
  5
8D8
  8
1
  6
CONTINUOUS
 62
     7
 10
-280.7940471816129
 20
166.9351933211508
 30
0.0
  0
VERTEX
  5
8D9
  8
1
  6
CONTINUOUS
 62
     7
 10
-280.8200970217968
 20
166.9554586142758
 30
0.0
  0
VERTEX
  5
8DA
  8
1
  6
CONTINUOUS
 62
     7
 10
-280.8470070712229
 20
166.9737357721869
 30
0.0
  0
VERTEX
  5
8DB
  8
1
  6
CONTINUOUS
 62
     7
 10
-280.8746752862168
 20
166.9900443138448
 30
0.0
  0
VERTEX
  5
8DC
  8
1
  6
CONTINUOUS
 62
     7
 10
-280.9029996231036
 20
167.00440375821
 30
0.0
  0
VERTEX
  5
8DD
  8
1
  6
CONTINUOUS
 62
     7
 10
-280.9318780382087
 20
167.0168336242432
 30
0.0
  0
VERTEX
  5
8DE
  8
1
  6
CONTINUOUS
 62
     7
 10
-280.9612084878574
 20
167.0273534309048
 30
0.0
  0
VERTEX
  5
8DF
  8
1
  6
CONTINUOUS
 62
     7
 10
-280.9908889283752
 20
167.0359826971553
 30
0.0
  0
VERTEX
  5
8E0
  8
1
  6
CONTINUOUS
 62
     7
 10
-281.0198731908093
 20
167.0425504990903
 30
0.0
  0
VERTEX
  5
8E1
  8
1
  6
CONTINUOUS
 62
     7
 10
-281.0491852945401
 20
167.0473913494286
 30
0.0
  0
VERTEX
  5
8E2
  8
1
  6
CONTINUOUS
 62
     7
 10
-281.0787502323373
 20
167.050489088055
 30
0.0
  0
VERTEX
  5
8E3
  8
1
  6
CONTINUOUS
 62
     7
 10
-281.1084929969709
 20
167.0518275548544
 30
0.0
  0
VERTEX
  5
8E4
  8
1
  6
CONTINUOUS
 62
     7
 10
-281.1116104287727
 20
167.0518652568603
 30
0.0
  0
SEQEND
  5
9C1
  8
1
  6
CONTINUOUS
 62
     7
  0
POLYLINE
  5
49B
  8
1
  6
CONTINUOUS
 62
     7
 66
     1
 10
0.0
 20
0.0
 30
0.0
  0
VERTEX
  5
8E5
  8
1
  6
CONTINUOUS
 62
     7
 10
-277.9543451404375
 20
167.0235525617731
 30
0.0
  0
VERTEX
  5
8E6
  8
1
  6
CONTINUOUS
 62
     7
 10
-277.9751128301591
 20
167.0231193846783
 30
0.0
  0
VERTEX
  5
8E7
  8
1
  6
CONTINUOUS
 62
     7
 10
-277.9958625345715
 20
167.0218228296749
 30
0.0
  0
VERTEX
  5
8E8
  8
1
  6
CONTINUOUS
 62
     7
 10
-278.0165406689605
 20
167.0196673611847
 30
0.0
  0
VERTEX
  5
8E9
  8
1
  6
CONTINUOUS
 62
     7
 10
-278.0370936486117
 20
167.0166574436293
 30
0.0
  0
VERTEX
  5
8EA
  8
1
  6
CONTINUOUS
 62
     7
 10
-278.0580934894007
 20
167.0126680773703
 30
0.0
  0
VERTEX
  5
8EB
  8
1
  6
CONTINUOUS
 62
     7
 10
-278.078922683128
 20
167.0077802895375
 30
0.0
  0
VERTEX
  5
8EC
  8
1
  6
CONTINUOUS
 62
     7
 10
-278.0995244866406
 20
167.002008680021
 30
0.0
  0
VERTEX
  5
8ED
  8
1
  6
CONTINUOUS
 62
     7
 10
-278.1198421567858
 20
166.9953678487106
 30
0.0
  0
VERTEX
  5
8EE
  8
1
  6
CONTINUOUS
 62
     7
 10
-278.1392957544921
 20
166.988084850479
 30
0.0
  0
VERTEX
  5
8EF
  8
1
  6
CONTINUOUS
 62
     7
 10
-278.1584465984629
 20
166.9799931015563
 30
0.0
  0
VERTEX
  5
8F0
  8
1
  6
CONTINUOUS
 62
     7
 10
-278.1772456044187
 20
166.9711145539218
 30
0.0
  0
VERTEX
  5
8F1
  8
1
  6
CONTINUOUS
 62
     7
 10
-278.1956436880802
 20
166.961471159555
 30
0.0
  0
VERTEX
  5
8F2
  8
1
  6
CONTINUOUS
 62
     7
 10
-278.2141392320395
 20
166.9507556368714
 30
0.0
  0
VERTEX
  5
8F3
  8
1
  6
CONTINUOUS
 62
     7
 10
-278.2321763759114
 20
166.9392488388771
 30
0.0
  0
VERTEX
  5
8F4
  8
1
  6
CONTINUOUS
 62
     7
 10
-278.2497064118812
 20
166.9269833257636
 30
0.0
  0
VERTEX
  5
8F5
  8
1
  6
CONTINUOUS
 62
     7
 10
-278.2666806321342
 20
166.9139916577224
 30
0.0
  0
VERTEX
  5
8F6
  8
1
  6
CONTINUOUS
 62
     7
 10
-278.2826271514513
 20
166.9006798742849
 30
0.0
  0
VERTEX
  5
8F7
  8
1
  6
CONTINUOUS
 62
     7
 10
-278.2980202901342
 20
166.8867051463168
 30
0.0
  0
VERTEX
  5
8F8
  8
1
  6
CONTINUOUS
 62
     7
 10
-278.3128209998274
 20
166.872104435781
 30
0.0
  0
VERTEX
  5
8F9
  8
1
  6
CONTINUOUS
 62
     7
 10
-278.3269902321751
 20
166.8569147046403
 30
0.0
  0
VERTEX
  5
8FA
  8
1
  6
CONTINUOUS
 62
     7
 10
-278.3408965534036
 20
166.8406810507712
 30
0.0
  0
VERTEX
  5
8FB
  8
1
  6
CONTINUOUS
 62
     7
 10
-278.3541084186848
 20
166.823852466387
 30
0.0
  0
VERTEX
  5
8FC
  8
1
  6
CONTINUOUS
 62
     7
 10
-278.3665906462393
 20
166.8064757966567
 30
0.0
  0
VERTEX
  5
8FD
  8
1
  6
CONTINUOUS
 62
     7
 10
-278.3690208517527
 20
166.8029050280908
 30
0.0
  0
SEQEND
  5
9C2
  8
1
  6
CONTINUOUS
 62
     7
  0
LINE
  5
49C
  8
1
  6
CONTINUOUS
 62
     7
 10
-278.4543422114969
 20
166.5235335225802
 30
0.0
 11
-278.4553238966462
 21
166.5242912931905
 31
0.0
  0
LINE
  5
49D
  8
1
  6
CONTINUOUS
 62
     7
 10
-280.6108898373544
 20
166.5512275527646
 30
0.0
 11
-280.6120382942662
 21
166.5731414160782
 31
0.0
  0
POLYLINE
  5
49E
  8
1
  6
CONTINUOUS
 62
     7
 66
     1
 10
0.0
 20
0.0
 30
0.0
  0
VERTEX
  5
8FE
  8
1
  6
CONTINUOUS
 62
     7
 10
-280.6108098603547
 20
166.5497015007017
 30
0.0
  0
VERTEX
  5
8FF
  8
1
  6
CONTINUOUS
 62
     7
 10
-280.6247142419379
 20
166.6434394729898
 30
0.0
  0
VERTEX
  5
900
  8
1
  6
CONTINUOUS
 62
     7
 10
-280.6560535155011
 20
166.732870682682
 30
0.0
  0
VERTEX
  5
901
  8
1
  6
CONTINUOUS
 62
     7
 10
-280.7037020420691
 20
166.8147829540067
 30
0.0
  0
VERTEX
  5
902
  8
1
  6
CONTINUOUS
 62
     7
 10
-280.7659483895462
 20
166.886234175208
 30
0.0
  0
VERTEX
  5
903
  8
1
  6
CONTINUOUS
 62
     7
 10
-280.840556803659
 20
166.9446579728422
 30
0.0
  0
VERTEX
  5
904
  8
1
  6
CONTINUOUS
 62
     7
 10
-280.9248475114178
 20
166.9879558903646
 30
0.0
  0
VERTEX
  5
905
  8
1
  6
CONTINUOUS
 62
     7
 10
-281.0157929727702
 20
167.0145727601542
 30
0.0
  0
VERTEX
  5
906
  8
1
  6
CONTINUOUS
 62
     7
 10
-281.1101266232977
 20
167.0235525617731
 30
0.0
  0
SEQEND
  5
9C3
  8
1
  6
CONTINUOUS
 62
     7
  0
LINE
  5
49F
  8
1
  6
CONTINUOUS
 62
     7
 10
-245.9873077004975
 20
166.7020877182786
 30
0.0
 11
-245.9543422114969
 21
166.5235335225802
 31
0.0
  0
POLYLINE
  5
4A0
  8
1
  6
CONTINUOUS
 62
     7
 66
     1
 10
0.0
 20
0.0
 30
0.0
  0
VERTEX
  5
907
  8
1
  6
CONTINUOUS
 62
     7
 10
-243.297073994221
 20
167.0518652568603
 30
0.0
  0
VERTEX
  5
908
  8
1
  6
CONTINUOUS
 62
     7
 10
-243.3001914260228
 20
167.0518275548544
 30
0.0
  0
VERTEX
  5
909
  8
1
  6
CONTINUOUS
 62
     7
 10
-243.3299341906566
 20
167.050489088055
 30
0.0
  0
VERTEX
  5
90A
  8
1
  6
CONTINUOUS
 62
     7
 10
-243.3594991284538
 20
167.0473913494286
 30
0.0
  0
VERTEX
  5
90B
  8
1
  6
CONTINUOUS
 62
     7
 10
-243.3888112321845
 20
167.0425504990903
 30
0.0
  0
VERTEX
  5
90C
  8
1
  6
CONTINUOUS
 62
     7
 10
-243.4177954946186
 20
167.0359826971553
 30
0.0
  0
VERTEX
  5
90D
  8
1
  6
CONTINUOUS
 62
     7
 10
-243.4474759351363
 20
167.0273534309048
 30
0.0
  0
VERTEX
  5
90E
  8
1
  6
CONTINUOUS
 62
     7
 10
-243.4768063847851
 20
167.0168336242432
 30
0.0
  0
VERTEX
  5
90F
  8
1
  6
CONTINUOUS
 62
     7
 10
-243.5056847998902
 20
167.00440375821
 30
0.0
  0
VERTEX
  5
910
  8
1
  6
CONTINUOUS
 62
     7
 10
-243.534009136777
 20
166.9900443138448
 30
0.0
  0
VERTEX
  5
911
  8
1
  6
CONTINUOUS
 62
     7
 10
-243.5616773517708
 20
166.9737357721869
 30
0.0
  0
VERTEX
  5
912
  8
1
  6
CONTINUOUS
 62
     7
 10
-243.588587401197
 20
166.9554586142758
 30
0.0
  0
VERTEX
  5
913
  8
1
  6
CONTINUOUS
 62
     7
 10
-243.6146372413809
 20
166.9351933211508
 30
0.0
  0
VERTEX
  5
914
  8
1
  6
CONTINUOUS
 62
     7
 10
-243.632035428171
 20
166.9200521220867
 30
0.0
  0
VERTEX
  5
915
  8
1
  6
CONTINUOUS
 62
     7
 10
-243.6490221748427
 20
166.9038439126656
 30
0.0
  0
VERTEX
  5
916
  8
1
  6
CONTINUOUS
 62
     7
 10
-243.6655216425122
 20
166.8865597383811
 30
0.0
  0
VERTEX
  5
917
  8
1
  6
CONTINUOUS
 62
     7
 10
-243.6814579922957
 20
166.8681906447268
 30
0.0
  0
VERTEX
  5
918
  8
1
  6
CONTINUOUS
 62
     7
 10
-243.6967553853092
 20
166.8487276771961
 30
0.0
  0
VERTEX
  5
919
  8
1
  6
CONTINUOUS
 62
     7
 10
-243.7113379826691
 20
166.8281618812827
 30
0.0
  0
VERTEX
  5
91A
  8
1
  6
CONTINUOUS
 62
     7
 10
-243.7251299454915
 20
166.8064843024799
 30
0.0
  0
VERTEX
  5
91B
  8
1
  6
CONTINUOUS
 62
     7
 10
-243.7344853988648
 20
166.7902467348249
 30
0.0
  0
VERTEX
  5
91C
  8
1
  6
CONTINUOUS
 62
     7
 10
-243.7433915593077
 20
166.7733570751448
 30
0.0
  0
VERTEX
  5
91D
  8
1
  6
CONTINUOUS
 62
     7
 10
-243.7517948241157
 20
166.7558441828571
 30
0.0
  0
VERTEX
  5
91E
  8
1
  6
CONTINUOUS
 62
     7
 10
-243.7596415905845
 20
166.7377369173797
 30
0.0
  0
VERTEX
  5
91F
  8
1
  6
CONTINUOUS
 62
     7
 10
-243.7668782560095
 20
166.71906413813
 30
0.0
  0
VERTEX
  5
920
  8
1
  6
CONTINUOUS
 62
     7
 10
-243.7734512176863
 20
166.6998547045258
 30
0.0
  0
VERTEX
  5
921
  8
1
  6
CONTINUOUS
 62
     7
 10
-243.7779583025056
 20
166.684929743055
 30
0.0
  0
VERTEX
  5
922
  8
1
  6
CONTINUOUS
 62
     7
 10
-243.7820492138231
 20
166.6696439484487
 30
0.0
  0
VERTEX
  5
923
  8
1
  6
CONTINUOUS
 62
     7
 10
-243.7857023639697
 20
166.654047137334
 30
0.0
  0
VERTEX
  5
924
  8
1
  6
CONTINUOUS
 62
     7
 10
-243.7888961652766
 20
166.6381891263378
 30
0.0
  0
VERTEX
  5
925
  8
1
  6
CONTINUOUS
 62
     7
 10
-243.7916090300748
 20
166.6221197320872
 30
0.0
  0
VERTEX
  5
926
  8
1
  6
CONTINUOUS
 62
     7
 10
-243.7938193706953
 20
166.6058887712091
 30
0.0
  0
VERTEX
  5
927
  8
1
  6
CONTINUOUS
 62
     7
 10
-243.7955055994692
 20
166.5895460603304
 30
0.0
  0
VERTEX
  5
928
  8
1
  6
CONTINUOUS
 62
     7
 10
-243.7966461287275
 20
166.5731414160782
 30
0.0
  0
SEQEND
  5
9C4
  8
1
  6
CONTINUOUS
 62
     7
  0
LINE
  5
4A1
  8
1
  6
CONTINUOUS
 62
     7
 10
-243.7966461287275
 20
166.5731414160782
 30
0.0
 11
-243.7977945856393
 21
166.5512275527646
 31
0.0
  0
LINE
  5
4A2
  8
1
  6
CONTINUOUS
 62
     9
 10
-243.7977945856393
 20
166.5512275527646
 30
0.0
 11
-245.9543422114969
 21
166.5235335225802
 31
0.0
  0
POLYLINE
  5
4A3
  8
1
  6
CONTINUOUS
 62
     7
 66
     1
 10
0.0
 20
0.0
 30
0.0
  0
VERTEX
  5
929
  8
1
  6
CONTINUOUS
 62
     7
 10
-246.4543392825562
 20
167.0235525617731
 30
0.0
  0
VERTEX
  5
92A
  8
1
  6
CONTINUOUS
 62
     7
 10
-246.4335715928347
 20
167.0231193846783
 30
0.0
  0
VERTEX
  5
92B
  8
1
  6
CONTINUOUS
 62
     7
 10
-246.4128218884222
 20
167.0218228296749
 30
0.0
  0
VERTEX
  5
92C
  8
1
  6
CONTINUOUS
 62
     7
 10
-246.3921437540333
 20
167.0196673611847
 30
0.0
  0
VERTEX
  5
92D
  8
1
  6
CONTINUOUS
 62
     7
 10
-246.3715907743821
 20
167.0166574436293
 30
0.0
  0
VERTEX
  5
92E
  8
1
  6
CONTINUOUS
 62
     7
 10
-246.350590933593
 20
167.0126680773703
 30
0.0
  0
VERTEX
  5
92F
  8
1
  6
CONTINUOUS
 62
     7
 10
-246.3297617398657
 20
167.0077802895375
 30
0.0
  0
VERTEX
  5
930
  8
1
  6
CONTINUOUS
 62
     7
 10
-246.3091599363532
 20
167.002008680021
 30
0.0
  0
VERTEX
  5
931
  8
1
  6
CONTINUOUS
 62
     7
 10
-246.288842266208
 20
166.9953678487106
 30
0.0
  0
VERTEX
  5
932
  8
1
  6
CONTINUOUS
 62
     7
 10
-246.2693886685016
 20
166.988084850479
 30
0.0
  0
VERTEX
  5
933
  8
1
  6
CONTINUOUS
 62
     7
 10
-246.2502378245309
 20
166.9799931015563
 30
0.0
  0
VERTEX
  5
934
  8
1
  6
CONTINUOUS
 62
     7
 10
-246.2314388185751
 20
166.9711145539218
 30
0.0
  0
VERTEX
  5
935
  8
1
  6
CONTINUOUS
 62
     7
 10
-246.2130407349135
 20
166.961471159555
 30
0.0
  0
VERTEX
  5
936
  8
1
  6
CONTINUOUS
 62
     7
 10
-246.1945451909543
 20
166.9507556368714
 30
0.0
  0
VERTEX
  5
937
  8
1
  6
CONTINUOUS
 62
     7
 10
-246.1765080470823
 20
166.9392488388771
 30
0.0
  0
VERTEX
  5
938
  8
1
  6
CONTINUOUS
 62
     7
 10
-246.1589780111125
 20
166.9269833257636
 30
0.0
  0
VERTEX
  5
939
  8
1
  6
CONTINUOUS
 62
     7
 10
-246.1420037908595
 20
166.9139916577224
 30
0.0
  0
VERTEX
  5
93A
  8
1
  6
CONTINUOUS
 62
     7
 10
-246.1260572715424
 20
166.9006798742849
 30
0.0
  0
VERTEX
  5
93B
  8
1
  6
CONTINUOUS
 62
     7
 10
-246.1106641328596
 20
166.8867051463168
 30
0.0
  0
VERTEX
  5
93C
  8
1
  6
CONTINUOUS
 62
     7
 10
-246.0958634231664
 20
166.872104435781
 30
0.0
  0
VERTEX
  5
93D
  8
1
  6
CONTINUOUS
 62
     7
 10
-246.0816941908186
 20
166.8569147046403
 30
0.0
  0
VERTEX
  5
93E
  8
1
  6
CONTINUOUS
 62
     7
 10
-246.0677878695901
 20
166.8406810507712
 30
0.0
  0
VERTEX
  5
93F
  8
1
  6
CONTINUOUS
 62
     7
 10
-246.054576004309
 20
166.823852466387
 30
0.0
  0
VERTEX
  5
940
  8
1
  6
CONTINUOUS
 62
     7
 10
-246.0420937767545
 20
166.8064757966567
 30
0.0
  0
VERTEX
  5
941
  8
1
  6
CONTINUOUS
 62
     7
 10
-246.039663571241
 20
166.8029050280908
 30
0.0
  0
SEQEND
  5
9C5
  8
1
  6
CONTINUOUS
 62
     7
  0
POLYLINE
  5
4A4
  8
1
  6
CONTINUOUS
 62
     7
 66
     1
 10
0.0
 20
0.0
 30
0.0
  0
VERTEX
  5
942
  8
1
  6
CONTINUOUS
 62
     7
 10
-243.2985577996961
 20
167.0235525617731
 30
0.0
  0
VERTEX
  5
943
  8
1
  6
CONTINUOUS
 62
     7
 10
-243.3928914502235
 20
167.0145727601542
 30
0.0
  0
VERTEX
  5
944
  8
1
  6
CONTINUOUS
 62
     7
 10
-243.483836911576
 20
166.9879558903646
 30
0.0
  0
VERTEX
  5
945
  8
1
  6
CONTINUOUS
 62
     7
 10
-243.5681276193347
 20
166.9446579728422
 30
0.0
  0
VERTEX
  5
946
  8
1
  6
CONTINUOUS
 62
     7
 10
-243.6427360334476
 20
166.886234175208
 30
0.0
  0
VERTEX
  5
947
  8
1
  6
CONTINUOUS
 62
     7
 10
-243.7049823809247
 20
166.8147829540067
 30
0.0
  0
VERTEX
  5
948
  8
1
  6
CONTINUOUS
 62
     7
 10
-243.7526309074926
 20
166.732870682682
 30
0.0
  0
VERTEX
  5
949
  8
1
  6
CONTINUOUS
 62
     7
 10
-243.7839701810558
 20
166.6434394729898
 30
0.0
  0
VERTEX
  5
94A
  8
1
  6
CONTINUOUS
 62
     7
 10
-243.797874562639
 20
166.5497015007017
 30
0.0
  0
SEQEND
  5
9C6
  8
1
  6
CONTINUOUS
 62
     7
  0
LINE
  5
4A5
  8
1
  6
CONTINUOUS
 62
     7
 10
-240.3690208517528
 20
166.8029050280908
 30
0.0
 11
-240.3992965850413
 21
166.7516128843482
 31
0.0
  0
LINE
  5
4A6
  8
1
  6
CONTINUOUS
 62
     9
 10
-240.4553238966461
 20
166.5242912931905
 30
0.0
 11
-242.6108898373544
 21
166.5512275527646
 31
0.0
  0
POLYLINE
  5
4A7
  8
1
  6
CONTINUOUS
 62
     7
 66
     1
 10
0.0
 20
0.0
 30
0.0
  0
VERTEX
  5
94B
  8
1
  6
CONTINUOUS
 62
     7
 10
-242.6120382942662
 20
166.5731414160782
 30
0.0
  0
VERTEX
  5
94C
  8
1
  6
CONTINUOUS
 62
     7
 10
-242.6131788235245
 20
166.5895460603304
 30
0.0
  0
VERTEX
  5
94D
  8
1
  6
CONTINUOUS
 62
     7
 10
-242.6148650522984
 20
166.6058887712091
 30
0.0
  0
VERTEX
  5
94E
  8
1
  6
CONTINUOUS
 62
     7
 10
-242.617075392919
 20
166.6221197320872
 30
0.0
  0
VERTEX
  5
94F
  8
1
  6
CONTINUOUS
 62
     7
 10
-242.6197882577171
 20
166.6381891263378
 30
0.0
  0
VERTEX
  5
950
  8
1
  6
CONTINUOUS
 62
     7
 10
-242.6229820590241
 20
166.654047137334
 30
0.0
  0
VERTEX
  5
951
  8
1
  6
CONTINUOUS
 62
     7
 10
-242.6266352091707
 20
166.6696439484487
 30
0.0
  0
VERTEX
  5
952
  8
1
  6
CONTINUOUS
 62
     7
 10
-242.6307261204881
 20
166.684929743055
 30
0.0
  0
VERTEX
  5
953
  8
1
  6
CONTINUOUS
 62
     7
 10
-242.6352332053074
 20
166.6998547045258
 30
0.0
  0
VERTEX
  5
954
  8
1
  6
CONTINUOUS
 62
     7
 10
-242.6418061669842
 20
166.71906413813
 30
0.0
  0
VERTEX
  5
955
  8
1
  6
CONTINUOUS
 62
     7
 10
-242.6490428324092
 20
166.7377369173797
 30
0.0
  0
VERTEX
  5
956
  8
1
  6
CONTINUOUS
 62
     7
 10
-242.656889598878
 20
166.7558441828571
 30
0.0
  0
VERTEX
  5
957
  8
1
  6
CONTINUOUS
 62
     7
 10
-242.6652928636861
 20
166.7733570751448
 30
0.0
  0
VERTEX
  5
958
  8
1
  6
CONTINUOUS
 62
     7
 10
-242.674199024129
 20
166.7902467348249
 30
0.0
  0
VERTEX
  5
959
  8
1
  6
CONTINUOUS
 62
     7
 10
-242.6835544775022
 20
166.8064843024799
 30
0.0
  0
VERTEX
  5
95A
  8
1
  6
CONTINUOUS
 62
     7
 10
-242.6973464403247
 20
166.8281618812827
 30
0.0
  0
VERTEX
  5
95B
  8
1
  6
CONTINUOUS
 62
     7
 10
-242.7119290376845
 20
166.8487276771961
 30
0.0
  0
VERTEX
  5
95C
  8
1
  6
CONTINUOUS
 62
     7
 10
-242.7272264306981
 20
166.8681906447268
 30
0.0
  0
VERTEX
  5
95D
  8
1
  6
CONTINUOUS
 62
     7
 10
-242.7431627804815
 20
166.8865597383811
 30
0.0
  0
VERTEX
  5
95E
  8
1
  6
CONTINUOUS
 62
     7
 10
-242.759662248151
 20
166.9038439126656
 30
0.0
  0
VERTEX
  5
95F
  8
1
  6
CONTINUOUS
 62
     7
 10
-242.7766489948227
 20
166.9200521220867
 30
0.0
  0
VERTEX
  5
960
  8
1
  6
CONTINUOUS
 62
     7
 10
-242.7940471816129
 20
166.9351933211508
 30
0.0
  0
VERTEX
  5
961
  8
1
  6
CONTINUOUS
 62
     7
 10
-242.8200970217967
 20
166.9554586142758
 30
0.0
  0
VERTEX
  5
962
  8
1
  6
CONTINUOUS
 62
     7
 10
-242.847007071223
 20
166.9737357721869
 30
0.0
  0
VERTEX
  5
963
  8
1
  6
CONTINUOUS
 62
     7
 10
-242.8746752862168
 20
166.9900443138448
 30
0.0
  0
VERTEX
  5
964
  8
1
  6
CONTINUOUS
 62
     7
 10
-242.9029996231036
 20
167.00440375821
 30
0.0
  0
VERTEX
  5
965
  8
1
  6
CONTINUOUS
 62
     7
 10
-242.9318780382087
 20
167.0168336242432
 30
0.0
  0
VERTEX
  5
966
  8
1
  6
CONTINUOUS
 62
     7
 10
-242.9612084878574
 20
167.0273534309048
 30
0.0
  0
VERTEX
  5
967
  8
1
  6
CONTINUOUS
 62
     7
 10
-242.9908889283751
 20
167.0359826971553
 30
0.0
  0
VERTEX
  5
968
  8
1
  6
CONTINUOUS
 62
     7
 10
-243.0198731908093
 20
167.0425504990903
 30
0.0
  0
VERTEX
  5
969
  8
1
  6
CONTINUOUS
 62
     7
 10
-243.0491852945399
 20
167.0473913494286
 30
0.0
  0
VERTEX
  5
96A
  8
1
  6
CONTINUOUS
 62
     7
 10
-243.0787502323371
 20
167.050489088055
 30
0.0
  0
VERTEX
  5
96B
  8
1
  6
CONTINUOUS
 62
     7
 10
-243.108492996971
 20
167.0518275548544
 30
0.0
  0
VERTEX
  5
96C
  8
1
  6
CONTINUOUS
 62
     7
 10
-243.1116104287727
 20
167.0518652568603
 30
0.0
  0
SEQEND
  5
9C7
  8
1
  6
CONTINUOUS
 62
     7
  0
POLYLINE
  5
4A8
  8
1
  6
CONTINUOUS
 62
     7
 66
     1
 10
0.0
 20
0.0
 30
0.0
  0
VERTEX
  5
96D
  8
1
  6
CONTINUOUS
 62
     7
 10
-239.9543451404375
 20
167.0235525617731
 30
0.0
  0
VERTEX
  5
96E
  8
1
  6
CONTINUOUS
 62
     7
 10
-239.9751128301591
 20
167.0231193846783
 30
0.0
  0
VERTEX
  5
96F
  8
1
  6
CONTINUOUS
 62
     7
 10
-239.9958625345715
 20
167.0218228296749
 30
0.0
  0
VERTEX
  5
970
  8
1
  6
CONTINUOUS
 62
     7
 10
-240.0165406689605
 20
167.0196673611847
 30
0.0
  0
VERTEX
  5
971
  8
1
  6
CONTINUOUS
 62
     7
 10
-240.0370936486116
 20
167.0166574436293
 30
0.0
  0
VERTEX
  5
972
  8
1
  6
CONTINUOUS
 62
     7
 10
-240.0580934894007
 20
167.0126680773703
 30
0.0
  0
VERTEX
  5
973
  8
1
  6
CONTINUOUS
 62
     7
 10
-240.078922683128
 20
167.0077802895376
 30
0.0
  0
VERTEX
  5
974
  8
1
  6
CONTINUOUS
 62
     7
 10
-240.0995244866406
 20
167.002008680021
 30
0.0
  0
VERTEX
  5
975
  8
1
  6
CONTINUOUS
 62
     7
 10
-240.1198421567858
 20
166.9953678487106
 30
0.0
  0
VERTEX
  5
976
  8
1
  6
CONTINUOUS
 62
     7
 10
-240.1392957544922
 20
166.988084850479
 30
0.0
  0
VERTEX
  5
977
  8
1
  6
CONTINUOUS
 62
     7
 10
-240.1584465984629
 20
166.9799931015563
 30
0.0
  0
VERTEX
  5
978
  8
1
  6
CONTINUOUS
 62
     7
 10
-240.1772456044187
 20
166.9711145539218
 30
0.0
  0
VERTEX
  5
979
  8
1
  6
CONTINUOUS
 62
     7
 10
-240.1956436880803
 20
166.961471159555
 30
0.0
  0
VERTEX
  5
97A
  8
1
  6
CONTINUOUS
 62
     7
 10
-240.2141392320395
 20
166.9507556368714
 30
0.0
  0
VERTEX
  5
97B
  8
1
  6
CONTINUOUS
 62
     7
 10
-240.2321763759114
 20
166.9392488388771
 30
0.0
  0
VERTEX
  5
97C
  8
1
  6
CONTINUOUS
 62
     7
 10
-240.2497064118812
 20
166.9269833257636
 30
0.0
  0
VERTEX
  5
97D
  8
1
  6
CONTINUOUS
 62
     7
 10
-240.2666806321342
 20
166.9139916577224
 30
0.0
  0
VERTEX
  5
97E
  8
1
  6
CONTINUOUS
 62
     7
 10
-240.2826271514513
 20
166.9006798742849
 30
0.0
  0
VERTEX
  5
97F
  8
1
  6
CONTINUOUS
 62
     7
 10
-240.2980202901342
 20
166.8867051463168
 30
0.0
  0
VERTEX
  5
980
  8
1
  6
CONTINUOUS
 62
     7
 10
-240.3128209998273
 20
166.872104435781
 30
0.0
  0
VERTEX
  5
981
  8
1
  6
CONTINUOUS
 62
     7
 10
-240.3269902321751
 20
166.8569147046403
 30
0.0
  0
VERTEX
  5
982
  8
1
  6
CONTINUOUS
 62
     7
 10
-240.3408965534037
 20
166.8406810507712
 30
0.0
  0
VERTEX
  5
983
  8
1
  6
CONTINUOUS
 62
     7
 10
-240.3541084186847
 20
166.823852466387
 30
0.0
  0
VERTEX
  5
984
  8
1
  6
CONTINUOUS
 62
     7
 10
-240.3665906462392
 20
166.8064757966567
 30
0.0
  0
VERTEX
  5
985
  8
1
  6
CONTINUOUS
 62
     7
 10
-240.3690208517528
 20
166.8029050280908
 30
0.0
  0
SEQEND
  5
9C8
  8
1
  6
CONTINUOUS
 62
     7
  0
LINE
  5
4A9
  8
1
  6
CONTINUOUS
 62
     7
 10
-240.4543422114969
 20
166.5235335225802
 30
0.0
 11
-240.4553238966461
 21
166.5242912931905
 31
0.0
  0
LINE
  5
4AA
  8
1
  6
CONTINUOUS
 62
     7
 10
-242.6108898373544
 20
166.5512275527646
 30
0.0
 11
-242.6120382942662
 21
166.5731414160782
 31
0.0
  0
POLYLINE
  5
4AB
  8
1
  6
CONTINUOUS
 62
     7
 66
     1
 10
0.0
 20
0.0
 30
0.0
  0
VERTEX
  5
986
  8
1
  6
CONTINUOUS
 62
     7
 10
-242.6108098603547
 20
166.5497015007017
 30
0.0
  0
VERTEX
  5
987
  8
1
  6
CONTINUOUS
 62
     7
 10
-242.6247142419379
 20
166.6434394729898
 30
0.0
  0
VERTEX
  5
988
  8
1
  6
CONTINUOUS
 62
     7
 10
-242.6560535155012
 20
166.732870682682
 30
0.0
  0
VERTEX
  5
989
  8
1
  6
CONTINUOUS
 62
     7
 10
-242.7037020420691
 20
166.8147829540067
 30
0.0
  0
VERTEX
  5
98A
  8
1
  6
CONTINUOUS
 62
     7
 10
-242.7659483895462
 20
166.886234175208
 30
0.0
  0
VERTEX
  5
98B
  8
1
  6
CONTINUOUS
 62
     7
 10
-242.840556803659
 20
166.9446579728422
 30
0.0
  0
VERTEX
  5
98C
  8
1
  6
CONTINUOUS
 62
     7
 10
-242.9248475114177
 20
166.9879558903646
 30
0.0
  0
VERTEX
  5
98D
  8
1
  6
CONTINUOUS
 62
     7
 10
-243.0157929727702
 20
167.0145727601542
 30
0.0
  0
VERTEX
  5
98E
  8
1
  6
CONTINUOUS
 62
     7
 10
-243.1101266232977
 20
167.0235525617731
 30
0.0
  0
SEQEND
  5
9C9
  8
1
  6
CONTINUOUS
 62
     7
  0
POLYLINE
  5
4AC
  8
1
  6
CONTINUOUS
 62
     7
 66
     1
 10
0.0
 20
0.0
 30
0.0
  0
VERTEX
  5
98F
  8
1
  6
CONTINUOUS
 62
     7
 10
-237.2043422114969
 20
179.0238571772597
 30
0.0
  0
VERTEX
  5
990
  8
1
  6
CONTINUOUS
 62
     7
 10
-237.3580509647844
 20
180.5845527812766
 30
0.0
  0
VERTEX
  5
991
  8
1
  6
CONTINUOUS
 62
     7
 10
-237.8132708543425
 20
182.0852541144107
 30
0.0
  0
VERTEX
  5
992
  8
1
  6
CONTINUOUS
 62
     7
 10
-238.5525097258205
 20
183.4682956397294
 30
0.0
  0
VERTEX
  5
993
  8
1
  6
CONTINUOUS
 62
     7
 10
-239.5473617895356
 20
184.6805329837343
 30
0.0
  0
VERTEX
  5
994
  8
1
  6
CONTINUOUS
 62
     7
 10
-240.7595991335405
 20
185.6753850474495
 30
0.0
  0
VERTEX
  5
995
  8
1
  6
CONTINUOUS
 62
     7
 10
-242.1426406588592
 20
186.4146239189274
 30
0.0
  0
VERTEX
  5
996
  8
1
  6
CONTINUOUS
 62
     7
 10
-243.6433419919934
 20
186.8698438084856
 30
0.0
  0
VERTEX
  5
997
  8
1
  6
CONTINUOUS
 62
     7
 10
-245.2040375960102
 20
187.0235525617731
 30
0.0
  0
SEQEND
  5
9CA
  8
1
  6
CONTINUOUS
 62
     7
  0
LINE
  5
4AD
  8
1
  6
CONTINUOUS
 62
     9
 10
-245.2288502379731
 20
186.9987399198102
 30
0.0
 11
-245.2040375960102
 21
187.0235525617731
 31
0.0
  0
LINE
  5
4AE
  8
1
  6
CONTINUOUS
 62
     7
 10
-282.5288272500875
 20
174.5148256939823
 30
0.0
 11
-280.7043422114969
 21
174.5148256939823
 31
0.0
  0
LINE
  5
4AF
  8
1
  6
CONTINUOUS
 62
     7
 10
-274.2043422114969
 20
174.5235525617731
 30
0.0
 11
-282.4543422114969
 21
174.5235525617731
 31
0.0
  0
LINE
  5
4B0
  8
1
  6
CONTINUOUS
 62
     7
 10
-278.7043422114969
 20
174.5148256939823
 30
0.0
 11
-274.1956153437061
 21
174.5148256939823
 31
0.0
  0
LINE
  5
4B1
  8
1
  6
CONTINUOUS
 62
     7
 10
-304.2130690792876
 20
174.5148256939823
 30
0.0
 11
-299.7043422114969
 21
174.5148256939823
 31
0.0
  0
LINE
  5
4B2
  8
1
  6
CONTINUOUS
 62
     7
 10
-295.9543422114969
 20
174.5235525617731
 30
0.0
 11
-304.2043422114969
 21
174.5235525617731
 31
0.0
  0
LINE
  5
4B3
  8
1
  6
CONTINUOUS
 62
     7
 10
-297.7043422114969
 20
174.5148256939823
 30
0.0
 11
-295.8798571729062
 21
174.5148256939823
 31
0.0
  0
LINE
  5
4B4
  8
1
  6
CONTINUOUS
 62
     7
 10
-245.2040375960102
 20
187.0235525617731
 30
0.0
 11
-255.4043422114969
 21
187.0235525617731
 31
0.0
  0
LINE
  5
4B5
  8
1
  6
CONTINUOUS
 62
     7
 10
-269.0043422114969
 20
187.0235525617731
 30
0.0
 11
-274.2043422114969
 21
187.0235525617731
 31
0.0
  0
LINE
  5
4B6
  8
1
  6
CONTINUOUS
 62
     9
 10
-246.9543422114969
 20
160.1552050593605
 30
0.0
 11
-244.132995920763
 21
160.1552050593605
 31
0.0
  0
LINE
  5
4B7
  8
1
  6
CONTINUOUS
 62
     7
 10
-244.132995920763
 20
160.1552050593605
 30
0.0
 11
-244.146560052153
 21
159.896386014258
 31
0.0
  0
LINE
  5
4B8
  8
1
  6
CONTINUOUS
 62
     9
 10
-244.146560052153
 20
159.896386014258
 30
0.0
 11
-246.9202680377859
 21
159.896386014258
 31
0.0
  0
LINE
  5
4B9
  8
1
  6
CONTINUOUS
 62
     9
 10
-239.4884163852078
 20
159.896386014258
 30
0.0
 11
-242.2621243708408
 21
159.896386014258
 31
0.0
  0
LINE
  5
4BA
  8
1
  6
CONTINUOUS
 62
     9
 10
-242.2756885022307
 20
160.1552050593605
 30
0.0
 11
-239.4543422114969
 21
160.1552050593605
 31
0.0
  0
LINE
  5
4BB
  8
1
  6
CONTINUOUS
 62
     7
 10
-242.2621243708408
 20
159.896386014258
 30
0.0
 11
-242.2756885022307
 21
160.1552050593605
 31
0.0
  0
LINE
  5
4BC
  8
1
  6
CONTINUOUS
 62
     9
 10
-284.9543422114969
 20
160.1552050593605
 30
0.0
 11
-282.132995920763
 21
160.1552050593605
 31
0.0
  0
LINE
  5
4BD
  8
1
  6
CONTINUOUS
 62
     9
 10
-282.146560052153
 20
159.896386014258
 30
0.0
 11
-284.9202680377859
 21
159.896386014258
 31
0.0
  0
LINE
  5
4BE
  8
1
  6
CONTINUOUS
 62
     7
 10
-282.132995920763
 20
160.1552050593604
 30
0.0
 11
-282.146560052153
 21
159.8963860142579
 31
0.0
  0
LINE
  5
4BF
  8
1
  6
CONTINUOUS
 62
     9
 10
-277.4884163852078
 20
159.896386014258
 30
0.0
 11
-280.2621243708408
 21
159.896386014258
 31
0.0
  0
LINE
  5
4C0
  8
1
  6
CONTINUOUS
 62
     9
 10
-280.2756885022307
 20
160.1552050593605
 30
0.0
 11
-277.4543422114969
 21
160.1552050593605
 31
0.0
  0
LINE
  5
4C1
  8
1
  6
CONTINUOUS
 62
     7
 10
-280.2621243708408
 20
159.896386014258
 30
0.0
 11
-280.2756885022307
 21
160.1552050593604
 31
0.0
  0
LINE
  5
4C2
  8
1
  6
CONTINUOUS
 62
     7
 10
-239.4543422114969
 20
160.7235525617731
 30
0.0
 11
-242.3054743326932
 21
160.7235525617731
 31
0.0
  0
LINE
  5
4C3
  8
1
  6
CONTINUOUS
 62
     7
 10
-242.2756885022307
 20
160.1552050593605
 30
0.0
 11
-242.3054743326933
 21
160.7235525617731
 31
0.0
  0
LINE
  5
4C4
  8
1
  6
CONTINUOUS
 62
     7
 10
-244.1032100903005
 20
160.7235525617731
 30
0.0
 11
-246.9543422114969
 21
160.7235525617731
 31
0.0
  0
LINE
  5
4C5
  8
1
  6
CONTINUOUS
 62
     7
 10
-244.1032100903005
 20
160.7235525617731
 30
0.0
 11
-244.132995920763
 21
160.1552050593604
 31
0.0
  0
LINE
  5
4C6
  8
1
  6
CONTINUOUS
 62
     7
 10
-277.4543422114969
 20
160.7235525617731
 30
0.0
 11
-280.3054743326933
 21
160.7235525617731
 31
0.0
  0
LINE
  5
4C7
  8
1
  6
CONTINUOUS
 62
     7
 10
-280.2756885022307
 20
160.1552050593605
 30
0.0
 11
-280.3054743326933
 21
160.7235525617731
 31
0.0
  0
LINE
  5
4C8
  8
1
  6
CONTINUOUS
 62
     7
 10
-282.1032100903005
 20
160.7235525617731
 30
0.0
 11
-284.9543422114969
 21
160.7235525617731
 31
0.0
  0
LINE
  5
4C9
  8
1
  6
CONTINUOUS
 62
     7
 10
-282.1032100903005
 20
160.7235525617731
 30
0.0
 11
-282.132995920763
 21
160.1552050593604
 31
0.0
  0
LINE
  5
4CA
  8
1
  6
CONTINUOUS
 62
     9
 10
-241.9737640354434
 20
154.3941430392218
 30
0.0
 11
-240.9627379469285
 21
154.3941430392219
 31
0.0
  0
LINE
  5
4CB
  8
1
  6
CONTINUOUS
 62
     7
 10
-241.9737640354434
 20
154.3941430392219
 30
0.0
 11
-242.2621243708407
 21
159.896386014258
 31
0.0
  0
LINE
  5
4CC
  8
1
  6
CONTINUOUS
 62
     9
 10
-245.4459464760652
 20
154.3941430392218
 30
0.0
 11
-244.4349203875504
 21
154.3941430392218
 31
0.0
  0
LINE
  5
4CD
  8
1
  6
CONTINUOUS
 62
     7
 10
-244.146560052153
 20
159.896386014258
 30
0.0
 11
-244.4349203875503
 21
154.3941430392218
 31
0.0
  0
LINE
  5
4CE
  8
1
  6
CONTINUOUS
 62
     9
 10
-279.9737640354434
 20
154.3941430392218
 30
0.0
 11
-278.9627379469286
 21
154.3941430392219
 31
0.0
  0
LINE
  5
4CF
  8
1
  6
CONTINUOUS
 62
     7
 10
-279.9737640354434
 20
154.3941430392219
 30
0.0
 11
-280.2621243708408
 21
159.896386014258
 31
0.0
  0
LINE
  5
4D0
  8
1
  6
CONTINUOUS
 62
     9
 10
-283.4459464760652
 20
154.3941430392218
 30
0.0
 11
-282.4349203875503
 21
154.3941430392218
 31
0.0
  0
LINE
  5
4D1
  8
1
  6
CONTINUOUS
 62
     7
 10
-282.146560052153
 20
159.896386014258
 30
0.0
 11
-282.4349203875503
 21
154.3941430392218
 31
0.0
  0
LINE
  5
4D2
  8
1
  6
CONTINUOUS
 62
     7
 10
-282.1032100903005
 20
160.7235525617731
 30
0.0
 11
-281.8004454368026
 21
166.5006462993776
 31
0.0
  0
LINE
  5
4D3
  8
1
  6
CONTINUOUS
 62
     7
 10
-281.8004454368026
 20
166.5006462993776
 30
0.0
 11
-281.7977945856393
 21
166.5512275527646
 31
0.0
  0
LINE
  5
4D4
  8
1
  6
CONTINUOUS
 62
     7
 10
-280.6108898373544
 20
166.5512275527646
 30
0.0
 11
-280.6082184734998
 21
166.5002548939134
 31
0.0
  0
LINE
  5
4D5
  8
1
  6
CONTINUOUS
 62
     7
 10
-280.6082184734998
 20
166.5002548939134
 30
0.0
 11
-280.3054743326932
 21
160.7235525617731
 31
0.0
  0
LINE
  5
4D6
  8
1
  6
CONTINUOUS
 62
     7
 10
-244.1032100903005
 20
160.7235525617731
 30
0.0
 11
-243.8004454368027
 21
166.5006462993776
 31
0.0
  0
LINE
  5
4D7
  8
1
  6
CONTINUOUS
 62
     7
 10
-243.8004454368027
 20
166.5006462993776
 30
0.0
 11
-243.7977945856393
 21
166.5512275527646
 31
0.0
  0
LINE
  5
4D8
  8
1
  6
CONTINUOUS
 62
     7
 10
-242.6108898373544
 20
166.5512275527646
 30
0.0
 11
-242.6082184734999
 21
166.5002548939134
 31
0.0
  0
LINE
  5
4D9
  8
1
  6
CONTINUOUS
 62
     7
 10
-242.6082184734999
 20
166.5002548939134
 30
0.0
 11
-242.3054743326933
 21
160.7235525617731
 31
0.0
  0
LINE
  5
4DA
  8
1
  6
CONTINUOUS
 62
     7
 10
-241.4457008600731
 20
154.0235525617731
 30
0.0
 11
-241.9292662752601
 21
154.0235525617731
 31
0.0
  0
LINE
  5
4DB
  8
1
  6
CONTINUOUS
 62
     7
 10
-241.9292662752601
 20
154.0235525617731
 30
0.0
 11
-241.9543422114969
 21
154.0235525617731
 31
0.0
  0
LINE
  5
4DC
  8
1
  6
CONTINUOUS
 62
     7
 10
-241.9543422114969
 20
154.0235525617731
 30
0.0
 11
-241.9737640354434
 21
154.3941430392219
 31
0.0
  0
LINE
  5
4DD
  8
1
  6
CONTINUOUS
 62
     7
 10
-279.4457008600731
 20
154.0235525617731
 30
0.0
 11
-279.9292662752601
 21
154.0235525617731
 31
0.0
  0
LINE
  5
4DE
  8
1
  6
CONTINUOUS
 62
     7
 10
-279.9292662752601
 20
154.0235525617731
 30
0.0
 11
-279.9543422114969
 21
154.0235525617731
 31
0.0
  0
LINE
  5
4DF
  8
1
  6
CONTINUOUS
 62
     7
 10
-279.9543422114969
 20
154.0235525617731
 30
0.0
 11
-279.9737640354434
 21
154.3941430392219
 31
0.0
  0
LINE
  5
4E0
  8
1
  6
CONTINUOUS
 62
     7
 10
-244.4543422114969
 20
154.0235525617731
 30
0.0
 11
-244.9629835629206
 21
154.0235525617731
 31
0.0
  0
LINE
  5
4E1
  8
1
  6
CONTINUOUS
 62
     7
 10
-244.4349203875503
 20
154.3941430392218
 30
0.0
 11
-244.4543422114969
 21
154.0235525617731
 31
0.0
  0
LINE
  5
4E2
  8
1
  6
CONTINUOUS
 62
     7
 10
-282.4543422114969
 20
154.0235525617731
 30
0.0
 11
-282.9629835629207
 21
154.0235525617731
 31
0.0
  0
LINE
  5
4E3
  8
1
  6
CONTINUOUS
 62
     7
 10
-282.4349203875503
 20
154.3941430392218
 30
0.0
 11
-282.4543422114969
 21
154.0235525617731
 31
0.0
  0
LINE
  5
4E4
  8
1
  6
CONTINUOUS
 62
     7
 10
-284.039663571241
 20
166.8029050280908
 30
0.0
 11
-284.0093878379524
 21
166.7516128843481
 31
0.0
  0
LINE
  5
4E5
  8
1
  6
CONTINUOUS
 62
     7
 10
-284.0093878379524
 20
166.7516128843481
 30
0.0
 11
-283.9873077004976
 21
166.7020877182788
 31
0.0
  0
LINE
  5
4E6
  8
1
  6
CONTINUOUS
 62
     7
 10
-246.039663571241
 20
166.8029050280908
 30
0.0
 11
-246.0093878379523
 21
166.751612884348
 31
0.0
  0
LINE
  5
4E7
  8
1
  6
CONTINUOUS
 62
     7
 10
-246.0093878379523
 20
166.751612884348
 30
0.0
 11
-245.9873077004975
 21
166.7020877182786
 31
0.0
  0
LINE
  5
4E8
  8
1
  6
CONTINUOUS
 62
     9
 10
-326.7348862487646
 20
135.7322413511781
 30
0.0
 11
-329.7043422114969
 21
135.7322413511781
 31
0.0
  0
LINE
  5
4E9
  8
1
  6
CONTINUOUS
 62
     7
 10
-326.7262355362953
 20
136.7322032742423
 30
0.0
 11
-326.7348862487645
 21
135.7322413511781
 31
0.0
  0
LINE
  5
4EA
  8
1
  6
CONTINUOUS
 62
     9
 10
-329.7043422114969
 20
130.7148637723681
 30
0.0
 11
-326.7348862487645
 21
130.7148637723681
 31
0.0
  0
LINE
  5
4EB
  8
1
  6
CONTINUOUS
 62
     7
 10
-326.7348862487645
 20
130.7148637723681
 30
0.0
 11
-326.7262355362953
 21
129.7149018493039
 31
0.0
  0
LINE
  5
4EC
  8
1
  6
CONTINUOUS
 62
     7
 10
-329.7043422114969
 20
130.9930085245054
 30
0.0
 11
-329.7043422114969
 21
135.4540965990407
 31
0.0
  0
LINE
  5
4ED
  8
1
  6
CONTINUOUS
 62
     7
 10
-326.7348862487646
 20
130.7148637723681
 30
0.0
 11
-326.7348862487646
 21
135.7322413511781
 31
0.0
  0
LINE
  5
4EE
  8
1
  6
CONTINUOUS
 62
     7
 10
-330.7043422114969
 20
174.8235525617731
 30
0.0
 11
-330.7043422114969
 21
179.2235525617731
 31
0.0
  0
LINE
  5
4EF
  8
1
  6
CONTINUOUS
 62
     7
 10
-336.0821660624263
 20
179.2235525617731
 30
0.0
 11
-336.0821660624263
 21
174.8235525617731
 31
0.0
  0
LINE
  5
4F0
  8
1
  6
CONTINUOUS
 62
     7
 10
-268.2043422114969
 20
232.6235525617731
 30
0.0
 11
-268.2043422114969
 21
248.9764474382269
 31
0.0
  0
LINE
  5
4F1
  8
1
  6
CONTINUOUS
 62
     7
 10
-274.2043422114969
 20
248.9764474382269
 30
0.0
 11
-274.2043422114969
 21
232.623552561773
 31
0.0
  0
LINE
  5
4F2
  8
1
  6
CONTINUOUS
 62
     7
 10
-265.4308395196006
 20
252.4348350225357
 30
0.0
 11
-266.2043422114969
 21
252.9764474382269
 31
0.0
  0
LINE
  5
4F3
  8
1
  6
CONTINUOUS
 62
     7
 10
-266.2043422114969
 20
248.9764474382269
 30
0.0
 11
-265.4308395196006
 21
249.5180598539181
 31
0.0
  0
LINE
  5
4F4
  8
1
  6
CONTINUOUS
 62
     7
 10
-276.2043422114969
 20
252.9764474382269
 30
0.0
 11
-276.9778449033931
 21
252.4348350225357
 31
0.0
  0
LINE
  5
4F5
  8
1
  6
CONTINUOUS
 62
     7
 10
-276.9778449033931
 20
249.5180598539181
 30
0.0
 11
-276.2043422114969
 21
248.9764474382269
 31
0.0
  0
LINE
  5
4F6
  8
1
  6
CONTINUOUS
 62
     7
 10
-295.9543422114969
 20
178.5235525617731
 30
0.0
 11
-295.9543422114969
 21
174.5235525617731
 31
0.0
  0
LINE
  5
4F7
  8
1
  6
CONTINUOUS
 62
     7
 10
-282.4543422114969
 20
174.5235525617731
 30
0.0
 11
-282.4543422114969
 21
178.5235525617731
 31
0.0
  0
LINE
  5
4F8
  8
1
  6
CONTINUOUS
 62
     7
 10
-278.4554104305772
 20
166.5243239798449
 30
0.0
 11
-278.3993950176802
 21
166.7516651161134
 31
0.0
  0
LINE
  5
4F9
  8
1
  6
CONTINUOUS
 62
     7
 10
-278.3993950176801
 20
166.7516651161134
 30
0.0
 11
-278.3747023138091
 21
166.7943097976388
 31
0.0
  0
LINE
  5
4FA
  8
1
  6
CONTINUOUS
 62
     7
 10
-278.3747023138091
 20
166.7943097976388
 30
0.0
 11
-278.3690202412524
 21
166.8029060206075
 31
0.0
  0
LINE
  5
4FB
  8
1
  6
CONTINUOUS
 62
     7
 10
-240.4554104305772
 20
166.5243239798449
 30
0.0
 11
-240.39939501768
 21
166.7516651161136
 31
0.0
  0
LINE
  5
4FC
  8
1
  6
CONTINUOUS
 62
     7
 10
-240.3993950176801
 20
166.7516651161136
 30
0.0
 11
-240.3747023138093
 21
166.7943097976384
 31
0.0
  0
LINE
  5
4FD
  8
1
  6
CONTINUOUS
 62
     7
 10
-240.3747023138093
 20
166.7943097976385
 30
0.0
 11
-240.3690202412525
 21
166.8029060206075
 31
0.0
  0
ARC
  5
4FE
  8
1
  6
CONTINUOUS
 62
     7
 10
-245.9543422114969
 20
160.1552050593605
 30
0.0
 40
1.000000000000001
 50
180.0
 51
195.0000000000001
  0
ARC
  5
4FF
  8
1
  6
CONTINUOUS
 62
     7
 10
-240.4543422114969
 20
160.1552050593605
 30
0.0
 40
1.000000000000004
 50
344.9999999999998
 51
0.0
  0
ARC
  5
500
  8
1
  6
CONTINUOUS
 62
     7
 10
-283.9543422114969
 20
160.1552050593605
 30
0.0
 40
1.000000000000001
 50
180.0
 51
195.0000000000001
  0
ARC
  5
501
  8
1
  6
CONTINUOUS
 62
     7
 10
-278.4543422114969
 20
160.1552050593605
 30
0.0
 40
1.0
 50
344.9999999999998
 51
0.0
  0
LINE
  5
502
  8
1
  6
CONTINUOUS
 62
     7
 10
-239.4543422114969
 20
160.1552050593605
 30
0.0
 11
-239.4543422114969
 21
160.7235525617731
 31
0.0
  0
LINE
  5
503
  8
1
  6
CONTINUOUS
 62
     7
 10
-246.9543422114969
 20
160.7235525617731
 30
0.0
 11
-246.9543422114969
 21
160.1552050593605
 31
0.0
  0
LINE
  5
504
  8
1
  6
CONTINUOUS
 62
     7
 10
-277.4543422114969
 20
160.1552050593604
 30
0.0
 11
-277.4543422114969
 21
160.7235525617731
 31
0.0
  0
LINE
  5
505
  8
1
  6
CONTINUOUS
 62
     7
 10
-284.9543422114969
 20
160.7235525617731
 30
0.0
 11
-284.9543422114969
 21
160.1552050593604
 31
0.0
  0
LINE
  5
506
  8
1
  6
CONTINUOUS
 62
     7
 10
-240.9627379469286
 20
154.3941430392218
 30
0.0
 11
-239.4884163852078
 21
159.896386014258
 31
0.0
  0
LINE
  5
507
  8
1
  6
CONTINUOUS
 62
     7
 10
-246.9202680377859
 20
159.896386014258
 30
0.0
 11
-245.4459464760652
 21
154.3941430392218
 31
0.0
  0
LINE
  5
508
  8
1
  6
CONTINUOUS
 62
     7
 10
-278.9627379469285
 20
154.3941430392218
 30
0.0
 11
-277.4884163852078
 21
159.896386014258
 31
0.0
  0
LINE
  5
509
  8
1
  6
CONTINUOUS
 62
     7
 10
-284.9202680377859
 20
159.896386014258
 30
0.0
 11
-283.4459464760652
 21
154.3941430392218
 31
0.0
  0
LINE
  5
50A
  8
1
  6
CONTINUOUS
 62
     7
 10
-283.9543422114969
 20
166.5235335225802
 30
0.0
 11
-283.9543422114969
 21
160.7235525617731
 31
0.0
  0
LINE
  5
50B
  8
1
  6
CONTINUOUS
 62
     7
 10
-278.4543422114969
 20
160.7235525617731
 30
0.0
 11
-278.4543422114969
 21
166.5235335225802
 31
0.0
  0
LINE
  5
50C
  8
1
  6
CONTINUOUS
 62
     7
 10
-245.9543422114969
 20
166.5235335225802
 30
0.0
 11
-245.9543422114969
 21
160.7235525617731
 31
0.0
  0
LINE
  5
50D
  8
1
  6
CONTINUOUS
 62
     7
 10
-240.4543422114969
 20
160.7235525617731
 30
0.0
 11
-240.4543422114969
 21
166.5235335225802
 31
0.0
  0
ARC
  5
50E
  8
1
  6
CONTINUOUS
 62
     7
 10
-241.4457008600731
 20
154.5235525617731
 30
0.0
 40
0.5000000000000004
 50
270.0
 51
344.9999999999997
  0
ARC
  5
50F
  8
1
  6
CONTINUOUS
 62
     7
 10
-279.4457008600731
 20
154.5235525617731
 30
0.0
 40
0.5000000000000004
 50
270.0
 51
344.9999999999997
  0
ARC
  5
510
  8
1
  6
CONTINUOUS
 62
     7
 10
-244.9629835629207
 20
154.5235525617731
 30
0.0
 40
0.5000000000000022
 50
195.0000000000003
 51
270.0
  0
ARC
  5
511
  8
1
  6
CONTINUOUS
 62
     7
 10
-282.9629835629207
 20
154.5235525617731
 30
0.0
 40
0.5000000000000006
 50
194.9999999999999
 51
270.0
  0
LINE
  5
512
  8
1
  6
CONTINUOUS
 62
     7
 10
-284.0396641817414
 20
166.8029060206075
 30
0.0
 11
-284.0339821091849
 21
166.7943097976391
 31
0.0
  0
LINE
  5
513
  8
1
  6
CONTINUOUS
 62
     7
 10
-284.0339821091849
 20
166.7943097976391
 30
0.0
 11
-284.0092894053137
 21
166.7516651161135
 31
0.0
  0
LINE
  5
514
  8
1
  6
CONTINUOUS
 62
     7
 10
-284.0092894053137
 20
166.7516651161135
 30
0.0
 11
-283.9532739924166
 21
166.5243239798449
 31
0.0
  0
LINE
  5
515
  8
1
  6
CONTINUOUS
 62
     7
 10
-246.0396641817413
 20
166.8029060206075
 30
0.0
 11
-246.0339821091848
 21
166.794309797639
 31
0.0
  0
LINE
  5
516
  8
1
  6
CONTINUOUS
 62
     7
 10
-246.0339821091849
 20
166.794309797639
 30
0.0
 11
-246.0092894053136
 21
166.7516651161134
 31
0.0
  0
LINE
  5
517
  8
1
  6
CONTINUOUS
 62
     7
 10
-246.0092894053136
 20
166.7516651161134
 30
0.0
 11
-245.9532739924166
 21
166.5243239798449
 31
0.0
  0
ENDBLK
  8
0
  0
ENDSEC
  0
SECTION
  2
ENTITIES
  0
LINE
  5
70
  8
1
  6
CENTER
 62
     1
 10
-271.2043422114969
 20
250.9764474382269
 30
0.0
 11
-271.2043422114969
 21
230.623552561773
 31
0.0
  0
LINE
  5
72
  8
1
  6
CENTER
 62
     1
 10
-262.2043422114969
 20
174.2235525617731
 30
0.0
 11
-262.2043422114969
 21
185.8235525617731
 31
0.0
  0
LINE
  5
73
  8
1
  6
CENTER
 62
     1
 10
-268.0043422114969
 20
180.0235525617731
 30
0.0
 11
-256.4043422114968
 21
180.0235525617731
 31
0.0
  0
POINT
  5
74
  8
1
 62
     7
 10
-168.3333333333333
 20
255.0
 30
0.0
  0
INSERT
  5
1B9
  8
1
  6
CONTINUOUS
 62
     7
  2
D_FRAME_VIEW_2483
 10
0.0
 20
0.0
 30
0.0
  0
INSERT
  5
2B8
  8
1
  6
CONTINUOUS
 62
     7
  2
D_FRAME_VIEW_2735
 10
0.0
 20
0.0
 30
0.0
  0
INSERT
  5
518
  8
1
  6
CONTINUOUS
 62
     7
  2
D_FRAME_VIEW_1492
 10
0.0
 20
0.0
 30
0.0
  0
LINE
  5
519
  8
1
  6
CENTER
 62
     1
 10
-341.6666666666667
 20
61.79999999999998
 30
0.0
 11
-226.6666666666667
 21
61.79999999999998
 31
0.0
  0
LINE
  5
51A
  8
1
  6
CENTER
 62
     1
 10
-170.1333333333333
 20
255.0
 30
0.0
 11
-170.1333333333333
 21
120.0
 31
0.0
  0
TEXT
  5
51B
  8
1
  6
CONTINUOUS
 62
     7
 10
-182.6576028510692
 20
71.66175336584553
 30
0.0
 40
3.0
  1
SGKM-6
  0
LINE
  5
51C
  8
1
  6
CONTINUOUS
 62
     2
 10
-182.5727272727273
 20
71.10378787878787
 30
0.0
 11
-172.4272727272728
 21
71.10378787878787
 31
0.0
  0
LINE
  5
51D
  8
1
  6
CENTER
 62
     1
 10
-156.1333333333334
 20
172.8235525617731
 30
0.0
 11
-156.1333333333334
 21
181.2235525617731
 31
0.0
  0
LINE
  5
51E
  8
1
  6
CENTER
 62
     1
 10
-249.8543422114969
 20
180.0235525617731
 30
0.0
 11
-240.5543422114969
 21
180.0235525617731
 31
0.0
  0
LINE
  5
51F
  8
1
  6
CENTER
 62
     1
 10
-160.3333333333333
 20
177.0235525617731
 30
0.0
 11
-151.9333333333333
 21
177.0235525617731
 31
0.0
  0
LINE
  5
520
  8
1
  6
CENTER
 62
     1
 10
-245.2043422114969
 20
175.3735525617731
 30
0.0
 11
-245.2043422114969
 21
184.6735525617731
 31
0.0
  0
LINE
  5
521
  8
1
  6
CENTER
 62
     1
 10
-174.3333333333333
 20
133.2235525617731
 30
0.0
 11
-165.9333333333333
 21
133.2235525617731
 31
0.0
  0
LINE
  5
522
  8
1
  6
CENTER
 62
     1
 10
-170.1333333333333
 20
129.0235525617731
 30
0.0
 11
-170.1333333333333
 21
137.4235525617731
 31
0.0
  0
POINT
  5
523
  8
1
 62
     7
 10
-341.6666666666667
 20
60.0
 30
0.0
  0
POINT
  5
524
  8
1
 62
     7
 10
-163.3333333333333
 20
120.0
 30
0.0
  0
POINT
  5
525
  8
1
 62
     7
 10
-226.6666666666667
 20
60.0
 30
0.0
  0
ENDSEC
  0
EOF
