  0
SECTION
  2
HEADER
  9
$ACADVER
  1
AC1006
  9
$DWGCODEPAGE
  3
ansi_932
  9
$INSBASE
 10
0.0
 20
0.0
 30
0.0
  9
$EXTMIN
 10
-804.8023075214683
 20
-498.8662383571733
  9
$EXTMAX
 10
-522.8023075214683
 20
-176.6366929026278
  9
$LIMMIN
 10
0.0
 20
0.0
  9
$LIMMAX
 10
12.0
 20
9.0
  9
$ORTHOMODE
 70
     0
  9
$REGENMODE
 70
     1
  9
$FILLMODE
 70
     1
  9
$QTEXTMODE
 70
     0
  9
$MIRRTEXT
 70
     1
  9
$DRAGMODE
 70
     2
  9
$LTSCALE
 40
1.0
  9
$OSMODE
 70
    37
  9
$ATTMODE
 70
     1
  9
$TEXTSIZE
 40
0.2
  9
$TRACEWID
 40
0.05
  9
$TEXTSTYLE
  7
STANDARD
  9
$CLAYER
  8
0
  9
$CELTYPE
  6
BYLAYER
  9
$CECOLOR
 62
   256
  9
$DIMSCALE
 40
1.0
  9
$DIMASZ
 40
3.0
  9
$DIMEXO
 40
0.0625
  9
$DIMDLI
 40
0.38
  9
$DIMRND
 40
0.0
  9
$DIMDLE
 40
0.0
  9
$DIMEXE
 40
1.5
  9
$DIMTP
 40
0.0
  9
$DIMTM
 40
0.0
  9
$DIMTXT
 40
3.0
  9
$DIMCEN
 40
0.09
  9
$DIMTSZ
 40
0.0
  9
$DIMTOL
 70
     0
  9
$DIMLIM
 70
     0
  9
$DIMTIH
 70
     1
  9
$DIMTOH
 70
     1
  9
$DIMSE1
 70
     0
  9
$DIMSE2
 70
     0
  9
$DIMTAD
 70
     1
  9
$DIMZIN
 70
     0
  9
$DIMBLK
  1

  9
$DIMASO
 70
     1
  9
$DIMSHO
 70
     1
  9
$DIMPOST
  1

  9
$DIMAPOST
  1

  9
$DIMALT
 70
     0
  9
$DIMALTD
 70
     2
  9
$DIMALTF
 40
25.4
  9
$DIMLFAC
 40
1.0
  9
$DIMTOFL
 70
     0
  9
$DIMTVP
 40
0.0
  9
$DIMTIX
 70
     0
  9
$DIMSOXD
 70
     0
  9
$DIMSAH
 70
     0
  9
$DIMBLK1
  1

  9
$DIMBLK2
  1

  9
$LUNITS
 70
     2
  9
$LUPREC
 70
     4
  9
$SKETCHINC
 40
0.1
  9
$FILLETRAD
 40
0.5
  9
$AUNITS
 70
     0
  9
$AUPREC
 70
     0
  9
$MENU
  1
.
  9
$ELEVATION
 40
0.0
  9
$THICKNESS
 40
0.0
  9
$LIMCHECK
 70
     0
  9
$CHAMFERA
 40
0.0
  9
$CHAMFERB
 40
0.0
  9
$SKPOLY
 70
     0
  9
$TDCREATE
 40
2460529.658901088
  9
$TDUPDATE
 40
2460529.658901308
  9
$TDINDWG
 40
0.0000000116
  9
$TDUSRTIMER
 40
0.0000000116
  9
$USRTIMER
 70
     1
  9
$ANGBASE
 50
0.0
  9
$ANGDIR
 70
     0
  9
$PDMODE
 70
     0
  9
$PDSIZE
 40
0.0
  9
$PLINEWID
 40
0.0
  9
$COORDS
 70
     1
  9
$SPLFRAME
 70
     0
  9
$SPLINETYPE
 70
     6
  9
$SPLINESEGS
 70
     8
  9
$ATTDIA
 70
     0
  9
$ATTREQ
 70
     1
  9
$HANDLING
 70
     1
  9
$HANDSEED
  5
2DE
  9
$SURFTAB1
 70
     6
  9
$SURFTAB2
 70
     6
  9
$SURFTYPE
 70
     6
  9
$SURFU
 70
     6
  9
$SURFV
 70
     6
  9
$UCSNAME
  2

  9
$UCSORG
 10
0.0
 20
0.0
 30
0.0
  9
$UCSXDIR
 10
1.0
 20
0.0
 30
0.0
  9
$UCSYDIR
 10
0.0
 20
1.0
 30
0.0
  9
$USERI1
 70
     0
  9
$USERI2
 70
     0
  9
$USERI3
 70
     0
  9
$USERI4
 70
     0
  9
$USERI5
 70
     0
  9
$USERR1
 40
0.0
  9
$USERR2
 40
0.0
  9
$USERR3
 40
0.0
  9
$USERR4
 40
0.0
  9
$USERR5
 40
0.0
  9
$WORLDVIEW
 70
     1
  0
ENDSEC
  0
SECTION
  2
TABLES
  0
TABLE
  2
VPORT
 70
     1
  0
VPORT
  2
*ACTIVE
 70
     0
 10
0.0
 20
0.0
 11
1.0
 21
1.0
 12
-663.8023075214683
 22
-337.7514656299006
 13
0.0
 23
0.0
 14
0.5
 24
0.5
 15
0.5
 25
0.5
 16
0.0
 26
0.0
 36
1.0
 17
0.0
 27
0.0
 37
0.0
 40
322.2295454545455
 41
1.6
 42
50.0
 43
0.0
 44
0.0
 50
0.0
 51
0.0
 71
     0
 72
   100
 73
     1
 74
     3
 75
     0
 76
     0
 77
     0
 78
     0
  0
ENDTAB
  0
TABLE
  2
LTYPE
 70
     3
  0
LTYPE
  2
CONTINUOUS
 70
     0
  3
Solid line
 72
    65
 73
     0
 40
0.0
  0
LTYPE
  2
DOT
 70
     0
  3

 72
    65
 73
     0
 40
0.0
  0
LTYPE
  2
CENTER
 70
     0
  3

 72
    65
 73
     0
 40
0.0
  0
ENDTAB
  0
TABLE
  2
LAYER
 70
     2
  0
LAYER
  2
0
 70
     0
 62
     7
  6
CONTINUOUS
  0
LAYER
  2
1
 70
     0
 62
     7
  6
CONTINUOUS
  0
ENDTAB
  0
TABLE
  2
STYLE
 70
     2
  0
STYLE
  2
STANDARD
 70
     0
 40
0.0
 41
1.0
 50
0.0
 71
     0
 42
0.2
  3
txt
  4

  0
STYLE
  2
ＭＳ_ゴシック
 70
     0
 40
0.0
 41
1.0
 50
0.0
 71
     0
 42
0.2
  3
ＭＳ ゴシック.shx
  4

  0
ENDTAB
  0
TABLE
  2
VIEW
 70
     0
  0
ENDTAB
  0
TABLE
  2
UCS
 70
     0
  0
ENDTAB
  0
ENDSEC
  0
SECTION
  2
BLOCKS
  0
BLOCK
  8
0
  2
D_FRAME_VIEW_3831
 70
     0
 10
0.0
 20
0.0
 30
0.0
  0
LINE
  5
76
  8
1
  6
CONTINUOUS
 62
     7
 10
-590.3523075214682
 20
-428.6366929026278
 30
0.0
 11
-592.3523075214683
 21
-428.6366929026278
 31
0.0
  0
LINE
  5
77
  8
1
  6
CONTINUOUS
 62
     9
 10
-592.3523075214683
 20
-427.6366929026278
 30
0.0
 11
-590.3523075214683
 21
-427.6366929026278
 31
0.0
  0
LINE
  5
78
  8
1
  6
CONTINUOUS
 62
     7
 10
-592.3523075214683
 20
-428.6366929026278
 30
0.0
 11
-592.3523075214683
 21
-427.6366929026278
 31
0.0
  0
LINE
  5
79
  8
1
  6
CONTINUOUS
 62
     7
 10
-590.3523075214682
 20
-427.6366929026278
 30
0.0
 11
-590.3523075214682
 21
-428.6366929026278
 31
0.0
  0
LINE
  5
7A
  8
1
  6
CONTINUOUS
 62
     9
 10
-590.3523075214683
 20
-407.1366929026278
 30
0.0
 11
-592.3523075214683
 21
-407.1366929026278
 31
0.0
  0
LINE
  5
7B
  8
1
  6
CONTINUOUS
 62
     7
 10
-592.3523075214683
 20
-427.6366929026278
 30
0.0
 11
-592.3523075214683
 21
-407.1366929026278
 31
0.0
  0
LINE
  5
7C
  8
1
  6
CONTINUOUS
 62
     7
 10
-590.3523075214683
 20
-427.6366929026278
 30
0.0
 11
-590.3523075214683
 21
-407.1366929026278
 31
0.0
  0
LINE
  5
7D
  8
1
  6
CONTINUOUS
 62
     7
 10
-592.3523075214683
 20
-406.1366929026278
 30
0.0
 11
-590.3523075214682
 21
-406.1366929026278
 31
0.0
  0
LINE
  5
7E
  8
1
  6
CONTINUOUS
 62
     7
 10
-592.3523075214683
 20
-407.1366929026278
 30
0.0
 11
-592.3523075214683
 21
-406.1366929026278
 31
0.0
  0
LINE
  5
7F
  8
1
  6
CONTINUOUS
 62
     7
 10
-590.3523075214682
 20
-406.1366929026278
 30
0.0
 11
-590.3523075214682
 21
-407.1366929026278
 31
0.0
  0
LINE
  5
80
  8
1
  6
CONTINUOUS
 62
     9
 10
-592.6523075214684
 20
-428.7366929026279
 30
0.0
 11
-592.6523075214684
 21
-406.1366929026278
 31
0.0
  0
LINE
  5
81
  8
1
  6
CONTINUOUS
 62
     7
 10
-592.3523075214683
 20
-428.6366929026278
 30
0.0
 11
-592.3596781439298
 21
-428.6367472316549
 31
0.0
  0
LINE
  5
82
  8
1
  6
CONTINUOUS
 62
     7
 10
-592.3596781439298
 20
-428.6367472316549
 30
0.0
 11
-592.6523075214684
 21
-428.7366929026279
 31
0.0
  0
LINE
  5
83
  8
1
  6
CONTINUOUS
 62
     7
 10
-592.3523075214683
 20
-406.1366929026278
 30
0.0
 11
-592.6523075214684
 21
-406.1366929026278
 31
0.0
  0
LINE
  5
84
  8
1
  6
CONTINUOUS
 62
     9
 10
-603.0523075214683
 20
-456.1366929026278
 30
0.0
 11
-603.0523075214683
 21
-406.1366929026278
 31
0.0
  0
LINE
  5
85
  8
1
  6
CONTINUOUS
 62
     7
 10
-605.3523075214683
 20
-456.1366929026278
 30
0.0
 11
-605.3523075214683
 21
-429.1366929026278
 31
0.0
  0
LINE
  5
86
  8
1
  6
CONTINUOUS
 62
     7
 10
-605.3523075214683
 20
-456.1366929026278
 30
0.0
 11
-603.0523075214683
 21
-456.1366929026278
 31
0.0
  0
LINE
  5
87
  8
1
  6
CONTINUOUS
 62
     7
 10
-604.8523075214684
 20
-406.1366929026278
 30
0.0
 11
-603.0523075214683
 21
-406.1366929026278
 31
0.0
  0
LINE
  5
88
  8
1
  6
CONTINUOUS
 62
     9
 10
-547.6523075214683
 20
-456.1366929026278
 30
0.0
 11
-547.6523075214683
 21
-406.1366929026278
 31
0.0
  0
ARC
  5
89
  8
1
  6
CONTINUOUS
 62
     7
 10
-590.8523075214683
 20
-429.1366929026278
 30
0.0
 40
2.000000000000002
 50
180.0
 51
269.9999999999998
  0
LINE
  5
8A
  8
1
  6
CONTINUOUS
 62
     7
 10
-563.3523075214683
 20
-431.1366929026278
 30
0.0
 11
-590.8523075214683
 21
-431.1366929026278
 31
0.0
  0
ARC
  5
8B
  8
1
  6
CONTINUOUS
 62
     7
 10
-563.3523075214683
 20
-427.1366929026278
 30
0.0
 40
4.000000000000004
 50
270.0
 51
0.0000000000001705
  0
LINE
  5
8C
  8
1
  6
CONTINUOUS
 62
     7
 10
-559.3523075214683
 20
-414.1366929026278
 30
0.0
 11
-559.3523075214683
 21
-427.1366929026278
 31
0.0
  0
LINE
  5
8D
  8
1
  6
CONTINUOUS
 62
     7
 10
-557.0822936496814
 20
-408.0833225778626
 30
0.0
 11
-559.3523075214683
 21
-414.1366929026278
 31
0.0
  0
ARC
  5
8E
  8
1
  6
CONTINUOUS
 62
     7
 10
-554.2733061169743
 20
-409.1366929026278
 30
0.0
 40
3.000000000000003
 50
90.0
 51
159.4439547804161
  0
LINE
  5
8F
  8
1
  6
CONTINUOUS
 62
     7
 10
-554.2733061169743
 20
-406.1366929026278
 30
0.0
 11
-547.6523075214683
 21
-406.1366929026278
 31
0.0
  0
LINE
  5
90
  8
1
  6
CONTINUOUS
 62
     7
 10
-586.3523075214683
 20
-449.6366929026278
 30
0.0
 11
-599.3523075214683
 21
-449.6366929026278
 31
0.0
  0
ARC
  5
91
  8
1
  6
CONTINUOUS
 62
     7
 10
-599.3523075214683
 20
-451.1366929026278
 30
0.0
 40
1.500000000000001
 50
90.0
 51
180.0
  0
ARC
  5
92
  8
1
  6
CONTINUOUS
 62
     7
 10
-599.3523075214683
 20
-451.1366929026278
 30
0.0
 40
1.499999999999946
 50
179.9999999999995
 51
270.0
  0
LINE
  5
93
  8
1
  6
CONTINUOUS
 62
     7
 10
-599.3523075214683
 20
-452.6366929026278
 30
0.0
 11
-586.3523075214683
 21
-452.6366929026278
 31
0.0
  0
ARC
  5
94
  8
1
  6
CONTINUOUS
 62
     7
 10
-586.3523075214683
 20
-451.1366929026278
 30
0.0
 40
1.500000000000001
 50
270.0
 51
0.0
  0
ARC
  5
95
  8
1
  6
CONTINUOUS
 62
     7
 10
-586.3523075214683
 20
-451.1366929026278
 30
0.0
 40
1.500000000000057
 50
359.9999999999995
 51
90.0
  0
LINE
  5
96
  8
1
  6
CONTINUOUS
 62
     7
 10
-603.0523075214683
 20
-456.1366929026278
 30
0.0
 11
-547.6523075214684
 21
-456.1366929026278
 31
0.0
  0
ARC
  5
97
  8
1
  6
CONTINUOUS
 62
     7
 10
-592.3523075214682
 20
-429.1366929026278
 30
0.0
 40
0.500000000000056
 50
126.8698976458529
 51
179.9999999999992
  0
LINE
  5
98
  8
1
  6
CONTINUOUS
 62
     7
 10
-603.0523075214683
 20
-406.1366929026278
 30
0.0
 11
-592.6523075214684
 21
-406.1366929026278
 31
0.0
  0
LINE
  5
99
  8
1
  6
CONTINUOUS
 62
     7
 10
-545.3523075214683
 20
-456.1366929026278
 30
0.0
 11
-545.3523075214683
 21
-406.1366929026278
 31
0.0
  0
LINE
  5
9A
  8
1
  6
CONTINUOUS
 62
     7
 10
-547.6523075214683
 20
-406.1366929026278
 30
0.0
 11
-545.3523075214683
 21
-406.1366929026278
 31
0.0
  0
LINE
  5
9B
  8
1
  6
CONTINUOUS
 62
     7
 10
-547.6523075214683
 20
-456.1366929026278
 30
0.0
 11
-545.3523075214683
 21
-456.1366929026278
 31
0.0
  0
LINE
  5
9C
  8
1
  6
CONTINUOUS
 62
     9
 10
-600.7523075214683
 20
-451.6752093833413
 30
0.0
 11
-600.7523075214683
 21
-450.5981764219144
 31
0.0
  0
LINE
  5
9D
  8
1
  6
CONTINUOUS
 62
     7
 10
-528.0523075214684
 20
-419.1366929026278
 30
0.0
 11
-533.3523075214683
 21
-419.1366929026278
 31
0.0
  0
LINE
  5
9E
  8
1
  6
CONTINUOUS
 62
     7
 10
-528.0523075214684
 20
-425.6366929026278
 30
0.0
 11
-528.0523075214684
 21
-419.1366929026278
 31
0.0
  0
LINE
  5
9F
  8
1
  6
CONTINUOUS
 62
     7
 10
-528.0523075214684
 20
-425.6366929026278
 30
0.0
 11
-533.3523075214683
 21
-425.6366929026278
 31
0.0
  0
LINE
  5
A0
  8
1
  6
CONTINUOUS
 62
     7
 10
-533.3523075214683
 20
-425.6366929026278
 30
0.0
 11
-533.3523075214683
 21
-419.1366929026278
 31
0.0
  0
LINE
  5
A1
  8
1
  6
CONTINUOUS
 62
     7
 10
-528.0523075214684
 20
-412.6366929026278
 30
0.0
 11
-533.3523075214683
 21
-412.6366929026278
 31
0.0
  0
LINE
  5
A2
  8
1
  6
CONTINUOUS
 62
     7
 10
-528.0523075214684
 20
-419.1366929026278
 30
0.0
 11
-528.0523075214684
 21
-412.6366929026278
 31
0.0
  0
LINE
  5
A3
  8
1
  6
CONTINUOUS
 62
     7
 10
-533.3523075214683
 20
-419.1366929026278
 30
0.0
 11
-533.3523075214683
 21
-412.6366929026278
 31
0.0
  0
LINE
  5
A4
  8
1
  6
CONTINUOUS
 62
     9
 10
-537.3523075214683
 20
-415.1366929026278
 30
0.0
 11
-537.3523075214683
 21
-423.1366929026278
 31
0.0
  0
LINE
  5
A5
  8
1
  6
CONTINUOUS
 62
     7
 10
-577.7273075214683
 20
-423.1366929026278
 30
0.0
 11
-577.7273075214683
 21
-415.1366929026278
 31
0.0
  0
LINE
  5
A6
  8
1
  6
CONTINUOUS
 62
     7
 10
-578.3523075214683
 20
-415.7616929026278
 30
0.0
 11
-578.3523075214683
 21
-422.5116929026278
 31
0.0
  0
LINE
  5
A7
  8
1
  6
CONTINUOUS
 62
     7
 10
-637.5523075214684
 20
-356.6366929026278
 30
0.0
 11
-637.5523075214684
 21
-476.6366929026278
 31
0.0
  0
LINE
  5
A8
  8
1
  6
CONTINUOUS
 62
     7
 10
-635.9523075214684
 20
-356.6366929026278
 30
0.0
 11
-635.9523075214684
 21
-476.6366929026278
 31
0.0
  0
LINE
  5
A9
  8
1
  6
CONTINUOUS
 62
     9
 10
-635.1259556991353
 20
-409.6366929026278
 30
0.0
 11
-635.1259556991353
 21
-423.6366929026278
 31
0.0
  0
LINE
  5
AA
  8
1
  6
CONTINUOUS
 62
     7
 10
-635.9523075214684
 20
-423.6366929026278
 30
0.0
 11
-635.1259556991353
 21
-423.6366929026278
 31
0.0
  0
LINE
  5
AB
  8
1
  6
CONTINUOUS
 62
     7
 10
-635.1259556991353
 20
-409.6366929026278
 30
0.0
 11
-635.9523075214684
 21
-409.6366929026278
 31
0.0
  0
LINE
  5
AC
  8
1
  6
CONTINUOUS
 62
     9
 10
-633.9271740818674
 20
-423.6366929026278
 30
0.0
 11
-633.9271740818674
 21
-409.6366929026278
 31
0.0
  0
LINE
  5
AD
  8
1
  6
CONTINUOUS
 62
     7
 10
-635.1259556991353
 20
-423.6366929026278
 30
0.0
 11
-633.9271740818674
 21
-423.6366929026278
 31
0.0
  0
LINE
  5
AE
  8
1
  6
CONTINUOUS
 62
     7
 10
-635.1259556991353
 20
-409.6366929026278
 30
0.0
 11
-633.9271740818674
 21
-409.6366929026278
 31
0.0
  0
LINE
  5
AF
  8
1
  6
CONTINUOUS
 62
     7
 10
-630.9523075214684
 20
-409.6366929026278
 30
0.0
 11
-630.9523075214684
 21
-410.3303384244127
 31
0.0
  0
LINE
  5
B0
  8
1
  6
CONTINUOUS
 62
     7
 10
-630.9523075214684
 20
-422.9430473808429
 30
0.0
 11
-630.9523075214684
 21
-423.6366929026278
 31
0.0
  0
LINE
  5
B1
  8
1
  6
CONTINUOUS
 62
     7
 10
-630.9523075214684
 20
-423.6366929026278
 30
0.0
 11
-633.9271740818674
 21
-423.6366929026278
 31
0.0
  0
LINE
  5
B2
  8
1
  6
CONTINUOUS
 62
     7
 10
-633.9271740818674
 20
-409.6366929026278
 30
0.0
 11
-630.9523075214684
 21
-409.6366929026278
 31
0.0
  0
LINE
  5
B3
  8
1
  6
CONTINUOUS
 62
     7
 10
-622.7023075214684
 20
-418.6366929026278
 30
0.0
 11
-622.7023075214684
 21
-414.6366929026278
 31
0.0
  0
LINE
  5
B4
  8
1
  6
CONTINUOUS
 62
     7
 10
-622.3523075214683
 20
-414.9866929026279
 30
0.0
 11
-622.3523075214683
 21
-418.2866929026278
 31
0.0
  0
LINE
  5
B5
  8
1
  6
CONTINUOUS
 62
     9
 10
-629.3523075214683
 20
-409.1933172296538
 30
0.0
 11
-630.9523075214684
 21
-409.1933172296538
 31
0.0
  0
LINE
  5
B6
  8
1
  6
CONTINUOUS
 62
     9
 10
-629.3523075214683
 20
-413.523444248576
 30
0.0
 11
-630.9523075214684
 21
-413.523444248576
 31
0.0
  0
LINE
  5
B7
  8
1
  6
CONTINUOUS
 62
     7
 10
-630.9523075214684
 20
-409.1933172296538
 30
0.0
 11
-630.9523075214684
 21
-409.6366929026278
 31
0.0
  0
LINE
  5
B8
  8
1
  6
CONTINUOUS
 62
     7
 10
-630.9523075214684
 20
-410.3303384244127
 30
0.0
 11
-630.9523075214684
 21
-413.523444248576
 31
0.0
  0
LINE
  5
B9
  8
1
  6
CONTINUOUS
 62
     7
 10
-629.3523075214683
 20
-409.1933172296538
 30
0.0
 11
-629.3523075214683
 21
-413.523444248576
 31
0.0
  0
LINE
  5
BA
  8
1
  6
CONTINUOUS
 62
     9
 10
-629.3523075214683
 20
-419.7499415566797
 30
0.0
 11
-630.9523075214684
 21
-419.7499415566797
 31
0.0
  0
LINE
  5
BB
  8
1
  6
CONTINUOUS
 62
     9
 10
-629.3523075214683
 20
-424.0800685756018
 30
0.0
 11
-630.9523075214684
 21
-424.0800685756018
 31
0.0
  0
LINE
  5
BC
  8
1
  6
CONTINUOUS
 62
     7
 10
-630.9523075214684
 20
-419.7499415566797
 30
0.0
 11
-630.9523075214684
 21
-422.9430473808429
 31
0.0
  0
LINE
  5
BD
  8
1
  6
CONTINUOUS
 62
     7
 10
-630.9523075214684
 20
-423.6366929026278
 30
0.0
 11
-630.9523075214684
 21
-424.0800685756018
 31
0.0
  0
LINE
  5
BE
  8
1
  6
CONTINUOUS
 62
     7
 10
-629.3523075214683
 20
-419.7499415566797
 30
0.0
 11
-629.3523075214683
 21
-424.0800685756018
 31
0.0
  0
LINE
  5
BF
  8
1
  6
CONTINUOUS
 62
     7
 10
-630.9523075214684
 20
-413.523444248576
 30
0.0
 11
-630.9523075214684
 21
-419.7499415566797
 31
0.0
  0
LINE
  5
C0
  8
1
  6
CONTINUOUS
 62
     7
 10
-629.3523075214683
 20
-413.523444248576
 30
0.0
 11
-629.3523075214683
 21
-419.7499415566797
 31
0.0
  0
LINE
  5
C1
  8
1
  6
CONTINUOUS
 62
     9
 10
-629.3523075214683
 20
-404.8065658837057
 30
0.0
 11
-630.9523075214684
 21
-404.8065658837057
 31
0.0
  0
LINE
  5
C2
  8
1
  6
CONTINUOUS
 62
     7
 10
-630.9523075214684
 20
-404.8065658837057
 30
0.0
 11
-630.9523075214684
 21
-409.1933172296538
 31
0.0
  0
LINE
  5
C3
  8
1
  6
CONTINUOUS
 62
     7
 10
-629.3523075214683
 20
-404.8065658837057
 30
0.0
 11
-629.3523075214683
 21
-409.1933172296538
 31
0.0
  0
LINE
  5
C4
  8
1
  6
CONTINUOUS
 62
     9
 10
-629.3523075214683
 20
-428.46681992155
 30
0.0
 11
-630.9523075214684
 21
-428.46681992155
 31
0.0
  0
LINE
  5
C5
  8
1
  6
CONTINUOUS
 62
     7
 10
-630.9523075214684
 20
-424.0800685756018
 30
0.0
 11
-630.9523075214684
 21
-428.46681992155
 31
0.0
  0
LINE
  5
C6
  8
1
  6
CONTINUOUS
 62
     7
 10
-629.3523075214683
 20
-424.0800685756018
 30
0.0
 11
-629.3523075214683
 21
-428.46681992155
 31
0.0
  0
LINE
  5
C7
  8
1
  6
CONTINUOUS
 62
     9
 10
-628.8523075214683
 20
-414.0366929026279
 30
0.0
 11
-628.8523075214683
 21
-419.2366929026278
 31
0.0
  0
LINE
  5
C8
  8
1
  6
CONTINUOUS
 62
     7
 10
-627.8523075214683
 20
-414.0366929026279
 30
0.0
 11
-627.8523075214683
 21
-419.2366929026278
 31
0.0
  0
LINE
  5
C9
  8
1
  6
CONTINUOUS
 62
     7
 10
-629.3523075214683
 20
-404.1406178617086
 30
0.0
 11
-629.3424748045117
 21
-404.1366929026278
 31
0.0
  0
LINE
  5
CA
  8
1
  6
CONTINUOUS
 62
     7
 10
-630.9468541986581
 20
-404.1366929026278
 30
0.0
 11
-630.9523075214684
 21
-404.1406178617086
 31
0.0
  0
LINE
  5
CB
  8
1
  6
CONTINUOUS
 62
     7
 10
-629.3424748045117
 20
-404.1366929026278
 30
0.0
 11
-630.9468541986581
 21
-404.1366929026278
 31
0.0
  0
LINE
  5
CC
  8
1
  6
CONTINUOUS
 62
     7
 10
-630.9523075214684
 20
-404.1406178617086
 30
0.0
 11
-630.9523075214684
 21
-404.8065658837057
 31
0.0
  0
LINE
  5
CD
  8
1
  6
CONTINUOUS
 62
     7
 10
-629.3523075214683
 20
-404.1406178617086
 30
0.0
 11
-629.3523075214683
 21
-404.8065658837057
 31
0.0
  0
LINE
  5
CE
  8
1
  6
CONTINUOUS
 62
     7
 10
-629.3424748045117
 20
-429.1366929026278
 30
0.0
 11
-629.3523075214683
 21
-429.132767943547
 31
0.0
  0
LINE
  5
CF
  8
1
  6
CONTINUOUS
 62
     7
 10
-629.3424748045117
 20
-429.1366929026278
 30
0.0
 11
-630.9468541986581
 21
-429.1366929026278
 31
0.0
  0
LINE
  5
D0
  8
1
  6
CONTINUOUS
 62
     7
 10
-630.9523075214684
 20
-429.132767943547
 30
0.0
 11
-630.9468541986581
 21
-429.1366929026278
 31
0.0
  0
LINE
  5
D1
  8
1
  6
CONTINUOUS
 62
     7
 10
-630.9523075214684
 20
-428.46681992155
 30
0.0
 11
-630.9523075214684
 21
-429.132767943547
 31
0.0
  0
LINE
  5
D2
  8
1
  6
CONTINUOUS
 62
     7
 10
-629.3523075214683
 20
-428.46681992155
 30
0.0
 11
-629.3523075214683
 21
-429.132767943547
 31
0.0
  0
LINE
  5
D3
  8
1
  6
CONTINUOUS
 62
     7
 10
-627.3523075214684
 20
-404.1366929026278
 30
0.0
 11
-629.3424748045117
 21
-404.1366929026278
 31
0.0
  0
LINE
  5
D4
  8
1
  6
CONTINUOUS
 62
     9
 10
-627.3523075214684
 20
-404.1366929026278
 30
0.0
 11
-627.3523075214684
 21
-414.6366929026278
 31
0.0
  0
LINE
  5
D5
  8
1
  6
CONTINUOUS
 62
     9
 10
-627.3523075214684
 20
-418.6366929026278
 30
0.0
 11
-627.3523075214684
 21
-429.1366929026278
 31
0.0
  0
LINE
  5
D6
  8
1
  6
CONTINUOUS
 62
     7
 10
-629.3424748045117
 20
-429.1366929026278
 30
0.0
 11
-627.3523075214684
 21
-429.1366929026278
 31
0.0
  0
LINE
  5
D7
  8
1
  6
CONTINUOUS
 62
     9
 10
-607.4523075214685
 20
-429.1366929026278
 30
0.0
 11
-607.4523075214685
 21
-404.1366929026278
 31
0.0
  0
LINE
  5
D8
  8
1
  6
CONTINUOUS
 62
     7
 10
-627.3523075214684
 20
-404.1366929026278
 30
0.0
 11
-607.4523075214685
 21
-404.1366929026278
 31
0.0
  0
LINE
  5
D9
  8
1
  6
CONTINUOUS
 62
     7
 10
-627.3523075214684
 20
-429.1366929026278
 30
0.0
 11
-607.4523075214685
 21
-429.1366929026278
 31
0.0
  0
LINE
  5
DA
  8
1
  6
CONTINUOUS
 62
     7
 10
-604.8523075214684
 20
-404.1366929026279
 30
0.0
 11
-604.8523075214684
 21
-429.136692902628
 31
0.0
  0
LINE
  5
DB
  8
1
  6
CONTINUOUS
 62
     7
 10
-607.4523075214685
 20
-404.1366929026278
 30
0.0
 11
-604.8523075214684
 21
-404.1366929026278
 31
0.0
  0
LINE
  5
DC
  8
1
  6
CONTINUOUS
 62
     7
 10
-604.8523075214684
 20
-429.136692902628
 30
0.0
 11
-607.4523075214685
 21
-429.1366929026278
 31
0.0
  0
LINE
  5
DD
  8
1
  6
CONTINUOUS
 62
     7
 10
-577.7273075214682
 20
-423.1366929026278
 30
0.0
 11
-559.3523075214683
 21
-423.1366929026278
 31
0.0
  0
LINE
  5
DE
  8
1
  6
CONTINUOUS
 62
     7
 10
-545.3523075214683
 20
-423.1366929026278
 30
0.0
 11
-537.3523075214683
 21
-423.1366929026278
 31
0.0
  0
LINE
  5
DF
  8
1
  6
CONTINUOUS
 62
     7
 10
-537.3523075214683
 20
-415.1366929026278
 30
0.0
 11
-545.3523075214683
 21
-415.1366929026278
 31
0.0
  0
LINE
  5
E0
  8
1
  6
CONTINUOUS
 62
     7
 10
-559.3523075214683
 20
-415.1366929026278
 30
0.0
 11
-577.7273075214682
 21
-415.1366929026278
 31
0.0
  0
LINE
  5
E1
  8
1
  6
CONTINUOUS
 62
     7
 10
-537.3523075214683
 20
-423.1366929026278
 30
0.0
 11
-533.3523075214683
 21
-423.1366929026278
 31
0.0
  0
LINE
  5
E2
  8
1
  6
CONTINUOUS
 62
     7
 10
-533.3523075214683
 20
-415.1366929026278
 30
0.0
 11
-537.3523075214683
 21
-415.1366929026278
 31
0.0
  0
LINE
  5
E3
  8
1
  6
CONTINUOUS
 62
     7
 10
-577.7273075214683
 20
-415.1366929026278
 30
0.0
 11
-578.3523075214683
 21
-415.7616929026278
 31
0.0
  0
LINE
  5
E4
  8
1
  6
CONTINUOUS
 62
     7
 10
-578.3523075214683
 20
-422.5116929026278
 30
0.0
 11
-577.7273075214683
 21
-423.1366929026278
 31
0.0
  0
LINE
  5
E5
  8
1
  6
CONTINUOUS
 62
     7
 10
-635.9523075214684
 20
-356.6366929026278
 30
0.0
 11
-637.5523075214684
 21
-356.6366929026278
 31
0.0
  0
LINE
  5
E6
  8
1
  6
CONTINUOUS
 62
     7
 10
-637.5523075214684
 20
-476.6366929026278
 30
0.0
 11
-635.9523075214684
 21
-476.6366929026278
 31
0.0
  0
LINE
  5
E7
  8
1
  6
CONTINUOUS
 62
     7
 10
-622.7023075214684
 20
-414.6366929026278
 30
0.0
 11
-627.8523075214683
 21
-414.6366929026278
 31
0.0
  0
LINE
  5
E8
  8
1
  6
CONTINUOUS
 62
     7
 10
-627.8523075214683
 20
-418.6366929026278
 30
0.0
 11
-622.7023075214684
 21
-418.6366929026278
 31
0.0
  0
LINE
  5
E9
  8
1
  6
CONTINUOUS
 62
     7
 10
-622.7023075214684
 20
-418.6366929026278
 30
0.0
 11
-622.3523075214683
 21
-418.2866929026278
 31
0.0
  0
LINE
  5
EA
  8
1
  6
CONTINUOUS
 62
     7
 10
-622.3523075214683
 20
-414.9866929026279
 30
0.0
 11
-622.7023075214684
 21
-414.6366929026278
 31
0.0
  0
ARC
  5
EB
  8
1
  6
CONTINUOUS
 62
     7
 10
-628.8523075214683
 20
-413.5366929026279
 30
0.0
 40
0.5000000000000004
 50
179.9999999999999
 51
269.9999999999991
  0
ARC
  5
EC
  8
1
  6
CONTINUOUS
 62
     7
 10
-628.8523075214683
 20
-419.7366929026278
 30
0.0
 40
0.4999999999999449
 50
90.0000000000009
 51
180.0000000000001
  0
LINE
  5
ED
  8
1
  6
CONTINUOUS
 62
     7
 10
-627.8523075214683
 20
-414.0366929026279
 30
0.0
 11
-628.8523075214683
 21
-414.0366929026279
 31
0.0
  0
LINE
  5
EE
  8
1
  6
CONTINUOUS
 62
     7
 10
-628.8523075214683
 20
-419.2366929026278
 30
0.0
 11
-627.8523075214683
 21
-419.2366929026278
 31
0.0
  0
ENDBLK
  8
0
  0
BLOCK
  8
0
  2
D_FRAME_VIEW_3023
 70
     0
 10
0.0
 20
0.0
 30
0.0
  0
LINE
  5
FE
  8
1
  6
CONTINUOUS
 62
     7
 10
-742.8023075214684
 20
-407.3990885955938
 30
0.0
 11
-750.8023075214684
 21
-412.0178907491108
 31
0.0
  0
LINE
  5
FF
  8
1
  6
CONTINUOUS
 62
     7
 10
-734.8023075214684
 20
-421.2554950561448
 30
0.0
 11
-734.8023075214684
 21
-412.0178907491108
 31
0.0
  0
LINE
  5
100
  8
1
  6
CONTINUOUS
 62
     7
 10
-742.8023075214684
 20
-425.8742972096618
 30
0.0
 11
-734.8023075214684
 21
-421.2554950561448
 31
0.0
  0
LINE
  5
101
  8
1
  6
CONTINUOUS
 62
     7
 10
-734.8023075214684
 20
-412.0178907491108
 30
0.0
 11
-742.8023075214684
 21
-407.3990885955938
 31
0.0
  0
LINE
  5
102
  8
1
  6
CONTINUOUS
 62
     7
 10
-750.8023075214684
 20
-421.2554950561448
 30
0.0
 11
-742.8023075214684
 21
-425.8742972096618
 31
0.0
  0
LINE
  5
103
  8
1
  6
CONTINUOUS
 62
     7
 10
-750.8023075214684
 20
-412.0178907491108
 30
0.0
 11
-750.8023075214684
 21
-421.2554950561448
 31
0.0
  0
CIRCLE
  5
104
  8
1
  6
CONTINUOUS
 62
     7
 10
-742.8023075214684
 20
-416.6366929026278
 30
0.0
 40
10.0
  0
LINE
  5
105
  8
1
  6
CONTINUOUS
 62
     7
 10
-751.0496343611177
 20
-416.8466929026278
 30
0.0
 11
-750.8023075214683
 21
-416.8466929026278
 31
0.0
  0
LINE
  5
106
  8
1
  6
CONTINUOUS
 62
     7
 10
-750.8023075214684
 20
-417.2366929026278
 30
0.0
 11
-751.0304604126098
 21
-417.2366929026278
 31
0.0
  0
ARC
  5
107
  8
1
  6
CONTINUOUS
 62
     7
 10
-742.8023075214684
 20
-416.6366929026278
 30
0.0
 40
8.25
 50
181.4585955651436
 51
184.1706479118617
  0
ARC
  5
108
  8
1
  6
CONTINUOUS
 62
     7
 10
-742.8023075214684
 20
-416.6366929026278
 30
0.0
 40
8.25
 50
184.1706479118616
 51
194.0754005560702
  0
ARC
  5
109
  8
1
  6
CONTINUOUS
 62
     7
 10
-742.8023075214684
 20
-416.6366929026278
 30
0.0
 40
8.25
 50
225.8856213477676
 51
254.075400556068
  0
ARC
  5
10A
  8
1
  6
CONTINUOUS
 62
     7
 10
-742.8023075214684
 20
-416.6366929026278
 30
0.0
 40
8.25
 50
285.8856213477706
 51
314.1411102339317
  0
ARC
  5
10B
  8
1
  6
CONTINUOUS
 62
     7
 10
-742.8023075214684
 20
-416.6366929026278
 30
0.0
 40
8.25
 50
345.8588897660683
 51
14.14111023393167
  0
ARC
  5
10C
  8
1
  6
CONTINUOUS
 62
     7
 10
-742.8023075214684
 20
-416.6366929026278
 30
0.0
 40
8.25
 50
45.85888976606834
 51
74.07540055606519
  0
ARC
  5
10D
  8
1
  6
CONTINUOUS
 62
     7
 10
-742.8023075214684
 20
-416.6366929026278
 30
0.0
 40
8.25
 50
105.8588897660684
 51
134.0754005560682
  0
ARC
  5
10E
  8
1
  6
CONTINUOUS
 62
     7
 10
-742.8023075214684
 20
-416.6366929026278
 30
0.0
 40
8.25
 50
165.8588897660683
 51
181.250188936756
  0
LINE
  5
10F
  8
1
  6
CONTINUOUS
 62
     7
 10
-751.0503436513601
 20
-416.8166929026278
 30
0.0
 11
-750.8023075214683
 21
-416.8166929026278
 31
0.0
  0
ARC
  5
110
  8
1
  6
CONTINUOUS
 62
     7
 10
-744.3023075214682
 20
-442.1366929026278
 30
0.0
 40
5.249999999999997
 50
257.9055522657595
 51
270.0
  0
LINE
  5
111
  8
1
  6
CONTINUOUS
 62
     7
 10
-742.8023075214683
 20
-447.3866929026278
 30
0.0
 11
-744.3023075214683
 21
-447.3866929026278
 31
0.0
  0
ARC
  5
112
  8
1
  6
CONTINUOUS
 62
     7
 10
-742.8023075214683
 20
-442.1366929026278
 30
0.0
 40
5.249999999999993
 50
270.0
 51
299.6854518309232
  0
LINE
  5
113
  8
1
  6
CONTINUOUS
 62
     9
 10
-735.1023075214682
 20
-434.7913990116522
 30
0.0
 11
-735.1023075214682
 21
-429.1366929026279
 31
0.0
  0
LINE
  5
114
  8
1
  6
CONTINUOUS
 62
     7
 10
-745.4023075214683
 20
-456.1366929026278
 30
0.0
 11
-740.2023075214684
 21
-456.1366929026278
 31
0.0
  0
LINE
  5
115
  8
1
  6
CONTINUOUS
 62
     7
 10
-732.8023075214683
 20
-433.9572009783166
 30
0.0
 11
-732.8023075214683
 21
-429.136692902628
 31
0.0
  0
LINE
  5
116
  8
1
  6
CONTINUOUS
 62
     7
 10
-732.8023075214683
 20
-418.6522573397024
 30
0.0
 11
-732.8023075214683
 21
-416.6366929026278
 31
0.0
  0
LINE
  5
117
  8
1
  6
CONTINUOUS
 62
     7
 10
-732.8023075214683
 20
-416.6366929026278
 30
0.0
 11
-732.8023075214683
 21
-414.6211284655532
 31
0.0
  0
LINE
  5
118
  8
1
  6
CONTINUOUS
 62
     7
 10
-752.8023075214683
 20
-418.6522573397025
 30
0.0
 11
-752.8023075214683
 21
-416.6366929026278
 31
0.0
  0
LINE
  5
119
  8
1
  6
CONTINUOUS
 62
     7
 10
-752.8023075214683
 20
-416.6366929026278
 30
0.0
 11
-752.8023075214683
 21
-414.6211284655531
 31
0.0
  0
LINE
  5
11A
  8
1
  6
CONTINUOUS
 62
     9
 10
-753.1023075214682
 20
-418.7750333806622
 30
0.0
 11
-753.1023075214682
 21
-414.4983524245934
 31
0.0
  0
LINE
  5
11B
  8
1
  6
CONTINUOUS
 62
     9
 10
-732.5023075214683
 20
-414.4983524245935
 30
0.0
 11
-732.5023075214683
 21
-418.7750333806621
 31
0.0
  0
ARC
  5
11C
  8
1
  6
CONTINUOUS
 62
     7
 10
-742.8023075214683
 20
-416.6366929026278
 30
0.0
 40
13.5
 50
0.000000000000007
 51
240.0000000000002
  0
LINE
  5
11D
  8
1
  6
CONTINUOUS
 62
     7
 10
-749.5523075214682
 20
-428.3280358537177
 30
0.0
 11
-739.8023075214683
 21
-433.9572009783166
 31
0.0
  0
ARC
  5
11E
  8
1
  6
CONTINUOUS
 62
     7
 10
-736.3023075214683
 20
-427.8950231518255
 30
0.0
 40
7.0
 50
240.0
 51
359.9999999999998
  0
LINE
  5
11F
  8
1
  6
CONTINUOUS
 62
     7
 10
-729.3023075214683
 20
-427.8950231518256
 30
0.0
 11
-729.3023075214683
 21
-416.6366929026278
 31
0.0
  0
LINE
  5
120
  8
1
  6
CONTINUOUS
 62
     7
 10
-740.2023075214682
 20
-391.6366929026278
 30
0.0
 11
-740.2023075214682
 21
-371.6366929026278
 31
0.0
  0
ARC
  5
121
  8
1
  6
CONTINUOUS
 62
     7
 10
-742.8023075214683
 20
-371.6366929026278
 30
0.0
 40
2.599999999999998
 50
359.9999999999997
 51
180.0000000000003
  0
LINE
  5
122
  8
1
  6
CONTINUOUS
 62
     7
 10
-745.4023075214683
 20
-391.6366929026278
 30
0.0
 11
-745.4023075214683
 21
-371.6366929026278
 31
0.0
  0
ARC
  5
123
  8
1
  6
CONTINUOUS
 62
     7
 10
-742.8023075214683
 20
-391.6366929026278
 30
0.0
 40
2.599999999999998
 50
180.0
 51
359.9999999999998
  0
CIRCLE
  5
124
  8
1
  6
CONTINUOUS
 62
     7
 10
-742.8023075214683
 20
-416.6366929026278
 30
0.0
 40
60.0
  0
ARC
  5
125
  8
1
  6
CONTINUOUS
 62
     7
 10
-710.9825023680736
 20
-384.8168877492332
 30
0.0
 40
2.599999999999998
 50
315.0
 51
135.0000000000005
  0
LINE
  5
126
  8
1
  6
CONTINUOUS
 62
     7
 10
-712.8209799991586
 20
-382.9784101181481
 30
0.0
 11
-721.6598147639904
 21
-391.81724488298
 31
0.0
  0
ARC
  5
127
  8
1
  6
CONTINUOUS
 62
     7
 10
-719.8213371329055
 20
-393.655722514065
 30
0.0
 40
2.599999999999998
 50
135.0
 51
314.9999999999999
  0
LINE
  5
128
  8
1
  6
CONTINUOUS
 62
     7
 10
-717.9828595018204
 20
-395.49420014515
 30
0.0
 11
-709.1440247369885
 21
-386.6553653803182
 31
0.0
  0
ARC
  5
129
  8
1
  6
CONTINUOUS
 62
     7
 10
-703.8311643511686
 20
-394.1366929026278
 30
0.0
 40
2.599999999999996
 50
300.0
 51
120.0000000000001
  0
LINE
  5
12A
  8
1
  6
CONTINUOUS
 62
     7
 10
-705.1311643511685
 20
-391.8850268527883
 30
0.0
 11
-715.9564818984741
 21
-398.1350268527882
 31
0.0
  0
ARC
  5
12B
  8
1
  6
CONTINUOUS
 62
     7
 10
-714.656481898474
 20
-400.3866929026278
 30
0.0
 40
2.600000000000009
 50
120.0000000000003
 51
300.0000000000001
  0
LINE
  5
12C
  8
1
  6
CONTINUOUS
 62
     7
 10
-713.356481898474
 20
-402.6383589524673
 30
0.0
 11
-702.5311643511685
 21
-396.3883589524673
 31
0.0
  0
ARC
  5
12D
  8
1
  6
CONTINUOUS
 62
     7
 10
-710.9825023680736
 20
-448.4564980560225
 30
0.0
 40
2.600000000000006
 50
224.9999999999999
 51
45.00000000000034
  0
LINE
  5
12E
  8
1
  6
CONTINUOUS
 62
     7
 10
-709.1440247369885
 20
-446.6180204249374
 30
0.0
 11
-717.9828595018204
 21
-437.7791856601056
 31
0.0
  0
ARC
  5
12F
  8
1
  6
CONTINUOUS
 62
     7
 10
-719.8213371329055
 20
-439.6176632911906
 30
0.0
 40
2.600000000000006
 50
44.99999999999996
 51
225.0000000000001
  0
LINE
  5
130
  8
1
  6
CONTINUOUS
 62
     7
 10
-721.6598147639904
 20
-441.4561409222756
 30
0.0
 11
-712.8209799991586
 21
-450.2949756871075
 31
0.0
  0
LINE
  5
131
  8
1
  6
CONTINUOUS
 62
     7
 10
-702.0523075214683
 20
-409.1366929026278
 30
0.0
 11
-702.0523075214683
 21
-407.6366929026278
 31
0.0
  0
ARC
  5
132
  8
1
  6
CONTINUOUS
 62
     7
 10
-702.5523075214683
 20
-407.6366929026278
 30
0.0
 40
0.5000000000000004
 50
359.9999999999994
 51
90.0
  0
LINE
  5
133
  8
1
  6
CONTINUOUS
 62
     7
 10
-702.5523075214683
 20
-407.1366929026278
 30
0.0
 11
-723.5523075214683
 21
-407.1366929026278
 31
0.0
  0
ARC
  5
134
  8
1
  6
CONTINUOUS
 62
     7
 10
-723.5523075214683
 20
-407.6366929026278
 30
0.0
 40
0.5000000000000004
 50
90.00000000000001
 51
180.0000000000008
  0
LINE
  5
135
  8
1
  6
CONTINUOUS
 62
     7
 10
-724.0523075214682
 20
-407.6366929026278
 30
0.0
 11
-724.0523075214682
 21
-409.1366929026278
 31
0.0
  0
ARC
  5
136
  8
1
  6
CONTINUOUS
 62
     7
 10
-723.5523075214683
 20
-409.1366929026278
 30
0.0
 40
0.5000000000000004
 50
179.9999999999999
 51
262.7275363672095
  0
LINE
  5
137
  8
1
  6
CONTINUOUS
 62
     9
 10
-723.6156014660716
 20
-423.6407152049674
 30
0.0
 11
-723.6156014660716
 21
-409.6326706002883
 31
0.0
  0
ARC
  5
138
  8
1
  6
CONTINUOUS
 62
     7
 10
-723.5523075214683
 20
-424.1366929026278
 30
0.0
 40
0.5000000000000004
 50
97.27246363279136
 51
180.0
  0
LINE
  5
139
  8
1
  6
CONTINUOUS
 62
     7
 10
-724.0523075214682
 20
-425.6366929026278
 30
0.0
 11
-724.0523075214682
 21
-424.1366929026278
 31
0.0
  0
ARC
  5
13A
  8
1
  6
CONTINUOUS
 62
     7
 10
-723.5523075214683
 20
-425.6366929026278
 30
0.0
 40
0.5000000000000004
 50
180.0000000000008
 51
270.0
  0
LINE
  5
13B
  8
1
  6
CONTINUOUS
 62
     7
 10
-702.5523075214683
 20
-426.1366929026278
 30
0.0
 11
-723.5523075214683
 21
-426.1366929026278
 31
0.0
  0
ARC
  5
13C
  8
1
  6
CONTINUOUS
 62
     7
 10
-702.5523075214683
 20
-425.6366929026278
 30
0.0
 40
0.5000000000000004
 50
270.0
 51
0.0000000000007958
  0
LINE
  5
13D
  8
1
  6
CONTINUOUS
 62
     7
 10
-702.0523075214682
 20
-424.1366929026278
 30
0.0
 11
-702.0523075214682
 21
-425.6366929026278
 31
0.0
  0
ARC
  5
13E
  8
1
  6
CONTINUOUS
 62
     7
 10
-702.5523075214683
 20
-424.1366929026278
 30
0.0
 40
0.5
 50
0.0
 51
82.72753636720824
  0
LINE
  5
13F
  8
1
  6
CONTINUOUS
 62
     9
 10
-702.489013576865
 20
-409.6326706002883
 30
0.0
 11
-702.489013576865
 21
-423.6407152049674
 31
0.0
  0
ARC
  5
140
  8
1
  6
CONTINUOUS
 62
     7
 10
-702.5523075214683
 20
-409.1366929026278
 30
0.0
 40
0.5000000000000009
 50
277.2724636327918
 51
0.0000000000001137
  0
ARC
  5
141
  8
1
  6
CONTINUOUS
 62
     7
 10
-742.8023075214683
 20
-461.6366929026278
 30
0.0
 40
2.600000000000009
 50
180.0
 51
359.9999999999998
  0
LINE
  5
142
  8
1
  6
CONTINUOUS
 62
     7
 10
-740.2023075214684
 20
-461.6366929026278
 30
0.0
 11
-740.2023075214684
 21
-441.6366929026278
 31
0.0
  0
ARC
  5
143
  8
1
  6
CONTINUOUS
 62
     7
 10
-742.8023075214683
 20
-441.6366929026278
 30
0.0
 40
2.600000000000003
 50
0.000000000000007
 51
180.0000000000001
  0
LINE
  5
144
  8
1
  6
CONTINUOUS
 62
     7
 10
-745.4023075214683
 20
-461.6366929026278
 30
0.0
 11
-745.4023075214683
 21
-441.6366929026278
 31
0.0
  0
ARC
  5
145
  8
1
  6
CONTINUOUS
 62
     7
 10
-765.7832779100311
 20
-393.655722514065
 30
0.0
 40
2.599999999999998
 50
225.0
 51
45.0
  0
LINE
  5
146
  8
1
  6
CONTINUOUS
 62
     7
 10
-772.7836350437778
 20
-382.9784101181481
 30
0.0
 11
-763.9448002789461
 21
-391.81724488298
 31
0.0
  0
ARC
  5
147
  8
1
  6
CONTINUOUS
 62
     7
 10
-774.6221126748629
 20
-384.8168877492332
 30
0.0
 40
2.599999999999994
 50
44.99999999999955
 51
225.0
  0
LINE
  5
148
  8
1
  6
CONTINUOUS
 62
     7
 10
-767.621755541116
 20
-395.49420014515
 30
0.0
 11
-776.4605903059479
 21
-386.6553653803182
 31
0.0
  0
ARC
  5
149
  8
1
  6
CONTINUOUS
 62
     7
 10
-770.9481331444625
 20
-400.3866929026278
 30
0.0
 40
2.600000000000009
 50
239.9999999999998
 51
59.99999999999972
  0
LINE
  5
14A
  8
1
  6
CONTINUOUS
 62
     7
 10
-780.473450691768
 20
-391.8850268527883
 30
0.0
 11
-769.6481331444625
 21
-398.1350268527882
 31
0.0
  0
ARC
  5
14B
  8
1
  6
CONTINUOUS
 62
     7
 10
-781.773450691768
 20
-394.1366929026278
 30
0.0
 40
2.599999999999996
 50
59.99999999999988
 51
240.0
  0
LINE
  5
14C
  8
1
  6
CONTINUOUS
 62
     7
 10
-772.2481331444625
 20
-402.6383589524673
 30
0.0
 11
-783.0734506917679
 21
-396.3883589524673
 31
0.0
  0
ARC
  5
14D
  8
1
  6
CONTINUOUS
 62
     7
 10
-765.7832779100311
 20
-439.6176632911906
 30
0.0
 40
2.600000000000006
 50
315.0
 51
135.0000000000001
  0
LINE
  5
14E
  8
1
  6
CONTINUOUS
 62
     7
 10
-776.4605903059479
 20
-446.6180204249374
 30
0.0
 11
-767.621755541116
 21
-437.7791856601056
 31
0.0
  0
ARC
  5
14F
  8
1
  6
CONTINUOUS
 62
     7
 10
-774.6221126748629
 20
-448.4564980560225
 30
0.0
 40
2.600000000000001
 50
134.9999999999996
 51
315.0000000000001
  0
LINE
  5
150
  8
1
  6
CONTINUOUS
 62
     7
 10
-763.9448002789461
 20
-441.4561409222756
 30
0.0
 11
-772.7836350437778
 21
-450.2949756871075
 31
0.0
  0
LINE
  5
151
  8
1
  6
CONTINUOUS
 62
     9
 10
-783.1156014660714
 20
-409.6326706002882
 30
0.0
 11
-783.1156014660714
 21
-423.6407152049674
 31
0.0
  0
ARC
  5
152
  8
1
  6
CONTINUOUS
 62
     7
 10
-783.0523075214683
 20
-424.1366929026278
 30
0.0
 40
0.5
 50
97.27246363279176
 51
179.9999999999999
  0
LINE
  5
153
  8
1
  6
CONTINUOUS
 62
     7
 10
-783.5523075214683
 20
-424.1366929026278
 30
0.0
 11
-783.5523075214683
 21
-425.6366929026278
 31
0.0
  0
ARC
  5
154
  8
1
  6
CONTINUOUS
 62
     7
 10
-783.0523075214683
 20
-425.6366929026278
 30
0.0
 40
0.5000000000000004
 50
179.9999999999992
 51
270.0
  0
LINE
  5
155
  8
1
  6
CONTINUOUS
 62
     7
 10
-783.0523075214683
 20
-426.1366929026278
 30
0.0
 11
-762.0523075214683
 21
-426.1366929026278
 31
0.0
  0
ARC
  5
156
  8
1
  6
CONTINUOUS
 62
     7
 10
-762.0523075214683
 20
-425.6366929026278
 30
0.0
 40
0.5000000000000004
 50
270.0
 51
359.9999999999993
  0
LINE
  5
157
  8
1
  6
CONTINUOUS
 62
     7
 10
-761.5523075214683
 20
-425.6366929026278
 30
0.0
 11
-761.5523075214683
 21
-424.1366929026278
 31
0.0
  0
ARC
  5
158
  8
1
  6
CONTINUOUS
 62
     7
 10
-762.0523075214683
 20
-424.1366929026278
 30
0.0
 40
0.5000000000000004
 50
359.9999999999998
 51
82.72753636720863
  0
LINE
  5
159
  8
1
  6
CONTINUOUS
 62
     9
 10
-761.989013576865
 20
-423.6407152049674
 30
0.0
 11
-761.989013576865
 21
-409.6326706002883
 31
0.0
  0
ARC
  5
15A
  8
1
  6
CONTINUOUS
 62
     7
 10
-762.0523075214683
 20
-409.1366929026278
 30
0.0
 40
0.5000000000000004
 50
277.2724636327906
 51
0.0
  0
LINE
  5
15B
  8
1
  6
CONTINUOUS
 62
     7
 10
-761.5523075214683
 20
-407.6366929026278
 30
0.0
 11
-761.5523075214683
 21
-409.1366929026278
 31
0.0
  0
ARC
  5
15C
  8
1
  6
CONTINUOUS
 62
     7
 10
-762.0523075214683
 20
-407.6366929026278
 30
0.0
 40
0.5000000000000004
 50
359.9999999999993
 51
90.0
  0
LINE
  5
15D
  8
1
  6
CONTINUOUS
 62
     7
 10
-783.0523075214683
 20
-407.1366929026278
 30
0.0
 11
-762.0523075214683
 21
-407.1366929026278
 31
0.0
  0
ARC
  5
15E
  8
1
  6
CONTINUOUS
 62
     7
 10
-783.0523075214683
 20
-407.6366929026278
 30
0.0
 40
0.5000000000000004
 50
90.0
 51
180.0000000000006
  0
LINE
  5
15F
  8
1
  6
CONTINUOUS
 62
     7
 10
-783.5523075214682
 20
-409.1366929026278
 30
0.0
 11
-783.5523075214682
 21
-407.6366929026278
 31
0.0
  0
ARC
  5
160
  8
1
  6
CONTINUOUS
 62
     7
 10
-783.0523075214683
 20
-409.1366929026278
 30
0.0
 40
0.5000000000000009
 50
179.9999999999998
 51
262.7275363672082
  0
LINE
  5
161
  8
1
  6
CONTINUOUS
 62
     9
 10
-780.5551013082397
 20
-423.6366929026278
 30
0.0
 11
-780.5551013082397
 21
-409.6366929026278
 31
0.0
  0
LINE
  5
162
  8
1
  6
CONTINUOUS
 62
     7
 10
-783.0523075214683
 20
-423.6366929026278
 30
0.0
 11
-780.5551013082397
 21
-423.6366929026278
 31
0.0
  0
LINE
  5
163
  8
1
  6
CONTINUOUS
 62
     7
 10
-783.0523075214683
 20
-409.6366929026278
 30
0.0
 11
-783.1156014660714
 21
-409.6326706002883
 31
0.0
  0
LINE
  5
164
  8
1
  6
CONTINUOUS
 62
     7
 10
-780.5551013082397
 20
-409.6366929026278
 30
0.0
 11
-783.0523075214683
 21
-409.6366929026278
 31
0.0
  0
LINE
  5
165
  8
1
  6
CONTINUOUS
 62
     7
 10
-783.1156014660714
 20
-423.6407152049674
 30
0.0
 11
-783.0523075214683
 21
-423.6366929026278
 31
0.0
  0
LINE
  5
166
  8
1
  6
CONTINUOUS
 62
     9
 10
-764.5495137346967
 20
-409.6366929026278
 30
0.0
 11
-764.5495137346967
 21
-423.6366929026278
 31
0.0
  0
LINE
  5
167
  8
1
  6
CONTINUOUS
 62
     7
 10
-762.0523075214683
 20
-409.6366929026278
 30
0.0
 11
-764.5495137346967
 21
-409.6366929026278
 31
0.0
  0
LINE
  5
168
  8
1
  6
CONTINUOUS
 62
     7
 10
-761.989013576865
 20
-409.6326706002883
 30
0.0
 11
-762.0523075214683
 21
-409.6366929026278
 31
0.0
  0
LINE
  5
169
  8
1
  6
CONTINUOUS
 62
     7
 10
-762.0523075214683
 20
-423.6366929026278
 30
0.0
 11
-761.989013576865
 21
-423.6407152049674
 31
0.0
  0
LINE
  5
16A
  8
1
  6
CONTINUOUS
 62
     7
 10
-764.5495137346967
 20
-423.6366929026278
 30
0.0
 11
-762.0523075214683
 21
-423.6366929026278
 31
0.0
  0
LINE
  5
16B
  8
1
  6
CONTINUOUS
 62
     7
 10
-723.6156014660716
 20
-409.6326706002883
 30
0.0
 11
-723.5523075214683
 21
-409.6366929026278
 31
0.0
  0
LINE
  5
16C
  8
1
  6
CONTINUOUS
 62
     7
 10
-723.5523075214683
 20
-409.6366929026278
 30
0.0
 11
-721.0551013082397
 21
-409.6366929026278
 31
0.0
  0
LINE
  5
16D
  8
1
  6
CONTINUOUS
 62
     9
 10
-721.0551013082397
 20
-409.6366929026278
 30
0.0
 11
-721.0551013082397
 21
-423.6366929026278
 31
0.0
  0
LINE
  5
16E
  8
1
  6
CONTINUOUS
 62
     7
 10
-721.0551013082397
 20
-423.6366929026278
 30
0.0
 11
-723.5523075214683
 21
-423.6366929026278
 31
0.0
  0
LINE
  5
16F
  8
1
  6
CONTINUOUS
 62
     7
 10
-723.5523075214683
 20
-423.6366929026278
 30
0.0
 11
-723.6156014660716
 21
-423.6407152049674
 31
0.0
  0
LINE
  5
170
  8
1
  6
CONTINUOUS
 62
     7
 10
-702.5523075214683
 20
-409.6366929026278
 30
0.0
 11
-702.489013576865
 21
-409.6326706002883
 31
0.0
  0
LINE
  5
171
  8
1
  6
CONTINUOUS
 62
     7
 10
-702.489013576865
 20
-423.6407152049674
 30
0.0
 11
-702.5523075214683
 21
-423.6366929026278
 31
0.0
  0
LINE
  5
172
  8
1
  6
CONTINUOUS
 62
     7
 10
-702.5523075214683
 20
-423.6366929026278
 30
0.0
 11
-705.0495137346967
 21
-423.6366929026278
 31
0.0
  0
LINE
  5
173
  8
1
  6
CONTINUOUS
 62
     9
 10
-705.0495137346967
 20
-423.6366929026278
 30
0.0
 11
-705.0495137346967
 21
-409.6366929026278
 31
0.0
  0
LINE
  5
174
  8
1
  6
CONTINUOUS
 62
     7
 10
-705.0495137346967
 20
-409.6366929026278
 30
0.0
 11
-702.5523075214683
 21
-409.6366929026278
 31
0.0
  0
LINE
  5
175
  8
1
  6
CONTINUOUS
 62
     9
 10
-780.3437237651381
 20
-409.6366929026278
 30
0.0
 11
-780.3437237651381
 21
-423.6366929026278
 31
0.0
  0
LINE
  5
176
  8
1
  6
CONTINUOUS
 62
     7
 10
-780.5551013082397
 20
-409.6366929026278
 30
0.0
 11
-780.3437237651382
 21
-409.6366929026278
 31
0.0
  0
LINE
  5
177
  8
1
  6
CONTINUOUS
 62
     7
 10
-780.5551013082397
 20
-423.6366929026278
 30
0.0
 11
-780.3437237651382
 21
-423.6366929026278
 31
0.0
  0
LINE
  5
178
  8
1
  6
CONTINUOUS
 62
     9
 10
-764.7608912777984
 20
-423.6366929026278
 30
0.0
 11
-764.7608912777984
 21
-409.6366929026278
 31
0.0
  0
LINE
  5
179
  8
1
  6
CONTINUOUS
 62
     7
 10
-764.5495137346967
 20
-409.6366929026278
 30
0.0
 11
-764.7608912777984
 21
-409.6366929026278
 31
0.0
  0
LINE
  5
17A
  8
1
  6
CONTINUOUS
 62
     7
 10
-764.5495137346967
 20
-423.6366929026278
 30
0.0
 11
-764.7608912777984
 21
-423.6366929026278
 31
0.0
  0
LINE
  5
17B
  8
1
  6
CONTINUOUS
 62
     9
 10
-720.8437237651382
 20
-423.6366929026278
 30
0.0
 11
-720.8437237651382
 21
-409.6366929026278
 31
0.0
  0
LINE
  5
17C
  8
1
  6
CONTINUOUS
 62
     7
 10
-721.0551013082397
 20
-409.6366929026278
 30
0.0
 11
-720.8437237651382
 21
-409.6366929026278
 31
0.0
  0
LINE
  5
17D
  8
1
  6
CONTINUOUS
 62
     7
 10
-721.0551013082397
 20
-423.6366929026278
 30
0.0
 11
-720.8437237651382
 21
-423.6366929026278
 31
0.0
  0
LINE
  5
17E
  8
1
  6
CONTINUOUS
 62
     9
 10
-705.2608912777985
 20
-409.6366929026278
 30
0.0
 11
-705.2608912777985
 21
-423.6366929026278
 31
0.0
  0
LINE
  5
17F
  8
1
  6
CONTINUOUS
 62
     7
 10
-705.0495137346967
 20
-409.6366929026278
 30
0.0
 11
-705.2608912777984
 21
-409.6366929026278
 31
0.0
  0
LINE
  5
180
  8
1
  6
CONTINUOUS
 62
     7
 10
-705.0495137346967
 20
-423.6366929026278
 30
0.0
 11
-705.2608912777984
 21
-423.6366929026278
 31
0.0
  0
LINE
  5
181
  8
1
  6
CONTINUOUS
 62
     9
 10
-778.3741082591137
 20
-423.6366929026278
 30
0.0
 11
-778.3741082591137
 21
-409.6366929026278
 31
0.0
  0
LINE
  5
182
  8
1
  6
CONTINUOUS
 62
     7
 10
-780.3437237651381
 20
-409.6366929026278
 30
0.0
 11
-778.3741082591137
 21
-409.6366929026278
 31
0.0
  0
LINE
  5
183
  8
1
  6
CONTINUOUS
 62
     7
 10
-778.3741082591137
 20
-423.6366929026278
 30
0.0
 11
-780.3437237651381
 21
-423.6366929026278
 31
0.0
  0
LINE
  5
184
  8
1
  6
CONTINUOUS
 62
     9
 10
-766.7305067838228
 20
-409.6366929026278
 30
0.0
 11
-766.7305067838228
 21
-423.6366929026278
 31
0.0
  0
LINE
  5
185
  8
1
  6
CONTINUOUS
 62
     7
 10
-766.7305067838228
 20
-409.6366929026278
 30
0.0
 11
-764.7608912777985
 21
-409.6366929026278
 31
0.0
  0
LINE
  5
186
  8
1
  6
CONTINUOUS
 62
     7
 10
-764.7608912777984
 20
-423.6366929026278
 30
0.0
 11
-766.7305067838226
 21
-423.6366929026278
 31
0.0
  0
LINE
  5
187
  8
1
  6
CONTINUOUS
 62
     9
 10
-718.8741082591137
 20
-409.6366929026278
 30
0.0
 11
-718.8741082591137
 21
-423.6366929026278
 31
0.0
  0
LINE
  5
188
  8
1
  6
CONTINUOUS
 62
     7
 10
-718.8741082591137
 20
-409.6366929026278
 30
0.0
 11
-720.8437237651381
 21
-409.6366929026278
 31
0.0
  0
LINE
  5
189
  8
1
  6
CONTINUOUS
 62
     7
 10
-720.8437237651382
 20
-423.6366929026278
 30
0.0
 11
-718.8741082591138
 21
-423.6366929026278
 31
0.0
  0
LINE
  5
18A
  8
1
  6
CONTINUOUS
 62
     9
 10
-707.2305067838228
 20
-423.6366929026278
 30
0.0
 11
-707.2305067838228
 21
-409.6366929026278
 31
0.0
  0
LINE
  5
18B
  8
1
  6
CONTINUOUS
 62
     7
 10
-705.2608912777985
 20
-409.6366929026278
 30
0.0
 11
-707.2305067838228
 21
-409.6366929026278
 31
0.0
  0
LINE
  5
18C
  8
1
  6
CONTINUOUS
 62
     7
 10
-707.2305067838228
 20
-423.6366929026278
 30
0.0
 11
-705.2608912777985
 21
-423.6366929026278
 31
0.0
  0
LINE
  5
18D
  8
1
  6
CONTINUOUS
 62
     7
 10
-766.7305067838228
 20
-409.6366929026278
 30
0.0
 11
-778.3741082591137
 21
-409.6366929026278
 31
0.0
  0
LINE
  5
18E
  8
1
  6
CONTINUOUS
 62
     7
 10
-778.3741082591137
 20
-423.6366929026278
 30
0.0
 11
-766.7305067838228
 21
-423.6366929026278
 31
0.0
  0
LINE
  5
18F
  8
1
  6
CONTINUOUS
 62
     7
 10
-718.8741082591137
 20
-409.6366929026278
 30
0.0
 11
-707.2305067838228
 21
-409.6366929026278
 31
0.0
  0
LINE
  5
190
  8
1
  6
CONTINUOUS
 62
     7
 10
-707.2305067838228
 20
-423.6366929026278
 30
0.0
 11
-718.8741082591137
 21
-423.6366929026278
 31
0.0
  0
LINE
  5
191
  8
1
  6
CONTINUOUS
 62
     7
 10
-772.230506783823
 20
-418.7791214311911
 30
0.0
 11
-772.230506783823
 21
-417.1366929026278
 31
0.0
  0
ARC
  5
192
  8
1
  6
CONTINUOUS
 62
     7
 10
-771.7305067838229
 20
-416.6366929026278
 30
0.0
 40
2.2
 50
256.8634412130551
 51
283.1365587869449
  0
LINE
  5
193
  8
1
  6
CONTINUOUS
 62
     7
 10
-771.230506783823
 20
-417.1366929026279
 30
0.0
 11
-771.230506783823
 21
-418.7791214311913
 31
0.0
  0
LINE
  5
194
  8
1
  6
CONTINUOUS
 62
     7
 10
-769.5880782552597
 20
-417.1366929026278
 30
0.0
 11
-771.230506783823
 21
-417.1366929026278
 31
0.0
  0
ARC
  5
195
  8
1
  6
CONTINUOUS
 62
     7
 10
-771.7305067838229
 20
-416.6366929026278
 30
0.0
 40
2.200000000000001
 50
346.8634412130552
 51
13.13655878695687
  0
LINE
  5
196
  8
1
  6
CONTINUOUS
 62
     7
 10
-771.2305067838229
 20
-416.1366929026278
 30
0.0
 11
-769.5880782552597
 21
-416.1366929026278
 31
0.0
  0
LINE
  5
197
  8
1
  6
CONTINUOUS
 62
     7
 10
-771.230506783823
 20
-414.4942643740645
 30
0.0
 11
-771.230506783823
 21
-416.1366929026278
 31
0.0
  0
ARC
  5
198
  8
1
  6
CONTINUOUS
 62
     7
 10
-771.7305067838229
 20
-416.6366929026278
 30
0.0
 40
2.200000000000001
 50
76.86344121305513
 51
103.1365587869569
  0
LINE
  5
199
  8
1
  6
CONTINUOUS
 62
     7
 10
-772.230506783823
 20
-416.1366929026277
 30
0.0
 11
-772.230506783823
 21
-414.4942643740644
 31
0.0
  0
LINE
  5
19A
  8
1
  6
CONTINUOUS
 62
     7
 10
-773.8729353123863
 20
-416.1366929026278
 30
0.0
 11
-772.230506783823
 21
-416.1366929026278
 31
0.0
  0
ARC
  5
19B
  8
1
  6
CONTINUOUS
 62
     7
 10
-771.7305067838229
 20
-416.6366929026278
 30
0.0
 40
2.200000000000001
 50
166.8634412130551
 51
193.1365587869569
  0
LINE
  5
19C
  8
1
  6
CONTINUOUS
 62
     7
 10
-772.2305067838231
 20
-417.1366929026278
 30
0.0
 11
-773.8729353123863
 21
-417.1366929026278
 31
0.0
  0
CIRCLE
  5
19D
  8
1
  6
CONTINUOUS
 62
     7
 10
-771.7305067838229
 20
-416.6366929026278
 30
0.0
 40
4.0
  0
ARC
  5
19E
  8
1
  6
CONTINUOUS
 62
     7
 10
-771.7305067838229
 20
-416.6366929026278
 30
0.0
 40
1.21654992179303
 50
155.7324355160329
 51
204.2675644839671
  0
ARC
  5
19F
  8
1
  6
CONTINUOUS
 62
     7
 10
-771.7305067838229
 20
-416.6366929026278
 30
0.0
 40
1.216549921793029
 50
245.7324355160328
 51
294.2675644839671
  0
ARC
  5
1A0
  8
1
  6
CONTINUOUS
 62
     7
 10
-771.7305067838229
 20
-416.6366929026278
 30
0.0
 40
1.216549921793029
 50
65.73243551603288
 51
114.2675644839671
  0
ARC
  5
1A1
  8
1
  6
CONTINUOUS
 62
     7
 10
-771.7305067838229
 20
-416.6366929026278
 30
0.0
 40
1.21654992179303
 50
335.7324355160329
 51
24.26756448396713
  0
ARC
  5
1A2
  8
1
  6
CONTINUOUS
 62
     7
 10
-713.8741082591137
 20
-416.6366929026278
 30
0.0
 40
2.200000000000001
 50
256.8634412130551
 51
283.1365587869449
  0
LINE
  5
1A3
  8
1
  6
CONTINUOUS
 62
     7
 10
-711.7316797305508
 20
-417.1366929026278
 30
0.0
 11
-713.3741082591138
 21
-417.1366929026278
 31
0.0
  0
ARC
  5
1A4
  8
1
  6
CONTINUOUS
 62
     7
 10
-713.8741082591137
 20
-416.6366929026278
 30
0.0
 40
2.200000000000001
 50
346.8634412130552
 51
13.13655878695687
  0
LINE
  5
1A5
  8
1
  6
CONTINUOUS
 62
     7
 10
-713.3741082591138
 20
-416.1366929026278
 30
0.0
 11
-711.7316797305509
 21
-416.1366929026278
 31
0.0
  0
LINE
  5
1A6
  8
1
  6
CONTINUOUS
 62
     7
 10
-713.3741082591138
 20
-414.4942643740649
 30
0.0
 11
-713.3741082591138
 21
-416.1366929026278
 31
0.0
  0
ARC
  5
1A7
  8
1
  6
CONTINUOUS
 62
     7
 10
-713.8741082591137
 20
-416.6366929026278
 30
0.0
 40
2.200000000000001
 50
76.86344121305513
 51
103.1365587869569
  0
LINE
  5
1A8
  8
1
  6
CONTINUOUS
 62
     7
 10
-714.3741082591138
 20
-416.1366929026278
 30
0.0
 11
-714.3741082591138
 21
-414.4942643740651
 31
0.0
  0
LINE
  5
1A9
  8
1
  6
CONTINUOUS
 62
     7
 10
-716.0165367876765
 20
-416.1366929026278
 30
0.0
 11
-714.3741082591137
 21
-416.1366929026278
 31
0.0
  0
ARC
  5
1AA
  8
1
  6
CONTINUOUS
 62
     7
 10
-713.8741082591137
 20
-416.6366929026278
 30
0.0
 40
2.200000000000001
 50
166.8634412130551
 51
193.1365587869569
  0
LINE
  5
1AB
  8
1
  6
CONTINUOUS
 62
     7
 10
-714.3741082591138
 20
-417.1366929026278
 30
0.0
 11
-716.0165367876765
 21
-417.1366929026278
 31
0.0
  0
CIRCLE
  5
1AC
  8
1
  6
CONTINUOUS
 62
     7
 10
-713.8741082591137
 20
-416.6366929026278
 30
0.0
 40
4.0
  0
LINE
  5
1AD
  8
1
  6
CONTINUOUS
 62
     7
 10
-714.3741082591138
 20
-418.7791214311907
 30
0.0
 11
-714.3741082591138
 21
-417.1366929026278
 31
0.0
  0
LINE
  5
1AE
  8
1
  6
CONTINUOUS
 62
     7
 10
-713.3741082591138
 20
-417.1366929026278
 30
0.0
 11
-713.3741082591138
 21
-418.7791214311907
 31
0.0
  0
ARC
  5
1AF
  8
1
  6
CONTINUOUS
 62
     7
 10
-713.8741082591137
 20
-416.6366929026278
 30
0.0
 40
1.21654992179303
 50
335.732435516033
 51
24.26756448396708
  0
ARC
  5
1B0
  8
1
  6
CONTINUOUS
 62
     7
 10
-713.8741082591137
 20
-416.6366929026278
 30
0.0
 40
1.21654992179303
 50
155.7324355160329
 51
204.2675644839671
  0
ARC
  5
1B1
  8
1
  6
CONTINUOUS
 62
     7
 10
-713.8741082591137
 20
-416.6366929026278
 30
0.0
 40
1.216549921793029
 50
245.7324355160328
 51
294.2675644839671
  0
ARC
  5
1B2
  8
1
  6
CONTINUOUS
 62
     7
 10
-713.8741082591137
 20
-416.6366929026278
 30
0.0
 40
1.216549921793029
 50
65.73243551603288
 51
114.2675644839671
  0
CIRCLE
  5
1B3
  8
1
  6
CONTINUOUS
 62
     7
 10
-713.8741082591137
 20
-416.6366929026278
 30
0.0
 40
4.5
  0
CIRCLE
  5
1B4
  8
1
  6
CONTINUOUS
 62
     7
 10
-771.7305067838229
 20
-416.6366929026278
 30
0.0
 40
4.500000000000004
  0
LINE
  5
1B5
  8
1
  6
CONTINUOUS
 62
     9
 10
-766.9023075214676
 20
-426.1366929026278
 30
0.0
 11
-766.9023075214676
 21
-423.6366929026278
 31
0.0
  0
LINE
  5
1B6
  8
1
  6
CONTINUOUS
 62
     9
 10
-766.9023075214676
 20
-409.6366929026278
 30
0.0
 11
-766.9023075214676
 21
-407.1366929026278
 31
0.0
  0
LINE
  5
1B7
  8
1
  6
CONTINUOUS
 62
     7
 10
-763.3023075214677
 20
-407.1366929026278
 30
0.0
 11
-763.3023075214677
 21
-409.6366929026278
 31
0.0
  0
LINE
  5
1B8
  8
1
  6
CONTINUOUS
 62
     7
 10
-763.3023075214677
 20
-423.6366929026278
 30
0.0
 11
-763.3023075214677
 21
-426.1366929026278
 31
0.0
  0
LINE
  5
1B9
  8
1
  6
CONTINUOUS
 62
     7
 10
-776.8023075214672
 20
-424.0800685756018
 30
0.0
 11
-773.2401296949762
 21
-426.1366929026278
 31
0.0
  0
ARC
  5
1BA
  8
1
  6
CONTINUOUS
 62
     7
 10
-774.3023075214674
 20
-419.7499415566796
 30
0.0
 40
4.999999999999899
 50
231.0186047021867
 51
240.0000000000005
  0
ARC
  5
1BB
  8
1
  6
CONTINUOUS
 62
     7
 10
-774.3023075214674
 20
-413.523444248576
 30
0.0
 40
4.999999999999898
 50
119.9999999999998
 51
128.9813952978146
  0
LINE
  5
1BC
  8
1
  6
CONTINUOUS
 62
     7
 10
-773.2401296949761
 20
-407.1366929026278
 30
0.0
 11
-776.8023075214672
 21
-409.1933172296539
 31
0.0
  0
LINE
  5
1BD
  8
1
  6
CONTINUOUS
 62
     7
 10
-712.3644853479593
 20
-407.1366929026278
 30
0.0
 11
-708.8023075214682
 21
-409.1933172296538
 31
0.0
  0
ARC
  5
1BE
  8
1
  6
CONTINUOUS
 62
     7
 10
-711.3023075214683
 20
-413.523444248576
 30
0.0
 40
4.999999999999996
 50
51.01860470218407
 51
59.99999999999954
  0
ARC
  5
1BF
  8
1
  6
CONTINUOUS
 62
     7
 10
-711.3023075214683
 20
-419.7499415566796
 30
0.0
 40
4.999999999999997
 50
300.0
 51
308.9813952978159
  0
LINE
  5
1C0
  8
1
  6
CONTINUOUS
 62
     7
 10
-708.8023075214682
 20
-424.0800685756018
 30
0.0
 11
-712.3644853479592
 21
-426.1366929026278
 31
0.0
  0
LINE
  5
1C1
  8
1
  6
CONTINUOUS
 62
     9
 10
-718.7023075214682
 20
-407.1366929026278
 30
0.0
 11
-718.7023075214682
 21
-409.6366929026278
 31
0.0
  0
LINE
  5
1C2
  8
1
  6
CONTINUOUS
 62
     9
 10
-718.7023075214682
 20
-423.6366929026278
 30
0.0
 11
-718.7023075214682
 21
-426.1366929026278
 31
0.0
  0
LINE
  5
1C3
  8
1
  6
CONTINUOUS
 62
     7
 10
-722.3023075214683
 20
-426.1366929026278
 30
0.0
 11
-722.3023075214683
 21
-423.6366929026278
 31
0.0
  0
LINE
  5
1C4
  8
1
  6
CONTINUOUS
 62
     7
 10
-722.3023075214682
 20
-409.6366929026278
 30
0.0
 11
-722.3023075214682
 21
-407.1366929026278
 31
0.0
  0
LINE
  5
1C5
  8
1
  6
CONTINUOUS
 62
     9
 10
-762.3023075214679
 20
-407.1366929026278
 30
0.0
 11
-762.3023075214677
 21
-409.6366929026278
 31
0.0
  0
LINE
  5
1C6
  8
1
  6
CONTINUOUS
 62
     9
 10
-762.3023075214677
 20
-423.6366929026278
 30
0.0
 11
-762.3023075214682
 21
-426.1366929026278
 31
0.0
  0
LINE
  5
1C7
  8
1
  6
CONTINUOUS
 62
     9
 10
-723.3023075214682
 20
-426.1366929026278
 30
0.0
 11
-723.3023075214682
 21
-423.6366929026278
 31
0.0
  0
LINE
  5
1C8
  8
1
  6
CONTINUOUS
 62
     9
 10
-723.3023075214682
 20
-409.6366929026278
 30
0.0
 11
-723.3023075214679
 21
-407.1366929026278
 31
0.0
  0
ARC
  5
1C9
  8
1
  6
CONTINUOUS
 62
     7
 10
-731.8023075214683
 20
-416.6366929026278
 30
0.0
 40
2.249999999999977
 50
270.0
 51
121.7702986211938
  0
ARC
  5
1CA
  8
1
  6
CONTINUOUS
 62
     7
 10
-731.8023075214683
 20
-416.6366929026278
 30
0.0
 40
2.249999999999978
 50
238.2297013788062
 51
270.0000000000001
  0
ARC
  5
1CB
  8
1
  6
CONTINUOUS
 62
     7
 10
-753.8023075214679
 20
-416.6366929026278
 30
0.0
 40
2.249999999999932
 50
57.76904736450638
 51
270.0
  0
ARC
  5
1CC
  8
1
  6
CONTINUOUS
 62
     7
 10
-753.8023075214679
 20
-416.6366929026278
 30
0.0
 40
2.249999999999932
 50
270.0
 51
302.2309526354936
  0
LINE
  5
1CD
  8
1
  6
CONTINUOUS
 62
     7
 10
-729.4133122224467
 20
-429.136692902628
 30
0.0
 11
-748.1516724268571
 21
-429.136692902628
 31
0.0
  0
LINE
  5
1CE
  8
1
  6
CONTINUOUS
 62
     7
 10
-747.9013270350614
 20
-404.1366929026279
 30
0.0
 11
-737.7032880078751
 21
-404.1366929026279
 31
0.0
  0
ENDBLK
  8
0
  0
BLOCK
  8
0
  2
D_FRAME_VIEW_3706
 70
     0
 10
0.0
 20
0.0
 30
0.0
  0
LINE
  5
1D3
  8
1
  6
CONTINUOUS
 62
     7
 10
-742.8023075214684
 20
-271.6866929026278
 30
0.0
 11
-742.8023075214684
 21
-265.2866929026279
 31
0.0
  0
LINE
  5
1D4
  8
1
  6
CONTINUOUS
 62
     7
 10
-750.8023075214684
 20
-271.6866929026278
 30
0.0
 11
-750.8023075214684
 21
-265.2866929026279
 31
0.0
  0
LINE
  5
1D5
  8
1
  6
CONTINUOUS
 62
     7
 10
-742.8023075214684
 20
-265.2866929026279
 30
0.0
 11
-745.0567775159972
 21
-265.2866929026279
 31
0.0
  0
LINE
  5
1D6
  8
1
  6
CONTINUOUS
 62
     7
 10
-748.5478375269394
 20
-265.2866929026279
 30
0.0
 11
-750.8023075214684
 21
-265.2866929026279
 31
0.0
  0
LINE
  5
1D7
  8
1
  6
CONTINUOUS
 62
     7
 10
-742.8023075214684
 20
-271.6866929026278
 30
0.0
 11
-750.8023075214684
 21
-271.6866929026278
 31
0.0
  0
LINE
  5
1D8
  8
1
  6
CONTINUOUS
 62
     7
 10
-734.8023075214684
 20
-271.6866929026278
 30
0.0
 11
-734.8023075214684
 21
-265.2866929026279
 31
0.0
  0
LINE
  5
1D9
  8
1
  6
CONTINUOUS
 62
     7
 10
-734.8023075214684
 20
-265.2866929026279
 30
0.0
 11
-737.0567775159972
 21
-265.2866929026279
 31
0.0
  0
LINE
  5
1DA
  8
1
  6
CONTINUOUS
 62
     7
 10
-740.5478375269394
 20
-265.2866929026279
 30
0.0
 11
-742.8023075214684
 21
-265.2866929026279
 31
0.0
  0
LINE
  5
1DB
  8
1
  6
CONTINUOUS
 62
     7
 10
-734.8023075214684
 20
-271.6866929026278
 30
0.0
 11
-742.8023075214684
 21
-271.6866929026278
 31
0.0
  0
LINE
  5
1DC
  8
1
  6
CONTINUOUS
 62
     7
 10
-737.8023075214684
 20
-246.0366929026279
 30
0.0
 11
-747.8023075214684
 21
-246.0366929026279
 31
0.0
  0
LINE
  5
1DD
  8
1
  6
CONTINUOUS
 62
     7
 10
-747.0523075214684
 20
-245.2866929026279
 30
0.0
 11
-738.5523075214684
 21
-245.2866929026279
 31
0.0
  0
LINE
  5
1DE
  8
1
  6
CONTINUOUS
 62
     7
 10
-732.8023075214684
 20
-262.2866929026279
 30
0.0
 11
-752.8023075214684
 21
-262.2866929026279
 31
0.0
  0
LINE
  5
1DF
  8
1
  6
CONTINUOUS
 62
     7
 10
-734.5523075214684
 20
-265.2866929026279
 30
0.0
 11
-734.8023075214684
 21
-265.2866929026279
 31
0.0
  0
LINE
  5
1E0
  8
1
  6
CONTINUOUS
 62
     7
 10
-737.0567775159972
 20
-265.2866929026279
 30
0.0
 11
-740.5478375269394
 21
-265.2866929026279
 31
0.0
  0
LINE
  5
1E1
  8
1
  6
CONTINUOUS
 62
     7
 10
-745.0567775159972
 20
-265.2866929026279
 30
0.0
 11
-748.5478375269394
 21
-265.2866929026279
 31
0.0
  0
LINE
  5
1E2
  8
1
  6
CONTINUOUS
 62
     7
 10
-750.8023075214684
 20
-265.2866929026279
 30
0.0
 11
-751.0523075214684
 21
-265.2866929026279
 31
0.0
  0
LINE
  5
1E3
  8
1
  6
CONTINUOUS
 62
     7
 10
-751.0496343611177
 20
-262.2866929026278
 30
0.0
 11
-751.0523075214684
 21
-263.9020775180124
 31
0.0
  0
ARC
  5
1E4
  8
1
  6
CONTINUOUS
 62
     7
 10
-738.9776184612493
 20
-242.3518708884347
 30
0.0
 40
12.53604789609178
 50
270.8012815891302
 51
289.4548764112863
  0
ARC
  5
1E5
  8
1
  6
CONTINUOUS
 62
     7
 10
-738.666296398368
 20
-242.5718742573062
 30
0.0
 40
12.31556971044243
 50
250.3766200133914
 51
269.367221986192
  0
LINE
  5
1E6
  8
1
  6
CONTINUOUS
 62
     7
 10
-742.8023075214683
 20
-247.2012240824442
 30
0.0
 11
-742.8023075214683
 21
-254.1721617228115
 31
0.0
  0
ARC
  5
1E7
  8
1
  6
CONTINUOUS
 62
     7
 10
-738.6269965816872
 20
-259.0215149168209
 30
0.0
 40
12.5360478960918
 50
90.80128158913033
 51
109.4548764112862
  0
ARC
  5
1E8
  8
1
  6
CONTINUOUS
 62
     7
 10
-738.9383186445684
 20
-258.8015115479494
 30
0.0
 40
12.31556971044243
 50
70.37662001339135
 51
89.36722198619202
  0
ARC
  5
1E9
  8
1
  6
CONTINUOUS
 62
     7
 10
-746.9776184612493
 20
-242.3518708884347
 30
0.0
 40
12.53604789609178
 50
270.8012815891302
 51
289.4548764112863
  0
ARC
  5
1EA
  8
1
  6
CONTINUOUS
 62
     7
 10
-746.6662963983675
 20
-242.5718742573042
 30
0.0
 40
12.31556971044446
 50
250.3766200133927
 51
269.3672219861901
  0
ARC
  5
1EB
  8
1
  6
CONTINUOUS
 62
     7
 10
-746.6269965816872
 20
-259.0215149168209
 30
0.0
 40
12.5360478960918
 50
90.80128158913033
 51
109.4548764112862
  0
ARC
  5
1EC
  8
1
  6
CONTINUOUS
 62
     7
 10
-746.9383186445685
 20
-258.8015115479494
 30
0.0
 40
12.31556971044243
 50
70.37662001339135
 51
89.36722198619202
  0
LINE
  5
1ED
  8
1
  6
CONTINUOUS
 62
     7
 10
-746.8023075214683
 20
-246.4866929026278
 30
0.0
 11
-738.8023075214683
 21
-246.4866929026278
 31
0.0
  0
LINE
  5
1EE
  8
1
  6
CONTINUOUS
 62
     7
 10
-750.8023075214683
 20
-246.4866929026278
 30
0.0
 11
-746.8023075214683
 21
-246.4866929026278
 31
0.0
  0
LINE
  5
1EF
  8
1
  6
CONTINUOUS
 62
     7
 10
-738.8023075214683
 20
-246.4866929026278
 30
0.0
 11
-734.8023075214683
 21
-246.4866929026278
 31
0.0
  0
LINE
  5
1F0
  8
1
  6
CONTINUOUS
 62
     7
 10
-735.0023075214682
 20
-254.8866929026278
 30
0.0
 11
-734.8023075214683
 21
-254.8866929026278
 31
0.0
  0
ARC
  5
1F1
  8
1
  6
CONTINUOUS
 62
     7
 10
-753.1023075214682
 20
-246.4866929026278
 30
0.0
 40
2.299999999999969
 50
0.0
 51
90.0000000000017
  0
LINE
  5
1F2
  8
1
  6
CONTINUOUS
 62
     7
 10
-750.8023075214683
 20
-254.5866929026278
 30
0.0
 11
-750.8023075214683
 21
-246.4866929026278
 31
0.0
  0
ARC
  5
1F3
  8
1
  6
CONTINUOUS
 62
     7
 10
-750.5023075214683
 20
-254.5866929026278
 30
0.0
 40
0.3000000000000225
 50
180.0
 51
269.9999999999986
  0
LINE
  5
1F4
  8
1
  6
CONTINUOUS
 62
     7
 10
-736.0023075214682
 20
-254.8866929026278
 30
0.0
 11
-750.5023075214683
 21
-254.8866929026278
 31
0.0
  0
LINE
  5
1F5
  8
1
  6
CONTINUOUS
 62
     9
 10
-736.0023075214682
 20
-256.8866929026278
 30
0.0
 11
-736.0023075214682
 21
-254.8866929026278
 31
0.0
  0
LINE
  5
1F6
  8
1
  6
CONTINUOUS
 62
     7
 10
-750.5023075214683
 20
-256.8866929026278
 30
0.0
 11
-736.0023075214682
 21
-256.8866929026278
 31
0.0
  0
ARC
  5
1F7
  8
1
  6
CONTINUOUS
 62
     7
 10
-750.5023075214683
 20
-254.5866929026278
 30
0.0
 40
2.299999999999969
 50
180.0
 51
270.0
  0
LINE
  5
1F8
  8
1
  6
CONTINUOUS
 62
     7
 10
-752.8023075214683
 20
-246.4866929026278
 30
0.0
 11
-752.8023075214683
 21
-254.5866929026278
 31
0.0
  0
ARC
  5
1F9
  8
1
  6
CONTINUOUS
 62
     7
 10
-753.1023075214682
 20
-246.4866929026278
 30
0.0
 40
0.2999999999999947
 50
0.0
 51
90.0
  0
LINE
  5
1FA
  8
1
  6
CONTINUOUS
 62
     7
 10
-759.3023075214682
 20
-246.1866929026278
 30
0.0
 11
-753.1023075214682
 21
-246.1866929026278
 31
0.0
  0
LINE
  5
1FB
  8
1
  6
CONTINUOUS
 62
     9
 10
-759.3023075214683
 20
-244.1866929026278
 30
0.0
 11
-759.3023075214682
 21
-246.1866929026278
 31
0.0
  0
LINE
  5
1FC
  8
1
  6
CONTINUOUS
 62
     7
 10
-759.3023075214683
 20
-244.1866929026278
 30
0.0
 11
-753.1023075214683
 21
-244.1866929026278
 31
0.0
  0
LINE
  5
1FD
  8
1
  6
CONTINUOUS
 62
     7
 10
-725.3023075214683
 20
-244.1866929026278
 30
0.0
 11
-725.3023075214683
 21
-246.1866929026278
 31
0.0
  0
LINE
  5
1FE
  8
1
  6
CONTINUOUS
 62
     7
 10
-725.3023075214683
 20
-246.1866929026278
 30
0.0
 11
-726.3023075214683
 21
-246.1866929026278
 31
0.0
  0
LINE
  5
1FF
  8
1
  6
CONTINUOUS
 62
     9
 10
-726.3023075214683
 20
-246.1866929026278
 30
0.0
 11
-726.3023075214683
 21
-244.1866929026278
 31
0.0
  0
LINE
  5
200
  8
1
  6
CONTINUOUS
 62
     7
 10
-726.3023075214683
 20
-244.1866929026278
 30
0.0
 11
-725.3023075214683
 21
-244.1866929026278
 31
0.0
  0
ARC
  5
201
  8
1
  6
CONTINUOUS
 62
     7
 10
-732.5023075214683
 20
-246.4866929026278
 30
0.0
 40
0.299999999999967
 50
90.0
 51
180.0
  0
LINE
  5
202
  8
1
  6
CONTINUOUS
 62
     7
 10
-732.8023075214683
 20
-256.8866929026278
 30
0.0
 11
-732.8023075214683
 21
-246.4866929026278
 31
0.0
  0
ARC
  5
203
  8
1
  6
CONTINUOUS
 62
     7
 10
-735.1023075214682
 20
-256.8866929026278
 30
0.0
 40
2.29999999999994
 50
308.4999504092441
 51
359.9999999999998
  0
LINE
  5
204
  8
1
  6
CONTINUOUS
 62
     9
 10
-751.1023075214682
 20
-257.1866929026278
 30
0.0
 11
-751.1023075214682
 21
-258.6866929026279
 31
0.0
  0
LINE
  5
205
  8
1
  6
CONTINUOUS
 62
     7
 10
-735.1023075214682
 20
-257.1866929026278
 30
0.0
 11
-751.1023075214682
 21
-257.1866929026278
 31
0.0
  0
ARC
  5
206
  8
1
  6
CONTINUOUS
 62
     7
 10
-735.1023075214682
 20
-256.8866929026278
 30
0.0
 40
0.299999999999967
 50
270.0
 51
359.9999999999986
  0
LINE
  5
207
  8
1
  6
CONTINUOUS
 62
     7
 10
-734.8023075214683
 20
-246.4866929026278
 30
0.0
 11
-734.8023075214683
 21
-256.8866929026278
 31
0.0
  0
ARC
  5
208
  8
1
  6
CONTINUOUS
 62
     7
 10
-732.5023075214683
 20
-246.4866929026278
 30
0.0
 40
2.299999999999996
 50
90.0
 51
180.0
  0
LINE
  5
209
  8
1
  6
CONTINUOUS
 62
     7
 10
-726.3023075214683
 20
-246.1866929026278
 30
0.0
 11
-732.5023075214683
 21
-246.1866929026278
 31
0.0
  0
LINE
  5
20A
  8
1
  6
CONTINUOUS
 62
     7
 10
-726.3023075214683
 20
-244.1866929026278
 30
0.0
 11
-732.5023075214683
 21
-244.1866929026278
 31
0.0
  0
LINE
  5
20B
  8
1
  6
CONTINUOUS
 62
     7
 10
-759.3023075214682
 20
-246.1866929026278
 30
0.0
 11
-760.3023075214682
 21
-246.1866929026278
 31
0.0
  0
LINE
  5
20C
  8
1
  6
CONTINUOUS
 62
     7
 10
-760.3023075214682
 20
-246.1866929026278
 30
0.0
 11
-760.3023075214682
 21
-244.1866929026278
 31
0.0
  0
LINE
  5
20D
  8
1
  6
CONTINUOUS
 62
     7
 10
-760.3023075214682
 20
-244.1866929026278
 30
0.0
 11
-759.3023075214683
 21
-244.1866929026278
 31
0.0
  0
LINE
  5
20E
  8
1
  6
CONTINUOUS
 62
     7
 10
-736.0023075214682
 20
-254.8866929026278
 30
0.0
 11
-735.0023075214682
 21
-254.8866929026278
 31
0.0
  0
LINE
  5
20F
  8
1
  6
CONTINUOUS
 62
     7
 10
-735.0023075214682
 20
-254.8866929026278
 30
0.0
 11
-735.0023075214682
 21
-256.8866929026278
 31
0.0
  0
LINE
  5
210
  8
1
  6
CONTINUOUS
 62
     7
 10
-735.0023075214682
 20
-256.8866929026278
 30
0.0
 11
-736.0023075214682
 21
-256.8866929026278
 31
0.0
  0
ARC
  5
211
  8
1
  6
CONTINUOUS
 62
     7
 10
-735.1023075214682
 20
-201.4866929026278
 30
0.0
 40
0.3000000000000225
 50
0.0
 51
90.00000000000132
  0
LINE
  5
212
  8
1
  6
CONTINUOUS
 62
     7
 10
-750.5023075214683
 20
-201.1866929026278
 30
0.0
 11
-735.1023075214682
 21
-201.1866929026278
 31
0.0
  0
ARC
  5
213
  8
1
  6
CONTINUOUS
 62
     7
 10
-750.5023075214683
 20
-201.4866929026278
 30
0.0
 40
0.299999999999967
 50
90.00000000000016
 51
180.0
  0
LINE
  5
214
  8
1
  6
CONTINUOUS
 62
     7
 10
-750.8023075214683
 20
-208.1076914981337
 30
0.0
 11
-750.8023075214683
 21
-201.4866929026278
 31
0.0
  0
LINE
  5
215
  8
1
  6
CONTINUOUS
 62
     9
 10
-752.8023075214683
 20
-208.1076914981337
 30
0.0
 11
-750.8023075214683
 21
-208.1076914981337
 31
0.0
  0
LINE
  5
216
  8
1
  6
CONTINUOUS
 62
     7
 10
-752.8023075214683
 20
-201.4866929026278
 30
0.0
 11
-752.8023075214683
 21
-208.1076914981337
 31
0.0
  0
ARC
  5
217
  8
1
  6
CONTINUOUS
 62
     7
 10
-750.5023075214683
 20
-201.4866929026278
 30
0.0
 40
2.300000000000024
 50
90.00000000000036
 51
180.0
  0
LINE
  5
218
  8
1
  6
CONTINUOUS
 62
     7
 10
-735.1023075214682
 20
-199.1866929026278
 30
0.0
 11
-750.5023075214683
 21
-199.1866929026278
 31
0.0
  0
ARC
  5
219
  8
1
  6
CONTINUOUS
 62
     7
 10
-735.1023075214682
 20
-201.4866929026278
 30
0.0
 40
2.299999999999969
 50
0.0000000000006914
 51
90.00000000000001
  0
LINE
  5
21A
  8
1
  6
CONTINUOUS
 62
     9
 10
-734.8023075214683
 20
-208.1076914981337
 30
0.0
 11
-732.8023075214683
 21
-208.1076914981337
 31
0.0
  0
LINE
  5
21B
  8
1
  6
CONTINUOUS
 62
     7
 10
-734.8023075214683
 20
-201.4866929026278
 30
0.0
 11
-734.8023075214683
 21
-208.1076914981337
 31
0.0
  0
LINE
  5
21C
  8
1
  6
CONTINUOUS
 62
     7
 10
-732.8023075214683
 20
-208.1076914981337
 30
0.0
 11
-732.8023075214683
 21
-201.4866929026278
 31
0.0
  0
LINE
  5
21D
  8
1
  6
CONTINUOUS
 62
     7
 10
-752.6023075214682
 20
-258.6866929026279
 30
0.0
 11
-752.6023075214682
 21
-257.1866929026278
 31
0.0
  0
LINE
  5
21E
  8
1
  6
CONTINUOUS
 62
     7
 10
-752.6023075214682
 20
-257.1866929026278
 30
0.0
 11
-751.1023075214682
 21
-257.1866929026278
 31
0.0
  0
LINE
  5
21F
  8
1
  6
CONTINUOUS
 62
     9
 10
-732.8023075214683
 20
-210.9166790308408
 30
0.0
 11
-734.8023075214683
 21
-210.9166790308408
 31
0.0
  0
LINE
  5
220
  8
1
  6
CONTINUOUS
 62
     7
 10
-734.8023075214683
 20
-210.9166790308408
 30
0.0
 11
-734.8023075214683
 21
-208.1076914981337
 31
0.0
  0
LINE
  5
221
  8
1
  6
CONTINUOUS
 62
     7
 10
-732.8023075214683
 20
-208.1076914981337
 30
0.0
 11
-732.8023075214683
 21
-210.9166790308408
 31
0.0
  0
LINE
  5
222
  8
1
  6
CONTINUOUS
 62
     9
 10
-750.8023075214683
 20
-210.9166790308408
 30
0.0
 11
-752.8023075214683
 21
-210.9166790308408
 31
0.0
  0
LINE
  5
223
  8
1
  6
CONTINUOUS
 62
     7
 10
-752.8023075214683
 20
-210.9166790308408
 30
0.0
 11
-752.8023075214683
 21
-208.1076914981337
 31
0.0
  0
LINE
  5
224
  8
1
  6
CONTINUOUS
 62
     7
 10
-750.8023075214683
 20
-208.1076914981337
 30
0.0
 11
-750.8023075214683
 21
-210.9166790308408
 31
0.0
  0
LINE
  5
225
  8
1
  6
CONTINUOUS
 62
     7
 10
-732.8023075214683
 20
-213.1866929026278
 30
0.0
 11
-734.8023075214683
 21
-213.1866929026278
 31
0.0
  0
LINE
  5
226
  8
1
  6
CONTINUOUS
 62
     7
 10
-734.8023075214683
 20
-213.1866929026278
 30
0.0
 11
-734.8023075214683
 21
-210.9166790308408
 31
0.0
  0
LINE
  5
227
  8
1
  6
CONTINUOUS
 62
     7
 10
-732.8023075214683
 20
-210.9166790308408
 30
0.0
 11
-732.8023075214683
 21
-213.1866929026278
 31
0.0
  0
LINE
  5
228
  8
1
  6
CONTINUOUS
 62
     7
 10
-750.8023075214683
 20
-213.1866929026278
 30
0.0
 11
-752.8023075214683
 21
-213.1866929026278
 31
0.0
  0
LINE
  5
229
  8
1
  6
CONTINUOUS
 62
     7
 10
-752.8023075214683
 20
-213.1866929026278
 30
0.0
 11
-752.8023075214683
 21
-210.9166790308408
 31
0.0
  0
LINE
  5
22A
  8
1
  6
CONTINUOUS
 62
     7
 10
-750.8023075214683
 20
-210.9166790308408
 30
0.0
 11
-750.8023075214683
 21
-213.1866929026278
 31
0.0
  0
LINE
  5
22B
  8
1
  6
CONTINUOUS
 62
     9
 10
-738.2023075214684
 20
-201.6866929026278
 30
0.0
 11
-747.4023075214683
 21
-201.6866929026278
 31
0.0
  0
LINE
  5
22C
  8
1
  6
CONTINUOUS
 62
     7
 10
-747.4023075214683
 20
-203.1866929026278
 30
0.0
 11
-738.2023075214684
 21
-203.1866929026278
 31
0.0
  0
LINE
  5
22D
  8
1
  6
CONTINUOUS
 62
     9
 10
-734.8023075214684
 20
-217.1866929026278
 30
0.0
 11
-732.8023075214684
 21
-217.1866929026278
 31
0.0
  0
LINE
  5
22E
  8
1
  6
CONTINUOUS
 62
     7
 10
-734.8023075214683
 20
-213.1866929026278
 30
0.0
 11
-734.8023075214683
 21
-217.1866929026278
 31
0.0
  0
LINE
  5
22F
  8
1
  6
CONTINUOUS
 62
     7
 10
-732.8023075214683
 20
-217.1866929026278
 30
0.0
 11
-732.8023075214684
 21
-213.1866929026278
 31
0.0
  0
LINE
  5
230
  8
1
  6
CONTINUOUS
 62
     9
 10
-752.8023075214683
 20
-217.1866929026278
 30
0.0
 11
-750.8023075214683
 21
-217.1866929026278
 31
0.0
  0
LINE
  5
231
  8
1
  6
CONTINUOUS
 62
     7
 10
-752.8023075214683
 20
-213.1866929026278
 30
0.0
 11
-752.8023075214683
 21
-217.1866929026278
 31
0.0
  0
LINE
  5
232
  8
1
  6
CONTINUOUS
 62
     7
 10
-750.8023075214683
 20
-217.1866929026278
 30
0.0
 11
-750.8023075214683
 21
-213.1866929026278
 31
0.0
  0
LINE
  5
233
  8
1
  6
CONTINUOUS
 62
     9
 10
-734.8023075214684
 20
-244.6866929026278
 30
0.0
 11
-733.934089627796
 21
-244.6866929026278
 31
0.0
  0
LINE
  5
234
  8
1
  6
CONTINUOUS
 62
     7
 10
-734.8023075214683
 20
-244.6866929026278
 30
0.0
 11
-734.8023075214683
 21
-246.4866929026278
 31
0.0
  0
LINE
  5
235
  8
1
  6
CONTINUOUS
 62
     9
 10
-751.6705254151407
 20
-244.6866929026278
 30
0.0
 11
-750.8023075214683
 21
-244.6866929026278
 31
0.0
  0
LINE
  5
236
  8
1
  6
CONTINUOUS
 62
     7
 10
-750.8023075214683
 20
-246.4866929026278
 30
0.0
 11
-750.8023075214683
 21
-244.6866929026278
 31
0.0
  0
LINE
  5
237
  8
1
  6
CONTINUOUS
 62
     7
 10
-734.8023075214684
 20
-244.6866929026278
 30
0.0
 11
-734.8023075214684
 21
-217.1866929026278
 31
0.0
  0
LINE
  5
238
  8
1
  6
CONTINUOUS
 62
     7
 10
-732.8023075214684
 20
-217.1866929026278
 30
0.0
 11
-732.8023075214683
 21
-244.2063420524295
 31
0.0
  0
LINE
  5
239
  8
1
  6
CONTINUOUS
 62
     7
 10
-752.8023075214683
 20
-244.2063420524295
 30
0.0
 11
-752.8023075214683
 21
-217.1866929026278
 31
0.0
  0
LINE
  5
23A
  8
1
  6
CONTINUOUS
 62
     7
 10
-750.8023075214683
 20
-217.1866929026278
 30
0.0
 11
-750.8023075214683
 21
-244.6866929026278
 31
0.0
  0
LINE
  5
23B
  8
1
  6
CONTINUOUS
 62
     7
 10
-739.0495307717357
 20
-181.8866929026278
 30
0.0
 11
-739.0495307717357
 21
-187.1866929026278
 31
0.0
  0
LINE
  5
23C
  8
1
  6
CONTINUOUS
 62
     7
 10
-735.2967540220031
 20
-181.8866929026278
 30
0.0
 11
-739.0495307717357
 21
-181.8866929026278
 31
0.0
  0
LINE
  5
23D
  8
1
  6
CONTINUOUS
 62
     7
 10
-735.2967540220031
 20
-181.8866929026278
 30
0.0
 11
-735.2967540220031
 21
-187.1866929026278
 31
0.0
  0
LINE
  5
23E
  8
1
  6
CONTINUOUS
 62
     7
 10
-735.2967540220031
 20
-187.1866929026278
 30
0.0
 11
-739.0495307717357
 21
-187.1866929026278
 31
0.0
  0
LINE
  5
23F
  8
1
  6
CONTINUOUS
 62
     7
 10
-746.5550842712008
 20
-181.8866929026278
 30
0.0
 11
-746.5550842712008
 21
-187.1866929026278
 31
0.0
  0
LINE
  5
240
  8
1
  6
CONTINUOUS
 62
     7
 10
-739.0495307717357
 20
-181.8866929026278
 30
0.0
 11
-746.5550842712008
 21
-181.8866929026278
 31
0.0
  0
LINE
  5
241
  8
1
  6
CONTINUOUS
 62
     7
 10
-739.0495307717357
 20
-187.1866929026278
 30
0.0
 11
-746.5550842712008
 21
-187.1866929026278
 31
0.0
  0
LINE
  5
242
  8
1
  6
CONTINUOUS
 62
     7
 10
-750.3078610209334
 20
-181.8866929026278
 30
0.0
 11
-750.3078610209334
 21
-187.1866929026278
 31
0.0
  0
LINE
  5
243
  8
1
  6
CONTINUOUS
 62
     7
 10
-746.5550842712008
 20
-181.8866929026278
 30
0.0
 11
-750.3078610209334
 21
-181.8866929026278
 31
0.0
  0
LINE
  5
244
  8
1
  6
CONTINUOUS
 62
     7
 10
-746.5550842712008
 20
-187.1866929026278
 30
0.0
 11
-750.3078610209334
 21
-187.1866929026278
 31
0.0
  0
LINE
  5
245
  8
1
  6
CONTINUOUS
 62
     9
 10
-746.8023075214683
 20
-191.1866929026278
 30
0.0
 11
-738.8023075214683
 21
-191.1866929026278
 31
0.0
  0
LINE
  5
246
  8
1
  6
CONTINUOUS
 62
     7
 10
-738.8023075214683
 20
-231.5616929026278
 30
0.0
 11
-746.8023075214683
 21
-231.5616929026278
 31
0.0
  0
LINE
  5
247
  8
1
  6
CONTINUOUS
 62
     7
 10
-746.1773075214683
 20
-232.1866929026278
 30
0.0
 11
-739.4273075214683
 21
-232.1866929026278
 31
0.0
  0
LINE
  5
248
  8
1
  6
CONTINUOUS
 62
     7
 10
-802.8023075214683
 20
-289.7866929026278
 30
0.0
 11
-682.8023075214682
 21
-289.7866929026278
 31
0.0
  0
LINE
  5
249
  8
1
  6
CONTINUOUS
 62
     7
 10
-802.8023075214683
 20
-291.3866929026278
 30
0.0
 11
-682.8023075214682
 21
-291.3866929026278
 31
0.0
  0
ARC
  5
24A
  8
1
  6
CONTINUOUS
 62
     7
 10
-766.9547010972489
 20
-288.3866929026278
 30
0.0
 40
3.599999999999992
 50
88.37790965250913
 51
90.0
  0
ARC
  5
24B
  8
1
  6
CONTINUOUS
 62
     7
 10
-766.9547010972489
 20
-288.3866929026278
 30
0.0
 40
3.599999999999986
 50
10.0
 51
88.37790965250913
  0
LINE
  5
24C
  8
1
  6
CONTINUOUS
 62
     7
 10
-763.1980156433032
 20
-288.9603410802947
 30
0.0
 11
-763.4093931864048
 21
-287.7615594630269
 31
0.0
  0
ARC
  5
24D
  8
1
  6
CONTINUOUS
 62
     7
 10
-762.213207890291
 20
-288.7866929026278
 30
0.0
 40
0.9999999999999183
 50
190.0000000000001
 51
270.0000000000002
  0
LINE
  5
24E
  8
1
  6
CONTINUOUS
 62
     7
 10
-764.5495137346967
 20
-289.2381781645618
 30
0.0
 11
-764.7608912777984
 21
-288.0393965472939
 31
0.0
  0
ARC
  5
24F
  8
1
  6
CONTINUOUS
 62
     7
 10
-766.7305067838228
 20
-288.3866929026278
 30
0.0
 40
2.000000000000065
 50
9.99999999999994
 51
89.99999999999999
  0
LINE
  5
250
  8
1
  6
CONTINUOUS
 62
     7
 10
-766.7305067838228
 20
-286.3866929026278
 30
0.0
 11
-778.3741082591137
 21
-286.3866929026278
 31
0.0
  0
ARC
  5
251
  8
1
  6
CONTINUOUS
 62
     7
 10
-778.3741082591137
 20
-288.3866929026278
 30
0.0
 40
2.000000000000002
 50
90.0
 51
170.0
  0
LINE
  5
252
  8
1
  6
CONTINUOUS
 62
     7
 10
-780.5551013082397
 20
-289.2381781645618
 30
0.0
 11
-780.3437237651381
 21
-288.0393965472939
 31
0.0
  0
ARC
  5
253
  8
1
  6
CONTINUOUS
 62
     7
 10
-782.8914071526455
 20
-288.7866929026278
 30
0.0
 40
1.000000000000001
 50
270.0
 51
349.9999999999999
  0
LINE
  5
254
  8
1
  6
CONTINUOUS
 62
     7
 10
-781.9065993996334
 20
-288.9603410802948
 30
0.0
 11
-781.6952218565316
 21
-287.7615594630269
 31
0.0
  0
ARC
  5
255
  8
1
  6
CONTINUOUS
 62
     7
 10
-778.1499139456878
 20
-288.3866929026278
 30
0.0
 40
3.599999999999888
 50
90.0
 51
170.0
  0
LINE
  5
256
  8
1
  6
CONTINUOUS
 62
     7
 10
-777.4476475626662
 20
-284.7866929026279
 30
0.0
 11
-778.1499139456878
 21
-284.7866929026278
 31
0.0
  0
ARC
  5
257
  8
1
  6
CONTINUOUS
 62
     7
 10
-761.989013576865
 20
-288.7866929026278
 30
0.0
 40
2.599999999999961
 50
190.0000000000001
 51
202.6198649480405
  0
ARC
  5
258
  8
1
  6
CONTINUOUS
 62
     7
 10
-783.1156014660714
 20
-288.7866929026278
 30
0.0
 40
2.59999999999997
 50
337.3801350519595
 51
349.9999999999999
  0
ARC
  5
259
  8
1
  6
CONTINUOUS
 62
     7
 10
-707.4547010972487
 20
-288.3866929026278
 30
0.0
 40
3.599999999999898
 50
10.00000000000001
 51
90.00000000000001
  0
LINE
  5
25A
  8
1
  6
CONTINUOUS
 62
     7
 10
-703.6980156433032
 20
-288.9603410802947
 30
0.0
 11
-703.9093931864047
 21
-287.7615594630269
 31
0.0
  0
ARC
  5
25B
  8
1
  6
CONTINUOUS
 62
     7
 10
-702.713207890291
 20
-288.7866929026278
 30
0.0
 40
1.000000000000001
 50
190.0000000000001
 51
270.0
  0
LINE
  5
25C
  8
1
  6
CONTINUOUS
 62
     7
 10
-705.0495137346967
 20
-289.2381781645618
 30
0.0
 11
-705.2608912777985
 21
-288.0393965472939
 31
0.0
  0
ARC
  5
25D
  8
1
  6
CONTINUOUS
 62
     7
 10
-707.2305067838228
 20
-288.3866929026278
 30
0.0
 40
2.000000000000002
 50
10.0
 51
90.0
  0
LINE
  5
25E
  8
1
  6
CONTINUOUS
 62
     7
 10
-718.8741082591137
 20
-286.3866929026278
 30
0.0
 11
-707.2305067838228
 21
-286.3866929026278
 31
0.0
  0
ARC
  5
25F
  8
1
  6
CONTINUOUS
 62
     7
 10
-718.8741082591137
 20
-288.3866929026278
 30
0.0
 40
2.000000000000065
 50
90.0
 51
170.0
  0
LINE
  5
260
  8
1
  6
CONTINUOUS
 62
     7
 10
-721.0551013082397
 20
-289.2381781645618
 30
0.0
 11
-720.8437237651382
 21
-288.0393965472939
 31
0.0
  0
ARC
  5
261
  8
1
  6
CONTINUOUS
 62
     7
 10
-723.3914071526455
 20
-288.7866929026278
 30
0.0
 40
0.9999999999999183
 50
269.9999999999998
 51
349.9999999999999
  0
LINE
  5
262
  8
1
  6
CONTINUOUS
 62
     7
 10
-722.4065993996334
 20
-288.9603410802947
 30
0.0
 11
-722.1952218565316
 21
-287.7615594630269
 31
0.0
  0
ARC
  5
263
  8
1
  6
CONTINUOUS
 62
     7
 10
-718.6499139456877
 20
-288.3866929026278
 30
0.0
 40
3.599999999999992
 50
90.0
 51
93.49317677311281
  0
ARC
  5
264
  8
1
  6
CONTINUOUS
 62
     7
 10
-718.6499139456877
 20
-288.3866929026278
 30
0.0
 40
3.599999999999979
 50
93.4931767731129
 51
170.0
  0
LINE
  5
265
  8
1
  6
CONTINUOUS
 62
     7
 10
-708.1569674802691
 20
-284.7866929026278
 30
0.0
 11
-707.4547010972487
 21
-284.7866929026278
 31
0.0
  0
ARC
  5
266
  8
1
  6
CONTINUOUS
 62
     7
 10
-723.6156014660716
 20
-288.7866929026278
 30
0.0
 40
2.599999999999961
 50
337.3801350519595
 51
349.9999999999999
  0
ARC
  5
267
  8
1
  6
CONTINUOUS
 62
     7
 10
-702.489013576865
 20
-288.7866929026278
 30
0.0
 40
2.59999999999997
 50
190.0
 51
202.6198649480404
  0
LINE
  5
268
  8
1
  6
CONTINUOUS
 62
     7
 10
-775.7305067838229
 20
-288.1866929026282
 30
0.0
 11
-767.7305067838229
 21
-288.1866929026282
 31
0.0
  0
LINE
  5
269
  8
1
  6
CONTINUOUS
 62
     7
 10
-769.7305067838229
 20
-276.5366929026281
 30
0.0
 11
-773.7305067838229
 21
-276.5366929026281
 31
0.0
  0
LINE
  5
26A
  8
1
  6
CONTINUOUS
 62
     7
 10
-773.380506783823
 20
-276.1866929026281
 30
0.0
 11
-770.080506783823
 21
-276.1866929026281
 31
0.0
  0
LINE
  5
26B
  8
1
  6
CONTINUOUS
 62
     7
 10
-717.8741082591137
 20
-288.1866929026278
 30
0.0
 11
-709.8741082591137
 21
-288.1866929026278
 31
0.0
  0
LINE
  5
26C
  8
1
  6
CONTINUOUS
 62
     7
 10
-711.8741082591137
 20
-276.5366929026278
 30
0.0
 11
-715.8741082591137
 21
-276.5366929026278
 31
0.0
  0
LINE
  5
26D
  8
1
  6
CONTINUOUS
 62
     7
 10
-715.5241082591137
 20
-276.1866929026278
 30
0.0
 11
-712.2241082591138
 21
-276.1866929026278
 31
0.0
  0
LINE
  5
26E
  8
1
  6
CONTINUOUS
 62
     7
 10
-771.7785067838231
 20
-288.1866929026286
 30
0.0
 11
-771.6485067838228
 21
-287.186692902627
 31
0.0
  0
LINE
  5
26F
  8
1
  6
CONTINUOUS
 62
     7
 10
-771.8125067838231
 20
-287.1866929026286
 30
0.0
 11
-771.9425067838233
 21
-288.1866929026303
 31
0.0
  0
LINE
  5
270
  8
1
  6
CONTINUOUS
 62
     7
 10
-713.9221082591138
 20
-288.1866929026278
 30
0.0
 11
-713.7921082591137
 21
-287.1866929026278
 31
0.0
  0
LINE
  5
271
  8
1
  6
CONTINUOUS
 62
     7
 10
-713.9561082591136
 20
-287.1866929026278
 30
0.0
 11
-714.0861082591136
 21
-288.1866929026278
 31
0.0
  0
LINE
  5
272
  8
1
  6
CONTINUOUS
 62
     7
 10
-709.3741082591138
 20
-287.1866929026278
 30
0.0
 11
-718.3741082591138
 21
-287.1866929026278
 31
0.0
  0
LINE
  5
273
  8
1
  6
CONTINUOUS
 62
     7
 10
-767.230506783823
 20
-287.1866929026278
 30
0.0
 11
-776.230506783823
 21
-287.1866929026278
 31
0.0
  0
ARC
  5
274
  8
1
  6
CONTINUOUS
 62
     7
 10
-718.7023075214682
 20
-281.1866929026278
 30
0.0
 40
2.000000000000012
 50
180.0000000000009
 51
264.3162169723207
  0
LINE
  5
275
  8
1
  6
CONTINUOUS
 62
     9
 10
-718.9003837328216
 20
-283.1768601856711
 30
0.0
 11
-718.9003837328216
 21
-284.7812395798176
 31
0.0
  0
ARC
  5
276
  8
1
  6
CONTINUOUS
 62
     7
 10
-718.7023075214682
 20
-281.1866929026278
 30
0.0
 40
3.599999999999937
 50
180.0
 51
266.845926415137
  0
LINE
  5
277
  8
1
  6
CONTINUOUS
 62
     7
 10
-722.3023075214682
 20
-261.2866929026279
 30
0.0
 11
-722.3023075214682
 21
-281.1866929026278
 31
0.0
  0
ARC
  5
278
  8
1
  6
CONTINUOUS
 62
     7
 10
-723.3023075214682
 20
-261.2866929026279
 30
0.0
 40
1.000000000000001
 50
359.9999999999996
 51
89.99999999998408
  0
LINE
  5
279
  8
1
  6
CONTINUOUS
 62
     7
 10
-762.3023075214679
 20
-260.2866929026279
 30
0.0
 11
-723.3023075214679
 21
-260.2866929026279
 31
0.0
  0
ARC
  5
27A
  8
1
  6
CONTINUOUS
 62
     7
 10
-762.3023075214677
 20
-261.2866929026279
 30
0.0
 40
1.000000000000001
 50
90.00000000001593
 51
180.000000000008
  0
LINE
  5
27B
  8
1
  6
CONTINUOUS
 62
     7
 10
-763.3023075214677
 20
-261.2866929026281
 30
0.0
 11
-763.3023075214677
 21
-281.186692902628
 31
0.0
  0
ARC
  5
27C
  8
1
  6
CONTINUOUS
 62
     7
 10
-766.9023075214676
 20
-281.186692902628
 30
0.0
 40
3.600000000000028
 50
273.1540735848641
 51
359.9999999999998
  0
LINE
  5
27D
  8
1
  6
CONTINUOUS
 62
     9
 10
-766.7042313101142
 20
-283.1768601856713
 30
0.0
 11
-766.7042313101142
 21
-284.7812395798177
 31
0.0
  0
ARC
  5
27E
  8
1
  6
CONTINUOUS
 62
     7
 10
-766.9023075214676
 20
-281.186692902628
 30
0.0
 40
2.000000000000002
 50
275.6837830276802
 51
359.999999999996
  0
LINE
  5
27F
  8
1
  6
CONTINUOUS
 62
     7
 10
-764.9023075214676
 20
-281.1866929026281
 30
0.0
 11
-764.9023075214676
 21
-261.2866929026282
 31
0.0
  0
ARC
  5
280
  8
1
  6
CONTINUOUS
 62
     7
 10
-762.3023075214677
 20
-261.2866929026279
 30
0.0
 40
2.599999999999991
 50
90.00000000000611
 51
180.0000000000064
  0
LINE
  5
281
  8
1
  6
CONTINUOUS
 62
     7
 10
-762.3023075214678
 20
-258.6866929026279
 30
0.0
 11
-723.3023075214679
 21
-258.6866929026279
 31
0.0
  0
ARC
  5
282
  8
1
  6
CONTINUOUS
 62
     7
 10
-723.3023075214682
 20
-261.2866929026279
 30
0.0
 40
2.599999999999936
 50
359.9999999999985
 51
89.99999999999392
  0
LINE
  5
283
  8
1
  6
CONTINUOUS
 62
     7
 10
-720.7023075214682
 20
-281.1866929026279
 30
0.0
 11
-720.7023075214682
 21
-261.286692902628
 31
0.0
  0
LINE
  5
284
  8
1
  6
CONTINUOUS
 62
     7
 10
-718.7023075214682
 20
-283.1866929026278
 30
0.0
 11
-716.4003837328215
 21
-283.1866929026278
 31
0.0
  0
LINE
  5
285
  8
1
  6
CONTINUOUS
 62
     9
 10
-716.4003837328215
 20
-283.1866929026278
 30
0.0
 11
-716.4003837328215
 21
-284.7866929026278
 31
0.0
  0
LINE
  5
286
  8
1
  6
CONTINUOUS
 62
     7
 10
-718.7023075214682
 20
-284.7866929026278
 30
0.0
 11
-716.4003837328215
 21
-284.7866929026278
 31
0.0
  0
LINE
  5
287
  8
1
  6
CONTINUOUS
 62
     7
 10
-718.9003837328216
 20
-284.7812395798176
 30
0.0
 11
-718.7023075214682
 21
-284.7866929026278
 31
0.0
  0
LINE
  5
288
  8
1
  6
CONTINUOUS
 62
     7
 10
-718.7023075214682
 20
-283.1866929026278
 30
0.0
 11
-718.9003837328216
 21
-283.1768601856711
 31
0.0
  0
LINE
  5
289
  8
1
  6
CONTINUOUS
 62
     9
 10
-769.2042313101142
 20
-283.186692902628
 30
0.0
 11
-769.2042313101142
 21
-284.7866929026279
 31
0.0
  0
LINE
  5
28A
  8
1
  6
CONTINUOUS
 62
     7
 10
-766.9023075214676
 20
-283.186692902628
 30
0.0
 11
-769.2042313101142
 21
-283.186692902628
 31
0.0
  0
LINE
  5
28B
  8
1
  6
CONTINUOUS
 62
     7
 10
-766.9023075214676
 20
-284.7866929026279
 30
0.0
 11
-769.2042313101142
 21
-284.7866929026279
 31
0.0
  0
LINE
  5
28C
  8
1
  6
CONTINUOUS
 62
     7
 10
-766.9023075214676
 20
-284.7866929026279
 30
0.0
 11
-766.7042313101142
 21
-284.7812395798177
 31
0.0
  0
LINE
  5
28D
  8
1
  6
CONTINUOUS
 62
     7
 10
-766.7042313101142
 20
-283.1768601856713
 30
0.0
 11
-766.9023075214676
 21
-283.186692902628
 31
0.0
  0
LINE
  5
28E
  8
1
  6
CONTINUOUS
 62
     9
 10
-708.8023075214682
 20
-283.1866929026278
 30
0.0
 11
-708.8023075214682
 21
-284.7866929026278
 31
0.0
  0
LINE
  5
28F
  8
1
  6
CONTINUOUS
 62
     7
 10
-716.4003837328215
 20
-284.7866929026278
 30
0.0
 11
-708.8023075214682
 21
-284.7866929026278
 31
0.0
  0
LINE
  5
290
  8
1
  6
CONTINUOUS
 62
     7
 10
-716.4003837328215
 20
-283.1866929026278
 30
0.0
 11
-708.8023075214682
 21
-283.1866929026278
 31
0.0
  0
LINE
  5
291
  8
1
  6
CONTINUOUS
 62
     9
 10
-776.8023075214672
 20
-283.186692902628
 30
0.0
 11
-776.8023075214672
 21
-284.7866929026279
 31
0.0
  0
LINE
  5
292
  8
1
  6
CONTINUOUS
 62
     7
 10
-769.2042313101142
 20
-284.7866929026279
 30
0.0
 11
-776.8023075214672
 21
-284.7866929026279
 31
0.0
  0
LINE
  5
293
  8
1
  6
CONTINUOUS
 62
     7
 10
-769.2042313101142
 20
-283.186692902628
 30
0.0
 11
-776.8023075214672
 21
-283.186692902628
 31
0.0
  0
LINE
  5
294
  8
1
  6
CONTINUOUS
 62
     7
 10
-706.3023075214683
 20
-283.1866929026278
 30
0.0
 11
-706.3023075214683
 21
-284.7866929026278
 31
0.0
  0
LINE
  5
295
  8
1
  6
CONTINUOUS
 62
     7
 10
-708.8023075214682
 20
-284.7866929026278
 30
0.0
 11
-708.1569674802691
 21
-284.7866929026278
 31
0.0
  0
LINE
  5
296
  8
1
  6
CONTINUOUS
 62
     7
 10
-707.4547010972487
 20
-284.7866929026278
 30
0.0
 11
-706.3023075214683
 21
-284.7866929026278
 31
0.0
  0
LINE
  5
297
  8
1
  6
CONTINUOUS
 62
     7
 10
-708.8023075214682
 20
-283.1866929026278
 30
0.0
 11
-706.3023075214683
 21
-283.1866929026278
 31
0.0
  0
LINE
  5
298
  8
1
  6
CONTINUOUS
 62
     7
 10
-779.3023075214671
 20
-283.186692902628
 30
0.0
 11
-779.3023075214671
 21
-284.7866929026279
 31
0.0
  0
LINE
  5
299
  8
1
  6
CONTINUOUS
 62
     7
 10
-776.8023075214671
 20
-284.7866929026279
 30
0.0
 11
-777.4476475626661
 21
-284.7866929026279
 31
0.0
  0
LINE
  5
29A
  8
1
  6
CONTINUOUS
 62
     7
 10
-778.1499139456877
 20
-284.7866929026279
 30
0.0
 11
-779.3023075214671
 21
-284.7866929026279
 31
0.0
  0
LINE
  5
29B
  8
1
  6
CONTINUOUS
 62
     7
 10
-776.8023075214671
 20
-283.186692902628
 30
0.0
 11
-779.3023075214671
 21
-283.186692902628
 31
0.0
  0
LINE
  5
29C
  8
1
  6
CONTINUOUS
 62
     9
 10
-716.4023075214683
 20
-282.6866929026278
 30
0.0
 11
-711.2023075214682
 21
-282.6866929026278
 31
0.0
  0
LINE
  5
29D
  8
1
  6
CONTINUOUS
 62
     9
 10
-769.2023075214674
 20
-282.686692902628
 30
0.0
 11
-774.4023075214673
 21
-282.686692902628
 31
0.0
  0
LINE
  5
29E
  8
1
  6
CONTINUOUS
 62
     7
 10
-716.4023075214683
 20
-281.6866929026278
 30
0.0
 11
-711.2023075214682
 21
-281.6866929026278
 31
0.0
  0
LINE
  5
29F
  8
1
  6
CONTINUOUS
 62
     7
 10
-769.2023075214674
 20
-281.686692902628
 30
0.0
 11
-774.4023075214673
 21
-281.686692902628
 31
0.0
  0
LINE
  5
2A0
  8
1
  6
CONTINUOUS
 62
     7
 10
-747.8023075214684
 20
-246.0366929026279
 30
0.0
 11
-747.8023075214684
 21
-246.4866929026278
 31
0.0
  0
LINE
  5
2A1
  8
1
  6
CONTINUOUS
 62
     7
 10
-747.8023075214684
 20
-256.8866929026278
 30
0.0
 11
-747.8023075214684
 21
-257.1866929026278
 31
0.0
  0
LINE
  5
2A2
  8
1
  6
CONTINUOUS
 62
     7
 10
-737.8023075214684
 20
-257.1866929026278
 30
0.0
 11
-737.8023075214684
 21
-256.8866929026278
 31
0.0
  0
LINE
  5
2A3
  8
1
  6
CONTINUOUS
 62
     7
 10
-737.8023075214684
 20
-246.4866929026278
 30
0.0
 11
-737.8023075214684
 21
-246.0366929026279
 31
0.0
  0
LINE
  5
2A4
  8
1
  6
CONTINUOUS
 62
     7
 10
-737.8023075214684
 20
-246.0366929026279
 30
0.0
 11
-738.5523075214684
 21
-245.2866929026279
 31
0.0
  0
LINE
  5
2A5
  8
1
  6
CONTINUOUS
 62
     7
 10
-747.0523075214684
 20
-245.2866929026279
 30
0.0
 11
-747.8023075214684
 21
-246.0366929026279
 31
0.0
  0
LINE
  5
2A6
  8
1
  6
CONTINUOUS
 62
     7
 10
-752.8023075214684
 20
-260.2866929026279
 30
0.0
 11
-752.8023075214684
 21
-262.2866929026279
 31
0.0
  0
LINE
  5
2A7
  8
1
  6
CONTINUOUS
 62
     7
 10
-732.8023075214684
 20
-262.2866929026279
 30
0.0
 11
-732.8023075214684
 21
-260.2866929026279
 31
0.0
  0
LINE
  5
2A8
  8
1
  6
CONTINUOUS
 62
     7
 10
-751.0523075214684
 20
-263.9020775180124
 30
0.0
 11
-751.0523075214684
 21
-265.2866929026279
 31
0.0
  0
LINE
  5
2A9
  8
1
  6
CONTINUOUS
 62
     7
 10
-734.5523075214684
 20
-265.2866929026279
 30
0.0
 11
-734.5523075214684
 21
-262.2866929026279
 31
0.0
  0
ARC
  5
2AA
  8
1
  6
CONTINUOUS
 62
     7
 10
-737.7023075214682
 20
-201.6866929026278
 30
0.0
 40
0.500000000000056
 50
90.0
 51
180.0
  0
ARC
  5
2AB
  8
1
  6
CONTINUOUS
 62
     7
 10
-747.9023075214682
 20
-201.6866929026278
 30
0.0
 40
0.5000000000000004
 50
0.0
 51
90.0
  0
LINE
  5
2AC
  8
1
  6
CONTINUOUS
 62
     7
 10
-738.2023075214684
 20
-203.1866929026278
 30
0.0
 11
-738.2023075214684
 21
-201.6866929026278
 31
0.0
  0
LINE
  5
2AD
  8
1
  6
CONTINUOUS
 62
     7
 10
-747.4023075214683
 20
-201.6866929026278
 30
0.0
 11
-747.4023075214683
 21
-203.1866929026278
 31
0.0
  0
LINE
  5
2AE
  8
1
  6
CONTINUOUS
 62
     7
 10
-738.8023075214683
 20
-231.5616929026278
 30
0.0
 11
-738.8023075214683
 21
-203.1866929026278
 31
0.0
  0
LINE
  5
2AF
  8
1
  6
CONTINUOUS
 62
     7
 10
-738.8023075214683
 20
-199.1866929026278
 30
0.0
 11
-738.8023075214683
 21
-191.1866929026278
 31
0.0
  0
LINE
  5
2B0
  8
1
  6
CONTINUOUS
 62
     7
 10
-746.8023075214683
 20
-191.1866929026278
 30
0.0
 11
-746.8023075214683
 21
-199.1866929026278
 31
0.0
  0
LINE
  5
2B1
  8
1
  6
CONTINUOUS
 62
     7
 10
-746.8023075214683
 20
-203.1866929026278
 30
0.0
 11
-746.8023075214683
 21
-231.5616929026278
 31
0.0
  0
LINE
  5
2B2
  8
1
  6
CONTINUOUS
 62
     7
 10
-738.8023075214683
 20
-191.1866929026278
 30
0.0
 11
-738.8023075214683
 21
-187.1866929026278
 31
0.0
  0
LINE
  5
2B3
  8
1
  6
CONTINUOUS
 62
     7
 10
-746.8023075214683
 20
-187.1866929026278
 30
0.0
 11
-746.8023075214683
 21
-191.1866929026278
 31
0.0
  0
LINE
  5
2B4
  8
1
  6
CONTINUOUS
 62
     7
 10
-746.8023075214683
 20
-231.5616929026278
 30
0.0
 11
-746.1773075214683
 21
-232.1866929026278
 31
0.0
  0
LINE
  5
2B5
  8
1
  6
CONTINUOUS
 62
     7
 10
-739.4273075214683
 20
-232.1866929026278
 30
0.0
 11
-738.8023075214683
 21
-231.5616929026278
 31
0.0
  0
LINE
  5
2B6
  8
1
  6
CONTINUOUS
 62
     7
 10
-802.8023075214683
 20
-289.7866929026278
 30
0.0
 11
-802.8023075214683
 21
-291.3866929026278
 31
0.0
  0
LINE
  5
2B7
  8
1
  6
CONTINUOUS
 62
     7
 10
-682.8023075214682
 20
-291.3866929026278
 30
0.0
 11
-682.8023075214682
 21
-289.7866929026278
 31
0.0
  0
LINE
  5
2B8
  8
1
  6
CONTINUOUS
 62
     7
 10
-775.7305067838232
 20
-288.1866929026282
 30
0.0
 11
-775.7305067838232
 21
-289.7866929026278
 31
0.0
  0
LINE
  5
2B9
  8
1
  6
CONTINUOUS
 62
     7
 10
-767.7305067838226
 20
-289.7866929026278
 30
0.0
 11
-767.7305067838226
 21
-288.1866929026282
 31
0.0
  0
LINE
  5
2BA
  8
1
  6
CONTINUOUS
 62
     7
 10
-773.7305067838231
 20
-276.5366929026281
 30
0.0
 11
-773.7305067838231
 21
-281.686692902628
 31
0.0
  0
LINE
  5
2BB
  8
1
  6
CONTINUOUS
 62
     7
 10
-769.7305067838228
 20
-281.686692902628
 30
0.0
 11
-769.7305067838228
 21
-276.5366929026281
 31
0.0
  0
LINE
  5
2BC
  8
1
  6
CONTINUOUS
 62
     7
 10
-769.7305067838228
 20
-276.5366929026281
 30
0.0
 11
-770.0805067838229
 21
-276.1866929026281
 31
0.0
  0
LINE
  5
2BD
  8
1
  6
CONTINUOUS
 62
     7
 10
-773.3805067838231
 20
-276.1866929026281
 30
0.0
 11
-773.7305067838231
 21
-276.5366929026281
 31
0.0
  0
LINE
  5
2BE
  8
1
  6
CONTINUOUS
 62
     7
 10
-717.8741082591137
 20
-288.1866929026278
 30
0.0
 11
-717.8741082591137
 21
-289.7866929026278
 31
0.0
  0
LINE
  5
2BF
  8
1
  6
CONTINUOUS
 62
     7
 10
-709.8741082591137
 20
-289.7866929026278
 30
0.0
 11
-709.8741082591137
 21
-288.1866929026278
 31
0.0
  0
LINE
  5
2C0
  8
1
  6
CONTINUOUS
 62
     7
 10
-715.8741082591137
 20
-276.5366929026278
 30
0.0
 11
-715.8741082591137
 21
-281.6866929026278
 31
0.0
  0
LINE
  5
2C1
  8
1
  6
CONTINUOUS
 62
     7
 10
-711.8741082591137
 20
-281.6866929026278
 30
0.0
 11
-711.8741082591137
 21
-276.5366929026278
 31
0.0
  0
LINE
  5
2C2
  8
1
  6
CONTINUOUS
 62
     7
 10
-711.8741082591137
 20
-276.5366929026278
 30
0.0
 11
-712.2241082591138
 21
-276.1866929026278
 31
0.0
  0
LINE
  5
2C3
  8
1
  6
CONTINUOUS
 62
     7
 10
-715.5241082591137
 20
-276.1866929026278
 30
0.0
 11
-715.8741082591137
 21
-276.5366929026278
 31
0.0
  0
LINE
  5
2C4
  8
1
  6
CONTINUOUS
 62
     7
 10
-775.5305067838244
 20
-287.1866929026278
 30
0.0
 11
-775.5305067838244
 21
-288.1866929026282
 31
0.0
  0
LINE
  5
2C5
  8
1
  6
CONTINUOUS
 62
     7
 10
-767.9305067838216
 20
-288.1866929026282
 30
0.0
 11
-767.9305067838216
 21
-287.1866929026278
 31
0.0
  0
LINE
  5
2C6
  8
1
  6
CONTINUOUS
 62
     7
 10
-717.6741082591137
 20
-287.1866929026278
 30
0.0
 11
-717.6741082591137
 21
-288.1866929026278
 31
0.0
  0
LINE
  5
2C7
  8
1
  6
CONTINUOUS
 62
     7
 10
-710.0741082591136
 20
-288.1866929026278
 30
0.0
 11
-710.0741082591136
 21
-287.1866929026278
 31
0.0
  0
LINE
  5
2C8
  8
1
  6
CONTINUOUS
 62
     7
 10
-718.3741082591138
 20
-286.3866929026278
 30
0.0
 11
-718.3741082591138
 21
-287.1866929026278
 31
0.0
  0
LINE
  5
2C9
  8
1
  6
CONTINUOUS
 62
     7
 10
-709.3741082591138
 20
-287.1866929026278
 30
0.0
 11
-709.3741082591138
 21
-286.3866929026278
 31
0.0
  0
LINE
  5
2CA
  8
1
  6
CONTINUOUS
 62
     7
 10
-776.230506783823
 20
-286.3866929026278
 30
0.0
 11
-776.230506783823
 21
-287.1866929026278
 31
0.0
  0
LINE
  5
2CB
  8
1
  6
CONTINUOUS
 62
     7
 10
-767.230506783823
 20
-287.1866929026278
 30
0.0
 11
-767.230506783823
 21
-286.3866929026278
 31
0.0
  0
ARC
  5
2CC
  8
1
  6
CONTINUOUS
 62
     7
 10
-716.9023075214682
 20
-282.6866929026278
 30
0.0
 40
0.4999999999999449
 50
270.0
 51
359.9999999999991
  0
ARC
  5
2CD
  8
1
  6
CONTINUOUS
 62
     7
 10
-710.7023075214682
 20
-282.6866929026278
 30
0.0
 40
0.5000000000000004
 50
180.0000000000009
 51
270.0
  0
ARC
  5
2CE
  8
1
  6
CONTINUOUS
 62
     7
 10
-774.9023075214673
 20
-282.686692902628
 30
0.0
 40
0.4999999999999449
 50
269.9999999999857
 51
359.9999999999991
  0
ARC
  5
2CF
  8
1
  6
CONTINUOUS
 62
     7
 10
-768.7023075214673
 20
-282.686692902628
 30
0.0
 40
0.5000000000000004
 50
180.0000000000009
 51
270.0000000000139
  0
LINE
  5
2D0
  8
1
  6
CONTINUOUS
 62
     7
 10
-716.4023075214683
 20
-281.6866929026279
 30
0.0
 11
-716.4023075214683
 21
-282.6866929026279
 31
0.0
  0
LINE
  5
2D1
  8
1
  6
CONTINUOUS
 62
     7
 10
-711.2023075214682
 20
-282.6866929026279
 30
0.0
 11
-711.2023075214682
 21
-281.6866929026279
 31
0.0
  0
LINE
  5
2D2
  8
1
  6
CONTINUOUS
 62
     7
 10
-774.4023075214673
 20
-281.6866929026287
 30
0.0
 11
-774.4023075214673
 21
-282.6866929026286
 31
0.0
  0
LINE
  5
2D3
  8
1
  6
CONTINUOUS
 62
     7
 10
-769.2023075214674
 20
-282.6866929026286
 30
0.0
 11
-769.2023075214674
 21
-281.6866929026287
 31
0.0
  0
ENDBLK
  8
0
  0
ENDSEC
  0
SECTION
  2
ENTITIES
  0
POINT
  5
70
  8
1
 62
     7
 10
-587.8023075214684
 20
-416.6366929026278
 30
0.0
  0
POINT
  5
71
  8
1
 62
     7
 10
-737.8023075214683
 20
-301.6366929026278
 30
0.0
  0
POINT
  5
72
  8
1
 62
     7
 10
-642.8023075214684
 20
-416.6366929026278
 30
0.0
  0
POINT
  5
73
  8
1
 62
     7
 10
-522.8023075214683
 20
-421.6366929026278
 30
0.0
  0
POINT
  5
74
  8
1
 62
     7
 10
-727.8023075214683
 20
-176.6366929026278
 30
0.0
  0
INSERT
  5
EF
  8
1
  6
DOT
 62
     7
  2
D_FRAME_VIEW_3831
 10
0.0
 20
0.0
 30
0.0
  0
LINE
  5
F1
  8
1
  6
CENTER
 62
     1
 10
-804.8023075214683
 20
-416.6366929026278
 30
0.0
 11
-680.8023075214682
 21
-416.6366929026278
 31
0.0
  0
LINE
  5
F3
  8
1
  6
CENTER
 62
     1
 10
-742.8023075214683
 20
-478.6366929026278
 30
0.0
 11
-742.8023075214683
 21
-354.6366929026278
 31
0.0
  0
LINE
  5
F4
  8
1
  6
CENTER
 62
     1
 10
-522.8023075214683
 20
-419.1366929026278
 30
0.0
 11
-579.7273075214682
 21
-419.1366929026278
 31
0.0
  0
LINE
  5
F5
  8
1
  6
CENTER
 62
     1
 10
-642.8023075214684
 20
-416.6366929026278
 30
0.0
 11
-587.8023075214684
 21
-416.6366929026278
 31
0.0
  0
LINE
  5
F6
  8
1
  6
CENTER
 62
     1
 10
-609.8443034828709
 20
-416.6366929026278
 30
0.0
 11
-605.4523075214685
 21
-416.6366929026278
 31
0.0
  0
LINE
  5
F7
  8
1
  6
CENTER
 62
     1
 10
-742.8023075214679
 20
-301.6366929026278
 30
0.0
 11
-742.8023075214679
 21
-176.6366929026279
 31
0.0
  0
TEXT
  5
F8
  8
1
  6
CONTINUOUS
 62
     7
 10
-629.7735467361738
 20
-498.3082728701157
 30
0.0
 40
3.0
  1
SGM-VK1A
  0
LINE
  5
F9
  8
1
  6
CONTINUOUS
 62
     2
 10
-629.688671157832
 20
-498.8662383571733
 30
0.0
 11
-615.9159438851048
 21
-498.8662383571733
 31
0.0
  0
POINT
  5
FA
  8
1
 62
     7
 10
-609.8443034828709
 20
-416.6366929026278
 30
0.0
  0
INSERT
  5
1CF
  8
1
  6
DOT
 62
     7
  2
D_FRAME_VIEW_3023
 10
0.0
 20
0.0
 30
0.0
  0
INSERT
  5
2D4
  8
1
  6
DOT
 62
     7
  2
D_FRAME_VIEW_3706
 10
0.0
 20
0.0
 30
0.0
  0
ENDSEC
  0
EOF
