  0
SECTION
  2
HEADER
  9
$ACADVER
  1
AC1006
  9
$DWGCODEPAGE
  3
ansi_932
  9
$INSBASE
 10
0.0
 20
0.0
 30
0.0
  9
$EXTMIN
 10
-3334.802307521468
 20
-478.8662383571733
  9
$EXTMAX
 10
-3032.802307521468
 20
-151.6366929026278
  9
$LIMMIN
 10
0.0
 20
0.0
  9
$LIMMAX
 10
12.0
 20
9.0
  9
$ORTHOMODE
 70
     0
  9
$REGENMODE
 70
     1
  9
$FILLMODE
 70
     1
  9
$QTEXTMODE
 70
     0
  9
$MIRRTEXT
 70
     1
  9
$DRAGMODE
 70
     2
  9
$LTSCALE
 40
1.0
  9
$OSMODE
 70
    37
  9
$ATTMODE
 70
     1
  9
$TEXTSIZE
 40
0.2
  9
$TRACEWID
 40
0.05
  9
$TEXTSTYLE
  7
STANDARD
  9
$CLAYER
  8
0
  9
$CELTYPE
  6
BYLAYER
  9
$CECOLOR
 62
   256
  9
$DIMSCALE
 40
1.0
  9
$DIMASZ
 40
3.0
  9
$DIMEXO
 40
0.0625
  9
$DIMDLI
 40
0.38
  9
$DIMRND
 40
0.0
  9
$DIMDLE
 40
0.0
  9
$DIMEXE
 40
1.5
  9
$DIMTP
 40
0.0
  9
$DIMTM
 40
0.0
  9
$DIMTXT
 40
3.0
  9
$DIMCEN
 40
0.09
  9
$DIMTSZ
 40
0.0
  9
$DIMTOL
 70
     0
  9
$DIMLIM
 70
     0
  9
$DIMTIH
 70
     1
  9
$DIMTOH
 70
     1
  9
$DIMSE1
 70
     0
  9
$DIMSE2
 70
     0
  9
$DIMTAD
 70
     1
  9
$DIMZIN
 70
     0
  9
$DIMBLK
  1

  9
$DIMASO
 70
     1
  9
$DIMSHO
 70
     1
  9
$DIMPOST
  1

  9
$DIMAPOST
  1

  9
$DIMALT
 70
     0
  9
$DIMALTD
 70
     2
  9
$DIMALTF
 40
25.4
  9
$DIMLFAC
 40
1.0
  9
$DIMTOFL
 70
     0
  9
$DIMTVP
 40
0.0
  9
$DIMTIX
 70
     0
  9
$DIMSOXD
 70
     0
  9
$DIMSAH
 70
     0
  9
$DIMBLK1
  1

  9
$DIMBLK2
  1

  9
$LUNITS
 70
     2
  9
$LUPREC
 70
     4
  9
$SKETCHINC
 40
0.1
  9
$FILLETRAD
 40
0.5
  9
$AUNITS
 70
     0
  9
$AUPREC
 70
     0
  9
$MENU
  1
.
  9
$ELEVATION
 40
0.0
  9
$THICKNESS
 40
0.0
  9
$LIMCHECK
 70
     0
  9
$CHAMFERA
 40
0.0
  9
$CHAMFERB
 40
0.0
  9
$SKPOLY
 70
     0
  9
$TDCREATE
 40
2460529.667809468
  9
$TDUPDATE
 40
2460529.667809722
  9
$TDINDWG
 40
0.0000000116
  9
$TDUSRTIMER
 40
0.0000000116
  9
$USRTIMER
 70
     1
  9
$ANGBASE
 50
0.0
  9
$ANGDIR
 70
     0
  9
$PDMODE
 70
     0
  9
$PDSIZE
 40
0.0
  9
$PLINEWID
 40
0.0
  9
$COORDS
 70
     1
  9
$SPLFRAME
 70
     0
  9
$SPLINETYPE
 70
     6
  9
$SPLINESEGS
 70
     8
  9
$ATTDIA
 70
     0
  9
$ATTREQ
 70
     1
  9
$HANDLING
 70
     1
  9
$HANDSEED
  5
3CF
  9
$SURFTAB1
 70
     6
  9
$SURFTAB2
 70
     6
  9
$SURFTYPE
 70
     6
  9
$SURFU
 70
     6
  9
$SURFV
 70
     6
  9
$UCSNAME
  2

  9
$UCSORG
 10
0.0
 20
0.0
 30
0.0
  9
$UCSXDIR
 10
1.0
 20
0.0
 30
0.0
  9
$UCSYDIR
 10
0.0
 20
1.0
 30
0.0
  9
$USERI1
 70
     0
  9
$USERI2
 70
     0
  9
$USERI3
 70
     0
  9
$USERI4
 70
     0
  9
$USERI5
 70
     0
  9
$USERR1
 40
0.0
  9
$USERR2
 40
0.0
  9
$USERR3
 40
0.0
  9
$USERR4
 40
0.0
  9
$USERR5
 40
0.0
  9
$WORLDVIEW
 70
     1
  0
ENDSEC
  0
SECTION
  2
TABLES
  0
TABLE
  2
VPORT
 70
     1
  0
VPORT
  2
*ACTIVE
 70
     0
 10
0.0
 20
0.0
 11
1.0
 21
1.0
 12
-3183.802307521468
 22
-315.2514656299006
 13
0.0
 23
0.0
 14
0.5
 24
0.5
 15
0.5
 25
0.5
 16
0.0
 26
0.0
 36
1.0
 17
0.0
 27
0.0
 37
0.0
 40
327.2295454545455
 41
1.6
 42
50.0
 43
0.0
 44
0.0
 50
0.0
 51
0.0
 71
     0
 72
   100
 73
     1
 74
     3
 75
     0
 76
     0
 77
     0
 78
     0
  0
ENDTAB
  0
TABLE
  2
LTYPE
 70
     3
  0
LTYPE
  2
CONTINUOUS
 70
     0
  3
Solid line
 72
    65
 73
     0
 40
0.0
  0
LTYPE
  2
CENTER
 70
     0
  3

 72
    65
 73
     0
 40
0.0
  0
LTYPE
  2
DOT
 70
     0
  3

 72
    65
 73
     0
 40
0.0
  0
ENDTAB
  0
TABLE
  2
LAYER
 70
     2
  0
LAYER
  2
0
 70
     0
 62
     7
  6
CONTINUOUS
  0
LAYER
  2
1
 70
     0
 62
     7
  6
CONTINUOUS
  0
ENDTAB
  0
TABLE
  2
STYLE
 70
     2
  0
STYLE
  2
STANDARD
 70
     0
 40
0.0
 41
1.0
 50
0.0
 71
     0
 42
0.2
  3
txt
  4

  0
STYLE
  2
ＭＳ_ゴシック
 70
     0
 40
0.0
 41
1.0
 50
0.0
 71
     0
 42
0.2
  3
ＭＳ ゴシック.shx
  4

  0
ENDTAB
  0
TABLE
  2
VIEW
 70
     0
  0
ENDTAB
  0
TABLE
  2
UCS
 70
     0
  0
ENDTAB
  0
ENDSEC
  0
SECTION
  2
BLOCKS
  0
BLOCK
  8
0
  2
D_FRAME_VIEW_6354
 70
     0
 10
0.0
 20
0.0
 30
0.0
  0
LINE
  5
7B
  8
1
  6
CONTINUOUS
 62
     7
 10
-3105.102307521468
 20
-383.6366929026278
 30
0.0
 11
-3107.102307521468
 21
-383.6366929026278
 31
0.0
  0
LINE
  5
7C
  8
1
  6
CONTINUOUS
 62
     9
 10
-3107.102307521468
 20
-382.6366929026278
 30
0.0
 11
-3105.102307521468
 21
-382.6366929026278
 31
0.0
  0
LINE
  5
7D
  8
1
  6
CONTINUOUS
 62
     7
 10
-3107.102307521468
 20
-383.6366929026278
 30
0.0
 11
-3107.102307521468
 21
-382.6366929026278
 31
0.0
  0
LINE
  5
7E
  8
1
  6
CONTINUOUS
 62
     7
 10
-3105.102307521468
 20
-382.6366929026278
 30
0.0
 11
-3105.102307521468
 21
-383.6366929026278
 31
0.0
  0
LINE
  5
7F
  8
1
  6
CONTINUOUS
 62
     9
 10
-3105.102307521468
 20
-362.1366929026278
 30
0.0
 11
-3107.102307521468
 21
-362.1366929026278
 31
0.0
  0
LINE
  5
80
  8
1
  6
CONTINUOUS
 62
     7
 10
-3107.102307521468
 20
-382.6366929026278
 30
0.0
 11
-3107.102307521468
 21
-362.1366929026278
 31
0.0
  0
LINE
  5
81
  8
1
  6
CONTINUOUS
 62
     7
 10
-3105.102307521468
 20
-382.6366929026278
 30
0.0
 11
-3105.102307521468
 21
-362.1366929026278
 31
0.0
  0
LINE
  5
82
  8
1
  6
CONTINUOUS
 62
     7
 10
-3107.102307521468
 20
-361.1366929026278
 30
0.0
 11
-3105.102307521468
 21
-361.1366929026278
 31
0.0
  0
LINE
  5
83
  8
1
  6
CONTINUOUS
 62
     7
 10
-3107.102307521468
 20
-362.1366929026278
 30
0.0
 11
-3107.102307521468
 21
-361.1366929026278
 31
0.0
  0
LINE
  5
84
  8
1
  6
CONTINUOUS
 62
     7
 10
-3105.102307521468
 20
-361.1366929026278
 30
0.0
 11
-3105.102307521468
 21
-362.1366929026278
 31
0.0
  0
LINE
  5
85
  8
1
  6
CONTINUOUS
 62
     7
 10
-3107.102307521468
 20
-383.6366929026278
 30
0.0
 11
-3107.109822273517
 21
-383.6367493773155
 31
0.0
  0
LINE
  5
86
  8
1
  6
CONTINUOUS
 62
     7
 10
-3107.109822273517
 20
-383.6367493773155
 30
0.0
 11
-3107.402307521468
 21
-383.7366929026279
 31
0.0
  0
LINE
  5
87
  8
1
  6
CONTINUOUS
 62
     9
 10
-3107.402307521468
 20
-383.7366929026279
 30
0.0
 11
-3107.402307521468
 21
-361.1366929026278
 31
0.0
  0
LINE
  5
88
  8
1
  6
CONTINUOUS
 62
     7
 10
-3107.102307521468
 20
-361.1366929026278
 30
0.0
 11
-3107.402307521468
 21
-361.1366929026278
 31
0.0
  0
LINE
  5
89
  8
1
  6
CONTINUOUS
 62
     9
 10
-3117.802307521468
 20
-411.1366929026278
 30
0.0
 11
-3117.802307521468
 21
-361.1366929026278
 31
0.0
  0
LINE
  5
8A
  8
1
  6
CONTINUOUS
 62
     7
 10
-3120.102307521468
 20
-411.1366929026278
 30
0.0
 11
-3117.802307521468
 21
-411.1366929026278
 31
0.0
  0
LINE
  5
8B
  8
1
  6
CONTINUOUS
 62
     7
 10
-3120.102307521468
 20
-411.1366929026278
 30
0.0
 11
-3120.102307521468
 21
-384.136692902628
 31
0.0
  0
LINE
  5
8C
  8
1
  6
CONTINUOUS
 62
     7
 10
-3120.102307521468
 20
-361.1366929026278
 30
0.0
 11
-3117.802307521468
 21
-361.1366929026278
 31
0.0
  0
LINE
  5
8D
  8
1
  6
CONTINUOUS
 62
     9
 10
-3062.402307521468
 20
-411.1366929026278
 30
0.0
 11
-3062.402307521468
 21
-361.1366929026278
 31
0.0
  0
ARC
  5
8E
  8
1
  6
CONTINUOUS
 62
     7
 10
-3105.602307521468
 20
-384.1366929026278
 30
0.0
 40
2.000000000000002
 50
180.0
 51
269.9999999999998
  0
LINE
  5
8F
  8
1
  6
CONTINUOUS
 62
     7
 10
-3078.102307521468
 20
-386.1366929026278
 30
0.0
 11
-3105.602307521468
 21
-386.1366929026278
 31
0.0
  0
ARC
  5
90
  8
1
  6
CONTINUOUS
 62
     7
 10
-3078.102307521468
 20
-382.1366929026278
 30
0.0
 40
4.000000000000004
 50
270.0
 51
0.0000000000001705
  0
LINE
  5
91
  8
1
  6
CONTINUOUS
 62
     7
 10
-3074.102307521468
 20
-369.1366929026278
 30
0.0
 11
-3074.102307521468
 21
-382.1366929026278
 31
0.0
  0
LINE
  5
92
  8
1
  6
CONTINUOUS
 62
     7
 10
-3071.832293649681
 20
-363.0833225778626
 30
0.0
 11
-3074.102307521468
 21
-369.1366929026278
 31
0.0
  0
ARC
  5
93
  8
1
  6
CONTINUOUS
 62
     7
 10
-3069.023306116973
 20
-364.1366929026278
 30
0.0
 40
3.000000000000003
 50
90.0
 51
159.4439547804161
  0
LINE
  5
94
  8
1
  6
CONTINUOUS
 62
     7
 10
-3069.023306116973
 20
-361.1366929026278
 30
0.0
 11
-3062.402307521468
 21
-361.1366929026278
 31
0.0
  0
LINE
  5
95
  8
1
  6
CONTINUOUS
 62
     7
 10
-3101.102307521468
 20
-404.6366929026278
 30
0.0
 11
-3114.102307521468
 21
-404.6366929026278
 31
0.0
  0
ARC
  5
96
  8
1
  6
CONTINUOUS
 62
     7
 10
-3114.102307521468
 20
-406.1366929026278
 30
0.0
 40
1.500000000000001
 50
90.0
 51
180.0
  0
ARC
  5
97
  8
1
  6
CONTINUOUS
 62
     7
 10
-3114.102307521468
 20
-406.1366929026278
 30
0.0
 40
1.500000000000057
 50
179.9999999999995
 51
270.0
  0
LINE
  5
98
  8
1
  6
CONTINUOUS
 62
     7
 10
-3114.102307521468
 20
-407.6366929026278
 30
0.0
 11
-3101.102307521468
 21
-407.6366929026278
 31
0.0
  0
ARC
  5
99
  8
1
  6
CONTINUOUS
 62
     7
 10
-3101.102307521468
 20
-406.1366929026278
 30
0.0
 40
1.500000000000001
 50
270.0
 51
0.0
  0
ARC
  5
9A
  8
1
  6
CONTINUOUS
 62
     7
 10
-3101.102307521468
 20
-406.1366929026278
 30
0.0
 40
1.500000000000057
 50
359.9999999999995
 51
90.0
  0
LINE
  5
9B
  8
1
  6
CONTINUOUS
 62
     7
 10
-3117.802307521468
 20
-411.1366929026278
 30
0.0
 11
-3062.402307521468
 21
-411.1366929026278
 31
0.0
  0
ARC
  5
9C
  8
1
  6
CONTINUOUS
 62
     7
 10
-3107.102307521468
 20
-384.1366929026278
 30
0.0
 40
0.500000000000167
 50
126.8698976458529
 51
179.9999999999992
  0
LINE
  5
9D
  8
1
  6
CONTINUOUS
 62
     7
 10
-3117.802307521468
 20
-361.1366929026278
 30
0.0
 11
-3107.402307521468
 21
-361.1366929026278
 31
0.0
  0
LINE
  5
9E
  8
1
  6
CONTINUOUS
 62
     7
 10
-3060.102307521468
 20
-411.1366929026278
 30
0.0
 11
-3060.102307521468
 21
-361.1366929026278
 31
0.0
  0
LINE
  5
9F
  8
1
  6
CONTINUOUS
 62
     7
 10
-3062.402307521468
 20
-361.1366929026278
 30
0.0
 11
-3060.102307521468
 21
-361.1366929026278
 31
0.0
  0
LINE
  5
A0
  8
1
  6
CONTINUOUS
 62
     7
 10
-3062.402307521468
 20
-411.1366929026278
 30
0.0
 11
-3060.102307521468
 21
-411.1366929026278
 31
0.0
  0
LINE
  5
A1
  8
1
  6
CONTINUOUS
 62
     9
 10
-3115.502307521468
 20
-406.6752093833413
 30
0.0
 11
-3115.502307521468
 21
-405.5981764219144
 31
0.0
  0
LINE
  5
A2
  8
1
  6
CONTINUOUS
 62
     7
 10
-3042.802307521468
 20
-374.1366929026278
 30
0.0
 11
-3048.102307521468
 21
-374.1366929026278
 31
0.0
  0
LINE
  5
A3
  8
1
  6
CONTINUOUS
 62
     7
 10
-3042.802307521468
 20
-380.6366929026278
 30
0.0
 11
-3042.802307521468
 21
-374.1366929026278
 31
0.0
  0
LINE
  5
A4
  8
1
  6
CONTINUOUS
 62
     7
 10
-3042.802307521468
 20
-380.6366929026278
 30
0.0
 11
-3048.102307521468
 21
-380.6366929026278
 31
0.0
  0
LINE
  5
A5
  8
1
  6
CONTINUOUS
 62
     7
 10
-3048.102307521468
 20
-380.6366929026278
 30
0.0
 11
-3048.102307521468
 21
-374.1366929026278
 31
0.0
  0
LINE
  5
A6
  8
1
  6
CONTINUOUS
 62
     7
 10
-3042.802307521468
 20
-367.6366929026278
 30
0.0
 11
-3048.102307521468
 21
-367.6366929026278
 31
0.0
  0
LINE
  5
A7
  8
1
  6
CONTINUOUS
 62
     7
 10
-3042.802307521468
 20
-374.1366929026278
 30
0.0
 11
-3042.802307521468
 21
-367.6366929026278
 31
0.0
  0
LINE
  5
A8
  8
1
  6
CONTINUOUS
 62
     7
 10
-3048.102307521468
 20
-374.1366929026278
 30
0.0
 11
-3048.102307521468
 21
-367.6366929026278
 31
0.0
  0
LINE
  5
A9
  8
1
  6
CONTINUOUS
 62
     9
 10
-3052.102307521468
 20
-370.1366929026278
 30
0.0
 11
-3052.102307521468
 21
-378.1366929026278
 31
0.0
  0
LINE
  5
AA
  8
1
  6
CONTINUOUS
 62
     7
 10
-3092.477307521468
 20
-378.1366929026278
 30
0.0
 11
-3092.477307521468
 21
-370.1366929026278
 31
0.0
  0
LINE
  5
AB
  8
1
  6
CONTINUOUS
 62
     7
 10
-3093.102307521468
 20
-370.7616929026278
 30
0.0
 11
-3093.102307521468
 21
-377.5116929026278
 31
0.0
  0
LINE
  5
AC
  8
1
  6
CONTINUOUS
 62
     7
 10
-3137.952307521467
 20
-373.6366929026278
 30
0.0
 11
-3137.952307521467
 21
-369.6366929026278
 31
0.0
  0
LINE
  5
AD
  8
1
  6
CONTINUOUS
 62
     7
 10
-3137.602307521468
 20
-369.9866929026279
 30
0.0
 11
-3137.602307521468
 21
-373.2866929026278
 31
0.0
  0
LINE
  5
AE
  8
1
  6
CONTINUOUS
 62
     9
 10
-3144.602307521468
 20
-374.7499415566797
 30
0.0
 11
-3146.202307521468
 21
-374.7499415566797
 31
0.0
  0
LINE
  5
AF
  8
1
  6
CONTINUOUS
 62
     7
 10
-3144.602307521468
 20
-374.7499415566797
 30
0.0
 11
-3144.602307521468
 21
-379.0800685756019
 31
0.0
  0
LINE
  5
B0
  8
1
  6
CONTINUOUS
 62
     9
 10
-3144.602307521468
 20
-379.0800685756019
 30
0.0
 11
-3146.202307521468
 21
-379.0800685756019
 31
0.0
  0
LINE
  5
B1
  8
1
  6
CONTINUOUS
 62
     7
 10
-3146.202307521468
 20
-378.6366929026278
 30
0.0
 11
-3146.202307521468
 21
-379.0800685756019
 31
0.0
  0
LINE
  5
B2
  8
1
  6
CONTINUOUS
 62
     9
 10
-3144.602307521468
 20
-368.523444248576
 30
0.0
 11
-3146.202307521468
 21
-368.523444248576
 31
0.0
  0
LINE
  5
B3
  8
1
  6
CONTINUOUS
 62
     7
 10
-3144.602307521468
 20
-368.523444248576
 30
0.0
 11
-3144.602307521468
 21
-374.7499415566797
 31
0.0
  0
LINE
  5
B4
  8
1
  6
CONTINUOUS
 62
     9
 10
-3144.602307521468
 20
-364.1933172296538
 30
0.0
 11
-3146.202307521468
 21
-364.1933172296538
 31
0.0
  0
LINE
  5
B5
  8
1
  6
CONTINUOUS
 62
     7
 10
-3146.202307521468
 20
-364.1933172296538
 30
0.0
 11
-3146.202307521468
 21
-364.6366929026278
 31
0.0
  0
LINE
  5
B6
  8
1
  6
CONTINUOUS
 62
     7
 10
-3144.602307521468
 20
-364.1933172296538
 30
0.0
 11
-3144.602307521468
 21
-368.523444248576
 31
0.0
  0
LINE
  5
B7
  8
1
  6
CONTINUOUS
 62
     9
 10
-3144.602307521468
 20
-359.8065658837057
 30
0.0
 11
-3146.202307521468
 21
-359.8065658837057
 31
0.0
  0
LINE
  5
B8
  8
1
  6
CONTINUOUS
 62
     7
 10
-3146.202307521468
 20
-359.8065658837057
 30
0.0
 11
-3146.202307521468
 21
-364.1933172296538
 31
0.0
  0
LINE
  5
B9
  8
1
  6
CONTINUOUS
 62
     7
 10
-3144.602307521468
 20
-359.8065658837057
 30
0.0
 11
-3144.602307521468
 21
-364.1933172296538
 31
0.0
  0
LINE
  5
BA
  8
1
  6
CONTINUOUS
 62
     9
 10
-3144.602307521468
 20
-383.46681992155
 30
0.0
 11
-3146.202307521468
 21
-383.46681992155
 31
0.0
  0
LINE
  5
BB
  8
1
  6
CONTINUOUS
 62
     7
 10
-3146.202307521468
 20
-379.0800685756019
 30
0.0
 11
-3146.202307521468
 21
-383.46681992155
 31
0.0
  0
LINE
  5
BC
  8
1
  6
CONTINUOUS
 62
     7
 10
-3144.602307521468
 20
-379.0800685756019
 30
0.0
 11
-3144.602307521468
 21
-383.46681992155
 31
0.0
  0
LINE
  5
BD
  8
1
  6
CONTINUOUS
 62
     9
 10
-3144.102307521468
 20
-369.0366929026279
 30
0.0
 11
-3144.102307521468
 21
-374.2366929026279
 31
0.0
  0
LINE
  5
BE
  8
1
  6
CONTINUOUS
 62
     7
 10
-3143.102307521468
 20
-369.0366929026279
 30
0.0
 11
-3143.102307521468
 21
-374.2366929026279
 31
0.0
  0
LINE
  5
BF
  8
1
  6
CONTINUOUS
 62
     7
 10
-3144.602307521468
 20
-359.1406178617086
 30
0.0
 11
-3144.592474804511
 21
-359.1366929026278
 31
0.0
  0
LINE
  5
C0
  8
1
  6
CONTINUOUS
 62
     7
 10
-3146.196854198658
 20
-359.1366929026278
 30
0.0
 11
-3146.202307521468
 21
-359.1406178617086
 31
0.0
  0
LINE
  5
C1
  8
1
  6
CONTINUOUS
 62
     7
 10
-3144.592474804511
 20
-359.1366929026278
 30
0.0
 11
-3146.196854198658
 21
-359.1366929026278
 31
0.0
  0
LINE
  5
C2
  8
1
  6
CONTINUOUS
 62
     7
 10
-3146.202307521468
 20
-359.1406178617086
 30
0.0
 11
-3146.202307521468
 21
-359.8065658837057
 31
0.0
  0
LINE
  5
C3
  8
1
  6
CONTINUOUS
 62
     7
 10
-3144.602307521468
 20
-359.1406178617086
 30
0.0
 11
-3144.602307521468
 21
-359.8065658837057
 31
0.0
  0
LINE
  5
C4
  8
1
  6
CONTINUOUS
 62
     7
 10
-3144.592474804511
 20
-384.1366929026278
 30
0.0
 11
-3144.602307521468
 21
-384.132767943547
 31
0.0
  0
LINE
  5
C5
  8
1
  6
CONTINUOUS
 62
     7
 10
-3144.592474804511
 20
-384.1366929026278
 30
0.0
 11
-3146.196854198658
 21
-384.1366929026278
 31
0.0
  0
LINE
  5
C6
  8
1
  6
CONTINUOUS
 62
     7
 10
-3146.202307521468
 20
-384.132767943547
 30
0.0
 11
-3146.196854198658
 21
-384.1366929026278
 31
0.0
  0
LINE
  5
C7
  8
1
  6
CONTINUOUS
 62
     7
 10
-3146.202307521468
 20
-383.46681992155
 30
0.0
 11
-3146.202307521468
 21
-384.132767943547
 31
0.0
  0
LINE
  5
C8
  8
1
  6
CONTINUOUS
 62
     7
 10
-3144.602307521468
 20
-383.46681992155
 30
0.0
 11
-3144.602307521468
 21
-384.132767943547
 31
0.0
  0
LINE
  5
C9
  8
1
  6
CONTINUOUS
 62
     7
 10
-3142.602307521468
 20
-359.1366929026278
 30
0.0
 11
-3144.592474804511
 21
-359.1366929026278
 31
0.0
  0
LINE
  5
CA
  8
1
  6
CONTINUOUS
 62
     9
 10
-3142.602307521468
 20
-359.1366929026278
 30
0.0
 11
-3142.602307521468
 21
-369.6366929026278
 31
0.0
  0
LINE
  5
CB
  8
1
  6
CONTINUOUS
 62
     9
 10
-3142.602307521468
 20
-373.6366929026278
 30
0.0
 11
-3142.602307521468
 21
-384.1366929026278
 31
0.0
  0
LINE
  5
CC
  8
1
  6
CONTINUOUS
 62
     7
 10
-3144.592474804511
 20
-384.1366929026278
 30
0.0
 11
-3142.602307521468
 21
-384.1366929026278
 31
0.0
  0
LINE
  5
CD
  8
1
  6
CONTINUOUS
 62
     9
 10
-3122.702307521468
 20
-384.1366929026278
 30
0.0
 11
-3122.702307521468
 21
-359.1366929026278
 31
0.0
  0
LINE
  5
CE
  8
1
  6
CONTINUOUS
 62
     7
 10
-3142.602307521468
 20
-359.1366929026278
 30
0.0
 11
-3122.702307521468
 21
-359.1366929026278
 31
0.0
  0
LINE
  5
CF
  8
1
  6
CONTINUOUS
 62
     7
 10
-3142.602307521468
 20
-384.1366929026278
 30
0.0
 11
-3122.702307521468
 21
-384.1366929026278
 31
0.0
  0
LINE
  5
D0
  8
1
  6
CONTINUOUS
 62
     7
 10
-3120.102307521468
 20
-359.1366929026279
 30
0.0
 11
-3120.102307521468
 21
-384.136692902628
 31
0.0
  0
LINE
  5
D1
  8
1
  6
CONTINUOUS
 62
     7
 10
-3122.702307521468
 20
-359.1366929026278
 30
0.0
 11
-3120.102307521468
 21
-359.1366929026278
 31
0.0
  0
LINE
  5
D2
  8
1
  6
CONTINUOUS
 62
     7
 10
-3120.102307521468
 20
-384.136692902628
 30
0.0
 11
-3122.702307521468
 21
-384.1366929026278
 31
0.0
  0
LINE
  5
D3
  8
1
  6
CONTINUOUS
 62
     7
 10
-3152.802307521468
 20
-296.6366929026278
 30
0.0
 11
-3152.802307521468
 21
-446.6366929026278
 31
0.0
  0
LINE
  5
D4
  8
1
  6
CONTINUOUS
 62
     7
 10
-3151.202307521468
 20
-296.6366929026278
 30
0.0
 11
-3151.202307521468
 21
-446.6366929026278
 31
0.0
  0
POLYLINE
  5
D5
  8
1
  6
CONTINUOUS
 62
     7
 66
     1
 10
0.0
 20
0.0
 30
0.0
  0
VERTEX
  5
30D
  8
1
  6
CONTINUOUS
 62
     7
 10
-3151.202307521468
 20
-364.3800399213471
 30
0.0
  0
VERTEX
  5
30E
  8
1
  6
CONTINUOUS
 62
     7
 10
-3151.20179266002
 20
-364.401100926721
 30
0.0
  0
VERTEX
  5
30F
  8
1
  6
CONTINUOUS
 62
     7
 10
-3151.200210970941
 20
-364.421347140716
 30
0.0
  0
VERTEX
  5
310
  8
1
  6
CONTINUOUS
 62
     7
 10
-3151.197492815846
 20
-364.4408356088741
 30
0.0
  0
VERTEX
  5
311
  8
1
  6
CONTINUOUS
 62
     7
 10
-3151.193589555452
 20
-364.4594425087506
 30
0.0
  0
VERTEX
  5
312
  8
1
  6
CONTINUOUS
 62
     7
 10
-3151.188412530461
 20
-364.4772534933491
 30
0.0
  0
VERTEX
  5
313
  8
1
  6
CONTINUOUS
 62
     7
 10
-3151.181935136394
 20
-364.4941178519873
 30
0.0
  0
VERTEX
  5
314
  8
1
  6
CONTINUOUS
 62
     7
 10
-3151.174073895236
 20
-364.5100845708733
 30
0.0
  0
VERTEX
  5
315
  8
1
  6
CONTINUOUS
 62
     7
 10
-3151.164816375871
 20
-364.5250542011012
 30
0.0
  0
VERTEX
  5
316
  8
1
  6
CONTINUOUS
 62
     7
 10
-3151.154447663729
 20
-364.5386358771659
 30
0.0
  0
VERTEX
  5
317
  8
1
  6
CONTINUOUS
 62
     7
 10
-3151.142703873481
 20
-364.5512528483918
 30
0.0
  0
VERTEX
  5
318
  8
1
  6
CONTINUOUS
 62
     7
 10
-3151.129488233722
 20
-364.5629654722682
 30
0.0
  0
VERTEX
  5
319
  8
1
  6
CONTINUOUS
 62
     7
 10
-3151.114851482333
 20
-364.5737022707328
 30
0.0
  0
VERTEX
  5
31A
  8
1
  6
CONTINUOUS
 62
     7
 10
-3151.098653265723
 20
-364.5835469960817
 30
0.0
  0
VERTEX
  5
31B
  8
1
  6
CONTINUOUS
 62
     7
 10
-3151.081007863807
 20
-364.5924244696967
 30
0.0
  0
VERTEX
  5
31C
  8
1
  6
CONTINUOUS
 62
     7
 10
-3151.061812178698
 20
-364.6003986628674
 30
0.0
  0
VERTEX
  5
31D
  8
1
  6
CONTINUOUS
 62
     7
 10
-3151.041177966345
 20
-364.6074449311586
 30
0.0
  0
VERTEX
  5
31E
  8
1
  6
CONTINUOUS
 62
     7
 10
-3151.02779113614
 20
-364.6113299567253
 30
0.0
  0
VERTEX
  5
31F
  8
1
  6
CONTINUOUS
 62
     7
 10
-3151.013882322143
 20
-364.6148846748283
 30
0.0
  0
VERTEX
  5
320
  8
1
  6
CONTINUOUS
 62
     7
 10
-3150.999561615968
 20
-364.6180977857606
 30
0.0
  0
VERTEX
  5
321
  8
1
  6
CONTINUOUS
 62
     7
 10
-3150.984753352012
 20
-364.6210039457699
 30
0.0
  0
VERTEX
  5
322
  8
1
  6
CONTINUOUS
 62
     7
 10
-3150.969421693924
 20
-364.6236221049697
 30
0.0
  0
VERTEX
  5
323
  8
1
  6
CONTINUOUS
 62
     7
 10
-3150.953619755584
 20
-364.6259559093758
 30
0.0
  0
VERTEX
  5
324
  8
1
  6
CONTINUOUS
 62
     7
 10
-3150.937215905552
 20
-364.6280347147402
 30
0.0
  0
VERTEX
  5
325
  8
1
  6
CONTINUOUS
 62
     7
 10
-3150.92035590188
 20
-364.6298508135943
 30
0.0
  0
VERTEX
  5
326
  8
1
  6
CONTINUOUS
 62
     7
 10
-3150.903001624031
 20
-364.6314219994549
 30
0.0
  0
VERTEX
  5
327
  8
1
  6
CONTINUOUS
 62
     7
 10
-3150.885212379364
 20
-364.632756975959
 30
0.0
  0
VERTEX
  5
328
  8
1
  6
CONTINUOUS
 62
     7
 10
-3150.866685064806
 20
-364.6338871627363
 30
0.0
  0
VERTEX
  5
329
  8
1
  6
CONTINUOUS
 62
     7
 10
-3150.847720010792
 20
-364.6348034186359
 30
0.0
  0
VERTEX
  5
32A
  8
1
  6
CONTINUOUS
 62
     7
 10
-3150.823337954589
 20
-364.6356727064025
 30
0.0
  0
VERTEX
  5
32B
  8
1
  6
CONTINUOUS
 62
     7
 10
-3150.798306914643
 20
-364.6362580812745
 30
0.0
  0
VERTEX
  5
32C
  8
1
  6
CONTINUOUS
 62
     7
 10
-3150.772596448155
 20
-364.636588994038
 30
0.0
  0
VERTEX
  5
32D
  8
1
  6
CONTINUOUS
 62
     7
 10
-3150.7462852866
 20
-364.6366929026278
 30
0.0
  0
SEQEND
  5
3C9
  8
1
  6
CONTINUOUS
 62
     7
  0
POLYLINE
  5
D6
  8
1
  6
CONTINUOUS
 62
     7
 66
     1
 10
0.0
 20
0.0
 30
0.0
  0
VERTEX
  5
32E
  8
1
  6
CONTINUOUS
 62
     7
 10
-3150.7462852866
 20
-378.6366929026278
 30
0.0
  0
VERTEX
  5
32F
  8
1
  6
CONTINUOUS
 62
     7
 10
-3150.77816521082
 20
-378.6368477068613
 30
0.0
  0
VERTEX
  5
330
  8
1
  6
CONTINUOUS
 62
     7
 10
-3150.809310492025
 20
-378.6373501686771
 30
0.0
  0
VERTEX
  5
331
  8
1
  6
CONTINUOUS
 62
     7
 10
-3150.839591984643
 20
-378.6382564760645
 30
0.0
  0
VERTEX
  5
332
  8
1
  6
CONTINUOUS
 62
     7
 10
-3150.869123266758
 20
-378.6396334155533
 30
0.0
  0
VERTEX
  5
333
  8
1
  6
CONTINUOUS
 62
     7
 10
-3150.897674180322
 20
-378.6415363474597
 30
0.0
  0
VERTEX
  5
334
  8
1
  6
CONTINUOUS
 62
     7
 10
-3150.925347191402
 20
-378.6440411848714
 30
0.0
  0
VERTEX
  5
335
  8
1
  6
CONTINUOUS
 62
     7
 10
-3150.951921627547
 20
-378.6471992043123
 30
0.0
  0
VERTEX
  5
336
  8
1
  6
CONTINUOUS
 62
     7
 10
-3150.977404320157
 20
-378.651080408014
 30
0.0
  0
VERTEX
  5
337
  8
1
  6
CONTINUOUS
 62
     7
 10
-3151.000995803728
 20
-378.6555910248839
 30
0.0
  0
VERTEX
  5
338
  8
1
  6
CONTINUOUS
 62
     7
 10
-3151.023463638795
 20
-378.6609003747087
 30
0.0
  0
VERTEX
  5
339
  8
1
  6
CONTINUOUS
 62
     7
 10
-3151.044698233545
 20
-378.6670465154278
 30
0.0
  0
VERTEX
  5
33A
  8
1
  6
CONTINUOUS
 62
     7
 10
-3151.064791503628
 20
-378.6741263811069
 30
0.0
  0
VERTEX
  5
33B
  8
1
  6
CONTINUOUS
 62
     7
 10
-3151.08356004927
 20
-378.6821443350881
 30
0.0
  0
VERTEX
  5
33C
  8
1
  6
CONTINUOUS
 62
     7
 10
-3151.101086573975
 20
-378.6912029102587
 30
0.0
  0
VERTEX
  5
33D
  8
1
  6
CONTINUOUS
 62
     7
 10
-3151.11721416328
 20
-378.7012845571203
 30
0.0
  0
VERTEX
  5
33E
  8
1
  6
CONTINUOUS
 62
     7
 10
-3151.131962992969
 20
-378.7124491915194
 30
0.0
  0
VERTEX
  5
33F
  8
1
  6
CONTINUOUS
 62
     7
 10
-3151.14031812071
 20
-378.7198477534953
 30
0.0
  0
VERTEX
  5
340
  8
1
  6
CONTINUOUS
 62
     7
 10
-3151.148118752897
 20
-378.7276469544587
 30
0.0
  0
VERTEX
  5
341
  8
1
  6
CONTINUOUS
 62
     7
 10
-3151.1553883855
 20
-378.7358745895625
 30
0.0
  0
VERTEX
  5
342
  8
1
  6
CONTINUOUS
 62
     7
 10
-3151.162105023424
 20
-378.744506700223
 30
0.0
  0
VERTEX
  5
343
  8
1
  6
CONTINUOUS
 62
     7
 10
-3151.168282419854
 20
-378.7535583196507
 30
0.0
  0
VERTEX
  5
344
  8
1
  6
CONTINUOUS
 62
     7
 10
-3151.173914420831
 20
-378.7630133915346
 30
0.0
  0
VERTEX
  5
345
  8
1
  6
CONTINUOUS
 62
     7
 10
-3151.179021604457
 20
-378.7729000033763
 30
0.0
  0
VERTEX
  5
346
  8
1
  6
CONTINUOUS
 62
     7
 10
-3151.18359385611
 20
-378.7831867011846
 30
0.0
  0
VERTEX
  5
347
  8
1
  6
CONTINUOUS
 62
     7
 10
-3151.187689737299
 20
-378.7940149357055
 30
0.0
  0
VERTEX
  5
348
  8
1
  6
CONTINUOUS
 62
     7
 10
-3151.19125451868
 20
-378.8052449340861
 30
0.0
  0
VERTEX
  5
349
  8
1
  6
CONTINUOUS
 62
     7
 10
-3151.194306432429
 20
-378.816905220366
 30
0.0
  0
VERTEX
  5
34A
  8
1
  6
CONTINUOUS
 62
     7
 10
-3151.196846151898
 20
-378.8289578103673
 30
0.0
  0
VERTEX
  5
34B
  8
1
  6
CONTINUOUS
 62
     7
 10
-3151.199269628733
 20
-378.8441935046243
 30
0.0
  0
VERTEX
  5
34C
  8
1
  6
CONTINUOUS
 62
     7
 10
-3151.200971289479
 20
-378.8599908499549
 30
0.0
  0
VERTEX
  5
34D
  8
1
  6
CONTINUOUS
 62
     7
 10
-3151.201977792109
 20
-378.8763995070085
 30
0.0
  0
VERTEX
  5
34E
  8
1
  6
CONTINUOUS
 62
     7
 10
-3151.202307521468
 20
-378.8933458839085
 30
0.0
  0
SEQEND
  5
3CA
  8
1
  6
CONTINUOUS
 62
     7
  0
LINE
  5
D7
  8
1
  6
CONTINUOUS
 62
     7
 10
-3150.375955699135
 20
-364.6366929026278
 30
0.0
 11
-3150.7462852866
 21
-364.6366929026278
 31
0.0
  0
LINE
  5
D8
  8
1
  6
CONTINUOUS
 62
     9
 10
-3150.375955699135
 20
-364.6366929026278
 30
0.0
 11
-3150.375955699135
 21
-378.6366929026278
 31
0.0
  0
LINE
  5
D9
  8
1
  6
CONTINUOUS
 62
     7
 10
-3150.7462852866
 20
-378.6366929026278
 30
0.0
 11
-3150.375955699135
 21
-378.6366929026278
 31
0.0
  0
LINE
  5
DA
  8
1
  6
CONTINUOUS
 62
     9
 10
-3149.177174081867
 20
-378.6366929026278
 30
0.0
 11
-3149.177174081867
 21
-364.6366929026278
 31
0.0
  0
LINE
  5
DB
  8
1
  6
CONTINUOUS
 62
     7
 10
-3150.375955699135
 20
-378.6366929026278
 30
0.0
 11
-3149.177174081867
 21
-378.6366929026278
 31
0.0
  0
LINE
  5
DC
  8
1
  6
CONTINUOUS
 62
     7
 10
-3150.375955699135
 20
-364.6366929026278
 30
0.0
 11
-3149.177174081867
 21
-364.6366929026278
 31
0.0
  0
LINE
  5
DD
  8
1
  6
CONTINUOUS
 62
     7
 10
-3146.202307521468
 20
-364.6366929026278
 30
0.0
 11
-3146.202307521468
 21
-378.6366929026278
 31
0.0
  0
LINE
  5
DE
  8
1
  6
CONTINUOUS
 62
     7
 10
-3146.202307521468
 20
-378.6366929026278
 30
0.0
 11
-3149.177174081867
 21
-378.6366929026278
 31
0.0
  0
LINE
  5
DF
  8
1
  6
CONTINUOUS
 62
     7
 10
-3149.177174081867
 20
-364.6366929026278
 30
0.0
 11
-3146.202307521468
 21
-364.6366929026278
 31
0.0
  0
LINE
  5
E0
  8
1
  6
CONTINUOUS
 62
     7
 10
-3092.477307521468
 20
-378.1366929026278
 30
0.0
 11
-3074.102307521468
 21
-378.1366929026278
 31
0.0
  0
LINE
  5
E1
  8
1
  6
CONTINUOUS
 62
     7
 10
-3060.102307521468
 20
-378.1366929026278
 30
0.0
 11
-3052.102307521468
 21
-378.1366929026278
 31
0.0
  0
LINE
  5
E2
  8
1
  6
CONTINUOUS
 62
     7
 10
-3052.102307521468
 20
-370.1366929026278
 30
0.0
 11
-3060.102307521468
 21
-370.1366929026278
 31
0.0
  0
LINE
  5
E3
  8
1
  6
CONTINUOUS
 62
     7
 10
-3074.102307521468
 20
-370.1366929026278
 30
0.0
 11
-3092.477307521468
 21
-370.1366929026278
 31
0.0
  0
LINE
  5
E4
  8
1
  6
CONTINUOUS
 62
     7
 10
-3052.102307521468
 20
-378.1366929026278
 30
0.0
 11
-3048.102307521468
 21
-378.1366929026278
 31
0.0
  0
LINE
  5
E5
  8
1
  6
CONTINUOUS
 62
     7
 10
-3048.102307521468
 20
-370.1366929026278
 30
0.0
 11
-3052.102307521468
 21
-370.1366929026278
 31
0.0
  0
LINE
  5
E6
  8
1
  6
CONTINUOUS
 62
     7
 10
-3092.477307521468
 20
-370.1366929026278
 30
0.0
 11
-3093.102307521468
 21
-370.7616929026278
 31
0.0
  0
LINE
  5
E7
  8
1
  6
CONTINUOUS
 62
     7
 10
-3093.102307521468
 20
-377.5116929026278
 30
0.0
 11
-3092.477307521468
 21
-378.1366929026278
 31
0.0
  0
LINE
  5
E8
  8
1
  6
CONTINUOUS
 62
     7
 10
-3137.952307521467
 20
-369.6366929026278
 30
0.0
 11
-3143.102307521468
 21
-369.6366929026278
 31
0.0
  0
LINE
  5
E9
  8
1
  6
CONTINUOUS
 62
     7
 10
-3143.102307521468
 20
-373.6366929026278
 30
0.0
 11
-3137.952307521467
 21
-373.6366929026278
 31
0.0
  0
LINE
  5
EA
  8
1
  6
CONTINUOUS
 62
     7
 10
-3137.952307521467
 20
-373.6366929026278
 30
0.0
 11
-3137.602307521468
 21
-373.2866929026278
 31
0.0
  0
LINE
  5
EB
  8
1
  6
CONTINUOUS
 62
     7
 10
-3137.602307521468
 20
-369.9866929026279
 30
0.0
 11
-3137.952307521467
 21
-369.6366929026278
 31
0.0
  0
ARC
  5
EC
  8
1
  6
CONTINUOUS
 62
     7
 10
-3144.102307521468
 20
-368.5366929026279
 30
0.0
 40
0.5000000000000004
 50
179.9999999999999
 51
269.9999999999991
  0
ARC
  5
ED
  8
1
  6
CONTINUOUS
 62
     7
 10
-3144.102307521468
 20
-374.7366929026279
 30
0.0
 40
0.4999999999997229
 50
90.0000000000009
 51
180.0000000000001
  0
LINE
  5
EE
  8
1
  6
CONTINUOUS
 62
     7
 10
-3143.102307521468
 20
-369.0366929026279
 30
0.0
 11
-3144.102307521468
 21
-369.0366929026279
 31
0.0
  0
LINE
  5
EF
  8
1
  6
CONTINUOUS
 62
     7
 10
-3144.102307521468
 20
-374.2366929026279
 30
0.0
 11
-3143.102307521468
 21
-374.2366929026279
 31
0.0
  0
LINE
  5
F0
  8
1
  6
CONTINUOUS
 62
     7
 10
-3151.202307521468
 20
-296.6366929026278
 30
0.0
 11
-3152.802307521468
 21
-296.6366929026278
 31
0.0
  0
LINE
  5
F1
  8
1
  6
CONTINUOUS
 62
     7
 10
-3152.802307521468
 20
-446.6366929026278
 30
0.0
 11
-3151.202307521468
 21
-446.6366929026278
 31
0.0
  0
ENDBLK
  8
0
  0
BLOCK
  8
0
  2
D_FRAME_VIEW_5612
 70
     0
 10
0.0
 20
0.0
 30
0.0
  0
LINE
  5
F7
  8
1
  6
CONTINUOUS
 62
     7
 10
-3257.802307521468
 20
-380.8742972096618
 30
0.0
 11
-3249.802307521468
 21
-376.2554950561449
 31
0.0
  0
LINE
  5
F8
  8
1
  6
CONTINUOUS
 62
     7
 10
-3249.802307521468
 20
-376.2554950561449
 30
0.0
 11
-3249.802307521468
 21
-367.0178907491108
 31
0.0
  0
LINE
  5
F9
  8
1
  6
CONTINUOUS
 62
     7
 10
-3249.802307521468
 20
-367.0178907491108
 30
0.0
 11
-3257.802307521468
 21
-362.3990885955938
 31
0.0
  0
LINE
  5
FA
  8
1
  6
CONTINUOUS
 62
     7
 10
-3265.802307521468
 20
-376.2554950561449
 30
0.0
 11
-3257.802307521468
 21
-380.8742972096618
 31
0.0
  0
LINE
  5
FB
  8
1
  6
CONTINUOUS
 62
     7
 10
-3265.802307521468
 20
-367.0178907491108
 30
0.0
 11
-3265.802307521468
 21
-376.2554950561449
 31
0.0
  0
LINE
  5
FC
  8
1
  6
CONTINUOUS
 62
     7
 10
-3257.802307521468
 20
-362.3990885955938
 30
0.0
 11
-3265.802307521468
 21
-367.0178907491108
 31
0.0
  0
LINE
  5
FD
  8
1
  6
CONTINUOUS
 62
     7
 10
-3266.049634361118
 20
-371.8466929026278
 30
0.0
 11
-3265.802307521468
 21
-371.8466929026278
 31
0.0
  0
LINE
  5
FE
  8
1
  6
CONTINUOUS
 62
     7
 10
-3265.802307521468
 20
-372.2366929026279
 30
0.0
 11
-3266.03046041261
 21
-372.2366929026279
 31
0.0
  0
ARC
  5
FF
  8
1
  6
CONTINUOUS
 62
     7
 10
-3257.802307521468
 20
-371.6366929026278
 30
0.0
 40
8.25
 50
181.4585955651436
 51
184.1706479118617
  0
ARC
  5
100
  8
1
  6
CONTINUOUS
 62
     7
 10
-3257.802307521468
 20
-371.6366929026278
 30
0.0
 40
8.25
 50
184.1706479118616
 51
194.1411102339318
  0
ARC
  5
101
  8
1
  6
CONTINUOUS
 62
     7
 10
-3257.802307521468
 20
-371.6366929026278
 30
0.0
 40
8.25
 50
225.8856213477676
 51
254.075400556068
  0
ARC
  5
102
  8
1
  6
CONTINUOUS
 62
     7
 10
-3257.802307521468
 20
-371.6366929026278
 30
0.0
 40
8.25
 50
285.8856213477706
 51
314.1411102339317
  0
ARC
  5
103
  8
1
  6
CONTINUOUS
 62
     7
 10
-3257.802307521468
 20
-371.6366929026278
 30
0.0
 40
8.25
 50
345.8588897660683
 51
14.14111023393167
  0
ARC
  5
104
  8
1
  6
CONTINUOUS
 62
     7
 10
-3257.802307521468
 20
-371.6366929026278
 30
0.0
 40
8.25
 50
45.85888976606834
 51
74.07540055606519
  0
ARC
  5
105
  8
1
  6
CONTINUOUS
 62
     7
 10
-3257.802307521468
 20
-371.6366929026278
 30
0.0
 40
8.25
 50
105.8588897660684
 51
134.0754005560682
  0
ARC
  5
106
  8
1
  6
CONTINUOUS
 62
     7
 10
-3257.802307521468
 20
-371.6366929026278
 30
0.0
 40
8.25
 50
165.8588897660683
 51
181.250188936756
  0
LINE
  5
107
  8
1
  6
CONTINUOUS
 62
     7
 10
-3266.05034365136
 20
-371.8166929026278
 30
0.0
 11
-3265.802307521469
 21
-371.8166929026278
 31
0.0
  0
CIRCLE
  5
108
  8
1
  6
CONTINUOUS
 62
     7
 10
-3257.802307521468
 20
-371.6366929026278
 30
0.0
 40
10.0
  0
LINE
  5
109
  8
1
  6
CONTINUOUS
 62
     7
 10
-3247.802307521468
 20
-411.1366929026278
 30
0.0
 11
-3247.802307521468
 21
-401.6366929026278
 31
0.0
  0
LINE
  5
10A
  8
1
  6
CONTINUOUS
 62
     7
 10
-3247.802307521468
 20
-388.9572009783166
 30
0.0
 11
-3247.802307521468
 21
-384.136692902628
 31
0.0
  0
LINE
  5
10B
  8
1
  6
CONTINUOUS
 62
     7
 10
-3247.802307521468
 20
-373.6522573397024
 30
0.0
 11
-3247.802307521468
 21
-371.6366929026278
 31
0.0
  0
LINE
  5
10C
  8
1
  6
CONTINUOUS
 62
     7
 10
-3247.802307521468
 20
-371.6366929026278
 30
0.0
 11
-3247.802307521468
 21
-369.6211284655533
 31
0.0
  0
LINE
  5
10D
  8
1
  6
CONTINUOUS
 62
     7
 10
-3250.102307521468
 20
-411.1366929026278
 30
0.0
 11
-3247.802307521468
 21
-411.1366929026278
 31
0.0
  0
LINE
  5
10E
  8
1
  6
CONTINUOUS
 62
     9
 10
-3250.102307521468
 20
-411.1366929026278
 30
0.0
 11
-3250.102307521468
 21
-403.0121931027879
 31
0.0
  0
LINE
  5
10F
  8
1
  6
CONTINUOUS
 62
     9
 10
-3250.102307521468
 20
-389.7913990116522
 30
0.0
 11
-3250.102307521468
 21
-384.1366929026279
 31
0.0
  0
ARC
  5
110
  8
1
  6
CONTINUOUS
 62
     7
 10
-3259.302307521468
 20
-397.1366929026279
 30
0.0
 40
5.249999999999997
 50
257.9055522657595
 51
270.0
  0
LINE
  5
111
  8
1
  6
CONTINUOUS
 62
     7
 10
-3257.802307521468
 20
-402.3866929026278
 30
0.0
 11
-3259.302307521468
 21
-402.3866929026278
 31
0.0
  0
ARC
  5
112
  8
1
  6
CONTINUOUS
 62
     7
 10
-3257.802307521468
 20
-397.1366929026278
 30
0.0
 40
5.249999999999995
 50
270.0
 51
299.6854518309231
  0
LINE
  5
113
  8
1
  6
CONTINUOUS
 62
     7
 10
-3266.102307521468
 20
-411.1366929026278
 30
0.0
 11
-3260.762037238858
 21
-411.1366929026278
 31
0.0
  0
LINE
  5
114
  8
1
  6
CONTINUOUS
 62
     7
 10
-3254.842577804078
 20
-411.1366929026278
 30
0.0
 11
-3250.102307521468
 21
-411.1366929026278
 31
0.0
  0
LINE
  5
115
  8
1
  6
CONTINUOUS
 62
     7
 10
-3267.602307521468
 20
-409.6366929026278
 30
0.0
 11
-3267.602307521468
 21
-401.6366929026279
 31
0.0
  0
ARC
  5
116
  8
1
  6
CONTINUOUS
 62
     7
 10
-3266.102307521468
 20
-409.6366929026278
 30
0.0
 40
1.5
 50
180.0
 51
270.0
  0
LINE
  5
117
  8
1
  6
CONTINUOUS
 62
     7
 10
-3267.802307521468
 20
-411.1366929026278
 30
0.0
 11
-3267.802307521468
 21
-401.6366929026278
 31
0.0
  0
LINE
  5
118
  8
1
  6
CONTINUOUS
 62
     7
 10
-3267.802307521468
 20
-373.6522573397026
 30
0.0
 11
-3267.802307521468
 21
-371.6366929026278
 31
0.0
  0
LINE
  5
119
  8
1
  6
CONTINUOUS
 62
     7
 10
-3267.802307521468
 20
-371.6366929026278
 30
0.0
 11
-3267.802307521468
 21
-369.6211284655531
 31
0.0
  0
LINE
  5
11A
  8
1
  6
CONTINUOUS
 62
     7
 10
-3267.802307521468
 20
-411.1366929026278
 30
0.0
 11
-3266.102307521468
 21
-411.1366929026278
 31
0.0
  0
LINE
  5
11B
  8
1
  6
CONTINUOUS
 62
     9
 10
-3268.102307521468
 20
-373.7750333806622
 30
0.0
 11
-3268.102307521468
 21
-369.4983524245935
 31
0.0
  0
LINE
  5
11C
  8
1
  6
CONTINUOUS
 62
     9
 10
-3247.502307521468
 20
-369.4983524245936
 30
0.0
 11
-3247.502307521468
 21
-373.7750333806621
 31
0.0
  0
LINE
  5
11D
  8
1
  6
CONTINUOUS
 62
     7
 10
-3287.230506783823
 20
-373.7791214311911
 30
0.0
 11
-3287.230506783823
 21
-372.1366929026278
 31
0.0
  0
ARC
  5
11E
  8
1
  6
CONTINUOUS
 62
     7
 10
-3286.730506783823
 20
-371.6366929026278
 30
0.0
 40
2.200000000000001
 50
256.8634412130551
 51
283.1365587869449
  0
LINE
  5
11F
  8
1
  6
CONTINUOUS
 62
     7
 10
-3286.230506783822
 20
-372.1366929026279
 30
0.0
 11
-3286.230506783822
 21
-373.7791214311913
 31
0.0
  0
LINE
  5
120
  8
1
  6
CONTINUOUS
 62
     7
 10
-3284.588078255259
 20
-372.1366929026278
 30
0.0
 11
-3286.230506783822
 21
-372.1366929026278
 31
0.0
  0
ARC
  5
121
  8
1
  6
CONTINUOUS
 62
     7
 10
-3286.730506783823
 20
-371.6366929026278
 30
0.0
 40
2.200000000000001
 50
346.8634412130552
 51
13.13655878695687
  0
LINE
  5
122
  8
1
  6
CONTINUOUS
 62
     7
 10
-3286.230506783822
 20
-371.1366929026278
 30
0.0
 11
-3284.588078255259
 21
-371.1366929026278
 31
0.0
  0
LINE
  5
123
  8
1
  6
CONTINUOUS
 62
     7
 10
-3286.230506783822
 20
-369.4942643740645
 30
0.0
 11
-3286.230506783822
 21
-371.1366929026278
 31
0.0
  0
ARC
  5
124
  8
1
  6
CONTINUOUS
 62
     7
 10
-3286.730506783823
 20
-371.6366929026278
 30
0.0
 40
2.200000000000001
 50
76.86344121305513
 51
103.1365587869569
  0
LINE
  5
125
  8
1
  6
CONTINUOUS
 62
     7
 10
-3287.230506783823
 20
-371.1366929026277
 30
0.0
 11
-3287.230506783823
 21
-369.4942643740645
 31
0.0
  0
LINE
  5
126
  8
1
  6
CONTINUOUS
 62
     7
 10
-3288.872935312386
 20
-371.1366929026278
 30
0.0
 11
-3287.230506783823
 21
-371.1366929026278
 31
0.0
  0
ARC
  5
127
  8
1
  6
CONTINUOUS
 62
     7
 10
-3286.730506783823
 20
-371.6366929026278
 30
0.0
 40
2.200000000000001
 50
166.8634412130551
 51
193.1365587869569
  0
LINE
  5
128
  8
1
  6
CONTINUOUS
 62
     7
 10
-3287.230506783823
 20
-372.1366929026278
 30
0.0
 11
-3288.872935312386
 21
-372.1366929026278
 31
0.0
  0
CIRCLE
  5
129
  8
1
  6
CONTINUOUS
 62
     7
 10
-3286.730506783823
 20
-371.6366929026278
 30
0.0
 40
4.0
  0
ARC
  5
12A
  8
1
  6
CONTINUOUS
 62
     7
 10
-3286.730506783823
 20
-371.6366929026278
 30
0.0
 40
1.21654992179303
 50
155.7324355160329
 51
204.2675644839671
  0
ARC
  5
12B
  8
1
  6
CONTINUOUS
 62
     7
 10
-3286.730506783823
 20
-371.6366929026278
 30
0.0
 40
1.216549921793029
 50
245.7324355160328
 51
294.2675644839671
  0
ARC
  5
12C
  8
1
  6
CONTINUOUS
 62
     7
 10
-3286.730506783823
 20
-371.6366929026278
 30
0.0
 40
1.216549921793029
 50
65.73243551603288
 51
114.2675644839671
  0
ARC
  5
12D
  8
1
  6
CONTINUOUS
 62
     7
 10
-3286.730506783823
 20
-371.6366929026278
 30
0.0
 40
1.21654992179303
 50
335.7324355160329
 51
24.26756448396713
  0
LINE
  5
12E
  8
1
  6
CONTINUOUS
 62
     7
 10
-3229.374108259114
 20
-373.7791214311907
 30
0.0
 11
-3229.374108259114
 21
-372.1366929026278
 31
0.0
  0
ARC
  5
12F
  8
1
  6
CONTINUOUS
 62
     7
 10
-3228.874108259113
 20
-371.6366929026278
 30
0.0
 40
2.200000000000001
 50
256.8634412130551
 51
283.1365587869449
  0
LINE
  5
130
  8
1
  6
CONTINUOUS
 62
     7
 10
-3228.374108259114
 20
-372.1366929026278
 30
0.0
 11
-3228.374108259114
 21
-373.7791214311907
 31
0.0
  0
LINE
  5
131
  8
1
  6
CONTINUOUS
 62
     7
 10
-3226.73167973055
 20
-372.1366929026278
 30
0.0
 11
-3228.374108259113
 21
-372.1366929026278
 31
0.0
  0
ARC
  5
132
  8
1
  6
CONTINUOUS
 62
     7
 10
-3228.874108259113
 20
-371.6366929026278
 30
0.0
 40
2.200000000000001
 50
346.8634412130552
 51
13.13655878695687
  0
LINE
  5
133
  8
1
  6
CONTINUOUS
 62
     7
 10
-3228.374108259114
 20
-371.1366929026278
 30
0.0
 11
-3226.731679730551
 21
-371.1366929026278
 31
0.0
  0
LINE
  5
134
  8
1
  6
CONTINUOUS
 62
     7
 10
-3228.374108259114
 20
-369.494264374065
 30
0.0
 11
-3228.374108259114
 21
-371.1366929026278
 31
0.0
  0
ARC
  5
135
  8
1
  6
CONTINUOUS
 62
     7
 10
-3228.874108259113
 20
-371.6366929026278
 30
0.0
 40
2.200000000000001
 50
76.86344121305513
 51
103.1365587869569
  0
LINE
  5
136
  8
1
  6
CONTINUOUS
 62
     7
 10
-3229.374108259114
 20
-371.1366929026278
 30
0.0
 11
-3229.374108259114
 21
-369.4942643740651
 31
0.0
  0
LINE
  5
137
  8
1
  6
CONTINUOUS
 62
     7
 10
-3231.016536787676
 20
-371.1366929026278
 30
0.0
 11
-3229.374108259114
 21
-371.1366929026278
 31
0.0
  0
ARC
  5
138
  8
1
  6
CONTINUOUS
 62
     7
 10
-3228.874108259113
 20
-371.6366929026278
 30
0.0
 40
2.200000000000001
 50
166.8634412130551
 51
193.1365587869569
  0
LINE
  5
139
  8
1
  6
CONTINUOUS
 62
     7
 10
-3229.374108259114
 20
-372.1366929026278
 30
0.0
 11
-3231.016536787676
 21
-372.1366929026278
 31
0.0
  0
CIRCLE
  5
13A
  8
1
  6
CONTINUOUS
 62
     7
 10
-3228.874108259113
 20
-371.6366929026278
 30
0.0
 40
4.0
  0
ARC
  5
13B
  8
1
  6
CONTINUOUS
 62
     7
 10
-3228.874108259113
 20
-371.6366929026278
 30
0.0
 40
1.21654992179303
 50
335.732435516033
 51
24.26756448396708
  0
ARC
  5
13C
  8
1
  6
CONTINUOUS
 62
     7
 10
-3228.874108259113
 20
-371.6366929026278
 30
0.0
 40
1.21654992179303
 50
155.7324355160329
 51
204.2675644839671
  0
ARC
  5
13D
  8
1
  6
CONTINUOUS
 62
     7
 10
-3228.874108259113
 20
-371.6366929026278
 30
0.0
 40
1.216549921793029
 50
245.7324355160328
 51
294.2675644839671
  0
ARC
  5
13E
  8
1
  6
CONTINUOUS
 62
     7
 10
-3228.874108259113
 20
-371.6366929026278
 30
0.0
 40
1.216549921793029
 50
65.73243551603288
 51
114.2675644839671
  0
CIRCLE
  5
13F
  8
1
  6
CONTINUOUS
 62
     7
 10
-3228.874108259113
 20
-371.6366929026278
 30
0.0
 40
4.5
  0
CIRCLE
  5
140
  8
1
  6
CONTINUOUS
 62
     7
 10
-3286.730506783823
 20
-371.6366929026278
 30
0.0
 40
4.500000000000004
  0
LINE
  5
141
  8
1
  6
CONTINUOUS
 62
     9
 10
-3281.902307521467
 20
-381.9366929026278
 30
0.0
 11
-3281.902307521467
 21
-378.6366929026278
 31
0.0
  0
LINE
  5
142
  8
1
  6
CONTINUOUS
 62
     9
 10
-3281.902307521467
 20
-364.6366929026278
 30
0.0
 11
-3281.902307521467
 21
-361.3366929026278
 31
0.0
  0
LINE
  5
143
  8
1
  6
CONTINUOUS
 62
     7
 10
-3278.302307521467
 20
-361.3366929026278
 30
0.0
 11
-3278.302307521467
 21
-364.6366929026278
 31
0.0
  0
LINE
  5
144
  8
1
  6
CONTINUOUS
 62
     7
 10
-3278.302307521467
 20
-378.6366929026278
 30
0.0
 11
-3278.302307521467
 21
-381.9366929026279
 31
0.0
  0
ARC
  5
145
  8
1
  6
CONTINUOUS
 62
     7
 10
-3289.302307521467
 20
-374.7499415566797
 30
0.0
 40
4.999999999999899
 50
231.0186047021868
 51
240.0000000000005
  0
ARC
  5
146
  8
1
  6
CONTINUOUS
 62
     7
 10
-3289.302307521467
 20
-368.523444248576
 30
0.0
 40
4.999999999999898
 50
119.9999999999998
 51
128.9813952978146
  0
LINE
  5
147
  8
1
  6
CONTINUOUS
 62
     7
 10
-3286.854489048921
 20
-361.3366929026278
 30
0.0
 11
-3291.802307521467
 21
-364.1933172296539
 31
0.0
  0
LINE
  5
148
  8
1
  6
CONTINUOUS
 62
     7
 10
-3291.802307521467
 20
-379.0800685756018
 30
0.0
 11
-3286.854489048921
 21
-381.9366929026278
 31
0.0
  0
LINE
  5
149
  8
1
  6
CONTINUOUS
 62
     7
 10
-3237.302307521468
 20
-381.9366929026278
 30
0.0
 11
-3237.302307521468
 21
-378.6366929026278
 31
0.0
  0
LINE
  5
14A
  8
1
  6
CONTINUOUS
 62
     7
 10
-3237.302307521468
 20
-364.6366929026278
 30
0.0
 11
-3237.302307521468
 21
-361.3366929026278
 31
0.0
  0
LINE
  5
14B
  8
1
  6
CONTINUOUS
 62
     9
 10
-3233.702307521468
 20
-361.3366929026278
 30
0.0
 11
-3233.702307521468
 21
-364.6366929026278
 31
0.0
  0
LINE
  5
14C
  8
1
  6
CONTINUOUS
 62
     9
 10
-3233.702307521468
 20
-378.6366929026278
 30
0.0
 11
-3233.702307521468
 21
-381.9366929026279
 31
0.0
  0
LINE
  5
14D
  8
1
  6
CONTINUOUS
 62
     7
 10
-3228.750125994015
 20
-361.3366929026278
 30
0.0
 11
-3223.802307521468
 21
-364.1933172296538
 31
0.0
  0
ARC
  5
14E
  8
1
  6
CONTINUOUS
 62
     7
 10
-3226.302307521468
 20
-368.523444248576
 30
0.0
 40
4.999999999999996
 50
51.01860470218407
 51
59.99999999999954
  0
ARC
  5
14F
  8
1
  6
CONTINUOUS
 62
     7
 10
-3226.302307521468
 20
-374.7499415566797
 30
0.0
 40
4.999999999999997
 50
300.0
 51
308.9813952978159
  0
LINE
  5
150
  8
1
  6
CONTINUOUS
 62
     7
 10
-3223.802307521468
 20
-379.0800685756019
 30
0.0
 11
-3228.750125994015
 21
-381.9366929026278
 31
0.0
  0
LINE
  5
151
  8
1
  6
CONTINUOUS
 62
     9
 10
-3277.302307521467
 20
-361.5376547969515
 30
0.0
 11
-3277.302307521467
 21
-364.435584541535
 31
0.0
  0
LINE
  5
152
  8
1
  6
CONTINUOUS
 62
     9
 10
-3277.302307521467
 20
-378.8378218329811
 30
0.0
 11
-3277.302307521467
 21
-381.7357310083041
 31
0.0
  0
LINE
  5
153
  8
1
  6
CONTINUOUS
 62
     9
 10
-3238.302307521468
 20
-381.7357310083045
 30
0.0
 11
-3238.302307521468
 21
-378.8378237781595
 31
0.0
  0
LINE
  5
154
  8
1
  6
CONTINUOUS
 62
     9
 10
-3238.302307521468
 20
-364.4355857524632
 30
0.0
 11
-3238.302307521468
 21
-361.5376547969511
 31
0.0
  0
ARC
  5
155
  8
1
  6
CONTINUOUS
 62
     7
 10
-3246.802307521468
 20
-371.6366929026278
 30
0.0
 40
2.249999999999977
 50
270.0
 51
121.7702986211938
  0
ARC
  5
156
  8
1
  6
CONTINUOUS
 62
     7
 10
-3246.802307521468
 20
-371.6366929026278
 30
0.0
 40
2.249999999999978
 50
238.2297013788062
 51
270.0000000000001
  0
ARC
  5
157
  8
1
  6
CONTINUOUS
 62
     7
 10
-3268.802307521468
 20
-371.6366929026278
 30
0.0
 40
2.249999999999932
 50
57.76904736450638
 51
270.0
  0
ARC
  5
158
  8
1
  6
CONTINUOUS
 62
     7
 10
-3268.802307521468
 20
-371.6366929026278
 30
0.0
 40
2.249999999999932
 50
270.0
 51
302.2309526354936
  0
LINE
  5
159
  8
1
  6
CONTINUOUS
 62
     7
 10
-3244.413312222447
 20
-384.1366929026279
 30
0.0
 11
-3263.151672426857
 21
-384.1366929026279
 31
0.0
  0
LINE
  5
15A
  8
1
  6
CONTINUOUS
 62
     7
 10
-3262.901327035061
 20
-359.1366929026279
 30
0.0
 11
-3252.703288007875
 21
-359.1366929026279
 31
0.0
  0
ARC
  5
15B
  8
1
  6
CONTINUOUS
 62
     7
 10
-3245.087218298434
 20
-403.6366929026278
 30
0.0
 40
2.000000000000005
 50
24.99999999999983
 51
90.0
  0
LINE
  5
15C
  8
1
  6
CONTINUOUS
 62
     7
 10
-3245.087218298434
 20
-401.6366929026278
 30
0.0
 11
-3248.202307521468
 21
-401.6366929026278
 31
0.0
  0
ARC
  5
15D
  8
1
  6
CONTINUOUS
 62
     7
 10
-3248.202307521468
 20
-403.6366929026278
 30
0.0
 40
1.999999999999999
 50
90.0
 51
180.0
  0
LINE
  5
15E
  8
1
  6
CONTINUOUS
 62
     7
 10
-3250.202307521468
 20
-403.6366929026278
 30
0.0
 11
-3250.202307521468
 21
-404.1366929026278
 31
0.0
  0
ARC
  5
15F
  8
1
  6
CONTINUOUS
 62
     7
 10
-3257.802307521468
 20
-404.1366929026279
 30
0.0
 40
7.600000000000001
 50
179.9999999999999
 51
0.0000000000001137
  0
LINE
  5
160
  8
1
  6
CONTINUOUS
 62
     7
 10
-3265.402307521468
 20
-404.1366929026279
 30
0.0
 11
-3265.402307521468
 21
-403.6366929026279
 31
0.0
  0
ARC
  5
161
  8
1
  6
CONTINUOUS
 62
     7
 10
-3267.402307521468
 20
-403.6366929026278
 30
0.0
 40
2.000000000000005
 50
0.0
 51
90.0
  0
LINE
  5
162
  8
1
  6
CONTINUOUS
 62
     7
 10
-3267.402307521468
 20
-401.6366929026278
 30
0.0
 11
-3270.517396744503
 21
-401.6366929026278
 31
0.0
  0
ARC
  5
163
  8
1
  6
CONTINUOUS
 62
     7
 10
-3270.517396744503
 20
-403.6366929026278
 30
0.0
 40
2.000000000000001
 50
90.0
 51
155.0000000000002
  0
LINE
  5
164
  8
1
  6
CONTINUOUS
 62
     7
 10
-3272.330012318576
 20
-402.7914563791465
 30
0.0
 11
-3274.05090816259
 21
-406.4819294261093
 31
0.0
  0
ARC
  5
165
  8
1
  6
CONTINUOUS
 62
     7
 10
-3275.863523736663
 20
-405.6366929026278
 30
0.0
 40
2.000000000000002
 50
270.0
 51
334.9999999999998
  0
LINE
  5
166
  8
1
  6
CONTINUOUS
 62
     7
 10
-3275.863523736663
 20
-407.6366929026278
 30
0.0
 11
-3278.831744772991
 21
-407.6366929026278
 31
0.0
  0
ARC
  5
167
  8
1
  6
CONTINUOUS
 62
     7
 10
-3278.831744772991
 20
-409.6366929026278
 30
0.0
 40
2.000000000000003
 50
90.0
 51
135.0
  0
LINE
  5
168
  8
1
  6
CONTINUOUS
 62
     7
 10
-3280.245958335364
 20
-408.2224793402547
 30
0.0
 11
-3291.81043152249
 21
-419.7869525273808
 31
0.0
  0
ARC
  5
169
  8
1
  6
CONTINUOUS
 62
     7
 10
-3288.274897616557
 20
-423.3224864333135
 30
0.0
 40
4.999999999999998
 50
134.9999999999999
 51
239.47751218593
  0
ARC
  5
16A
  8
1
  6
CONTINUOUS
 62
     7
 10
-3257.802307521468
 20
-371.6366929026278
 30
0.0
 40
64.99999999999999
 50
239.47751218593
 51
248.8119442486778
  0
ARC
  5
16B
  8
1
  6
CONTINUOUS
 62
     7
 10
-3282.018131187968
 20
-434.1074371286492
 30
0.0
 40
2.000000000000001
 50
350.0000000000001
 51
68.81194424867765
  0
LINE
  5
16C
  8
1
  6
CONTINUOUS
 62
     7
 10
-3280.048515681944
 20
-434.4547334839831
 30
0.0
 11
-3281.108886658965
 21
-440.4683961280138
 31
0.0
  0
ARC
  5
16D
  8
1
  6
CONTINUOUS
 62
     7
 10
-3283.078502164989
 20
-440.1210997726799
 30
0.0
 40
2.000000000000002
 50
249.7419272145152
 51
349.9999999999997
  0
ARC
  5
16E
  8
1
  6
CONTINUOUS
 62
     7
 10
-3257.802307521468
 20
-371.6366929026278
 30
0.0
 40
75.0
 50
261.5699438282613
 51
249.7419272145153
  0
ARC
  5
16F
  8
1
  6
CONTINUOUS
 62
     7
 10
-3268.504250607721
 20
-443.8479691285651
 30
0.0
 40
2.0
 50
170.0000000000006
 51
261.5699438282612
  0
LINE
  5
170
  8
1
  6
CONTINUOUS
 62
     7
 10
-3270.473866113745
 20
-443.5006727732312
 30
0.0
 11
-3269.431550742228
 21
-437.5894085564385
 31
0.0
  0
ARC
  5
171
  8
1
  6
CONTINUOUS
 62
     7
 10
-3267.461935236204
 20
-437.9367049117724
 30
0.0
 40
2.000000000000004
 50
81.71057588031117
 51
170.0000000000005
  0
ARC
  5
172
  8
1
  6
CONTINUOUS
 62
     7
 10
-3257.802307521468
 20
-371.6366929026278
 30
0.0
 40
65.0
 50
261.7105758803111
 51
269.3580321112592
  0
ARC
  5
173
  8
1
  6
CONTINUOUS
 62
     7
 10
-3257.802307521468
 20
-434.1366929026278
 30
0.0
 40
2.599999999999993
 50
253.7335002378259
 51
286.2664997621739
  0
ARC
  5
174
  8
1
  6
CONTINUOUS
 62
     7
 10
-3257.802307521468
 20
-371.6366929026278
 30
0.0
 40
65.0
 50
270.6419678887409
 51
300.5224878140702
  0
ARC
  5
175
  8
1
  6
CONTINUOUS
 62
     7
 10
-3227.329717426379
 20
-423.3224864333135
 30
0.0
 40
5.000000000000004
 50
300.5224878140702
 51
45.0
  0
LINE
  5
176
  8
1
  6
CONTINUOUS
 62
     7
 10
-3223.794183520446
 20
-419.7869525273808
 30
0.0
 11
-3235.358656707572
 21
-408.2224793402547
 31
0.0
  0
ARC
  5
177
  8
1
  6
CONTINUOUS
 62
     7
 10
-3236.772870269945
 20
-409.6366929026278
 30
0.0
 40
2.000000000000002
 50
45.0
 51
90.0
  0
LINE
  5
178
  8
1
  6
CONTINUOUS
 62
     7
 10
-3236.772870269945
 20
-407.6366929026278
 30
0.0
 11
-3239.741091306273
 21
-407.6366929026278
 31
0.0
  0
ARC
  5
179
  8
1
  6
CONTINUOUS
 62
     7
 10
-3239.741091306273
 20
-405.6366929026278
 30
0.0
 40
1.999999999999998
 50
205.0000000000002
 51
270.0
  0
LINE
  5
17A
  8
1
  6
CONTINUOUS
 62
     7
 10
-3241.553706880346
 20
-406.4819294261093
 30
0.0
 11
-3243.27460272436
 21
-402.7914563791465
 31
0.0
  0
ARC
  5
17B
  8
1
  6
CONTINUOUS
 62
     7
 10
-3257.802307521468
 20
-371.6366929026278
 30
0.0
 40
13.5
 50
0.000000000000007
 51
240.0000000000002
  0
LINE
  5
17C
  8
1
  6
CONTINUOUS
 62
     7
 10
-3264.552307521468
 20
-383.3280358537178
 30
0.0
 11
-3254.802307521468
 21
-388.9572009783166
 31
0.0
  0
ARC
  5
17D
  8
1
  6
CONTINUOUS
 62
     7
 10
-3251.302307521468
 20
-382.8950231518256
 30
0.0
 40
7.0
 50
240.0
 51
359.9999999999998
  0
LINE
  5
17E
  8
1
  6
CONTINUOUS
 62
     7
 10
-3244.302307521468
 20
-382.8950231518256
 30
0.0
 11
-3244.302307521468
 21
-371.6366929026278
 31
0.0
  0
LINE
  5
17F
  8
1
  6
CONTINUOUS
 62
     7
 10
-3255.202307521468
 20
-346.6366929026278
 30
0.0
 11
-3255.202307521468
 21
-309.1366929026278
 31
0.0
  0
ARC
  5
180
  8
1
  6
CONTINUOUS
 62
     7
 10
-3257.802307521468
 20
-309.1366929026278
 30
0.0
 40
2.599999999999998
 50
0.000000000000007
 51
179.9999999999997
  0
LINE
  5
181
  8
1
  6
CONTINUOUS
 62
     7
 10
-3260.402307521468
 20
-346.6366929026278
 30
0.0
 11
-3260.402307521468
 21
-309.1366929026278
 31
0.0
  0
ARC
  5
182
  8
1
  6
CONTINUOUS
 62
     7
 10
-3257.802307521468
 20
-346.6366929026278
 30
0.0
 40
2.599999999999998
 50
180.0
 51
359.9999999999998
  0
ARC
  5
183
  8
1
  6
CONTINUOUS
 62
     7
 10
-3213.608133697309
 20
-327.4425190784686
 30
0.0
 40
2.599999999999998
 50
315.0
 51
135.0
  0
LINE
  5
184
  8
1
  6
CONTINUOUS
 62
     7
 10
-3215.446611328394
 20
-325.6040414473836
 30
0.0
 11
-3236.65981476399
 21
-346.81724488298
 31
0.0
  0
ARC
  5
185
  8
1
  6
CONTINUOUS
 62
     7
 10
-3234.821337132905
 20
-348.6557225140651
 30
0.0
 40
2.599999999999998
 50
135.0
 51
315.0
  0
LINE
  5
186
  8
1
  6
CONTINUOUS
 62
     7
 10
-3232.98285950182
 20
-350.4942001451501
 30
0.0
 11
-3211.769656066224
 21
-329.2809967095537
 31
0.0
  0
ARC
  5
187
  8
1
  6
CONTINUOUS
 62
     7
 10
-3203.675719784941
 20
-340.3866929026278
 30
0.0
 40
2.599999999999996
 50
299.9999999999998
 51
120.0000000000001
  0
LINE
  5
188
  8
1
  6
CONTINUOUS
 62
     7
 10
-3204.975719784941
 20
-338.1350268527883
 30
0.0
 11
-3230.956481898474
 21
-353.1350268527883
 31
0.0
  0
ARC
  5
189
  8
1
  6
CONTINUOUS
 62
     7
 10
-3229.656481898474
 20
-355.3866929026278
 30
0.0
 40
2.599999999999999
 50
120.0000000000003
 51
300.0000000000001
  0
LINE
  5
18A
  8
1
  6
CONTINUOUS
 62
     7
 10
-3228.356481898474
 20
-357.6383589524673
 30
0.0
 11
-3202.37571978494
 21
-342.6383589524673
 31
0.0
  0
ARC
  5
18B
  8
1
  6
CONTINUOUS
 62
     7
 10
-3213.608133697309
 20
-415.8308667267871
 30
0.0
 40
2.600000000000003
 50
225.0000000000001
 51
44.99999999999965
  0
LINE
  5
18C
  8
1
  6
CONTINUOUS
 62
     7
 10
-3211.769656066224
 20
-413.992389095702
 30
0.0
 11
-3232.98285950182
 21
-392.7791856601056
 31
0.0
  0
ARC
  5
18D
  8
1
  6
CONTINUOUS
 62
     7
 10
-3234.821337132905
 20
-394.6176632911906
 30
0.0
 40
2.599999999999996
 50
45.00000000000008
 51
225.0000000000001
  0
LINE
  5
18E
  8
1
  6
CONTINUOUS
 62
     7
 10
-3236.65981476399
 20
-396.4561409222757
 30
0.0
 11
-3215.446611328394
 21
-417.6693443578721
 31
0.0
  0
LINE
  5
18F
  8
1
  6
CONTINUOUS
 62
     7
 10
-3215.052307521468
 20
-363.1366929026278
 30
0.0
 11
-3215.052307521468
 21
-362.8366929026279
 31
0.0
  0
ARC
  5
190
  8
1
  6
CONTINUOUS
 62
     7
 10
-3216.552307521468
 20
-362.8366929026278
 30
0.0
 40
1.500000000000001
 50
0.0000000000001395
 51
90.0000000000003
  0
LINE
  5
191
  8
1
  6
CONTINUOUS
 62
     7
 10
-3216.552307521468
 20
-361.3366929026278
 30
0.0
 11
-3237.552307521468
 21
-361.3366929026278
 31
0.0
  0
ARC
  5
192
  8
1
  6
CONTINUOUS
 62
     7
 10
-3237.552307521468
 20
-362.8366929026278
 30
0.0
 40
1.500000000000001
 50
90.00000000000016
 51
180.0000000000003
  0
LINE
  5
193
  8
1
  6
CONTINUOUS
 62
     7
 10
-3239.052307521468
 20
-362.8366929026279
 30
0.0
 11
-3239.052307521468
 21
-363.1366929026278
 31
0.0
  0
ARC
  5
194
  8
1
  6
CONTINUOUS
 62
     7
 10
-3237.552307521468
 20
-363.1366929026278
 30
0.0
 40
1.500000000000001
 50
179.9999999999999
 51
224.8575490510887
  0
LINE
  5
195
  8
1
  6
CONTINUOUS
 62
     9
 10
-3238.615601466071
 20
-379.0786730600114
 30
0.0
 11
-3238.615601466071
 21
-364.1947127452443
 31
0.0
  0
ARC
  5
196
  8
1
  6
CONTINUOUS
 62
     7
 10
-3237.552307521468
 20
-380.1366929026278
 30
0.0
 40
1.499999999999998
 50
135.1424509489116
 51
180.0
  0
LINE
  5
197
  8
1
  6
CONTINUOUS
 62
     7
 10
-3239.052307521468
 20
-380.4366929026279
 30
0.0
 11
-3239.052307521468
 21
-380.1366929026278
 31
0.0
  0
ARC
  5
198
  8
1
  6
CONTINUOUS
 62
     7
 10
-3237.552307521468
 20
-380.4366929026278
 30
0.0
 40
1.500000000000001
 50
180.0000000000002
 51
270.0000000000001
  0
LINE
  5
199
  8
1
  6
CONTINUOUS
 62
     7
 10
-3216.552307521468
 20
-381.9366929026278
 30
0.0
 11
-3237.552307521468
 21
-381.9366929026278
 31
0.0
  0
ARC
  5
19A
  8
1
  6
CONTINUOUS
 62
     7
 10
-3216.552307521468
 20
-380.4366929026278
 30
0.0
 40
1.500000000000001
 50
269.9999999999997
 51
0.0
  0
LINE
  5
19B
  8
1
  6
CONTINUOUS
 62
     7
 10
-3215.052307521468
 20
-380.1366929026278
 30
0.0
 11
-3215.052307521468
 21
-380.4366929026278
 31
0.0
  0
ARC
  5
19C
  8
1
  6
CONTINUOUS
 62
     7
 10
-3216.552307521468
 20
-380.1366929026278
 30
0.0
 40
1.500000000000002
 50
0.0
 51
44.85754905108814
  0
LINE
  5
19D
  8
1
  6
CONTINUOUS
 62
     9
 10
-3215.489013576865
 20
-364.1947127452442
 30
0.0
 11
-3215.489013576865
 21
-379.0786730600114
 31
0.0
  0
ARC
  5
19E
  8
1
  6
CONTINUOUS
 62
     7
 10
-3216.552307521468
 20
-363.1366929026278
 30
0.0
 40
1.500000000000002
 50
315.1424509489118
 51
0.0000000000001705
  0
ARC
  5
19F
  8
1
  6
CONTINUOUS
 62
     7
 10
-3257.802307521468
 20
-396.6366929026278
 30
0.0
 40
2.599999999999998
 50
0.000000000000007
 51
180.0000000000002
  0
LINE
  5
1A0
  8
1
  6
CONTINUOUS
 62
     7
 10
-3260.402307521468
 20
-404.1366929026279
 30
0.0
 11
-3260.402307521468
 21
-396.6366929026279
 31
0.0
  0
ARC
  5
1A1
  8
1
  6
CONTINUOUS
 62
     7
 10
-3257.802307521468
 20
-404.1366929026279
 30
0.0
 40
2.6
 50
180.0000000000003
 51
0.0
  0
LINE
  5
1A2
  8
1
  6
CONTINUOUS
 62
     7
 10
-3255.202307521468
 20
-404.1366929026279
 30
0.0
 11
-3255.202307521468
 21
-396.6366929026279
 31
0.0
  0
ARC
  5
1A3
  8
1
  6
CONTINUOUS
 62
     7
 10
-3280.783277910031
 20
-348.6557225140651
 30
0.0
 40
2.599999999999996
 50
225.0
 51
45.00000000000006
  0
LINE
  5
1A4
  8
1
  6
CONTINUOUS
 62
     7
 10
-3300.158003714542
 20
-325.6040414473836
 30
0.0
 11
-3278.944800278946
 21
-346.81724488298
 31
0.0
  0
ARC
  5
1A5
  8
1
  6
CONTINUOUS
 62
     7
 10
-3301.996481345627
 20
-327.4425190784686
 30
0.0
 40
2.599999999999998
 50
45.0
 51
225.0
  0
LINE
  5
1A6
  8
1
  6
CONTINUOUS
 62
     7
 10
-3282.621755541116
 20
-350.4942001451501
 30
0.0
 11
-3303.834958976712
 21
-329.2809967095537
 31
0.0
  0
ARC
  5
1A7
  8
1
  6
CONTINUOUS
 62
     7
 10
-3285.948133144462
 20
-355.3866929026278
 30
0.0
 40
2.599999999999999
 50
239.9999999999999
 51
59.99999999999977
  0
LINE
  5
1A8
  8
1
  6
CONTINUOUS
 62
     7
 10
-3310.628895257996
 20
-338.1350268527883
 30
0.0
 11
-3284.648133144462
 21
-353.1350268527883
 31
0.0
  0
ARC
  5
1A9
  8
1
  6
CONTINUOUS
 62
     7
 10
-3311.928895257995
 20
-340.3866929026278
 30
0.0
 40
2.599999999999996
 50
59.99999999999983
 51
240.0000000000001
  0
LINE
  5
1AA
  8
1
  6
CONTINUOUS
 62
     7
 10
-3287.248133144462
 20
-357.6383589524673
 30
0.0
 11
-3313.228895257996
 21
-342.6383589524673
 31
0.0
  0
ARC
  5
1AB
  8
1
  6
CONTINUOUS
 62
     7
 10
-3280.783277910031
 20
-394.6176632911906
 30
0.0
 40
2.599999999999996
 50
314.9999999999998
 51
134.9999999999999
  0
LINE
  5
1AC
  8
1
  6
CONTINUOUS
 62
     7
 10
-3303.834958976712
 20
-413.992389095702
 30
0.0
 11
-3282.621755541116
 21
-392.7791856601056
 31
0.0
  0
ARC
  5
1AD
  8
1
  6
CONTINUOUS
 62
     7
 10
-3301.996481345627
 20
-415.8308667267871
 30
0.0
 40
2.600000000000003
 50
135.0000000000003
 51
314.9999999999998
  0
LINE
  5
1AE
  8
1
  6
CONTINUOUS
 62
     7
 10
-3278.944800278946
 20
-396.4561409222757
 30
0.0
 11
-3300.158003714542
 21
-417.6693443578721
 31
0.0
  0
LINE
  5
1AF
  8
1
  6
CONTINUOUS
 62
     9
 10
-3300.115601466071
 20
-364.1947127452442
 30
0.0
 11
-3300.115601466071
 21
-379.0786730600114
 31
0.0
  0
ARC
  5
1B0
  8
1
  6
CONTINUOUS
 62
     7
 10
-3299.052307521468
 20
-380.1366929026278
 30
0.0
 40
1.500000000000002
 50
135.1424509489119
 51
180.0
  0
LINE
  5
1B1
  8
1
  6
CONTINUOUS
 62
     7
 10
-3300.552307521468
 20
-380.1366929026278
 30
0.0
 11
-3300.552307521468
 21
-380.4366929026278
 31
0.0
  0
ARC
  5
1B2
  8
1
  6
CONTINUOUS
 62
     7
 10
-3299.052307521468
 20
-380.4366929026278
 30
0.0
 40
1.500000000000001
 50
180.0
 51
270.0000000000002
  0
LINE
  5
1B3
  8
1
  6
CONTINUOUS
 62
     7
 10
-3299.052307521468
 20
-381.9366929026278
 30
0.0
 11
-3278.052307521468
 21
-381.9366929026278
 31
0.0
  0
ARC
  5
1B4
  8
1
  6
CONTINUOUS
 62
     7
 10
-3278.052307521468
 20
-380.4366929026278
 30
0.0
 40
1.500000000000001
 50
269.9999999999999
 51
359.9999999999998
  0
LINE
  5
1B5
  8
1
  6
CONTINUOUS
 62
     7
 10
-3276.552307521468
 20
-380.4366929026278
 30
0.0
 11
-3276.552307521468
 21
-380.1366929026278
 31
0.0
  0
ARC
  5
1B6
  8
1
  6
CONTINUOUS
 62
     7
 10
-3278.052307521468
 20
-380.1366929026278
 30
0.0
 40
1.499999999999998
 50
0.000000000000007
 51
44.85754905108825
  0
LINE
  5
1B7
  8
1
  6
CONTINUOUS
 62
     9
 10
-3276.989013576865
 20
-379.0786730600114
 30
0.0
 11
-3276.989013576865
 21
-364.1947127452442
 31
0.0
  0
ARC
  5
1B8
  8
1
  6
CONTINUOUS
 62
     7
 10
-3278.052307521468
 20
-363.1366929026278
 30
0.0
 40
1.500000000000001
 50
315.1424509489112
 51
0.0000000000000568
  0
LINE
  5
1B9
  8
1
  6
CONTINUOUS
 62
     7
 10
-3276.552307521468
 20
-362.8366929026278
 30
0.0
 11
-3276.552307521468
 21
-363.1366929026278
 31
0.0
  0
ARC
  5
1BA
  8
1
  6
CONTINUOUS
 62
     7
 10
-3278.052307521468
 20
-362.8366929026278
 30
0.0
 40
1.500000000000001
 50
359.9999999999997
 51
89.9999999999999
  0
LINE
  5
1BB
  8
1
  6
CONTINUOUS
 62
     7
 10
-3299.052307521468
 20
-361.3366929026278
 30
0.0
 11
-3278.052307521468
 21
-361.3366929026278
 31
0.0
  0
ARC
  5
1BC
  8
1
  6
CONTINUOUS
 62
     7
 10
-3299.052307521468
 20
-362.8366929026278
 30
0.0
 40
1.500000000000001
 50
89.99999999999977
 51
179.9999999999999
  0
LINE
  5
1BD
  8
1
  6
CONTINUOUS
 62
     7
 10
-3300.552307521468
 20
-363.1366929026278
 30
0.0
 11
-3300.552307521468
 21
-362.8366929026279
 31
0.0
  0
ARC
  5
1BE
  8
1
  6
CONTINUOUS
 62
     7
 10
-3299.052307521468
 20
-363.1366929026278
 30
0.0
 40
1.500000000000002
 50
179.9999999999999
 51
224.8575490510882
  0
CIRCLE
  5
1BF
  8
1
  6
CONTINUOUS
 62
     7
 10
-3237.802307521468
 20
-401.6366929026278
 30
0.0
 40
2.600000000000001
  0
CIRCLE
  5
1C0
  8
1
  6
CONTINUOUS
 62
     7
 10
-3277.802307521468
 20
-401.6366929026278
 30
0.0
 40
2.600000000000001
  0
CIRCLE
  5
1C1
  8
1
  6
CONTINUOUS
 62
     7
 10
-3277.802307521468
 20
-341.6366929026279
 30
0.0
 40
2.600000000000001
  0
CIRCLE
  5
1C2
  8
1
  6
CONTINUOUS
 62
     7
 10
-3237.802307521468
 20
-341.6366929026278
 30
0.0
 40
2.600000000000001
  0
LINE
  5
1C3
  8
1
  6
CONTINUOUS
 62
     9
 10
-3297.55510130824
 20
-378.6366929026278
 30
0.0
 11
-3297.55510130824
 21
-364.6366929026278
 31
0.0
  0
LINE
  5
1C4
  8
1
  6
CONTINUOUS
 62
     7
 10
-3299.052307521468
 20
-378.6366929026278
 30
0.0
 11
-3297.55510130824
 21
-378.6366929026278
 31
0.0
  0
ARC
  5
1C5
  8
1
  6
CONTINUOUS
 62
     7
 10
-3299.052307521468
 20
-363.1366929026278
 30
0.0
 40
1.500000000000014
 50
224.8575490510882
 51
269.9999999999998
  0
LINE
  5
1C6
  8
1
  6
CONTINUOUS
 62
     7
 10
-3297.55510130824
 20
-364.6366929026278
 30
0.0
 11
-3299.052307521468
 21
-364.6366929026278
 31
0.0
  0
ARC
  5
1C7
  8
1
  6
CONTINUOUS
 62
     7
 10
-3299.052307521468
 20
-380.1366929026278
 30
0.0
 40
1.50000000000001
 50
90.0
 51
135.1424509489116
  0
LINE
  5
1C8
  8
1
  6
CONTINUOUS
 62
     9
 10
-3279.549513734697
 20
-364.6366929026278
 30
0.0
 11
-3279.549513734697
 21
-378.6366929026278
 31
0.0
  0
LINE
  5
1C9
  8
1
  6
CONTINUOUS
 62
     7
 10
-3278.052307521468
 20
-364.6366929026278
 30
0.0
 11
-3279.549513734696
 21
-364.6366929026278
 31
0.0
  0
ARC
  5
1CA
  8
1
  6
CONTINUOUS
 62
     7
 10
-3278.052307521468
 20
-363.1366929026278
 30
0.0
 40
1.499999999999991
 50
270.0000000000001
 51
315.1424509489116
  0
ARC
  5
1CB
  8
1
  6
CONTINUOUS
 62
     7
 10
-3278.052313623764
 20
-380.1367075832286
 30
0.0
 40
1.500014680613165
 50
44.857782139339
 51
89.9997669117489
  0
LINE
  5
1CC
  8
1
  6
CONTINUOUS
 62
     7
 10
-3279.549513734697
 20
-378.6366929026278
 30
0.0
 11
-3278.052307521468
 21
-378.6366929026278
 31
0.0
  0
ARC
  5
1CD
  8
1
  6
CONTINUOUS
 62
     7
 10
-3237.552307521468
 20
-363.1366929026278
 30
0.0
 40
1.500000000000004
 50
224.8575490510885
 51
269.9999999999996
  0
LINE
  5
1CE
  8
1
  6
CONTINUOUS
 62
     7
 10
-3237.552307521468
 20
-364.6366929026278
 30
0.0
 11
-3236.05510130824
 21
-364.6366929026278
 31
0.0
  0
LINE
  5
1CF
  8
1
  6
CONTINUOUS
 62
     9
 10
-3236.05510130824
 20
-364.6366929026278
 30
0.0
 11
-3236.05510130824
 21
-378.6366929026278
 31
0.0
  0
LINE
  5
1D0
  8
1
  6
CONTINUOUS
 62
     7
 10
-3236.05510130824
 20
-378.6366929026278
 30
0.0
 11
-3237.552307521468
 21
-378.6366929026278
 31
0.0
  0
ARC
  5
1D1
  8
1
  6
CONTINUOUS
 62
     7
 10
-3237.552307521468
 20
-380.1366929026278
 30
0.0
 40
1.499999999999994
 50
90.00000000000043
 51
135.1424509489118
  0
ARC
  5
1D2
  8
1
  6
CONTINUOUS
 62
     7
 10
-3216.552307521468
 20
-363.1366929026278
 30
0.0
 40
1.500000000000003
 50
270.0
 51
315.1424509489118
  0
ARC
  5
1D3
  8
1
  6
CONTINUOUS
 62
     7
 10
-3216.552313603028
 20
-380.1367075333442
 30
0.0
 40
1.500014630728658
 50
44.85778134731677
 51
89.99976770377148
  0
LINE
  5
1D4
  8
1
  6
CONTINUOUS
 62
     7
 10
-3216.552307521468
 20
-378.6366929026278
 30
0.0
 11
-3218.049513734697
 21
-378.6366929026278
 31
0.0
  0
LINE
  5
1D5
  8
1
  6
CONTINUOUS
 62
     9
 10
-3218.049513734697
 20
-378.6366929026278
 30
0.0
 11
-3218.049513734697
 21
-364.6366929026278
 31
0.0
  0
LINE
  5
1D6
  8
1
  6
CONTINUOUS
 62
     7
 10
-3218.049513734697
 20
-364.6366929026278
 30
0.0
 11
-3216.552307521468
 21
-364.6366929026278
 31
0.0
  0
LINE
  5
1D7
  8
1
  6
CONTINUOUS
 62
     9
 10
-3297.343723765138
 20
-364.6366929026278
 30
0.0
 11
-3297.343723765138
 21
-378.6366929026278
 31
0.0
  0
LINE
  5
1D8
  8
1
  6
CONTINUOUS
 62
     7
 10
-3297.55510130824
 20
-378.6366929026278
 30
0.0
 11
-3297.343723765138
 21
-378.6366929026278
 31
0.0
  0
LINE
  5
1D9
  8
1
  6
CONTINUOUS
 62
     7
 10
-3297.55510130824
 20
-364.6366929026278
 30
0.0
 11
-3297.343723765138
 21
-364.6366929026278
 31
0.0
  0
LINE
  5
1DA
  8
1
  6
CONTINUOUS
 62
     9
 10
-3279.760891277798
 20
-378.6366929026278
 30
0.0
 11
-3279.760891277798
 21
-364.6366929026278
 31
0.0
  0
LINE
  5
1DB
  8
1
  6
CONTINUOUS
 62
     7
 10
-3279.549513734697
 20
-378.6366929026278
 30
0.0
 11
-3279.760891277799
 21
-378.6366929026278
 31
0.0
  0
LINE
  5
1DC
  8
1
  6
CONTINUOUS
 62
     7
 10
-3279.549513734697
 20
-364.6366929026278
 30
0.0
 11
-3279.760891277799
 21
-364.6366929026278
 31
0.0
  0
LINE
  5
1DD
  8
1
  6
CONTINUOUS
 62
     9
 10
-3235.843723765138
 20
-378.6366929026278
 30
0.0
 11
-3235.843723765138
 21
-364.6366929026278
 31
0.0
  0
LINE
  5
1DE
  8
1
  6
CONTINUOUS
 62
     7
 10
-3236.05510130824
 20
-378.6366929026278
 30
0.0
 11
-3235.843723765137
 21
-378.6366929026278
 31
0.0
  0
LINE
  5
1DF
  8
1
  6
CONTINUOUS
 62
     7
 10
-3236.05510130824
 20
-364.6366929026278
 30
0.0
 11
-3235.843723765137
 21
-364.6366929026278
 31
0.0
  0
LINE
  5
1E0
  8
1
  6
CONTINUOUS
 62
     9
 10
-3218.260891277798
 20
-364.6366929026278
 30
0.0
 11
-3218.260891277798
 21
-378.6366929026278
 31
0.0
  0
LINE
  5
1E1
  8
1
  6
CONTINUOUS
 62
     7
 10
-3218.049513734697
 20
-378.6366929026278
 30
0.0
 11
-3218.260891277799
 21
-378.6366929026278
 31
0.0
  0
LINE
  5
1E2
  8
1
  6
CONTINUOUS
 62
     7
 10
-3218.049513734697
 20
-364.6366929026278
 30
0.0
 11
-3218.260891277799
 21
-364.6366929026278
 31
0.0
  0
LINE
  5
1E3
  8
1
  6
CONTINUOUS
 62
     9
 10
-3295.374108259113
 20
-378.6366929026278
 30
0.0
 11
-3295.374108259113
 21
-364.6366929026278
 31
0.0
  0
LINE
  5
1E4
  8
1
  6
CONTINUOUS
 62
     7
 10
-3295.374108259113
 20
-378.6366929026278
 30
0.0
 11
-3297.343723765138
 21
-378.6366929026278
 31
0.0
  0
LINE
  5
1E5
  8
1
  6
CONTINUOUS
 62
     7
 10
-3297.343723765138
 20
-364.6366929026278
 30
0.0
 11
-3295.374108259114
 21
-364.6366929026278
 31
0.0
  0
LINE
  5
1E6
  8
1
  6
CONTINUOUS
 62
     9
 10
-3281.730506783822
 20
-364.6366929026278
 30
0.0
 11
-3281.730506783822
 21
-378.6366929026278
 31
0.0
  0
LINE
  5
1E7
  8
1
  6
CONTINUOUS
 62
     7
 10
-3279.760891277798
 20
-378.6366929026278
 30
0.0
 11
-3281.730506783822
 21
-378.6366929026278
 31
0.0
  0
LINE
  5
1E8
  8
1
  6
CONTINUOUS
 62
     7
 10
-3281.730506783822
 20
-364.6366929026278
 30
0.0
 11
-3279.760891277798
 21
-364.6366929026278
 31
0.0
  0
LINE
  5
1E9
  8
1
  6
CONTINUOUS
 62
     9
 10
-3233.874108259114
 20
-364.6366929026278
 30
0.0
 11
-3233.874108259114
 21
-378.6366929026278
 31
0.0
  0
LINE
  5
1EA
  8
1
  6
CONTINUOUS
 62
     7
 10
-3235.843723765138
 20
-378.6366929026278
 30
0.0
 11
-3233.874108259114
 21
-378.6366929026278
 31
0.0
  0
LINE
  5
1EB
  8
1
  6
CONTINUOUS
 62
     7
 10
-3233.874108259114
 20
-364.6366929026278
 30
0.0
 11
-3235.843723765138
 21
-364.6366929026278
 31
0.0
  0
LINE
  5
1EC
  8
1
  6
CONTINUOUS
 62
     9
 10
-3220.230506783823
 20
-378.6366929026278
 30
0.0
 11
-3220.230506783823
 21
-364.6366929026278
 31
0.0
  0
LINE
  5
1ED
  8
1
  6
CONTINUOUS
 62
     7
 10
-3220.230506783823
 20
-378.6366929026278
 30
0.0
 11
-3218.260891277799
 21
-378.6366929026278
 31
0.0
  0
LINE
  5
1EE
  8
1
  6
CONTINUOUS
 62
     7
 10
-3218.260891277798
 20
-364.6366929026278
 30
0.0
 11
-3220.230506783822
 21
-364.6366929026278
 31
0.0
  0
ARC
  5
1EF
  8
1
  6
CONTINUOUS
 62
     7
 10
-3291.302307521468
 20
-371.6366929026278
 30
0.0
 40
2.5
 50
90.00000000000001
 51
270.0
  0
LINE
  5
1F0
  8
1
  6
CONTINUOUS
 62
     7
 10
-3291.302307521468
 20
-374.1366929026278
 30
0.0
 11
-3290.472164170597
 21
-374.1366929026278
 31
0.0
  0
LINE
  5
1F1
  8
1
  6
CONTINUOUS
 62
     7
 10
-3290.472164170597
 20
-369.1366929026278
 30
0.0
 11
-3291.302307521468
 21
-369.1366929026278
 31
0.0
  0
LINE
  5
1F2
  8
1
  6
CONTINUOUS
 62
     7
 10
-3295.374108259113
 20
-378.6366929026278
 30
0.0
 11
-3281.730506783822
 21
-378.6366929026278
 31
0.0
  0
LINE
  5
1F3
  8
1
  6
CONTINUOUS
 62
     7
 10
-3281.730506783822
 20
-364.6366929026278
 30
0.0
 11
-3295.374108259113
 21
-364.6366929026278
 31
0.0
  0
LINE
  5
1F4
  8
1
  6
CONTINUOUS
 62
     7
 10
-3224.302307521468
 20
-374.1366929026278
 30
0.0
 11
-3225.13245087234
 21
-374.1366929026278
 31
0.0
  0
ARC
  5
1F5
  8
1
  6
CONTINUOUS
 62
     7
 10
-3224.302307521468
 20
-371.6366929026278
 30
0.0
 40
2.5
 50
270.0
 51
90.0
  0
LINE
  5
1F6
  8
1
  6
CONTINUOUS
 62
     7
 10
-3225.13245087234
 20
-369.1366929026278
 30
0.0
 11
-3224.302307521468
 21
-369.1366929026278
 31
0.0
  0
LINE
  5
1F7
  8
1
  6
CONTINUOUS
 62
     7
 10
-3220.230506783823
 20
-378.6366929026278
 30
0.0
 11
-3233.874108259114
 21
-378.6366929026278
 31
0.0
  0
LINE
  5
1F8
  8
1
  6
CONTINUOUS
 62
     7
 10
-3233.874108259114
 20
-364.6366929026278
 30
0.0
 11
-3220.230506783823
 21
-364.6366929026278
 31
0.0
  0
ENDBLK
  8
0
  0
BLOCK
  8
0
  2
D_FRAME_VIEW_6231
 70
     0
 10
0.0
 20
0.0
 30
0.0
  0
LINE
  5
201
  8
1
  6
CONTINUOUS
 62
     7
 10
-3257.802307521468
 20
-246.9366929026279
 30
0.0
 11
-3257.802307521468
 21
-240.5366929026279
 31
0.0
  0
LINE
  5
202
  8
1
  6
CONTINUOUS
 62
     7
 10
-3257.802307521468
 20
-246.9366929026279
 30
0.0
 11
-3265.802307521468
 21
-246.9366929026279
 31
0.0
  0
LINE
  5
203
  8
1
  6
CONTINUOUS
 62
     7
 10
-3265.802307521468
 20
-246.9366929026279
 30
0.0
 11
-3265.802307521468
 21
-240.5366929026279
 31
0.0
  0
LINE
  5
204
  8
1
  6
CONTINUOUS
 62
     7
 10
-3257.802307521468
 20
-240.5366929026279
 30
0.0
 11
-3260.056777515997
 21
-240.5366929026279
 31
0.0
  0
LINE
  5
205
  8
1
  6
CONTINUOUS
 62
     7
 10
-3263.547837526939
 20
-240.5366929026279
 30
0.0
 11
-3265.802307521468
 21
-240.5366929026279
 31
0.0
  0
LINE
  5
206
  8
1
  6
CONTINUOUS
 62
     7
 10
-3249.802307521468
 20
-246.9366929026279
 30
0.0
 11
-3249.802307521468
 21
-240.5366929026279
 31
0.0
  0
LINE
  5
207
  8
1
  6
CONTINUOUS
 62
     7
 10
-3249.802307521468
 20
-246.9366929026279
 30
0.0
 11
-3257.802307521468
 21
-246.9366929026279
 31
0.0
  0
LINE
  5
208
  8
1
  6
CONTINUOUS
 62
     7
 10
-3249.802307521468
 20
-240.5366929026279
 30
0.0
 11
-3252.056777515997
 21
-240.5366929026279
 31
0.0
  0
LINE
  5
209
  8
1
  6
CONTINUOUS
 62
     7
 10
-3255.547837526939
 20
-240.5366929026279
 30
0.0
 11
-3257.802307521468
 21
-240.5366929026279
 31
0.0
  0
LINE
  5
20A
  8
1
  6
CONTINUOUS
 62
     7
 10
-3262.052307521468
 20
-220.5366929026279
 30
0.0
 11
-3253.552307521468
 21
-220.5366929026279
 31
0.0
  0
LINE
  5
20B
  8
1
  6
CONTINUOUS
 62
     7
 10
-3249.552307521468
 20
-240.5366929026279
 30
0.0
 11
-3249.802307521468
 21
-240.5366929026279
 31
0.0
  0
LINE
  5
20C
  8
1
  6
CONTINUOUS
 62
     7
 10
-3252.056777515997
 20
-240.5366929026279
 30
0.0
 11
-3255.547837526939
 21
-240.5366929026279
 31
0.0
  0
LINE
  5
20D
  8
1
  6
CONTINUOUS
 62
     7
 10
-3260.056777515997
 20
-240.5366929026279
 30
0.0
 11
-3263.547837526939
 21
-240.5366929026279
 31
0.0
  0
LINE
  5
20E
  8
1
  6
CONTINUOUS
 62
     7
 10
-3265.802307521468
 20
-240.5366929026279
 30
0.0
 11
-3266.052307521468
 21
-240.5366929026279
 31
0.0
  0
LINE
  5
20F
  8
1
  6
CONTINUOUS
 62
     7
 10
-3266.049634361118
 20
-237.5366929026278
 30
0.0
 11
-3266.052307521468
 21
-239.1520775180125
 31
0.0
  0
LINE
  5
210
  8
1
  6
CONTINUOUS
 62
     7
 10
-3247.802307521468
 20
-237.5366929026279
 30
0.0
 11
-3267.802307521468
 21
-237.5366929026279
 31
0.0
  0
ARC
  5
211
  8
1
  6
CONTINUOUS
 62
     7
 10
-3261.97761846125
 20
-217.1018708884332
 30
0.0
 40
12.53604789609334
 50
270.8012815891323
 51
289.4548764112858
  0
ARC
  5
212
  8
1
  6
CONTINUOUS
 62
     7
 10
-3253.666296398368
 20
-217.3218742573038
 30
0.0
 40
12.31556971044485
 50
250.3766200133937
 51
269.3672219861905
  0
ARC
  5
213
  8
1
  6
CONTINUOUS
 62
     7
 10
-3253.97761846125
 20
-217.1018708884332
 30
0.0
 40
12.53604789609334
 50
270.8012815891323
 51
289.4548764112858
  0
LINE
  5
214
  8
1
  6
CONTINUOUS
 62
     7
 10
-3257.802307521468
 20
-221.9512240824442
 30
0.0
 11
-3257.802307521468
 21
-228.9221617228115
 31
0.0
  0
ARC
  5
215
  8
1
  6
CONTINUOUS
 62
     7
 10
-3253.626996581686
 20
-233.7715149168224
 30
0.0
 40
12.53604789609334
 50
90.80128158913224
 51
109.4548764112859
  0
ARC
  5
216
  8
1
  6
CONTINUOUS
 62
     7
 10
-3253.938318644569
 20
-233.5515115479518
 30
0.0
 40
12.31556971044485
 50
70.37662001339368
 51
89.3672219861906
  0
ARC
  5
217
  8
1
  6
CONTINUOUS
 62
     7
 10
-3261.666296398367
 20
-217.3218742573018
 30
0.0
 40
12.31556971044691
 50
250.3766200133948
 51
269.3672219861886
  0
ARC
  5
218
  8
1
  6
CONTINUOUS
 62
     7
 10
-3261.626996581686
 20
-233.7715149168224
 30
0.0
 40
12.53604789609334
 50
90.80128158913224
 51
109.4548764112859
  0
ARC
  5
219
  8
1
  6
CONTINUOUS
 62
     7
 10
-3261.938318644569
 20
-233.5515115479518
 30
0.0
 40
12.31556971044485
 50
70.37662001339368
 51
89.3672219861906
  0
LINE
  5
21A
  8
1
  6
CONTINUOUS
 62
     7
 10
-3261.802307521468
 20
-221.2366929026278
 30
0.0
 11
-3253.802307521468
 21
-221.2366929026278
 31
0.0
  0
LINE
  5
21B
  8
1
  6
CONTINUOUS
 62
     7
 10
-3253.802307521468
 20
-221.2366929026278
 30
0.0
 11
-3249.802307521468
 21
-221.2366929026278
 31
0.0
  0
LINE
  5
21C
  8
1
  6
CONTINUOUS
 62
     7
 10
-3265.802307521468
 20
-221.2366929026278
 30
0.0
 11
-3261.802307521468
 21
-221.2366929026278
 31
0.0
  0
LINE
  5
21D
  8
1
  6
CONTINUOUS
 62
     7
 10
-3250.002307521468
 20
-229.6366929026278
 30
0.0
 11
-3249.802307521468
 21
-229.6366929026278
 31
0.0
  0
ARC
  5
21E
  8
1
  6
CONTINUOUS
 62
     7
 10
-3268.102307521468
 20
-221.2366929026278
 30
0.0
 40
2.299999999999969
 50
0.0
 51
90.0000000000017
  0
LINE
  5
21F
  8
1
  6
CONTINUOUS
 62
     7
 10
-3265.802307521468
 20
-229.3366929026278
 30
0.0
 11
-3265.802307521468
 21
-221.2366929026278
 31
0.0
  0
ARC
  5
220
  8
1
  6
CONTINUOUS
 62
     7
 10
-3265.502307521468
 20
-229.3366929026278
 30
0.0
 40
0.3000000000000225
 50
180.0
 51
269.9999999999986
  0
LINE
  5
221
  8
1
  6
CONTINUOUS
 62
     7
 10
-3251.002307521468
 20
-229.6366929026278
 30
0.0
 11
-3265.502307521468
 21
-229.6366929026278
 31
0.0
  0
LINE
  5
222
  8
1
  6
CONTINUOUS
 62
     9
 10
-3251.002307521468
 20
-231.6366929026278
 30
0.0
 11
-3251.002307521468
 21
-229.6366929026278
 31
0.0
  0
LINE
  5
223
  8
1
  6
CONTINUOUS
 62
     7
 10
-3265.502307521468
 20
-231.6366929026278
 30
0.0
 11
-3251.002307521468
 21
-231.6366929026278
 31
0.0
  0
ARC
  5
224
  8
1
  6
CONTINUOUS
 62
     7
 10
-3265.502307521468
 20
-229.3366929026278
 30
0.0
 40
2.299999999999969
 50
180.0
 51
270.0
  0
LINE
  5
225
  8
1
  6
CONTINUOUS
 62
     7
 10
-3267.802307521468
 20
-221.2366929026278
 30
0.0
 11
-3267.802307521468
 21
-229.3366929026278
 31
0.0
  0
ARC
  5
226
  8
1
  6
CONTINUOUS
 62
     7
 10
-3268.102307521468
 20
-221.2366929026278
 30
0.0
 40
0.2999999999999947
 50
0.0
 51
90.0
  0
LINE
  5
227
  8
1
  6
CONTINUOUS
 62
     7
 10
-3274.302307521468
 20
-220.9366929026278
 30
0.0
 11
-3268.102307521468
 21
-220.9366929026278
 31
0.0
  0
LINE
  5
228
  8
1
  6
CONTINUOUS
 62
     9
 10
-3274.302307521468
 20
-218.9366929026278
 30
0.0
 11
-3274.302307521468
 21
-220.9366929026278
 31
0.0
  0
LINE
  5
229
  8
1
  6
CONTINUOUS
 62
     7
 10
-3274.302307521468
 20
-218.9366929026278
 30
0.0
 11
-3268.102307521468
 21
-218.9366929026278
 31
0.0
  0
LINE
  5
22A
  8
1
  6
CONTINUOUS
 62
     7
 10
-3240.302307521468
 20
-218.9366929026278
 30
0.0
 11
-3240.302307521468
 21
-220.9366929026278
 31
0.0
  0
LINE
  5
22B
  8
1
  6
CONTINUOUS
 62
     7
 10
-3240.302307521468
 20
-220.9366929026278
 30
0.0
 11
-3241.302307521468
 21
-220.9366929026278
 31
0.0
  0
LINE
  5
22C
  8
1
  6
CONTINUOUS
 62
     9
 10
-3241.302307521468
 20
-220.9366929026278
 30
0.0
 11
-3241.302307521468
 21
-218.9366929026278
 31
0.0
  0
LINE
  5
22D
  8
1
  6
CONTINUOUS
 62
     7
 10
-3241.302307521468
 20
-218.9366929026278
 30
0.0
 11
-3240.302307521468
 21
-218.9366929026278
 31
0.0
  0
ARC
  5
22E
  8
1
  6
CONTINUOUS
 62
     7
 10
-3247.502307521468
 20
-221.2366929026278
 30
0.0
 40
0.300000000000189
 50
90.0
 51
180.0
  0
LINE
  5
22F
  8
1
  6
CONTINUOUS
 62
     7
 10
-3247.802307521468
 20
-231.6366929026278
 30
0.0
 11
-3247.802307521468
 21
-221.2366929026278
 31
0.0
  0
ARC
  5
230
  8
1
  6
CONTINUOUS
 62
     7
 10
-3250.102307521468
 20
-231.6366929026278
 30
0.0
 40
2.299999999999996
 50
270.0000000000001
 51
359.9999999999998
  0
LINE
  5
231
  8
1
  6
CONTINUOUS
 62
     9
 10
-3266.102307521468
 20
-231.9366929026278
 30
0.0
 11
-3266.102307521468
 21
-233.9366929026278
 31
0.0
  0
LINE
  5
232
  8
1
  6
CONTINUOUS
 62
     7
 10
-3250.102307521468
 20
-231.9366929026278
 30
0.0
 11
-3266.102307521468
 21
-231.9366929026278
 31
0.0
  0
ARC
  5
233
  8
1
  6
CONTINUOUS
 62
     7
 10
-3250.102307521468
 20
-231.6366929026278
 30
0.0
 40
0.300000000000189
 50
270.0
 51
359.9999999999986
  0
LINE
  5
234
  8
1
  6
CONTINUOUS
 62
     7
 10
-3249.802307521468
 20
-221.2366929026278
 30
0.0
 11
-3249.802307521468
 21
-231.6366929026278
 31
0.0
  0
ARC
  5
235
  8
1
  6
CONTINUOUS
 62
     7
 10
-3247.502307521468
 20
-221.2366929026278
 30
0.0
 40
2.299999999999996
 50
90.0
 51
180.0
  0
LINE
  5
236
  8
1
  6
CONTINUOUS
 62
     7
 10
-3241.302307521468
 20
-220.9366929026278
 30
0.0
 11
-3247.502307521468
 21
-220.9366929026278
 31
0.0
  0
LINE
  5
237
  8
1
  6
CONTINUOUS
 62
     7
 10
-3241.302307521468
 20
-218.9366929026278
 30
0.0
 11
-3247.502307521468
 21
-218.9366929026278
 31
0.0
  0
LINE
  5
238
  8
1
  6
CONTINUOUS
 62
     7
 10
-3274.302307521468
 20
-220.9366929026278
 30
0.0
 11
-3275.302307521468
 21
-220.9366929026278
 31
0.0
  0
LINE
  5
239
  8
1
  6
CONTINUOUS
 62
     7
 10
-3275.302307521468
 20
-220.9366929026278
 30
0.0
 11
-3275.302307521468
 21
-218.9366929026278
 31
0.0
  0
LINE
  5
23A
  8
1
  6
CONTINUOUS
 62
     7
 10
-3275.302307521468
 20
-218.9366929026278
 30
0.0
 11
-3274.302307521468
 21
-218.9366929026278
 31
0.0
  0
LINE
  5
23B
  8
1
  6
CONTINUOUS
 62
     7
 10
-3251.002307521468
 20
-229.6366929026278
 30
0.0
 11
-3250.002307521468
 21
-229.6366929026278
 31
0.0
  0
LINE
  5
23C
  8
1
  6
CONTINUOUS
 62
     7
 10
-3250.002307521468
 20
-229.6366929026278
 30
0.0
 11
-3250.002307521468
 21
-231.6366929026278
 31
0.0
  0
LINE
  5
23D
  8
1
  6
CONTINUOUS
 62
     7
 10
-3250.002307521468
 20
-231.6366929026278
 30
0.0
 11
-3251.002307521468
 21
-231.6366929026278
 31
0.0
  0
ARC
  5
23E
  8
1
  6
CONTINUOUS
 62
     7
 10
-3250.102307521468
 20
-176.2366929026278
 30
0.0
 40
0.3000000000000225
 50
0.0
 51
90.00000000000132
  0
LINE
  5
23F
  8
1
  6
CONTINUOUS
 62
     7
 10
-3265.502307521468
 20
-175.9366929026278
 30
0.0
 11
-3250.102307521468
 21
-175.9366929026278
 31
0.0
  0
ARC
  5
240
  8
1
  6
CONTINUOUS
 62
     7
 10
-3265.502307521468
 20
-176.2366929026278
 30
0.0
 40
0.300000000000189
 50
90.00000000000016
 51
180.0
  0
LINE
  5
241
  8
1
  6
CONTINUOUS
 62
     7
 10
-3265.802307521468
 20
-182.8576914981337
 30
0.0
 11
-3265.802307521468
 21
-176.2366929026278
 31
0.0
  0
LINE
  5
242
  8
1
  6
CONTINUOUS
 62
     9
 10
-3267.802307521468
 20
-182.8576914981337
 30
0.0
 11
-3265.802307521468
 21
-182.8576914981337
 31
0.0
  0
LINE
  5
243
  8
1
  6
CONTINUOUS
 62
     7
 10
-3267.802307521468
 20
-176.2366929026278
 30
0.0
 11
-3267.802307521468
 21
-182.8576914981337
 31
0.0
  0
ARC
  5
244
  8
1
  6
CONTINUOUS
 62
     7
 10
-3265.502307521468
 20
-176.2366929026278
 30
0.0
 40
2.300000000000024
 50
90.00000000000036
 51
180.0
  0
LINE
  5
245
  8
1
  6
CONTINUOUS
 62
     7
 10
-3250.102307521468
 20
-173.9366929026278
 30
0.0
 11
-3265.502307521468
 21
-173.9366929026278
 31
0.0
  0
ARC
  5
246
  8
1
  6
CONTINUOUS
 62
     7
 10
-3250.102307521468
 20
-176.2366929026278
 30
0.0
 40
2.299999999999969
 50
0.0000000000006914
 51
90.00000000000001
  0
LINE
  5
247
  8
1
  6
CONTINUOUS
 62
     9
 10
-3249.802307521468
 20
-182.8576914981337
 30
0.0
 11
-3247.802307521468
 21
-182.8576914981337
 31
0.0
  0
LINE
  5
248
  8
1
  6
CONTINUOUS
 62
     7
 10
-3247.802307521468
 20
-182.8576914981337
 30
0.0
 11
-3247.802307521468
 21
-176.2366929026278
 31
0.0
  0
LINE
  5
249
  8
1
  6
CONTINUOUS
 62
     7
 10
-3249.802307521468
 20
-176.2366929026278
 30
0.0
 11
-3249.802307521468
 21
-182.8576914981337
 31
0.0
  0
LINE
  5
24A
  8
1
  6
CONTINUOUS
 62
     7
 10
-3267.602307521468
 20
-233.9366929026278
 30
0.0
 11
-3267.602307521468
 21
-231.9366929026278
 31
0.0
  0
LINE
  5
24B
  8
1
  6
CONTINUOUS
 62
     7
 10
-3267.602307521468
 20
-231.9366929026278
 30
0.0
 11
-3266.102307521468
 21
-231.9366929026278
 31
0.0
  0
LINE
  5
24C
  8
1
  6
CONTINUOUS
 62
     9
 10
-3247.802307521468
 20
-185.6666790308408
 30
0.0
 11
-3249.802307521468
 21
-185.6666790308408
 31
0.0
  0
LINE
  5
24D
  8
1
  6
CONTINUOUS
 62
     7
 10
-3247.802307521468
 20
-182.8576914981337
 30
0.0
 11
-3247.802307521468
 21
-185.6666790308408
 31
0.0
  0
LINE
  5
24E
  8
1
  6
CONTINUOUS
 62
     7
 10
-3249.802307521468
 20
-185.6666790308408
 30
0.0
 11
-3249.802307521468
 21
-182.8576914981337
 31
0.0
  0
LINE
  5
24F
  8
1
  6
CONTINUOUS
 62
     9
 10
-3265.802307521468
 20
-185.6666790308408
 30
0.0
 11
-3267.802307521468
 21
-185.6666790308408
 31
0.0
  0
LINE
  5
250
  8
1
  6
CONTINUOUS
 62
     7
 10
-3267.802307521468
 20
-185.6666790308408
 30
0.0
 11
-3267.802307521468
 21
-182.8576914981337
 31
0.0
  0
LINE
  5
251
  8
1
  6
CONTINUOUS
 62
     7
 10
-3265.802307521468
 20
-182.8576914981337
 30
0.0
 11
-3265.802307521468
 21
-185.6666790308408
 31
0.0
  0
LINE
  5
252
  8
1
  6
CONTINUOUS
 62
     7
 10
-3247.802307521468
 20
-187.9366929026278
 30
0.0
 11
-3249.802307521468
 21
-187.9366929026278
 31
0.0
  0
LINE
  5
253
  8
1
  6
CONTINUOUS
 62
     7
 10
-3247.802307521468
 20
-185.6666790308408
 30
0.0
 11
-3247.802307521468
 21
-187.9366929026278
 31
0.0
  0
LINE
  5
254
  8
1
  6
CONTINUOUS
 62
     7
 10
-3249.802307521468
 20
-187.9366929026278
 30
0.0
 11
-3249.802307521468
 21
-185.6666790308408
 31
0.0
  0
LINE
  5
255
  8
1
  6
CONTINUOUS
 62
     7
 10
-3265.802307521468
 20
-187.9366929026278
 30
0.0
 11
-3267.802307521468
 21
-187.9366929026278
 31
0.0
  0
LINE
  5
256
  8
1
  6
CONTINUOUS
 62
     7
 10
-3267.802307521468
 20
-187.9366929026278
 30
0.0
 11
-3267.802307521468
 21
-185.6666790308408
 31
0.0
  0
LINE
  5
257
  8
1
  6
CONTINUOUS
 62
     7
 10
-3265.802307521468
 20
-185.6666790308408
 30
0.0
 11
-3265.802307521468
 21
-187.9366929026278
 31
0.0
  0
LINE
  5
258
  8
1
  6
CONTINUOUS
 62
     9
 10
-3253.202307521468
 20
-176.4366929026278
 30
0.0
 11
-3262.402307521468
 21
-176.4366929026278
 31
0.0
  0
LINE
  5
259
  8
1
  6
CONTINUOUS
 62
     7
 10
-3262.402307521468
 20
-177.9366929026278
 30
0.0
 11
-3253.202307521468
 21
-177.9366929026278
 31
0.0
  0
LINE
  5
25A
  8
1
  6
CONTINUOUS
 62
     9
 10
-3249.802307521468
 20
-191.9366929026278
 30
0.0
 11
-3247.802307521468
 21
-191.9366929026278
 31
0.0
  0
LINE
  5
25B
  8
1
  6
CONTINUOUS
 62
     7
 10
-3247.802307521468
 20
-191.9366929026278
 30
0.0
 11
-3247.802307521468
 21
-187.9366929026278
 31
0.0
  0
LINE
  5
25C
  8
1
  6
CONTINUOUS
 62
     7
 10
-3249.802307521468
 20
-187.9366929026278
 30
0.0
 11
-3249.802307521468
 21
-191.9366929026278
 31
0.0
  0
LINE
  5
25D
  8
1
  6
CONTINUOUS
 62
     9
 10
-3267.802307521468
 20
-191.9366929026278
 30
0.0
 11
-3265.802307521468
 21
-191.9366929026278
 31
0.0
  0
LINE
  5
25E
  8
1
  6
CONTINUOUS
 62
     7
 10
-3267.802307521468
 20
-187.9366929026278
 30
0.0
 11
-3267.802307521468
 21
-191.9366929026278
 31
0.0
  0
LINE
  5
25F
  8
1
  6
CONTINUOUS
 62
     7
 10
-3265.802307521468
 20
-191.9366929026278
 30
0.0
 11
-3265.802307521468
 21
-187.9366929026278
 31
0.0
  0
LINE
  5
260
  8
1
  6
CONTINUOUS
 62
     9
 10
-3249.802307521468
 20
-219.4366929026278
 30
0.0
 11
-3248.934089627796
 21
-219.4366929026278
 31
0.0
  0
LINE
  5
261
  8
1
  6
CONTINUOUS
 62
     7
 10
-3249.802307521468
 20
-219.4366929026278
 30
0.0
 11
-3249.802307521468
 21
-221.2366929026278
 31
0.0
  0
LINE
  5
262
  8
1
  6
CONTINUOUS
 62
     9
 10
-3266.670525415141
 20
-219.4366929026278
 30
0.0
 11
-3265.802307521468
 21
-219.4366929026278
 31
0.0
  0
LINE
  5
263
  8
1
  6
CONTINUOUS
 62
     7
 10
-3265.802307521468
 20
-221.2366929026278
 30
0.0
 11
-3265.802307521468
 21
-219.4366929026278
 31
0.0
  0
LINE
  5
264
  8
1
  6
CONTINUOUS
 62
     7
 10
-3247.802307521468
 20
-191.9366929026278
 30
0.0
 11
-3247.802307521468
 21
-218.9563420524295
 31
0.0
  0
LINE
  5
265
  8
1
  6
CONTINUOUS
 62
     7
 10
-3249.802307521468
 20
-219.4366929026278
 30
0.0
 11
-3249.802307521468
 21
-191.9366929026278
 31
0.0
  0
LINE
  5
266
  8
1
  6
CONTINUOUS
 62
     7
 10
-3267.802307521468
 20
-218.9563420524295
 30
0.0
 11
-3267.802307521468
 21
-191.9366929026278
 31
0.0
  0
LINE
  5
267
  8
1
  6
CONTINUOUS
 62
     7
 10
-3265.802307521468
 20
-191.9366929026278
 30
0.0
 11
-3265.802307521468
 21
-219.4366929026278
 31
0.0
  0
LINE
  5
268
  8
1
  6
CONTINUOUS
 62
     7
 10
-3254.049530771736
 20
-156.6366929026278
 30
0.0
 11
-3254.049530771736
 21
-161.9366929026278
 31
0.0
  0
LINE
  5
269
  8
1
  6
CONTINUOUS
 62
     7
 10
-3250.296754022003
 20
-156.6366929026278
 30
0.0
 11
-3254.049530771736
 21
-156.6366929026278
 31
0.0
  0
LINE
  5
26A
  8
1
  6
CONTINUOUS
 62
     7
 10
-3250.296754022003
 20
-156.6366929026278
 30
0.0
 11
-3250.296754022003
 21
-161.9366929026278
 31
0.0
  0
LINE
  5
26B
  8
1
  6
CONTINUOUS
 62
     7
 10
-3250.296754022003
 20
-161.9366929026278
 30
0.0
 11
-3254.049530771736
 21
-161.9366929026278
 31
0.0
  0
LINE
  5
26C
  8
1
  6
CONTINUOUS
 62
     7
 10
-3261.5550842712
 20
-156.6366929026278
 30
0.0
 11
-3261.5550842712
 21
-161.9366929026278
 31
0.0
  0
LINE
  5
26D
  8
1
  6
CONTINUOUS
 62
     7
 10
-3254.049530771736
 20
-156.6366929026278
 30
0.0
 11
-3261.5550842712
 21
-156.6366929026278
 31
0.0
  0
LINE
  5
26E
  8
1
  6
CONTINUOUS
 62
     7
 10
-3254.049530771736
 20
-161.9366929026278
 30
0.0
 11
-3261.5550842712
 21
-161.9366929026278
 31
0.0
  0
LINE
  5
26F
  8
1
  6
CONTINUOUS
 62
     7
 10
-3265.307861020933
 20
-156.6366929026278
 30
0.0
 11
-3265.307861020933
 21
-161.9366929026278
 31
0.0
  0
LINE
  5
270
  8
1
  6
CONTINUOUS
 62
     7
 10
-3261.5550842712
 20
-156.6366929026278
 30
0.0
 11
-3265.307861020933
 21
-156.6366929026278
 31
0.0
  0
LINE
  5
271
  8
1
  6
CONTINUOUS
 62
     7
 10
-3261.5550842712
 20
-161.9366929026278
 30
0.0
 11
-3265.307861020933
 21
-161.9366929026278
 31
0.0
  0
LINE
  5
272
  8
1
  6
CONTINUOUS
 62
     9
 10
-3261.802307521468
 20
-165.9366929026278
 30
0.0
 11
-3253.802307521468
 21
-165.9366929026278
 31
0.0
  0
LINE
  5
273
  8
1
  6
CONTINUOUS
 62
     7
 10
-3253.802307521468
 20
-206.3116929026278
 30
0.0
 11
-3261.802307521468
 21
-206.3116929026278
 31
0.0
  0
LINE
  5
274
  8
1
  6
CONTINUOUS
 62
     7
 10
-3261.177307521468
 20
-206.9366929026278
 30
0.0
 11
-3254.427307521468
 21
-206.9366929026278
 31
0.0
  0
LINE
  5
275
  8
1
  6
CONTINUOUS
 62
     7
 10
-3290.730506783823
 20
-263.4366929026282
 30
0.0
 11
-3282.730506783823
 21
-263.4366929026282
 31
0.0
  0
LINE
  5
276
  8
1
  6
CONTINUOUS
 62
     7
 10
-3284.730506783823
 20
-251.7866929026281
 30
0.0
 11
-3288.730506783823
 21
-251.7866929026281
 31
0.0
  0
LINE
  5
277
  8
1
  6
CONTINUOUS
 62
     7
 10
-3288.380506783823
 20
-251.4366929026282
 30
0.0
 11
-3285.080506783823
 21
-251.4366929026282
 31
0.0
  0
LINE
  5
278
  8
1
  6
CONTINUOUS
 62
     7
 10
-3232.874108259113
 20
-263.4366929026278
 30
0.0
 11
-3224.874108259113
 21
-263.4366929026278
 31
0.0
  0
LINE
  5
279
  8
1
  6
CONTINUOUS
 62
     7
 10
-3226.874108259114
 20
-251.7866929026278
 30
0.0
 11
-3230.874108259114
 21
-251.7866929026278
 31
0.0
  0
LINE
  5
27A
  8
1
  6
CONTINUOUS
 62
     7
 10
-3230.524108259114
 20
-251.4366929026278
 30
0.0
 11
-3227.224108259114
 21
-251.4366929026278
 31
0.0
  0
LINE
  5
27B
  8
1
  6
CONTINUOUS
 62
     7
 10
-3286.778506783823
 20
-263.4366929026286
 30
0.0
 11
-3286.648506783823
 21
-262.436692902627
 31
0.0
  0
LINE
  5
27C
  8
1
  6
CONTINUOUS
 62
     7
 10
-3286.812506783823
 20
-262.4366929026286
 30
0.0
 11
-3286.942506783823
 21
-263.4366929026303
 31
0.0
  0
LINE
  5
27D
  8
1
  6
CONTINUOUS
 62
     7
 10
-3228.922108259113
 20
-263.4366929026278
 30
0.0
 11
-3228.792108259113
 21
-262.4366929026278
 31
0.0
  0
LINE
  5
27E
  8
1
  6
CONTINUOUS
 62
     7
 10
-3228.956108259114
 20
-262.4366929026278
 30
0.0
 11
-3229.086108259114
 21
-263.4366929026278
 31
0.0
  0
LINE
  5
27F
  8
1
  6
CONTINUOUS
 62
     7
 10
-3224.374108259114
 20
-262.4366929026278
 30
0.0
 11
-3233.374108259114
 21
-262.4366929026278
 31
0.0
  0
LINE
  5
280
  8
1
  6
CONTINUOUS
 62
     7
 10
-3282.230506783822
 20
-262.4366929026278
 30
0.0
 11
-3291.230506783823
 21
-262.4366929026278
 31
0.0
  0
ARC
  5
281
  8
1
  6
CONTINUOUS
 62
     7
 10
-3233.702307521468
 20
-256.4366929026278
 30
0.0
 40
2.000000000000012
 50
180.0000000000009
 51
264.3162169723207
  0
LINE
  5
282
  8
1
  6
CONTINUOUS
 62
     9
 10
-3233.900383732821
 20
-258.4268601856711
 30
0.0
 11
-3233.900383732821
 21
-260.0312395798176
 31
0.0
  0
ARC
  5
283
  8
1
  6
CONTINUOUS
 62
     7
 10
-3233.702307521468
 20
-256.4366929026278
 30
0.0
 40
3.600000000000048
 50
180.0
 51
266.845926415137
  0
LINE
  5
284
  8
1
  6
CONTINUOUS
 62
     7
 10
-3237.302307521468
 20
-236.5366929026279
 30
0.0
 11
-3237.302307521468
 21
-256.4366929026278
 31
0.0
  0
ARC
  5
285
  8
1
  6
CONTINUOUS
 62
     7
 10
-3238.302307521468
 20
-236.5366929026279
 30
0.0
 40
1.000000000000001
 50
359.9999999999996
 51
89.99999999998408
  0
LINE
  5
286
  8
1
  6
CONTINUOUS
 62
     7
 10
-3277.302307521468
 20
-235.5366929026279
 30
0.0
 11
-3238.302307521468
 21
-235.5366929026279
 31
0.0
  0
ARC
  5
287
  8
1
  6
CONTINUOUS
 62
     7
 10
-3277.302307521467
 20
-236.5366929026279
 30
0.0
 40
0.9999999999998899
 50
90.00000000001593
 51
180.000000000008
  0
LINE
  5
288
  8
1
  6
CONTINUOUS
 62
     7
 10
-3278.302307521467
 20
-236.5366929026281
 30
0.0
 11
-3278.302307521467
 21
-256.436692902628
 31
0.0
  0
ARC
  5
289
  8
1
  6
CONTINUOUS
 62
     7
 10
-3281.902307521467
 20
-256.436692902628
 30
0.0
 40
3.600000000000028
 50
273.1540735848641
 51
359.9999999999998
  0
LINE
  5
28A
  8
1
  6
CONTINUOUS
 62
     9
 10
-3281.704231310114
 20
-258.4268601856713
 30
0.0
 11
-3281.704231310114
 21
-260.0312395798177
 31
0.0
  0
ARC
  5
28B
  8
1
  6
CONTINUOUS
 62
     7
 10
-3281.902307521467
 20
-256.436692902628
 30
0.0
 40
1.99999999999978
 50
275.6837830276802
 51
359.999999999996
  0
LINE
  5
28C
  8
1
  6
CONTINUOUS
 62
     7
 10
-3279.902307521468
 20
-256.4366929026281
 30
0.0
 11
-3279.902307521468
 21
-236.5366929026282
 31
0.0
  0
ARC
  5
28D
  8
1
  6
CONTINUOUS
 62
     7
 10
-3277.302307521467
 20
-236.5366929026279
 30
0.0
 40
2.599999999999991
 50
90.00000000000611
 51
180.0000000000064
  0
LINE
  5
28E
  8
1
  6
CONTINUOUS
 62
     7
 10
-3277.302307521468
 20
-233.9366929026279
 30
0.0
 11
-3238.302307521468
 21
-233.9366929026279
 31
0.0
  0
ARC
  5
28F
  8
1
  6
CONTINUOUS
 62
     7
 10
-3238.302307521468
 20
-236.5366929026279
 30
0.0
 40
2.600000000000158
 50
359.9999999999985
 51
89.99999999999392
  0
LINE
  5
290
  8
1
  6
CONTINUOUS
 62
     7
 10
-3235.702307521468
 20
-256.4366929026279
 30
0.0
 11
-3235.702307521468
 21
-236.536692902628
 31
0.0
  0
LINE
  5
291
  8
1
  6
CONTINUOUS
 62
     7
 10
-3233.702307521468
 20
-258.4366929026278
 30
0.0
 11
-3231.400383732821
 21
-258.4366929026278
 31
0.0
  0
LINE
  5
292
  8
1
  6
CONTINUOUS
 62
     9
 10
-3231.400383732821
 20
-258.4366929026278
 30
0.0
 11
-3231.400383732821
 21
-260.0366929026278
 31
0.0
  0
LINE
  5
293
  8
1
  6
CONTINUOUS
 62
     7
 10
-3233.702307521468
 20
-260.0366929026278
 30
0.0
 11
-3231.400383732821
 21
-260.0366929026278
 31
0.0
  0
LINE
  5
294
  8
1
  6
CONTINUOUS
 62
     7
 10
-3233.900383732821
 20
-260.0312395798176
 30
0.0
 11
-3233.702307521468
 21
-260.0366929026278
 31
0.0
  0
LINE
  5
295
  8
1
  6
CONTINUOUS
 62
     7
 10
-3233.702307521468
 20
-258.4366929026278
 30
0.0
 11
-3233.900383732821
 21
-258.4268601856711
 31
0.0
  0
LINE
  5
296
  8
1
  6
CONTINUOUS
 62
     9
 10
-3284.204231310114
 20
-258.436692902628
 30
0.0
 11
-3284.204231310114
 21
-260.0366929026279
 31
0.0
  0
LINE
  5
297
  8
1
  6
CONTINUOUS
 62
     7
 10
-3281.902307521467
 20
-258.436692902628
 30
0.0
 11
-3284.204231310114
 21
-258.436692902628
 31
0.0
  0
LINE
  5
298
  8
1
  6
CONTINUOUS
 62
     7
 10
-3281.902307521467
 20
-260.0366929026279
 30
0.0
 11
-3281.704231310114
 21
-260.0312395798177
 31
0.0
  0
LINE
  5
299
  8
1
  6
CONTINUOUS
 62
     7
 10
-3281.902307521467
 20
-260.0366929026279
 30
0.0
 11
-3284.204231310114
 21
-260.0366929026279
 31
0.0
  0
LINE
  5
29A
  8
1
  6
CONTINUOUS
 62
     7
 10
-3281.704231310114
 20
-258.4268601856713
 30
0.0
 11
-3281.902307521467
 21
-258.436692902628
 31
0.0
  0
LINE
  5
29B
  8
1
  6
CONTINUOUS
 62
     9
 10
-3223.802307521468
 20
-258.4366929026278
 30
0.0
 11
-3223.802307521468
 21
-260.0366929026278
 31
0.0
  0
LINE
  5
29C
  8
1
  6
CONTINUOUS
 62
     7
 10
-3231.400383732821
 20
-258.4366929026278
 30
0.0
 11
-3223.802307521468
 21
-258.4366929026278
 31
0.0
  0
LINE
  5
29D
  8
1
  6
CONTINUOUS
 62
     7
 10
-3231.400383732821
 20
-260.0366929026278
 30
0.0
 11
-3223.802307521468
 21
-260.0366929026278
 31
0.0
  0
LINE
  5
29E
  8
1
  6
CONTINUOUS
 62
     9
 10
-3291.802307521467
 20
-258.436692902628
 30
0.0
 11
-3291.802307521467
 21
-260.0366929026279
 31
0.0
  0
LINE
  5
29F
  8
1
  6
CONTINUOUS
 62
     7
 10
-3284.204231310114
 20
-260.0366929026279
 30
0.0
 11
-3291.802307521467
 21
-260.0366929026279
 31
0.0
  0
LINE
  5
2A0
  8
1
  6
CONTINUOUS
 62
     7
 10
-3284.204231310114
 20
-258.436692902628
 30
0.0
 11
-3291.802307521467
 21
-258.436692902628
 31
0.0
  0
LINE
  5
2A1
  8
1
  6
CONTINUOUS
 62
     7
 10
-3221.302307521468
 20
-258.4366929026278
 30
0.0
 11
-3221.302307521468
 21
-260.0366929026278
 31
0.0
  0
LINE
  5
2A2
  8
1
  6
CONTINUOUS
 62
     7
 10
-3223.802307521468
 20
-258.4366929026278
 30
0.0
 11
-3221.302307521468
 21
-258.4366929026278
 31
0.0
  0
LINE
  5
2A3
  8
1
  6
CONTINUOUS
 62
     7
 10
-3223.802307521468
 20
-260.0366929026278
 30
0.0
 11
-3223.156967480269
 21
-260.0366929026278
 31
0.0
  0
LINE
  5
2A4
  8
1
  6
CONTINUOUS
 62
     7
 10
-3294.302307521467
 20
-258.436692902628
 30
0.0
 11
-3294.302307521467
 21
-260.0366929026279
 31
0.0
  0
LINE
  5
2A5
  8
1
  6
CONTINUOUS
 62
     7
 10
-3291.802307521467
 20
-260.0366929026279
 30
0.0
 11
-3292.447647562666
 21
-260.0366929026279
 31
0.0
  0
LINE
  5
2A6
  8
1
  6
CONTINUOUS
 62
     7
 10
-3291.802307521467
 20
-258.436692902628
 30
0.0
 11
-3294.302307521467
 21
-258.436692902628
 31
0.0
  0
LINE
  5
2A7
  8
1
  6
CONTINUOUS
 62
     9
 10
-3231.402307521468
 20
-257.9366929026278
 30
0.0
 11
-3226.202307521468
 21
-257.9366929026278
 31
0.0
  0
LINE
  5
2A8
  8
1
  6
CONTINUOUS
 62
     9
 10
-3284.202307521467
 20
-257.936692902628
 30
0.0
 11
-3289.402307521467
 21
-257.936692902628
 31
0.0
  0
LINE
  5
2A9
  8
1
  6
CONTINUOUS
 62
     7
 10
-3231.402307521468
 20
-256.9366929026278
 30
0.0
 11
-3226.202307521468
 21
-256.9366929026278
 31
0.0
  0
LINE
  5
2AA
  8
1
  6
CONTINUOUS
 62
     7
 10
-3284.202307521467
 20
-256.936692902628
 30
0.0
 11
-3289.402307521467
 21
-256.936692902628
 31
0.0
  0
LINE
  5
2AB
  8
1
  6
CONTINUOUS
 62
     7
 10
-3332.802307521468
 20
-266.6366929026278
 30
0.0
 11
-3182.802307521468
 21
-266.6366929026278
 31
0.0
  0
LINE
  5
2AC
  8
1
  6
CONTINUOUS
 62
     7
 10
-3332.802307521468
 20
-265.0366929026278
 30
0.0
 11
-3182.802307521468
 21
-265.0366929026278
 31
0.0
  0
POLYLINE
  5
2AD
  8
1
  6
CONTINUOUS
 62
     7
 66
     1
 10
0.0
 20
0.0
 30
0.0
  0
VERTEX
  5
351
  8
1
  6
CONTINUOUS
 62
     7
 10
-3299.891407152646
 20
-265.0366929026278
 30
0.0
  0
VERTEX
  5
352
  8
1
  6
CONTINUOUS
 62
     7
 10
-3299.859364456389
 20
-265.0361794035955
 30
0.0
  0
VERTEX
  5
353
  8
1
  6
CONTINUOUS
 62
     7
 10
-3299.826662005095
 20
-265.0345944983014
 30
0.0
  0
VERTEX
  5
354
  8
1
  6
CONTINUOUS
 62
     7
 10
-3299.793504912902
 20
-265.0318889393227
 30
0.0
  0
VERTEX
  5
355
  8
1
  6
CONTINUOUS
 62
     7
 10
-3299.759621339465
 20
-265.0279708035138
 30
0.0
  0
VERTEX
  5
356
  8
1
  6
CONTINUOUS
 62
     7
 10
-3299.725397556046
 20
-265.0228170397611
 30
0.0
  0
VERTEX
  5
357
  8
1
  6
CONTINUOUS
 62
     7
 10
-3299.690552155374
 20
-265.0163134823258
 30
0.0
  0
VERTEX
  5
358
  8
1
  6
CONTINUOUS
 62
     7
 10
-3299.655509441561
 20
-265.0084707938691
 30
0.0
  0
VERTEX
  5
359
  8
1
  6
CONTINUOUS
 62
     7
 10
-3299.620156889612
 20
-264.9992017570309
 30
0.0
  0
VERTEX
  5
35A
  8
1
  6
CONTINUOUS
 62
     7
 10
-3299.585801464205
 20
-264.9888510634355
 30
0.0
  0
VERTEX
  5
35B
  8
1
  6
CONTINUOUS
 62
     7
 10
-3299.551293229595
 20
-264.9770766410488
 30
0.0
  0
VERTEX
  5
35C
  8
1
  6
CONTINUOUS
 62
     7
 10
-3299.516931217019
 20
-264.9639295356599
 30
0.0
  0
VERTEX
  5
35D
  8
1
  6
CONTINUOUS
 62
     7
 10
-3299.482393907555
 20
-264.9492207777322
 30
0.0
  0
VERTEX
  5
35E
  8
1
  6
CONTINUOUS
 62
     7
 10
-3299.448188861352
 20
-264.9331066164137
 30
0.0
  0
VERTEX
  5
35F
  8
1
  6
CONTINUOUS
 62
     7
 10
-3299.413998688334
 20
-264.9153737647649
 30
0.0
  0
VERTEX
  5
360
  8
1
  6
CONTINUOUS
 62
     7
 10
-3299.380333944142
 20
-264.8962300894614
 30
0.0
  0
VERTEX
  5
361
  8
1
  6
CONTINUOUS
 62
     7
 10
-3299.347076024827
 20
-264.8755633475048
 30
0.0
  0
VERTEX
  5
362
  8
1
  6
CONTINUOUS
 62
     7
 10
-3299.320299036887
 20
-264.8575665931918
 30
0.0
  0
VERTEX
  5
363
  8
1
  6
CONTINUOUS
 62
     7
 10
-3299.294036871972
 20
-264.8386572691863
 30
0.0
  0
VERTEX
  5
364
  8
1
  6
CONTINUOUS
 62
     7
 10
-3299.268350621946
 20
-264.8188697109981
 30
0.0
  0
VERTEX
  5
365
  8
1
  6
CONTINUOUS
 62
     7
 10
-3299.243569812291
 20
-264.7984705269478
 30
0.0
  0
VERTEX
  5
366
  8
1
  6
CONTINUOUS
 62
     7
 10
-3299.219412724947
 20
-264.7772480043412
 30
0.0
  0
VERTEX
  5
367
  8
1
  6
CONTINUOUS
 62
     7
 10
-3299.195929439449
 20
-264.7552405701117
 30
0.0
  0
VERTEX
  5
368
  8
1
  6
CONTINUOUS
 62
     7
 10
-3299.172352355993
 20
-264.7316450942882
 30
0.0
  0
VERTEX
  5
369
  8
1
  6
CONTINUOUS
 62
     7
 10
-3299.149551563415
 20
-264.7072513524673
 30
0.0
  0
VERTEX
  5
36A
  8
1
  6
CONTINUOUS
 62
     7
 10
-3299.127572930694
 20
-264.6821053919525
 30
0.0
  0
VERTEX
  5
36B
  8
1
  6
CONTINUOUS
 62
     7
 10
-3299.101077588162
 20
-264.6493719017087
 30
0.0
  0
VERTEX
  5
36C
  8
1
  6
CONTINUOUS
 62
     7
 10
-3299.075964932253
 20
-264.6155282523777
 30
0.0
  0
VERTEX
  5
36D
  8
1
  6
CONTINUOUS
 62
     7
 10
-3299.052307521468
 20
-264.58067066776
 30
0.0
  0
SEQEND
  5
3CB
  8
1
  6
CONTINUOUS
 62
     7
  0
LINE
  5
2AE
  8
1
  6
CONTINUOUS
 62
     9
 10
-3299.052307521468
 20
-264.58067066776
 30
0.0
 11
-3299.052307521468
 21
-265.0366929026278
 31
0.0
  0
LINE
  5
2AF
  8
1
  6
CONTINUOUS
 62
     9
 10
-3278.052307521468
 20
-264.58067066776
 30
0.0
 11
-3278.052307521468
 21
-265.0366929026278
 31
0.0
  0
POLYLINE
  5
2B0
  8
1
  6
CONTINUOUS
 62
     7
 66
     1
 10
0.0
 20
0.0
 30
0.0
  0
VERTEX
  5
36E
  8
1
  6
CONTINUOUS
 62
     7
 10
-3278.052307521468
 20
-264.58067066776
 30
0.0
  0
VERTEX
  5
36F
  8
1
  6
CONTINUOUS
 62
     7
 10
-3278.030740245352
 20
-264.6125750372793
 30
0.0
  0
VERTEX
  5
370
  8
1
  6
CONTINUOUS
 62
     7
 10
-3278.00796292217
 20
-264.6436232440208
 30
0.0
  0
VERTEX
  5
371
  8
1
  6
CONTINUOUS
 62
     7
 10
-3277.983815914079
 20
-264.67400175982
 30
0.0
  0
VERTEX
  5
372
  8
1
  6
CONTINUOUS
 62
     7
 10
-3277.958518136843
 20
-264.7034107112877
 30
0.0
  0
VERTEX
  5
373
  8
1
  6
CONTINUOUS
 62
     7
 10
-3277.931838889306
 20
-264.732083934703
 30
0.0
  0
VERTEX
  5
374
  8
1
  6
CONTINUOUS
 62
     7
 10
-3277.904081899365
 20
-264.7596680775721
 30
0.0
  0
VERTEX
  5
375
  8
1
  6
CONTINUOUS
 62
     7
 10
-3277.875055209622
 20
-264.7863309554509
 30
0.0
  0
VERTEX
  5
376
  8
1
  6
CONTINUOUS
 62
     7
 10
-3277.845050396506
 20
-264.8117897013175
 30
0.0
  0
VERTEX
  5
377
  8
1
  6
CONTINUOUS
 62
     7
 10
-3277.814924412448
 20
-264.8354020634802
 30
0.0
  0
VERTEX
  5
378
  8
1
  6
CONTINUOUS
 62
     7
 10
-3277.783999015222
 20
-264.8577882026383
 30
0.0
  0
VERTEX
  5
379
  8
1
  6
CONTINUOUS
 62
     7
 10
-3277.752043418109
 20
-264.8791032975588
 30
0.0
  0
VERTEX
  5
37A
  8
1
  6
CONTINUOUS
 62
     7
 10
-3277.719423448418
 20
-264.8990998881688
 30
0.0
  0
VERTEX
  5
37B
  8
1
  6
CONTINUOUS
 62
     7
 10
-3277.685818877719
 20
-264.9179634462353
 30
0.0
  0
VERTEX
  5
37C
  8
1
  6
CONTINUOUS
 62
     7
 10
-3277.651705977371
 20
-264.9354250249128
 30
0.0
  0
VERTEX
  5
37D
  8
1
  6
CONTINUOUS
 62
     7
 10
-3277.616836633489
 20
-264.951615151594
 30
0.0
  0
VERTEX
  5
37E
  8
1
  6
CONTINUOUS
 62
     7
 10
-3277.581637943772
 20
-264.9663483741286
 30
0.0
  0
VERTEX
  5
37F
  8
1
  6
CONTINUOUS
 62
     7
 10
-3277.559718511716
 20
-264.9747388672683
 30
0.0
  0
VERTEX
  5
380
  8
1
  6
CONTINUOUS
 62
     7
 10
-3277.537732935336
 20
-264.9825700062401
 30
0.0
  0
VERTEX
  5
381
  8
1
  6
CONTINUOUS
 62
     7
 10
-3277.508478501653
 20
-264.9921056298881
 30
0.0
  0
VERTEX
  5
382
  8
1
  6
CONTINUOUS
 62
     7
 10
-3277.479190484627
 20
-265.0006698056514
 30
0.0
  0
VERTEX
  5
383
  8
1
  6
CONTINUOUS
 62
     7
 10
-3277.449940313277
 20
-265.0082677890401
 30
0.0
  0
VERTEX
  5
384
  8
1
  6
CONTINUOUS
 62
     7
 10
-3277.420418224865
 20
-265.0149885248642
 30
0.0
  0
VERTEX
  5
385
  8
1
  6
CONTINUOUS
 62
     7
 10
-3277.391016055042
 20
-265.0207572804189
 30
0.0
  0
VERTEX
  5
386
  8
1
  6
CONTINUOUS
 62
     7
 10
-3277.361800227902
 20
-265.0255914399931
 30
0.0
  0
VERTEX
  5
387
  8
1
  6
CONTINUOUS
 62
     7
 10
-3277.339614323047
 20
-265.0286713824095
 30
0.0
  0
VERTEX
  5
388
  8
1
  6
CONTINUOUS
 62
     7
 10
-3277.317577007286
 20
-265.0312315330578
 30
0.0
  0
VERTEX
  5
389
  8
1
  6
CONTINUOUS
 62
     7
 10
-3277.291094718065
 20
-265.0336550098926
 30
0.0
  0
VERTEX
  5
38A
  8
1
  6
CONTINUOUS
 62
     7
 10
-3277.264886497682
 20
-265.0353566706389
 30
0.0
  0
VERTEX
  5
38B
  8
1
  6
CONTINUOUS
 62
     7
 10
-3277.238882526385
 20
-265.0363631732687
 30
0.0
  0
VERTEX
  5
38C
  8
1
  6
CONTINUOUS
 62
     7
 10
-3277.213207890291
 20
-265.0366929026278
 30
0.0
  0
SEQEND
  5
3CC
  8
1
  6
CONTINUOUS
 62
     7
  0
POLYLINE
  5
2B1
  8
1
  6
CONTINUOUS
 62
     7
 66
     1
 10
0.0
 20
0.0
 30
0.0
  0
VERTEX
  5
38D
  8
1
  6
CONTINUOUS
 62
     7
 10
-3215.713207890291
 20
-265.0366929026278
 30
0.0
  0
VERTEX
  5
38E
  8
1
  6
CONTINUOUS
 62
     7
 10
-3215.745316258336
 20
-265.0361770922003
 30
0.0
  0
VERTEX
  5
38F
  8
1
  6
CONTINUOUS
 62
     7
 10
-3215.777928099891
 20
-265.0345963521004
 30
0.0
  0
VERTEX
  5
390
  8
1
  6
CONTINUOUS
 62
     7
 10
-3215.811246105597
 20
-265.0318752798498
 30
0.0
  0
VERTEX
  5
391
  8
1
  6
CONTINUOUS
 62
     7
 10
-3215.844964973969
 20
-265.0279749366123
 30
0.0
  0
VERTEX
  5
392
  8
1
  6
CONTINUOUS
 62
     7
 10
-3215.879361656652
 20
-265.0227924009801
 30
0.0
  0
VERTEX
  5
393
  8
1
  6
CONTINUOUS
 62
     7
 10
-3215.914030538602
 20
-265.0163205175537
 30
0.0
  0
VERTEX
  5
394
  8
1
  6
CONTINUOUS
 62
     7
 10
-3215.949186827473
 20
-265.0084506261179
 30
0.0
  0
VERTEX
  5
395
  8
1
  6
CONTINUOUS
 62
     7
 10
-3215.984458153324
 20
-264.9992017570309
 30
0.0
  0
VERTEX
  5
396
  8
1
  6
CONTINUOUS
 62
     7
 10
-3216.018902511777
 20
-264.988822046835
 30
0.0
  0
VERTEX
  5
397
  8
1
  6
CONTINUOUS
 62
     7
 10
-3216.053288323601
 20
-264.9770892546412
 30
0.0
  0
VERTEX
  5
398
  8
1
  6
CONTINUOUS
 62
     7
 10
-3216.087856441346
 20
-264.963859266027
 30
0.0
  0
VERTEX
  5
399
  8
1
  6
CONTINUOUS
 62
     7
 10
-3216.122186519913
 20
-264.9492368634934
 30
0.0
  0
VERTEX
  5
39A
  8
1
  6
CONTINUOUS
 62
     7
 10
-3216.156598413984
 20
-264.9330208372305
 30
0.0
  0
VERTEX
  5
39B
  8
1
  6
CONTINUOUS
 62
     7
 10
-3216.190581652004
 20
-264.9153932449673
 30
0.0
  0
VERTEX
  5
39C
  8
1
  6
CONTINUOUS
 62
     7
 10
-3216.224369924345
 20
-264.8961766268934
 30
0.0
  0
VERTEX
  5
39D
  8
1
  6
CONTINUOUS
 62
     7
 10
-3216.257539018109
 20
-264.8755633475048
 30
0.0
  0
VERTEX
  5
39E
  8
1
  6
CONTINUOUS
 62
     7
 10
-3216.277641531355
 20
-264.8621712559349
 30
0.0
  0
VERTEX
  5
39F
  8
1
  6
CONTINUOUS
 62
     7
 10
-3216.297456418667
 20
-264.8482677033024
 30
0.0
  0
VERTEX
  5
3A0
  8
1
  6
CONTINUOUS
 62
     7
 10
-3216.32328032213
 20
-264.8290374348304
 30
0.0
  0
VERTEX
  5
3A1
  8
1
  6
CONTINUOUS
 62
     7
 10
-3216.348531642154
 20
-264.8089376575492
 30
0.0
  0
VERTEX
  5
3A2
  8
1
  6
CONTINUOUS
 62
     7
 10
-3216.373154802449
 20
-264.7880051367439
 30
0.0
  0
VERTEX
  5
3A3
  8
1
  6
CONTINUOUS
 62
     7
 10
-3216.397391483174
 20
-264.766001594185
 30
0.0
  0
VERTEX
  5
3A4
  8
1
  6
CONTINUOUS
 62
     7
 10
-3216.420927645006
 20
-264.7431850158158
 30
0.0
  0
VERTEX
  5
3A5
  8
1
  6
CONTINUOUS
 62
     7
 10
-3216.443715217469
 20
-264.7195977605246
 30
0.0
  0
VERTEX
  5
3A6
  8
1
  6
CONTINUOUS
 62
     7
 10
-3216.460610825403
 20
-264.7010638272639
 30
0.0
  0
VERTEX
  5
3A7
  8
1
  6
CONTINUOUS
 62
     7
 10
-3216.477042112242
 20
-264.6821053919524
 30
0.0
  0
VERTEX
  5
3A8
  8
1
  6
CONTINUOUS
 62
     7
 10
-3216.497004752329
 20
-264.657709959061
 30
0.0
  0
VERTEX
  5
3A9
  8
1
  6
CONTINUOUS
 62
     7
 10
-3216.516192773919
 20
-264.6326922958032
 30
0.0
  0
VERTEX
  5
3AA
  8
1
  6
CONTINUOUS
 62
     7
 10
-3216.534661479228
 20
-264.6069680307694
 30
0.0
  0
VERTEX
  5
3AB
  8
1
  6
CONTINUOUS
 62
     7
 10
-3216.552307521468
 20
-264.58067066776
 30
0.0
  0
SEQEND
  5
3CD
  8
1
  6
CONTINUOUS
 62
     7
  0
LINE
  5
2B2
  8
1
  6
CONTINUOUS
 62
     9
 10
-3216.552307521468
 20
-264.58067066776
 30
0.0
 11
-3216.552307521468
 21
-265.0366929026278
 31
0.0
  0
POLYLINE
  5
2B3
  8
1
  6
CONTINUOUS
 62
     7
 66
     1
 10
0.0
 20
0.0
 30
0.0
  0
VERTEX
  5
3AC
  8
1
  6
CONTINUOUS
 62
     7
 10
-3237.552307521468
 20
-264.58067066776
 30
0.0
  0
VERTEX
  5
3AD
  8
1
  6
CONTINUOUS
 62
     7
 10
-3237.573827014167
 20
-264.6125077315149
 30
0.0
  0
VERTEX
  5
3AE
  8
1
  6
CONTINUOUS
 62
     7
 10
-3237.59667112829
 20
-264.6436475978587
 30
0.0
  0
VERTEX
  5
3AF
  8
1
  6
CONTINUOUS
 62
     7
 10
-3237.620695335947
 20
-264.6738767815847
 30
0.0
  0
VERTEX
  5
3B0
  8
1
  6
CONTINUOUS
 62
     7
 10
-3237.646119238346
 20
-264.7034351170717
 30
0.0
  0
VERTEX
  5
3B1
  8
1
  6
CONTINUOUS
 62
     7
 10
-3237.672660033109
 20
-264.7319644885262
 30
0.0
  0
VERTEX
  5
3B2
  8
1
  6
CONTINUOUS
 62
     7
 10
-3237.700559170063
 20
-264.7596923530868
 30
0.0
  0
VERTEX
  5
3B3
  8
1
  6
CONTINUOUS
 62
     7
 10
-3237.729491330316
 20
-264.7862710801051
 30
0.0
  0
VERTEX
  5
3B4
  8
1
  6
CONTINUOUS
 62
     7
 10
-3237.75956464643
 20
-264.8117897013175
 30
0.0
  0
VERTEX
  5
3B5
  8
1
  6
CONTINUOUS
 62
     7
 10
-3237.789613202015
 20
-264.8353442915232
 30
0.0
  0
VERTEX
  5
3B6
  8
1
  6
CONTINUOUS
 62
     7
 10
-3237.820646034583
 20
-264.8578084832787
 30
0.0
  0
VERTEX
  5
3B7
  8
1
  6
CONTINUOUS
 62
     7
 10
-3237.852412136915
 20
-264.8790018560515
 30
0.0
  0
VERTEX
  5
3B8
  8
1
  6
CONTINUOUS
 62
     7
 10
-3237.885224881662
 20
-264.8991188198515
 30
0.0
  0
VERTEX
  5
3B9
  8
1
  6
CONTINUOUS
 62
     7
 10
-3237.918627112523
 20
-264.9178733799774
 30
0.0
  0
VERTEX
  5
3BA
  8
1
  6
CONTINUOUS
 62
     7
 10
-3237.952945059908
 20
-264.9354419678401
 30
0.0
  0
VERTEX
  5
3BB
  8
1
  6
CONTINUOUS
 62
     7
 10
-3237.987685052743
 20
-264.9515745704137
 30
0.0
  0
VERTEX
  5
3BC
  8
1
  6
CONTINUOUS
 62
     7
 10
-3238.022977099164
 20
-264.9663483741286
 30
0.0
  0
VERTEX
  5
3BD
  8
1
  6
CONTINUOUS
 62
     7
 10
-3238.052261774547
 20
-264.97742584243
 30
0.0
  0
VERTEX
  5
3BE
  8
1
  6
CONTINUOUS
 62
     7
 10
-3238.081661056213
 20
-264.9875111839634
 30
0.0
  0
VERTEX
  5
3BF
  8
1
  6
CONTINUOUS
 62
     7
 10
-3238.11110020798
 20
-264.9966033238506
 30
0.0
  0
VERTEX
  5
3C0
  8
1
  6
CONTINUOUS
 62
     7
 10
-3238.140200353613
 20
-265.0046255133706
 30
0.0
  0
VERTEX
  5
3C1
  8
1
  6
CONTINUOUS
 62
     7
 10
-3238.16925721014
 20
-265.0117045919865
 30
0.0
  0
VERTEX
  5
3C2
  8
1
  6
CONTINUOUS
 62
     7
 10
-3238.19820370757
 20
-265.017851620069
 30
0.0
  0
VERTEX
  5
3C3
  8
1
  6
CONTINUOUS
 62
     7
 10
-3238.228033480884
 20
-265.0232564191676
 30
0.0
  0
VERTEX
  5
3C4
  8
1
  6
CONTINUOUS
 62
     7
 10
-3238.257666469158
 20
-265.0277085197775
 30
0.0
  0
VERTEX
  5
3C5
  8
1
  6
CONTINUOUS
 62
     7
 10
-3238.28703803565
 20
-265.0312315330578
 30
0.0
  0
VERTEX
  5
3C6
  8
1
  6
CONTINUOUS
 62
     7
 10
-3238.322348466197
 20
-265.0343043613491
 30
0.0
  0
VERTEX
  5
3C7
  8
1
  6
CONTINUOUS
 62
     7
 10
-3238.357168754692
 20
-265.0361054508296
 30
0.0
  0
VERTEX
  5
3C8
  8
1
  6
CONTINUOUS
 62
     7
 10
-3238.391407152645
 20
-265.0366929026278
 30
0.0
  0
SEQEND
  5
3CE
  8
1
  6
CONTINUOUS
 62
     7
  0
LINE
  5
2B4
  8
1
  6
CONTINUOUS
 62
     9
 10
-3237.552307521468
 20
-264.58067066776
 30
0.0
 11
-3237.552307521468
 21
-265.0366929026278
 31
0.0
  0
ARC
  5
2B5
  8
1
  6
CONTINUOUS
 62
     7
 10
-3281.954701097248
 20
-263.6366929026278
 30
0.0
 40
3.599999999999992
 50
88.49426465826161
 51
90.0
  0
ARC
  5
2B6
  8
1
  6
CONTINUOUS
 62
     7
 10
-3281.954701097248
 20
-263.6366929026278
 30
0.0
 40
3.599999999999981
 50
10.0
 51
88.49426465826161
  0
LINE
  5
2B7
  8
1
  6
CONTINUOUS
 62
     7
 10
-3278.198015643303
 20
-264.2103410802947
 30
0.0
 11
-3278.409393186404
 21
-263.0115594630269
 31
0.0
  0
LINE
  5
2B8
  8
1
  6
CONTINUOUS
 62
     7
 10
-3279.549513734697
 20
-264.4881781645618
 30
0.0
 11
-3279.760891277798
 21
-263.289396547294
 31
0.0
  0
ARC
  5
2B9
  8
1
  6
CONTINUOUS
 62
     7
 10
-3281.730506783822
 20
-263.6366929026278
 30
0.0
 40
1.999999999999846
 50
9.999999999999975
 51
90.0
  0
LINE
  5
2BA
  8
1
  6
CONTINUOUS
 62
     7
 10
-3281.730506783822
 20
-261.6366929026278
 30
0.0
 11
-3295.374108259113
 21
-261.6366929026278
 31
0.0
  0
ARC
  5
2BB
  8
1
  6
CONTINUOUS
 62
     7
 10
-3295.374108259113
 20
-263.6366929026278
 30
0.0
 40
2.000000000000002
 50
90.0
 51
170.0000000000001
  0
LINE
  5
2BC
  8
1
  6
CONTINUOUS
 62
     7
 10
-3297.55510130824
 20
-264.4881781645618
 30
0.0
 11
-3297.343723765138
 21
-263.289396547294
 31
0.0
  0
LINE
  5
2BD
  8
1
  6
CONTINUOUS
 62
     7
 10
-3298.906599399633
 20
-264.2103410802947
 30
0.0
 11
-3298.695221856532
 21
-263.0115594630269
 31
0.0
  0
ARC
  5
2BE
  8
1
  6
CONTINUOUS
 62
     7
 10
-3295.149913945687
 20
-263.6366929026278
 30
0.0
 40
3.600000000000326
 50
90.0
 51
170.0
  0
LINE
  5
2BF
  8
1
  6
CONTINUOUS
 62
     7
 10
-3292.447647562666
 20
-260.0366929026279
 30
0.0
 11
-3295.149913945687
 21
-260.0366929026278
 31
0.0
  0
ARC
  5
2C0
  8
1
  6
CONTINUOUS
 62
     7
 10
-3299.891407152646
 20
-264.0366929026278
 30
0.0
 40
1.000000000000248
 50
327.045164673287
 51
350.0000000000001
  0
ARC
  5
2C1
  8
1
  6
CONTINUOUS
 62
     7
 10
-3277.213207890291
 20
-264.0366929026278
 30
0.0
 40
1.000000000000137
 50
190.0000000000001
 51
212.9548353267156
  0
ARC
  5
2C2
  8
1
  6
CONTINUOUS
 62
     7
 10
-3300.115601466071
 20
-264.0366929026278
 30
0.0
 40
2.600000000000189
 50
337.3801350519595
 51
349.9999999999999
  0
ARC
  5
2C3
  8
1
  6
CONTINUOUS
 62
     7
 10
-3276.989013576865
 20
-264.0366929026278
 30
0.0
 40
2.600000000000166
 50
190.0000000000001
 51
202.6198649480405
  0
ARC
  5
2C4
  8
1
  6
CONTINUOUS
 62
     7
 10
-3220.454701097249
 20
-263.6366929026278
 30
0.0
 40
3.600000000000335
 50
10.00000000000001
 51
90.0
  0
LINE
  5
2C5
  8
1
  6
CONTINUOUS
 62
     7
 10
-3216.698015643303
 20
-264.2103410802947
 30
0.0
 11
-3216.909393186404
 21
-263.0115594630269
 31
0.0
  0
LINE
  5
2C6
  8
1
  6
CONTINUOUS
 62
     7
 10
-3218.049513734697
 20
-264.4881781645618
 30
0.0
 11
-3218.260891277798
 21
-263.289396547294
 31
0.0
  0
ARC
  5
2C7
  8
1
  6
CONTINUOUS
 62
     7
 10
-3220.230506783823
 20
-263.6366929026278
 30
0.0
 40
2.000000000000002
 50
9.999999999999945
 51
90.0
  0
LINE
  5
2C8
  8
1
  6
CONTINUOUS
 62
     7
 10
-3233.874108259114
 20
-261.6366929026278
 30
0.0
 11
-3220.230506783823
 21
-261.6366929026278
 31
0.0
  0
ARC
  5
2C9
  8
1
  6
CONTINUOUS
 62
     7
 10
-3233.874108259114
 20
-263.6366929026278
 30
0.0
 40
1.999999999999846
 50
90.0
 51
170.0
  0
LINE
  5
2CA
  8
1
  6
CONTINUOUS
 62
     7
 10
-3236.05510130824
 20
-264.4881781645618
 30
0.0
 11
-3235.843723765138
 21
-263.289396547294
 31
0.0
  0
LINE
  5
2CB
  8
1
  6
CONTINUOUS
 62
     7
 10
-3237.406599399633
 20
-264.2103410802947
 30
0.0
 11
-3237.195221856532
 21
-263.0115594630269
 31
0.0
  0
ARC
  5
2CC
  8
1
  6
CONTINUOUS
 62
     7
 10
-3233.649913945688
 20
-263.6366929026278
 30
0.0
 40
3.599999999999992
 50
90.0
 51
93.9045785512601
  0
ARC
  5
2CD
  8
1
  6
CONTINUOUS
 62
     7
 10
-3233.649913945688
 20
-263.6366929026278
 30
0.0
 40
3.599999999999985
 50
93.90457855126002
 51
170.0
  0
LINE
  5
2CE
  8
1
  6
CONTINUOUS
 62
     7
 10
-3223.156967480269
 20
-260.0366929026278
 30
0.0
 11
-3220.454701097249
 21
-260.0366929026278
 31
0.0
  0
ARC
  5
2CF
  8
1
  6
CONTINUOUS
 62
     7
 10
-3215.713207890291
 20
-264.0366929026278
 30
0.0
 40
1.000000000000248
 50
190.0
 51
212.954835326713
  0
ARC
  5
2D0
  8
1
  6
CONTINUOUS
 62
     7
 10
-3238.391407152645
 20
-264.0366929026278
 30
0.0
 40
1.000000000000137
 50
327.0451646732844
 51
349.9999999999999
  0
ARC
  5
2D1
  8
1
  6
CONTINUOUS
 62
     7
 10
-3215.489013576865
 20
-264.0366929026278
 30
0.0
 40
2.600000000000189
 50
190.0000000000001
 51
202.6198649480405
  0
ARC
  5
2D2
  8
1
  6
CONTINUOUS
 62
     7
 10
-3238.615601466071
 20
-264.0366929026278
 30
0.0
 40
2.600000000000166
 50
337.3801350519595
 51
349.9999999999999
  0
LINE
  5
2D3
  8
1
  6
CONTINUOUS
 62
     7
 10
-3262.802307521468
 20
-231.6366929026278
 30
0.0
 11
-3262.802307521468
 21
-231.9366929026278
 31
0.0
  0
LINE
  5
2D4
  8
1
  6
CONTINUOUS
 62
     7
 10
-3252.802307521468
 20
-231.9366929026278
 30
0.0
 11
-3252.802307521468
 21
-231.6366929026278
 31
0.0
  0
LINE
  5
2D5
  8
1
  6
CONTINUOUS
 62
     7
 10
-3252.852307521468
 20
-221.2366929026278
 30
0.0
 11
-3253.552307521468
 21
-220.5366929026279
 31
0.0
  0
LINE
  5
2D6
  8
1
  6
CONTINUOUS
 62
     7
 10
-3262.052307521468
 20
-220.5366929026279
 30
0.0
 11
-3262.752307521468
 21
-221.2366929026278
 31
0.0
  0
LINE
  5
2D7
  8
1
  6
CONTINUOUS
 62
     7
 10
-3266.052307521468
 20
-239.1520775180125
 30
0.0
 11
-3266.052307521468
 21
-240.5366929026279
 31
0.0
  0
LINE
  5
2D8
  8
1
  6
CONTINUOUS
 62
     7
 10
-3249.552307521468
 20
-240.5366929026279
 30
0.0
 11
-3249.552307521468
 21
-237.5366929026279
 31
0.0
  0
LINE
  5
2D9
  8
1
  6
CONTINUOUS
 62
     7
 10
-3267.802307521468
 20
-235.5366929026278
 30
0.0
 11
-3267.802307521468
 21
-237.5366929026279
 31
0.0
  0
LINE
  5
2DA
  8
1
  6
CONTINUOUS
 62
     7
 10
-3247.802307521468
 20
-237.5366929026279
 30
0.0
 11
-3247.802307521468
 21
-235.5366929026278
 31
0.0
  0
ARC
  5
2DB
  8
1
  6
CONTINUOUS
 62
     7
 10
-3252.702307521468
 20
-176.4366929026278
 30
0.0
 40
0.500000000000167
 50
90.0
 51
180.0
  0
ARC
  5
2DC
  8
1
  6
CONTINUOUS
 62
     7
 10
-3262.902307521468
 20
-176.4366929026278
 30
0.0
 40
0.5000000000000004
 50
0.0
 51
90.0
  0
LINE
  5
2DD
  8
1
  6
CONTINUOUS
 62
     7
 10
-3253.202307521468
 20
-177.9366929026278
 30
0.0
 11
-3253.202307521468
 21
-176.4366929026278
 31
0.0
  0
LINE
  5
2DE
  8
1
  6
CONTINUOUS
 62
     7
 10
-3262.402307521468
 20
-176.4366929026278
 30
0.0
 11
-3262.402307521468
 21
-177.9366929026278
 31
0.0
  0
LINE
  5
2DF
  8
1
  6
CONTINUOUS
 62
     7
 10
-3253.802307521468
 20
-206.3116929026278
 30
0.0
 11
-3253.802307521468
 21
-177.9366929026278
 31
0.0
  0
LINE
  5
2E0
  8
1
  6
CONTINUOUS
 62
     7
 10
-3253.802307521468
 20
-173.9366929026279
 30
0.0
 11
-3253.802307521468
 21
-165.9366929026278
 31
0.0
  0
LINE
  5
2E1
  8
1
  6
CONTINUOUS
 62
     7
 10
-3261.802307521468
 20
-165.9366929026278
 30
0.0
 11
-3261.802307521468
 21
-173.9366929026278
 31
0.0
  0
LINE
  5
2E2
  8
1
  6
CONTINUOUS
 62
     7
 10
-3261.802307521468
 20
-177.9366929026278
 30
0.0
 11
-3261.802307521468
 21
-206.3116929026278
 31
0.0
  0
LINE
  5
2E3
  8
1
  6
CONTINUOUS
 62
     7
 10
-3253.802307521468
 20
-165.9366929026278
 30
0.0
 11
-3253.802307521468
 21
-161.9366929026278
 31
0.0
  0
LINE
  5
2E4
  8
1
  6
CONTINUOUS
 62
     7
 10
-3261.802307521468
 20
-161.9366929026278
 30
0.0
 11
-3261.802307521468
 21
-165.9366929026278
 31
0.0
  0
LINE
  5
2E5
  8
1
  6
CONTINUOUS
 62
     7
 10
-3261.802307521468
 20
-206.3116929026278
 30
0.0
 11
-3261.177307521468
 21
-206.9366929026278
 31
0.0
  0
LINE
  5
2E6
  8
1
  6
CONTINUOUS
 62
     7
 10
-3254.427307521468
 20
-206.9366929026278
 30
0.0
 11
-3253.802307521468
 21
-206.3116929026278
 31
0.0
  0
LINE
  5
2E7
  8
1
  6
CONTINUOUS
 62
     7
 10
-3290.730506783823
 20
-263.4366929026282
 30
0.0
 11
-3290.730506783823
 21
-265.0366929026278
 31
0.0
  0
LINE
  5
2E8
  8
1
  6
CONTINUOUS
 62
     7
 10
-3282.730506783822
 20
-265.0366929026278
 30
0.0
 11
-3282.730506783822
 21
-263.4366929026282
 31
0.0
  0
LINE
  5
2E9
  8
1
  6
CONTINUOUS
 62
     7
 10
-3288.730506783823
 20
-251.7866929026281
 30
0.0
 11
-3288.730506783823
 21
-256.936692902628
 31
0.0
  0
LINE
  5
2EA
  8
1
  6
CONTINUOUS
 62
     7
 10
-3284.730506783822
 20
-256.936692902628
 30
0.0
 11
-3284.730506783822
 21
-251.7866929026281
 31
0.0
  0
LINE
  5
2EB
  8
1
  6
CONTINUOUS
 62
     7
 10
-3284.730506783822
 20
-251.7866929026281
 30
0.0
 11
-3285.080506783823
 21
-251.4366929026282
 31
0.0
  0
LINE
  5
2EC
  8
1
  6
CONTINUOUS
 62
     7
 10
-3288.380506783823
 20
-251.4366929026282
 30
0.0
 11
-3288.730506783823
 21
-251.7866929026281
 31
0.0
  0
LINE
  5
2ED
  8
1
  6
CONTINUOUS
 62
     7
 10
-3232.874108259113
 20
-263.4366929026278
 30
0.0
 11
-3232.874108259113
 21
-265.0366929026278
 31
0.0
  0
LINE
  5
2EE
  8
1
  6
CONTINUOUS
 62
     7
 10
-3224.874108259113
 20
-265.0366929026278
 30
0.0
 11
-3224.874108259113
 21
-263.4366929026278
 31
0.0
  0
LINE
  5
2EF
  8
1
  6
CONTINUOUS
 62
     7
 10
-3230.874108259114
 20
-251.7866929026278
 30
0.0
 11
-3230.874108259114
 21
-256.9366929026278
 31
0.0
  0
LINE
  5
2F0
  8
1
  6
CONTINUOUS
 62
     7
 10
-3226.874108259114
 20
-256.9366929026278
 30
0.0
 11
-3226.874108259114
 21
-251.7866929026278
 31
0.0
  0
LINE
  5
2F1
  8
1
  6
CONTINUOUS
 62
     7
 10
-3226.874108259114
 20
-251.7866929026278
 30
0.0
 11
-3227.224108259114
 21
-251.4366929026278
 31
0.0
  0
LINE
  5
2F2
  8
1
  6
CONTINUOUS
 62
     7
 10
-3230.524108259114
 20
-251.4366929026278
 30
0.0
 11
-3230.874108259114
 21
-251.7866929026278
 31
0.0
  0
LINE
  5
2F3
  8
1
  6
CONTINUOUS
 62
     7
 10
-3290.530506783824
 20
-262.4366929026278
 30
0.0
 11
-3290.530506783824
 21
-263.4366929026282
 31
0.0
  0
LINE
  5
2F4
  8
1
  6
CONTINUOUS
 62
     7
 10
-3282.930506783821
 20
-263.4366929026282
 30
0.0
 11
-3282.930506783821
 21
-262.4366929026278
 31
0.0
  0
LINE
  5
2F5
  8
1
  6
CONTINUOUS
 62
     7
 10
-3232.674108259113
 20
-262.4366929026278
 30
0.0
 11
-3232.674108259113
 21
-263.4366929026278
 31
0.0
  0
LINE
  5
2F6
  8
1
  6
CONTINUOUS
 62
     7
 10
-3225.074108259113
 20
-263.4366929026278
 30
0.0
 11
-3225.074108259113
 21
-262.4366929026278
 31
0.0
  0
LINE
  5
2F7
  8
1
  6
CONTINUOUS
 62
     7
 10
-3233.374108259114
 20
-261.6366929026278
 30
0.0
 11
-3233.374108259114
 21
-262.4366929026278
 31
0.0
  0
LINE
  5
2F8
  8
1
  6
CONTINUOUS
 62
     7
 10
-3224.374108259114
 20
-262.4366929026278
 30
0.0
 11
-3224.374108259114
 21
-261.6366929026278
 31
0.0
  0
LINE
  5
2F9
  8
1
  6
CONTINUOUS
 62
     7
 10
-3291.230506783823
 20
-261.6366929026278
 30
0.0
 11
-3291.230506783823
 21
-262.4366929026278
 31
0.0
  0
LINE
  5
2FA
  8
1
  6
CONTINUOUS
 62
     7
 10
-3282.230506783822
 20
-262.4366929026278
 30
0.0
 11
-3282.230506783822
 21
-261.6366929026278
 31
0.0
  0
ARC
  5
2FB
  8
1
  6
CONTINUOUS
 62
     7
 10
-3231.902307521468
 20
-257.9366929026278
 30
0.0
 40
0.500000000000167
 50
270.0
 51
359.9999999999991
  0
ARC
  5
2FC
  8
1
  6
CONTINUOUS
 62
     7
 10
-3225.702307521468
 20
-257.9366929026278
 30
0.0
 40
0.5000000000000004
 50
180.0000000000009
 51
270.0
  0
ARC
  5
2FD
  8
1
  6
CONTINUOUS
 62
     7
 10
-3289.902307521467
 20
-257.936692902628
 30
0.0
 40
0.4999999999997229
 50
269.9999999999857
 51
359.9999999999991
  0
ARC
  5
2FE
  8
1
  6
CONTINUOUS
 62
     7
 10
-3283.702307521467
 20
-257.936692902628
 30
0.0
 40
0.5000000000000004
 50
180.0000000000009
 51
270.0000000000139
  0
LINE
  5
2FF
  8
1
  6
CONTINUOUS
 62
     7
 10
-3231.402307521468
 20
-256.9366929026279
 30
0.0
 11
-3231.402307521468
 21
-257.9366929026279
 31
0.0
  0
LINE
  5
300
  8
1
  6
CONTINUOUS
 62
     7
 10
-3226.202307521468
 20
-257.9366929026279
 30
0.0
 11
-3226.202307521468
 21
-256.9366929026279
 31
0.0
  0
LINE
  5
301
  8
1
  6
CONTINUOUS
 62
     7
 10
-3289.402307521467
 20
-256.9366929026287
 30
0.0
 11
-3289.402307521467
 21
-257.9366929026286
 31
0.0
  0
LINE
  5
302
  8
1
  6
CONTINUOUS
 62
     7
 10
-3284.202307521467
 20
-257.9366929026286
 30
0.0
 11
-3284.202307521467
 21
-256.9366929026287
 31
0.0
  0
LINE
  5
303
  8
1
  6
CONTINUOUS
 62
     7
 10
-3332.802307521468
 20
-265.0366929026278
 30
0.0
 11
-3332.802307521468
 21
-266.6366929026278
 31
0.0
  0
LINE
  5
304
  8
1
  6
CONTINUOUS
 62
     7
 10
-3182.802307521468
 20
-266.6366929026278
 30
0.0
 11
-3182.802307521468
 21
-265.0366929026278
 31
0.0
  0
ENDBLK
  8
0
  0
ENDSEC
  0
SECTION
  2
ENTITIES
  0
LINE
  5
70
  8
1
  6
CENTER
 62
     1
 10
-3257.80230752147
 20
-151.6366929026282
 30
0.0
 11
-3257.802307521464
 21
-276.6366929026285
 31
0.0
  0
LINE
  5
72
  8
1
  6
CENTER
 62
     1
 10
-3162.802307521468
 20
-371.6366929026278
 30
0.0
 11
-3102.802307521468
 21
-371.6366929026278
 31
0.0
  0
LINE
  5
73
  8
1
  6
CENTER
 62
     1
 10
-3032.802307521468
 20
-374.1366929026278
 30
0.0
 11
-3097.802307521468
 21
-374.1366929026278
 31
0.0
  0
POINT
  5
74
  8
1
 62
     7
 10
-3247.802307521468
 20
-151.6366929026278
 30
0.0
  0
POINT
  5
75
  8
1
 62
     7
 10
-3032.802307521468
 20
-376.6366929026278
 30
0.0
  0
POINT
  5
76
  8
1
 62
     7
 10
-3162.802307521468
 20
-371.6366929026278
 30
0.0
  0
POINT
  5
77
  8
1
 62
     7
 10
-3097.802307521468
 20
-376.6366929026278
 30
0.0
  0
POINT
  5
78
  8
1
 62
     7
 10
-3242.802307521468
 20
-276.6366929026278
 30
0.0
  0
POINT
  5
79
  8
1
 62
     7
 10
-3102.802307521468
 20
-371.6366929026278
 30
0.0
  0
INSERT
  5
F2
  8
1
  6
DOT
 62
     7
  2
D_FRAME_VIEW_6354
 10
0.0
 20
0.0
 30
0.0
  0
INSERT
  5
1F9
  8
1
  6
DOT
 62
     7
  2
D_FRAME_VIEW_5612
 10
0.0
 20
0.0
 30
0.0
  0
TEXT
  5
1FA
  8
1
  6
CONTINUOUS
 62
     7
 10
-3115.598546736173
 20
-478.3082728701157
 30
0.0
 40
3.0
  1
SGM-VK1AL
  0
LINE
  5
1FB
  8
1
  6
CONTINUOUS
 62
     2
 10
-3115.513671157832
 20
-478.8662383571733
 30
0.0
 11
-3100.090943885104
 21
-478.8662383571733
 31
0.0
  0
LINE
  5
1FC
  8
1
  6
CENTER
 62
     1
 10
-3334.802307521468
 20
-371.6366929026278
 30
0.0
 11
-3180.802307521468
 21
-371.6366929026278
 31
0.0
  0
LINE
  5
1FD
  8
1
  6
CENTER
 62
     1
 10
-3257.802307521468
 20
-448.6366929026278
 30
0.0
 11
-3257.802307521468
 21
-294.6366929026278
 31
0.0
  0
INSERT
  5
305
  8
1
  6
DOT
 62
     7
  2
D_FRAME_VIEW_6231
 10
0.0
 20
0.0
 30
0.0
  0
ENDSEC
  0
EOF
