  0
SECTION
  2
HEADER
  9
$ACADVER
  1
AC1014
  9
$ACADMAINTVER
 70
     9
  9
$DWGCODEPAGE
  3
ANSI_932
  9
$INSBASE
 10
0.0
 20
0.0
 30
0.0
  9
$EXTMIN
 10
-399.5
 20
-114.506931506287
 30
0.0
  9
$EXTMAX
 10
-122.4930684937129
 20
220.0000000000001
 30
0.0
  9
$LIMMIN
 10
0.0
 20
0.0
  9
$LIMMAX
 10
12.0
 20
9.0
  9
$ORTHOMODE
 70
     0
  9
$REGENMODE
 70
     1
  9
$FILLMODE
 70
     1
  9
$QTEXTMODE
 70
     0
  9
$MIRRTEXT
 70
     1
  9
$DRAGMODE
 70
     2
  9
$LTSCALE
 40
1.0
  9
$OSMODE
 70
    37
  9
$ATTMODE
 70
     1
  9
$TEXTSIZE
 40
0.2
  9
$TRACEWID
 40
0.05
  9
$TEXTSTYLE
  7
STANDARD
  9
$CLAYER
  8
0
  9
$CELTYPE
  6
BYLAYER
  9
$CECOLOR
 62
   256
  9
$CELTSCALE
 40
1.0
  9
$DELOBJ
 70
     1
  9
$DISPSILH
 70
     0
  9
$DIMSCALE
 40
1.0
  9
$DIMASZ
 40
3.0
  9
$DIMEXO
 40
0.0625
  9
$DIMDLI
 40
0.38
  9
$DIMRND
 40
0.0
  9
$DIMDLE
 40
0.0
  9
$DIMEXE
 40
1.5
  9
$DIMTP
 40
0.0
  9
$DIMTM
 40
0.0
  9
$DIMTXT
 40
3.0
  9
$DIMCEN
 40
0.09
  9
$DIMTSZ
 40
0.0
  9
$DIMTOL
 70
     0
  9
$DIMLIM
 70
     0
  9
$DIMTIH
 70
     1
  9
$DIMTOH
 70
     1
  9
$DIMSE1
 70
     0
  9
$DIMSE2
 70
     0
  9
$DIMTAD
 70
     1
  9
$DIMZIN
 70
     0
  9
$DIMBLK
  1

  9
$DIMASO
 70
     1
  9
$DIMSHO
 70
     1
  9
$DIMPOST
  1

  9
$DIMAPOST
  1

  9
$DIMALT
 70
     0
  9
$DIMALTD
 70
     2
  9
$DIMALTF
 40
25.4
  9
$DIMLFAC
 40
1.0
  9
$DIMTOFL
 70
     0
  9
$DIMTVP
 40
0.0
  9
$DIMTIX
 70
     0
  9
$DIMSOXD
 70
     0
  9
$DIMSAH
 70
     0
  9
$DIMBLK1
  1

  9
$DIMBLK2
  1

  9
$DIMSTYLE
  2
STANDARD
  9
$DIMCLRD
 70
     0
  9
$DIMCLRE
 70
     0
  9
$DIMCLRT
 70
     0
  9
$DIMTFAC
 40
1.0
  9
$DIMGAP
 40
1.5
  9
$DIMJUST
 70
     0
  9
$DIMSD1
 70
     0
  9
$DIMSD2
 70
     0
  9
$DIMTOLJ
 70
     1
  9
$DIMTZIN
 70
     0
  9
$DIMALTZ
 70
     0
  9
$DIMALTTZ
 70
     0
  9
$DIMFIT
 70
     3
  9
$DIMUPT
 70
     0
  9
$DIMUNIT
 70
     2
  9
$DIMDEC
 70
     2
  9
$DIMTDEC
 70
     4
  9
$DIMALTU
 70
     2
  9
$DIMALTTD
 70
     2
  9
$DIMTXSTY
  7
ＭＳ_ゴシック
  9
$DIMAUNIT
 70
     0
  9
$LUNITS
 70
     2
  9
$LUPREC
 70
     4
  9
$SKETCHINC
 40
0.1
  9
$FILLETRAD
 40
0.5
  9
$AUNITS
 70
     0
  9
$AUPREC
 70
     0
  9
$MENU
  1
.
  9
$ELEVATION
 40
0.0
  9
$PELEVATION
 40
0.0
  9
$THICKNESS
 40
0.0
  9
$LIMCHECK
 70
     0
  9
$CHAMFERA
 40
0.0
  9
$CHAMFERB
 40
0.0
  9
$CHAMFERC
 40
0.0
  9
$CHAMFERD
 40
0.0
  9
$SKPOLY
 70
     0
  9
$TDCREATE
 40
2459527.745027349
  9
$TDUPDATE
 40
2459527.745027708
  9
$TDINDWG
 40
0.0000000116
  9
$TDUSRTIMER
 40
0.0000000116
  9
$USRTIMER
 70
     1
  9
$ANGBASE
 50
0.0
  9
$ANGDIR
 70
     0
  9
$PDMODE
 70
     0
  9
$PDSIZE
 40
0.0
  9
$PLINEWID
 40
0.0
  9
$COORDS
 70
     1
  9
$SPLFRAME
 70
     0
  9
$SPLINETYPE
 70
     6
  9
$SPLINESEGS
 70
     8
  9
$ATTDIA
 70
     0
  9
$ATTREQ
 70
     1
  9
$HANDLING
 70
     1
  9
$HANDSEED
  5
429
  9
$SURFTAB1
 70
     6
  9
$SURFTAB2
 70
     6
  9
$SURFTYPE
 70
     6
  9
$SURFU
 70
     6
  9
$SURFV
 70
     6
  9
$UCSNAME
  2

  9
$UCSORG
 10
0.0
 20
0.0
 30
0.0
  9
$UCSXDIR
 10
1.0
 20
0.0
 30
0.0
  9
$UCSYDIR
 10
0.0
 20
1.0
 30
0.0
  9
$PUCSNAME
  2

  9
$PUCSORG
 10
0.0
 20
0.0
 30
0.0
  9
$PUCSXDIR
 10
1.0
 20
0.0
 30
0.0
  9
$PUCSYDIR
 10
0.0
 20
1.0
 30
0.0
  9
$USERI1
 70
     0
  9
$USERI2
 70
     0
  9
$USERI3
 70
     0
  9
$USERI4
 70
     0
  9
$USERI5
 70
     0
  9
$USERR1
 40
0.0
  9
$USERR2
 40
0.0
  9
$USERR3
 40
0.0
  9
$USERR4
 40
0.0
  9
$USERR5
 40
0.0
  9
$WORLDVIEW
 70
     1
  9
$SHADEDGE
 70
     3
  9
$SHADEDIF
 70
    70
  9
$TILEMODE
 70
     1
  9
$MAXACTVP
 70
    64
  9
$PINSBASE
 10
0.0
 20
0.0
 30
0.0
  9
$PLIMCHECK
 70
     0
  9
$PEXTMIN
 10
1.000000000000000E+20
 20
1.000000000000000E+20
 30
1.000000000000000E+20
  9
$PEXTMAX
 10
-1.000000000000000E+20
 20
-1.000000000000000E+20
 30
-1.000000000000000E+20
  9
$PLIMMIN
 10
0.0
 20
0.0
  9
$PLIMMAX
 10
12.0
 20
9.0
  9
$UNITMODE
 70
     0
  9
$VISRETAIN
 70
     1
  9
$PLINEGEN
 70
     0
  9
$PSLTSCALE
 70
     1
  9
$TREEDEPTH
 70
  3020
  9
$PICKSTYLE
 70
     1
  9
$CMLSTYLE
  2
STANDARD
  9
$CMLJUST
 70
     0
  9
$CMLSCALE
 40
1.0
  9
$PROXYGRAPHICS
 70
     1
  9
$MEASUREMENT
 70
     1
  0
ENDSEC
  0
SECTION
  2
CLASSES
  0
CLASS
  1
ACDBDICTIONARYWDFLT
  2
AcDbDictionaryWithDefault
  3
ObjectDBX Classes
 90
        0
280
     0
281
     0
  0
CLASS
  1
VISUALSTYLE
  2
AcDbVisualStyle
  3
ObjectDBX Classes
 90
     4095
280
     0
281
     0
  0
CLASS
  1
MATERIAL
  2
AcDbMaterial
  3
ObjectDBX Classes
 90
     1153
280
     0
281
     0
  0
CLASS
  1
SCALE
  2
AcDbScale
  3
ObjectDBX Classes
 90
     1153
280
     0
281
     0
  0
CLASS
  1
TABLESTYLE
  2
AcDbTableStyle
  3
ObjectDBX Classes
 90
     4095
280
     0
281
     0
  0
CLASS
  1
MLEADERSTYLE
  2
AcDbMLeaderStyle
  3
ACDB_MLEADERSTYLE_CLASS
 90
     4095
280
     0
281
     0
  0
CLASS
  1
SUN
  2
AcDbSun
  3
SCENEOE
 90
     1153
280
     0
281
     0
  0
CLASS
  1
DICTIONARYVAR
  2
AcDbDictionaryVar
  3
ObjectDBX Classes
 90
        0
280
     0
281
     0
  0
CLASS
  1
XRECORD
  2
AcDbXrecord
  3
ObjectDBX Classes
 90
        0
280
     0
281
     0
  0
CLASS
  1
LWPOLYLINE
  2
AcDbPolyline
  3
ObjectDBX Classes
 90
        0
280
     0
281
     1
  0
CLASS
  1
HATCH
  2
AcDbHatch
  3
ObjectDBX Classes
 90
        0
280
     0
281
     1
  0
CLASS
  1
ACDBPLACEHOLDER
  2
AcDbPlaceHolder
  3
ObjectDBX Classes
 90
        0
280
     0
281
     0
  0
CLASS
  1
LAYOUT
  2
AcDbLayout
  3
ObjectDBX Classes
 90
        0
280
     0
281
     0
  0
ENDSEC
  0
SECTION
  2
TABLES
  0
TABLE
  2
VPORT
  5
8
102
{ACAD_XDICTIONARY
360
41E
102
}
330
0
100
AcDbSymbolTable
 70
     1
  0
VPORT
  5
29
330
8
100
AcDbSymbolTableRecord
100
AcDbViewportTableRecord
  2
*ACTIVE
 70
     0
 10
0.0
 20
0.0
 11
1.0
 21
1.0
 12
-260.9965342468565
 22
52.74653424685656
 13
0.0
 23
0.0
 14
0.5
 24
0.5
 15
0.5
 25
0.5
 16
0.0
 26
0.0
 36
1.0
 17
0.0
 27
0.0
 37
0.0
 40
334.5069315062871
 41
1.6
 42
50.0
 43
0.0
 44
0.0
 50
0.0
 51
0.0
 71
     0
 72
   100
 73
     1
 74
     3
 75
     0
 76
     0
 77
     0
 78
     0
  0
ENDTAB
  0
TABLE
  2
LTYPE
  5
5
330
0
100
AcDbSymbolTable
 70
     2
  0
LTYPE
  5
14
330
5
100
AcDbSymbolTableRecord
100
AcDbLinetypeTableRecord
  2
BYBLOCK
 70
     0
  3

 72
    65
 73
     0
 40
0.0
  0
LTYPE
  5
15
330
5
100
AcDbSymbolTableRecord
100
AcDbLinetypeTableRecord
  2
BYLAYER
 70
     0
  3

 72
    65
 73
     0
 40
0.0
  0
LTYPE
  5
16
330
5
100
AcDbSymbolTableRecord
100
AcDbLinetypeTableRecord
  2
CONTINUOUS
 70
     0
  3
Solid line
 72
    65
 73
     0
 40
0.0
  0
LTYPE
  5
3B5
330
5
100
AcDbSymbolTableRecord
100
AcDbLinetypeTableRecord
  2
CENTER
 70
     0
  3

 72
    65
 73
     0
 40
0.0
  0
ENDTAB
  0
TABLE
  2
LAYER
  5
2
330
0
100
AcDbSymbolTable
 70
     2
  0
LAYER
  5
10
330
2
100
AcDbSymbolTableRecord
100
AcDbLayerTableRecord
  2
0
 70
     0
 62
     7
  6
CONTINUOUS
  0
LAYER
  5
6E
330
2
100
AcDbSymbolTableRecord
100
AcDbLayerTableRecord
  2
1
 70
     0
 62
     7
  6
CONTINUOUS
  0
ENDTAB
  0
TABLE
  2
STYLE
  5
3
330
0
100
AcDbSymbolTable
 70
     2
  0
STYLE
  5
11
330
3
100
AcDbSymbolTableRecord
100
AcDbTextStyleTableRecord
  2
STANDARD
 70
     0
 40
0.0
 41
1.0
 50
0.0
 71
     0
 42
0.2
  3
txt
  4

  0
STYLE
  5
6F
330
3
100
AcDbSymbolTableRecord
100
AcDbTextStyleTableRecord
  2
ＭＳ_ゴシック
 70
     0
 40
0.0
 41
1.0
 50
0.0
 71
     0
 42
0.2
  3
ＭＳ ゴシック.shx
  4

  0
ENDTAB
  0
TABLE
  2
VIEW
  5
6
330
0
100
AcDbSymbolTable
 70
     0
  0
ENDTAB
  0
TABLE
  2
UCS
  5
7
330
0
100
AcDbSymbolTable
 70
     0
  0
ENDTAB
  0
TABLE
  2
APPID
  5
9
330
0
100
AcDbSymbolTable
 70
     2
  0
APPID
  5
12
330
9
100
AcDbSymbolTableRecord
100
AcDbRegAppTableRecord
  2
ACAD
 70
     0
  0
APPID
  5
428
330
9
100
AcDbSymbolTableRecord
100
AcDbRegAppTableRecord
  2
ACAD_MLEADERVER
 70
     0
  0
ENDTAB
  0
TABLE
  2
DIMSTYLE
  5
A
330
0
100
AcDbSymbolTable
 70
     1
  0
DIMSTYLE
105
27
330
A
100
AcDbSymbolTableRecord
100
AcDbDimStyleTableRecord
  2
STANDARD
 70
     0
  3

  4

  5

  6

  7

 40
1.0
 41
0.18
 42
0.0625
 43
0.38
 44
0.18
 45
0.0
 46
0.0
 47
0.0
 48
0.0
140
0.18
141
0.09
142
0.0
143
25.4
144
1.0
145
0.0
146
1.0
147
0.09
 71
     0
 72
     0
 73
     1
 74
     1
 75
     0
 76
     0
 77
     0
 78
     0
170
     0
171
     2
172
     0
173
     0
174
     0
175
     0
176
     0
177
     0
178
     0
270
     2
271
     4
272
     4
273
     2
274
     2
340
11
275
     0
280
     0
281
     0
282
     0
283
     1
284
     0
285
     0
286
     0
287
     3
288
     0
  0
ENDTAB
  0
TABLE
  2
BLOCK_RECORD
  5
1
330
0
100
AcDbSymbolTable
 70
     0
  0
BLOCK_RECORD
  5
1F
330
1
100
AcDbSymbolTableRecord
100
AcDbBlockTableRecord
  2
*MODEL_SPACE
  0
BLOCK_RECORD
  5
1B
330
1
100
AcDbSymbolTableRecord
100
AcDbBlockTableRecord
  2
*PAPER_SPACE
  0
ENDTAB
  0
ENDSEC
  0
SECTION
  2
BLOCKS
  0
BLOCK
  5
20
330
1F
100
AcDbEntity
  8
0
100
AcDbBlockBegin
  2
*MODEL_SPACE
 70
     0
 10
0.0
 20
0.0
 30
0.0
  3
*MODEL_SPACE
  1

  0
ENDBLK
  5
21
330
1F
100
AcDbEntity
  8
0
100
AcDbBlockEnd
  0
BLOCK
  5
1C
330
1B
100
AcDbEntity
 67
     1
  8
0
100
AcDbBlockBegin
  2
*PAPER_SPACE
 70
     0
 10
0.0
 20
0.0
 30
0.0
  3
*PAPER_SPACE
  1

  0
ENDBLK
  5
1D
330
1B
100
AcDbEntity
 67
     1
  8
0
100
AcDbBlockEnd
  0
ENDSEC
  0
SECTION
  2
ENTITIES
  0
MTEXT
  5
70
330
1F
100
AcDbEntity
  8
1
 62
     7
100
AcDbMText
 10
-191.76669376016
 20
-28.98521633112417
 30
0.0
 40
3.0
 41
0.0
 71
     1
 72
     1
  1
{\fＭＳ ゴシック;SGM-VK2}
  0
LINE
  5
71
330
1F
100
AcDbEntity
  8
1
  6
CONTINUOUS
 62
     7
100
AcDbLine
 10
-179.9930684937131
 20
95.81270952612626
 30
0.0
 11
-179.9930684937131
 21
89.91608742605037
 31
0.0
  0
ARC
  5
72
330
1F
100
AcDbEntity
  8
1
  6
CONTINUOUS
 62
     7
100
AcDbCircle
 10
-184.4537207644783
 20
98.3608829547381
 30
0.0
 40
9.55049685629119
100
AcDbArc
 50
271.2638572719504
 51
297.8436044481982
  0
ARC
  5
73
330
1F
100
AcDbEntity
  8
1
  6
CONTINUOUS
 62
     7
100
AcDbCircle
 10
-184.0087892137765
 20
98.45188966149243
 30
0.0
 40
9.642026781908745
100
AcDbArc
 50
242.2848321844682
 51
268.6077060953828
  0
LINE
  5
74
330
1F
100
AcDbEntity
  8
1
  6
CONTINUOUS
 62
     7
100
AcDbLine
 10
-188.493068493713
 20
95.81270952612626
 30
0.0
 11
-188.493068493713
 21
89.91608742605037
 31
0.0
  0
LINE
  5
75
330
1F
100
AcDbEntity
  8
1
  6
CONTINUOUS
 62
     7
100
AcDbLine
 10
-179.9930684937131
 20
95.81270952612626
 30
0.0
 11
-188.493068493713
 21
95.81270952612626
 31
0.0
  0
LINE
  5
76
330
1F
100
AcDbEntity
  8
1
  6
CONTINUOUS
 62
     7
100
AcDbLine
 10
-171.493068493713
 20
95.81270952612626
 30
0.0
 11
-171.493068493713
 21
89.91608742605035
 31
0.0
  0
ARC
  5
77
330
1F
100
AcDbEntity
  8
1
  6
CONTINUOUS
 62
     7
100
AcDbCircle
 10
-175.9537207644783
 20
98.36088295473803
 30
0.0
 40
9.550496856291119
100
AcDbArc
 50
271.2638572719501
 51
297.8436044481981
  0
ARC
  5
78
330
1F
100
AcDbEntity
  8
1
  6
CONTINUOUS
 62
     7
100
AcDbCircle
 10
-175.5087892137767
 20
98.4518896614919
 30
0.0
 40
9.642026781908214
100
AcDbArc
 50
242.2848321844675
 51
268.6077060953837
  0
LINE
  5
79
330
1F
100
AcDbEntity
  8
1
  6
CONTINUOUS
 62
     7
100
AcDbLine
 10
-171.493068493713
 20
95.81270952612626
 30
0.0
 11
-179.9930684937131
 21
95.81270952612626
 31
0.0
  0
LINE
  5
7A
330
1F
100
AcDbEntity
  8
1
  6
CONTINUOUS
 62
     7
100
AcDbLine
 10
-175.743068493713
 20
88.81270952612626
 30
0.0
 11
-184.2430684937131
 21
88.81270952612626
 31
0.0
  0
LINE
  5
7B
330
1F
100
AcDbEntity
  8
1
  6
CONTINUOUS
 62
     7
100
AcDbLine
 10
-188.493068493713
 20
88.81270952612626
 30
0.0
 11
-188.493068493713
 21
89.91608742605037
 31
0.0
  0
LINE
  5
7C
330
1F
100
AcDbEntity
  8
1
  6
CONTINUOUS
 62
     7
100
AcDbLine
 10
-184.2430684937131
 20
88.81270952612626
 30
0.0
 11
-188.4930684937131
 21
88.81270952612626
 31
0.0
  0
LINE
  5
7D
330
1F
100
AcDbEntity
  8
1
  6
CONTINUOUS
 62
     7
100
AcDbLine
 10
-171.493068493713
 20
89.91608742605035
 30
0.0
 11
-171.493068493713
 21
88.81270952612626
 31
0.0
  0
LINE
  5
7E
330
1F
100
AcDbEntity
  8
1
  6
CONTINUOUS
 62
     7
100
AcDbLine
 10
-171.493068493713
 20
88.81270952612626
 30
0.0
 11
-175.743068493713
 21
88.81270952612626
 31
0.0
  0
LINE
  5
7F
330
1F
100
AcDbEntity
  8
1
  6
CONTINUOUS
 62
     7
100
AcDbLine
 10
-122.597387575176
 20
77.8127095261263
 30
0.0
 11
-122.493068493713
 21
77.8127095261263
 31
0.0
  0
LINE
  5
80
330
1F
100
AcDbEntity
  8
1
  6
CONTINUOUS
 62
     7
100
AcDbLine
 10
-237.38874941225
 20
77.81270952612512
 30
0.0
 11
-237.4930684937129
 21
77.81270952612512
 31
0.0
  0
LINE
  5
81
330
1F
100
AcDbEntity
  8
1
  6
CONTINUOUS
 62
     7
100
AcDbLine
 10
-122.597387575176
 20
77.8127095261263
 30
0.0
 11
-129.983068493713
 21
77.8127095261263
 31
0.0
  0
LINE
  5
82
330
1F
100
AcDbEntity
  8
1
  6
CONTINUOUS
 62
     7
100
AcDbLine
 10
-129.983068493713
 20
77.8127095261263
 30
0.0
 11
-130.003068493713
 21
77.8127095261263
 31
0.0
  0
LINE
  5
83
330
1F
100
AcDbEntity
  8
1
  6
CONTINUOUS
 62
     7
100
AcDbLine
 10
-130.003068493713
 20
77.8127095261263
 30
0.0
 11
-179.9930684937129
 21
77.8127095261263
 31
0.0
  0
LINE
  5
84
330
1F
100
AcDbEntity
  8
1
  6
CONTINUOUS
 62
     7
100
AcDbLine
 10
-179.9930684937129
 20
77.8127095261263
 30
0.0
 11
-230.0030684937128
 21
77.81270952612631
 31
0.0
  0
LINE
  5
85
330
1F
100
AcDbEntity
  8
1
  6
CONTINUOUS
 62
     7
100
AcDbLine
 10
-230.0030684937128
 20
77.81270952612631
 30
0.0
 11
-237.3887494122498
 21
77.81270952612631
 31
0.0
  0
LINE
  5
86
330
1F
100
AcDbEntity
  8
1
  6
CONTINUOUS
 62
     7
100
AcDbLine
 10
-123.158967774553
 20
67.81270952612631
 30
0.0
 11
-179.9930684937129
 21
67.81270952612631
 31
0.0
  0
LINE
  5
87
330
1F
100
AcDbEntity
  8
1
  6
CONTINUOUS
 62
     7
100
AcDbLine
 10
-179.9930684937129
 20
67.81270952612631
 30
0.0
 11
-236.8271692128728
 21
67.81270952612631
 31
0.0
  0
LINE
  5
88
330
1F
100
AcDbEntity
  8
1
  6
CONTINUOUS
 62
     7
100
AcDbLine
 10
-159.823990273781
 20
96.07438930734104
 30
0.0
 11
-158.9057703237921
 21
78.30834625837713
 31
0.0
  0
LINE
  5
89
330
1F
100
AcDbEntity
  8
1
  6
CONTINUOUS
 62
     7
100
AcDbLine
 10
-158.9785088614597
 20
77.81270952612628
 30
0.0
 11
-158.9057703237921
 21
78.30834625837713
 31
0.0
  0
LINE
  5
8A
330
1F
100
AcDbEntity
  8
1
  6
CONTINUOUS
 62
     7
100
AcDbLine
 10
-201.0803666636338
 20
78.30834625837709
 30
0.0
 11
-201.0076281259662
 21
77.8127095261263
 31
0.0
  0
LINE
  5
8B
330
1F
100
AcDbEntity
  8
1
  6
CONTINUOUS
 62
     7
100
AcDbLine
 10
-201.0803666636338
 20
78.30834625837709
 30
0.0
 11
-200.1621467136449
 21
96.07438930734102
 31
0.0
  0
LINE
  5
8C
330
1F
100
AcDbEntity
  8
1
  6
CONTINUOUS
 62
     7
100
AcDbLine
 10
-171.4379385326228
 20
100.8127095261263
 30
0.0
 11
-188.5481984548031
 21
100.8127095261263
 31
0.0
  0
LINE
  5
8D
330
1F
100
AcDbEntity
  8
1
  6
CONTINUOUS
 62
     7
100
AcDbLine
 10
-168.8714972702361
 20
100.8127095261263
 30
0.0
 11
-169.8932223954191
 21
100.8127095261263
 31
0.0
  0
LINE
  5
8E
330
1F
100
AcDbEntity
  8
1
  6
CONTINUOUS
 62
     7
100
AcDbLine
 10
-169.8932223954191
 20
100.8127095261263
 30
0.0
 11
-171.2778984629815
 21
100.8127095261263
 31
0.0
  0
LINE
  5
8F
330
1F
100
AcDbEntity
  8
1
  6
CONTINUOUS
 62
     7
100
AcDbLine
 10
-171.2778984629815
 20
100.8127095261263
 30
0.0
 11
-171.4379385326228
 21
100.8127095261263
 31
0.0
  0
LINE
  5
90
330
1F
100
AcDbEntity
  8
1
  6
CONTINUOUS
 62
     7
100
AcDbLine
 10
-188.5481984548031
 20
100.8127095261263
 30
0.0
 11
-188.7001675956002
 21
100.8127095261263
 31
0.0
  0
LINE
  5
91
330
1F
100
AcDbEntity
  8
1
  6
CONTINUOUS
 62
     7
100
AcDbLine
 10
-188.7001675956002
 20
100.8127095261263
 30
0.0
 11
-188.7734431417327
 21
100.8127095261263
 31
0.0
  0
LINE
  5
92
330
1F
100
AcDbEntity
  8
1
  6
CONTINUOUS
 62
     7
100
AcDbLine
 10
-188.7734431417327
 20
100.8127095261263
 30
0.0
 11
-191.1146397171898
 21
100.8127095261263
 31
0.0
  0
LINE
  5
93
330
1F
100
AcDbEntity
  8
1
  6
CONTINUOUS
 62
     7
100
AcDbLine
 10
-191.0677891835546
 20
110.8127095261263
 30
0.0
 11
-189.8728659861269
 21
110.8127095261263
 31
0.0
  0
LINE
  5
94
330
1F
100
AcDbEntity
  8
1
  6
CONTINUOUS
 62
     7
100
AcDbLine
 10
-171.7506026422772
 20
110.8127095261263
 30
0.0
 11
-168.9183478038713
 21
110.8127095261263
 31
0.0
  0
CIRCLE
  5
95
330
1F
100
AcDbEntity
  8
1
  6
CONTINUOUS
 62
     7
100
AcDbCircle
 10
-129.9930684937129
 20
97.81270952612631
 30
0.0
 40
2.649999999999999
  0
ARC
  5
96
330
1F
100
AcDbEntity
  8
1
  6
CONTINUOUS
 62
     7
100
AcDbCircle
 10
-164.8571020395576
 20
95.7708770997582
 30
0.0
 40
5.042254823682577
100
AcDbArc
 50
3.450933712765391
 51
90.7416326500699
  0
LINE
  5
97
330
1F
100
AcDbEntity
  8
1
  6
CONTINUOUS
 62
     7
100
AcDbLine
 10
-168.8714972702361
 20
100.8127095261263
 30
0.0
 11
-164.9223668185203
 21
100.8127095261263
 31
0.0
  0
ARC
  5
98
330
1F
100
AcDbEntity
  8
1
  6
CONTINUOUS
 62
     7
100
AcDbCircle
 10
-195.1290283242643
 20
95.77086997283861
 30
0.0
 40
5.042261864276513
100
AcDbArc
 50
89.25844365659134
 51
176.5489899805731
  0
LINE
  5
99
330
1F
100
AcDbEntity
  8
1
  6
CONTINUOUS
 62
     7
100
AcDbLine
 10
-195.0637701689056
 20
100.8127095261263
 30
0.0
 11
-191.1146397171898
 21
100.8127095261263
 31
0.0
  0
LINE
  5
9A
330
1F
100
AcDbEntity
  8
1
  6
CONTINUOUS
 62
     7
100
AcDbLine
 10
-124.6993632883008
 20
102.8107663113021
 30
0.0
 11
-124.5935907861504
 21
102.8032950309047
 31
0.0
  0
ARC
  5
9B
330
1F
100
AcDbEntity
  8
1
  6
CONTINUOUS
 62
     7
100
AcDbCircle
 10
-129.9930684937129
 20
96.81270952612631
 30
0.0
 40
7.999999999999998
100
AcDbArc
 50
48.56941046402346
 51
131.409622109271
  0
LINE
  5
9C
330
1F
100
AcDbEntity
  8
1
  6
CONTINUOUS
 62
     7
100
AcDbLine
 10
-152.931515680904
 20
102.8127095261263
 30
0.0
 11
-135.2845711158421
 21
102.8127095261263
 31
0.0
  0
ARC
  5
9D
330
1F
100
AcDbEntity
  8
1
  6
CONTINUOUS
 62
     7
100
AcDbCircle
 10
-207.0546213065217
 20
104.8127095261263
 30
0.0
 40
2.000000000000001
100
AcDbArc
 50
270.0
 51
345.9637565320733
  0
ARC
  5
9E
330
1F
100
AcDbEntity
  8
1
  6
CONTINUOUS
 62
     7
100
AcDbCircle
 10
-152.931515680904
 20
104.8127095261263
 30
0.0
 40
2.000000000000001
100
AcDbArc
 50
194.0362434679267
 51
270.0
  0
LINE
  5
9F
330
1F
100
AcDbEntity
  8
1
  6
CONTINUOUS
 62
     7
100
AcDbLine
 10
-232.2192872780545
 20
102.8127095261263
 30
0.0
 11
-207.0546213065217
 21
102.8127095261263
 31
0.0
  0
LINE
  5
A0
330
1F
100
AcDbEntity
  8
1
  6
CONTINUOUS
 62
     7
100
AcDbLine
 10
-205.114336306231
 20
104.3276382760536
 30
0.0
 11
-204.4398989624174
 21
107.025387651308
 31
0.0
  0
LINE
  5
A1
330
1F
100
AcDbEntity
  8
1
  6
CONTINUOUS
 62
     7
100
AcDbLine
 10
-155.5462380250083
 20
107.025387651308
 30
0.0
 11
-154.8718006811947
 21
104.3276382760536
 31
0.0
  0
ARC
  5
A2
330
1F
100
AcDbEntity
  8
1
  6
CONTINUOUS
 62
     7
100
AcDbCircle
 10
-199.5891864616907
 20
105.8127095261263
 30
0.0
 40
5.0
100
AcDbArc
 50
89.9999999999999
 51
165.9637565320736
  0
ARC
  5
A3
330
1F
100
AcDbEntity
  8
1
  6
CONTINUOUS
 62
     7
100
AcDbCircle
 10
-160.3969505257349
 20
105.8127095261263
 30
0.0
 40
5.0
100
AcDbArc
 50
14.03624346792645
 51
90.0
  0
LINE
  5
A4
330
1F
100
AcDbEntity
  8
1
  6
CONTINUOUS
 62
     7
100
AcDbLine
 10
-199.5891864616907
 20
110.8127095261263
 30
0.0
 11
-191.0677891835546
 21
110.8127095261263
 31
0.0
  0
LINE
  5
A5
330
1F
100
AcDbEntity
  8
1
  6
CONTINUOUS
 62
     7
100
AcDbLine
 10
-168.9183478038713
 20
110.8127095261263
 30
0.0
 11
-160.3969505257349
 21
110.8127095261263
 31
0.0
  0
LINE
  5
A6
330
1F
100
AcDbEntity
  8
1
  6
CONTINUOUS
 62
     7
100
AcDbLine
 10
-232.318340745969
 20
102.8127095261263
 30
0.0
 11
-232.2192872780544
 21
102.8127095261263
 31
0.0
  0
LINE
  5
A7
330
1F
100
AcDbEntity
  8
1
  6
CONTINUOUS
 62
     7
100
AcDbLine
 10
-124.7015658715837
 20
102.8127095261263
 30
0.0
 11
-124.6938626096719
 21
102.8127095261263
 31
0.0
  0
LINE
  5
A8
330
1F
100
AcDbEntity
  8
1
  6
CONTINUOUS
 62
     7
100
AcDbLine
 10
-183.9930684937129
 20
123.5127095261263
 30
0.0
 11
-175.9930684937129
 21
123.5127095261263
 31
0.0
  0
LINE
  5
A9
330
1F
100
AcDbEntity
  8
1
  6
CONTINUOUS
 62
     7
100
AcDbLine
 10
-187.993068493713
 20
123.5127095261263
 30
0.0
 11
-183.9930684937129
 21
123.5127095261263
 31
0.0
  0
LINE
  5
AA
330
1F
100
AcDbEntity
  8
1
  6
CONTINUOUS
 62
     7
100
AcDbLine
 10
-175.9930684937129
 20
123.5127095261263
 30
0.0
 11
-171.9930684937129
 21
123.5127095261263
 31
0.0
  0
LINE
  5
AB
330
1F
100
AcDbEntity
  8
1
  6
CONTINUOUS
 62
     7
100
AcDbLine
 10
-172.1930684937129
 20
115.1127095261263
 30
0.0
 11
-171.9930684937129
 21
115.1127095261263
 31
0.0
  0
ARC
  5
AC
330
1F
100
AcDbEntity
  8
1
  6
CONTINUOUS
 62
     7
100
AcDbCircle
 10
322.211329831283
 20
97.19732491074163
 30
0.0
 40
510.4543983249961
100
AcDbArc
 50
179.8186813615894
 51
180.0
  0
LINE
  5
AD
330
1F
100
AcDbEntity
  8
1
  6
CONTINUOUS
 62
     7
100
AcDbLine
 10
-171.423325928916
 20
100.8127095261263
 30
0.0
 11
-171.5357625030769
 21
100.8127095261263
 31
0.0
  0
LINE
  5
AE
330
1F
100
AcDbEntity
  8
1
  6
CONTINUOUS
 62
     7
100
AcDbLine
 10
-171.5357625030769
 20
100.8127095261263
 30
0.0
 11
-188.5534981748859
 21
100.8127095261263
 31
0.0
  0
LINE
  5
AF
330
1F
100
AcDbEntity
  8
1
  6
CONTINUOUS
 62
     7
100
AcDbLine
 10
-169.993068493713
 20
98.81270952612626
 30
0.0
 11
-189.993068493713
 21
98.81270952612626
 31
0.0
  0
ARC
  5
B0
330
1F
100
AcDbEntity
  8
1
  6
CONTINUOUS
 62
     7
100
AcDbCircle
 10
-190.293068493713
 20
123.5127095261264
 30
0.0
 40
2.299999999999996
100
AcDbArc
 50
0.0
 51
90.0000000000017
  0
LINE
  5
B1
330
1F
100
AcDbEntity
  8
1
  6
CONTINUOUS
 62
     7
100
AcDbLine
 10
-187.9930684937129
 20
115.4127095261263
 30
0.0
 11
-187.9930684937129
 21
123.5127095261264
 31
0.0
  0
ARC
  5
B2
330
1F
100
AcDbEntity
  8
1
  6
CONTINUOUS
 62
     7
100
AcDbCircle
 10
-187.693068493713
 20
115.4127095261263
 30
0.0
 40
0.3000000000000086
100
AcDbArc
 50
180.0
 51
270.0
  0
LINE
  5
B3
330
1F
100
AcDbEntity
  8
1
  6
CONTINUOUS
 62
     7
100
AcDbLine
 10
-173.1930684937129
 20
115.1127095261263
 30
0.0
 11
-187.693068493713
 21
115.1127095261263
 31
0.0
  0
LINE
  5
B4
330
1F
100
AcDbEntity
  8
1
  6
CONTINUOUS
 62
     7
100
AcDbLine
 10
-187.693068493713
 20
113.1127095261263
 30
0.0
 11
-173.1930684937129
 21
113.1127095261263
 31
0.0
  0
ARC
  5
B5
330
1F
100
AcDbEntity
  8
1
  6
CONTINUOUS
 62
     7
100
AcDbCircle
 10
-187.693068493713
 20
115.4127095261263
 30
0.0
 40
2.299999999999969
100
AcDbArc
 50
180.0000000000001
 51
270.0
  0
LINE
  5
B6
330
1F
100
AcDbEntity
  8
1
  6
CONTINUOUS
 62
     7
100
AcDbLine
 10
-189.9930684937129
 20
123.5127095261263
 30
0.0
 11
-189.9930684937129
 21
115.4127095261263
 31
0.0
  0
ARC
  5
B7
330
1F
100
AcDbEntity
  8
1
  6
CONTINUOUS
 62
     7
100
AcDbCircle
 10
-190.293068493713
 20
123.5127095261263
 30
0.0
 40
0.2999999999999947
100
AcDbArc
 50
0.0
 51
90.0
  0
LINE
  5
B8
330
1F
100
AcDbEntity
  8
1
  6
CONTINUOUS
 62
     7
100
AcDbLine
 10
-196.4930684937129
 20
123.8127095261263
 30
0.0
 11
-190.293068493713
 21
123.8127095261263
 31
0.0
  0
LINE
  5
B9
330
1F
100
AcDbEntity
  8
1
  6
CONTINUOUS
 62
     7
100
AcDbLine
 10
-196.493068493713
 20
125.8127095261264
 30
0.0
 11
-190.293068493713
 21
125.8127095261264
 31
0.0
  0
LINE
  5
BA
330
1F
100
AcDbEntity
  8
1
  6
CONTINUOUS
 62
     7
100
AcDbLine
 10
-196.4930684937129
 20
123.8127095261263
 30
0.0
 11
-197.4930684937129
 21
123.8127095261263
 31
0.0
  0
LINE
  5
BB
330
1F
100
AcDbEntity
  8
1
  6
CONTINUOUS
 62
     7
100
AcDbLine
 10
-197.4930684937129
 20
123.8127095261263
 30
0.0
 11
-197.4930684937129
 21
125.8127095261263
 31
0.0
  0
LINE
  5
BC
330
1F
100
AcDbEntity
  8
1
  6
CONTINUOUS
 62
     7
100
AcDbLine
 10
-197.4930684937129
 20
125.8127095261263
 30
0.0
 11
-196.493068493713
 21
125.8127095261264
 31
0.0
  0
ARC
  5
BD
330
1F
100
AcDbEntity
  8
1
  6
CONTINUOUS
 62
     7
100
AcDbCircle
 10
-169.6930684937129
 20
123.5127095261263
 30
0.0
 40
0.3000000000000225
100
AcDbArc
 50
90.0
 51
180.0
  0
LINE
  5
BE
330
1F
100
AcDbEntity
  8
1
  6
CONTINUOUS
 62
     7
100
AcDbLine
 10
-169.9930684937129
 20
113.1127095261263
 30
0.0
 11
-169.9930684937129
 21
123.5127095261263
 31
0.0
  0
ARC
  5
BF
330
1F
100
AcDbEntity
  8
1
  6
CONTINUOUS
 62
     7
100
AcDbCircle
 10
-172.2930684937129
 20
113.1127095261263
 30
0.0
 40
2.299999999999996
100
AcDbArc
 50
270.0
 51
359.9999999999998
  0
LINE
  5
C0
330
1F
100
AcDbEntity
  8
1
  6
CONTINUOUS
 62
     7
100
AcDbLine
 10
-188.2930684937129
 20
110.8127095261263
 30
0.0
 11
-172.2930684937129
 21
110.8127095261263
 31
0.0
  0
LINE
  5
C1
330
1F
100
AcDbEntity
  8
1
  6
CONTINUOUS
 62
     7
100
AcDbLine
 10
-172.2930684937129
 20
112.8127095261263
 30
0.0
 11
-188.2930684937129
 21
112.8127095261263
 31
0.0
  0
ARC
  5
C2
330
1F
100
AcDbEntity
  8
1
  6
CONTINUOUS
 62
     7
100
AcDbCircle
 10
-172.2930684937129
 20
113.1127095261263
 30
0.0
 40
0.299999999999967
100
AcDbArc
 50
270.0
 51
359.9999999999986
  0
LINE
  5
C3
330
1F
100
AcDbEntity
  8
1
  6
CONTINUOUS
 62
     7
100
AcDbLine
 10
-171.993068493713
 20
123.5127095261264
 30
0.0
 11
-171.993068493713
 21
113.1127095261263
 31
0.0
  0
ARC
  5
C4
330
1F
100
AcDbEntity
  8
1
  6
CONTINUOUS
 62
     7
100
AcDbCircle
 10
-169.6930684937129
 20
123.5127095261264
 30
0.0
 40
2.299999999999996
100
AcDbArc
 50
90.0
 51
180.0
  0
LINE
  5
C5
330
1F
100
AcDbEntity
  8
1
  6
CONTINUOUS
 62
     7
100
AcDbLine
 10
-163.4930684937129
 20
123.8127095261263
 30
0.0
 11
-169.6930684937129
 21
123.8127095261263
 31
0.0
  0
LINE
  5
C6
330
1F
100
AcDbEntity
  8
1
  6
CONTINUOUS
 62
     7
100
AcDbLine
 10
-163.4930684937129
 20
125.8127095261264
 30
0.0
 11
-169.6930684937129
 21
125.8127095261264
 31
0.0
  0
LINE
  5
C7
330
1F
100
AcDbEntity
  8
1
  6
CONTINUOUS
 62
     7
100
AcDbLine
 10
-162.4930684937129
 20
125.8127095261263
 30
0.0
 11
-162.4930684937129
 21
123.8127095261263
 31
0.0
  0
LINE
  5
C8
330
1F
100
AcDbEntity
  8
1
  6
CONTINUOUS
 62
     7
100
AcDbLine
 10
-162.4930684937129
 20
123.8127095261263
 30
0.0
 11
-163.4930684937129
 21
123.8127095261263
 31
0.0
  0
LINE
  5
C9
330
1F
100
AcDbEntity
  8
1
  6
CONTINUOUS
 62
     7
100
AcDbLine
 10
-163.4930684937129
 20
125.8127095261264
 30
0.0
 11
-162.4930684937129
 21
125.8127095261264
 31
0.0
  0
ARC
  5
CA
330
1F
100
AcDbEntity
  8
1
  6
CONTINUOUS
 62
     7
100
AcDbCircle
 10
-172.2930684937129
 20
168.5127095261263
 30
0.0
 40
0.3000000000000225
100
AcDbArc
 50
0.0
 51
90.00000000000132
  0
LINE
  5
CB
330
1F
100
AcDbEntity
  8
1
  6
CONTINUOUS
 62
     7
100
AcDbLine
 10
-187.693068493713
 20
168.8127095261263
 30
0.0
 11
-172.2930684937129
 21
168.8127095261263
 31
0.0
  0
ARC
  5
CC
330
1F
100
AcDbEntity
  8
1
  6
CONTINUOUS
 62
     7
100
AcDbCircle
 10
-187.693068493713
 20
168.5127095261263
 30
0.0
 40
0.2999999999999947
100
AcDbArc
 50
90.0
 51
180.0
  0
LINE
  5
CD
330
1F
100
AcDbEntity
  8
1
  6
CONTINUOUS
 62
     7
100
AcDbLine
 10
-187.9930684937129
 20
161.8917109306204
 30
0.0
 11
-187.9930684937129
 21
168.5127095261263
 31
0.0
  0
LINE
  5
CE
330
1F
100
AcDbEntity
  8
1
  6
CONTINUOUS
 62
     7
100
AcDbLine
 10
-189.9930684937129
 20
168.5127095261263
 30
0.0
 11
-189.9930684937129
 21
161.8917109306204
 31
0.0
  0
ARC
  5
CF
330
1F
100
AcDbEntity
  8
1
  6
CONTINUOUS
 62
     7
100
AcDbCircle
 10
-187.693068493713
 20
168.5127095261263
 30
0.0
 40
2.299999999999996
100
AcDbArc
 50
90.00000000000034
 51
180.0
  0
LINE
  5
D0
330
1F
100
AcDbEntity
  8
1
  6
CONTINUOUS
 62
     7
100
AcDbLine
 10
-172.2930684937129
 20
170.8127095261263
 30
0.0
 11
-187.693068493713
 21
170.8127095261263
 31
0.0
  0
ARC
  5
D1
330
1F
100
AcDbEntity
  8
1
  6
CONTINUOUS
 62
     7
100
AcDbCircle
 10
-172.2930684937129
 20
168.5127095261263
 30
0.0
 40
2.299999999999996
100
AcDbArc
 50
0.0000000000006879
 51
90.0
  0
LINE
  5
D2
330
1F
100
AcDbEntity
  8
1
  6
CONTINUOUS
 62
     7
100
AcDbLine
 10
-169.9930684937129
 20
161.8917109306204
 30
0.0
 11
-169.9930684937129
 21
168.5127095261263
 31
0.0
  0
LINE
  5
D3
330
1F
100
AcDbEntity
  8
1
  6
CONTINUOUS
 62
     7
100
AcDbLine
 10
-171.9930684937129
 20
168.5127095261263
 30
0.0
 11
-171.993068493713
 21
161.8917109306204
 31
0.0
  0
LINE
  5
D4
330
1F
100
AcDbEntity
  8
1
  6
CONTINUOUS
 62
     7
100
AcDbLine
 10
-173.1930684937129
 20
115.1127095261263
 30
0.0
 11
-172.1930684937129
 21
115.1127095261263
 31
0.0
  0
LINE
  5
D5
330
1F
100
AcDbEntity
  8
1
  6
CONTINUOUS
 62
     7
100
AcDbLine
 10
-172.1930684937129
 20
115.1127095261263
 30
0.0
 11
-172.1930684937129
 21
113.1127095261263
 31
0.0
  0
LINE
  5
D6
330
1F
100
AcDbEntity
  8
1
  6
CONTINUOUS
 62
     7
100
AcDbLine
 10
-172.1930684937129
 20
113.1127095261263
 30
0.0
 11
-173.1930684937129
 21
113.1127095261263
 31
0.0
  0
LINE
  5
D7
330
1F
100
AcDbEntity
  8
1
  6
CONTINUOUS
 62
     7
100
AcDbLine
 10
-171.993068493713
 20
159.0827233979133
 30
0.0
 11
-171.993068493713
 21
161.8917109306204
 31
0.0
  0
LINE
  5
D8
330
1F
100
AcDbEntity
  8
1
  6
CONTINUOUS
 62
     7
100
AcDbLine
 10
-169.9930684937129
 20
161.8917109306204
 30
0.0
 11
-169.9930684937129
 21
159.0827233979133
 31
0.0
  0
LINE
  5
D9
330
1F
100
AcDbEntity
  8
1
  6
CONTINUOUS
 62
     7
100
AcDbLine
 10
-189.7930684937129
 20
110.8127095261263
 30
0.0
 11
-189.7930684937129
 21
112.8127095261263
 31
0.0
  0
LINE
  5
DA
330
1F
100
AcDbEntity
  8
1
  6
CONTINUOUS
 62
     7
100
AcDbLine
 10
-188.2930684937129
 20
110.8127095261263
 30
0.0
 11
-189.7930684937129
 21
110.8127095261263
 31
0.0
  0
LINE
  5
DB
330
1F
100
AcDbEntity
  8
1
  6
CONTINUOUS
 62
     7
100
AcDbLine
 10
-189.7930684937129
 20
112.8127095261263
 30
0.0
 11
-188.2930684937129
 21
112.8127095261263
 31
0.0
  0
LINE
  5
DC
330
1F
100
AcDbEntity
  8
1
  6
CONTINUOUS
 62
     7
100
AcDbLine
 10
-187.9930684937129
 20
161.8917109306204
 30
0.0
 11
-187.9930684937129
 21
159.0827233979133
 31
0.0
  0
LINE
  5
DD
330
1F
100
AcDbEntity
  8
1
  6
CONTINUOUS
 62
     7
100
AcDbLine
 10
-189.9930684937129
 20
159.0827233979133
 30
0.0
 11
-189.9930684937129
 21
161.8917109306204
 31
0.0
  0
LINE
  5
DE
330
1F
100
AcDbEntity
  8
1
  6
CONTINUOUS
 62
     7
100
AcDbLine
 10
-171.993068493713
 20
156.8127095261263
 30
0.0
 11
-171.993068493713
 21
159.0827233979133
 31
0.0
  0
LINE
  5
DF
330
1F
100
AcDbEntity
  8
1
  6
CONTINUOUS
 62
     7
100
AcDbLine
 10
-169.9930684937129
 20
159.0827233979133
 30
0.0
 11
-169.9930684937129
 21
156.8127095261263
 31
0.0
  0
LINE
  5
E0
330
1F
100
AcDbEntity
  8
1
  6
CONTINUOUS
 62
     7
100
AcDbLine
 10
-187.9930684937129
 20
159.0827233979133
 30
0.0
 11
-187.9930684937129
 21
156.8127095261264
 31
0.0
  0
LINE
  5
E1
330
1F
100
AcDbEntity
  8
1
  6
CONTINUOUS
 62
     7
100
AcDbLine
 10
-189.9930684937129
 20
156.8127095261264
 30
0.0
 11
-189.9930684937129
 21
159.0827233979133
 31
0.0
  0
LINE
  5
E2
330
1F
100
AcDbEntity
  8
1
  6
CONTINUOUS
 62
     7
100
AcDbLine
 10
-184.593068493713
 20
166.8127095261263
 30
0.0
 11
-175.3930684937129
 21
166.8127095261263
 31
0.0
  0
LINE
  5
E3
330
1F
100
AcDbEntity
  8
1
  6
CONTINUOUS
 62
     7
100
AcDbLine
 10
-171.9930684937129
 20
156.8127095261263
 30
0.0
 11
-171.9930684937129
 21
152.8127095261264
 31
0.0
  0
LINE
  5
E4
330
1F
100
AcDbEntity
  8
1
  6
CONTINUOUS
 62
     7
100
AcDbLine
 10
-169.9930684937129
 20
152.8127095261264
 30
0.0
 11
-169.993068493713
 21
156.8127095261263
 31
0.0
  0
LINE
  5
E5
330
1F
100
AcDbEntity
  8
1
  6
CONTINUOUS
 62
     7
100
AcDbLine
 10
-187.9930684937129
 20
152.8127095261264
 30
0.0
 11
-187.993068493713
 21
156.8127095261264
 31
0.0
  0
LINE
  5
E6
330
1F
100
AcDbEntity
  8
1
  6
CONTINUOUS
 62
     7
100
AcDbLine
 10
-189.9930684937129
 20
156.8127095261264
 30
0.0
 11
-189.9930684937129
 21
152.8127095261264
 31
0.0
  0
LINE
  5
E7
330
1F
100
AcDbEntity
  8
1
  6
CONTINUOUS
 62
     7
100
AcDbLine
 10
-171.9930684937129
 20
125.3127095261264
 30
0.0
 11
-171.9930684937129
 21
123.5127095261264
 31
0.0
  0
LINE
  5
E8
330
1F
100
AcDbEntity
  8
1
  6
CONTINUOUS
 62
     7
100
AcDbLine
 10
-187.9930684937129
 20
123.5127095261264
 30
0.0
 11
-187.9930684937129
 21
125.3127095261264
 31
0.0
  0
LINE
  5
E9
330
1F
100
AcDbEntity
  8
1
  6
CONTINUOUS
 62
     7
100
AcDbLine
 10
-171.993068493713
 20
125.3127095261264
 30
0.0
 11
-171.993068493713
 21
152.8127095261264
 31
0.0
  0
LINE
  5
EA
330
1F
100
AcDbEntity
  8
1
  6
CONTINUOUS
 62
     7
100
AcDbLine
 10
-169.993068493713
 20
152.8127095261264
 30
0.0
 11
-169.9930684937129
 21
125.7930603763246
 31
0.0
  0
LINE
  5
EB
330
1F
100
AcDbEntity
  8
1
  6
CONTINUOUS
 62
     7
100
AcDbLine
 10
-187.993068493713
 20
152.8127095261264
 30
0.0
 11
-187.993068493713
 21
125.3127095261264
 31
0.0
  0
LINE
  5
EC
330
1F
100
AcDbEntity
  8
1
  6
CONTINUOUS
 62
     7
100
AcDbLine
 10
-189.9930684937129
 20
125.7930603763246
 30
0.0
 11
-189.993068493713
 21
152.8127095261264
 31
0.0
  0
LINE
  5
ED
330
1F
100
AcDbEntity
  8
1
  6
CONTINUOUS
 62
     7
100
AcDbLine
 10
-183.7458452434455
 20
202.2127095261263
 30
0.0
 11
-183.7458452434455
 21
196.9127095261263
 31
0.0
  0
LINE
  5
EE
330
1F
100
AcDbEntity
  8
1
  6
CONTINUOUS
 62
     7
100
AcDbLine
 10
-176.2402917439804
 20
202.2127095261263
 30
0.0
 11
-176.2402917439804
 21
196.9127095261263
 31
0.0
  0
LINE
  5
EF
330
1F
100
AcDbEntity
  8
1
  6
CONTINUOUS
 62
     7
100
AcDbLine
 10
-176.2402917439804
 20
202.2127095261263
 30
0.0
 11
-183.7458452434455
 21
202.2127095261263
 31
0.0
  0
LINE
  5
F0
330
1F
100
AcDbEntity
  8
1
  6
CONTINUOUS
 62
     7
100
AcDbLine
 10
-176.2402917439804
 20
196.9127095261263
 30
0.0
 11
-183.7458452434455
 21
196.9127095261263
 31
0.0
  0
LINE
  5
F1
330
1F
100
AcDbEntity
  8
1
  6
CONTINUOUS
 62
     7
100
AcDbLine
 10
-172.4875149942478
 20
202.2127095261263
 30
0.0
 11
-172.4875149942478
 21
196.9127095261263
 31
0.0
  0
LINE
  5
F2
330
1F
100
AcDbEntity
  8
1
  6
CONTINUOUS
 62
     7
100
AcDbLine
 10
-172.4875149942478
 20
202.2127095261263
 30
0.0
 11
-176.2402917439804
 21
202.2127095261263
 31
0.0
  0
LINE
  5
F3
330
1F
100
AcDbEntity
  8
1
  6
CONTINUOUS
 62
     7
100
AcDbLine
 10
-172.4875149942478
 20
196.9127095261263
 30
0.0
 11
-176.2402917439804
 21
196.9127095261263
 31
0.0
  0
LINE
  5
F4
330
1F
100
AcDbEntity
  8
1
  6
CONTINUOUS
 62
     7
100
AcDbLine
 10
-187.4986219931781
 20
202.2127095261263
 30
0.0
 11
-187.4986219931781
 21
196.9127095261263
 31
0.0
  0
LINE
  5
F5
330
1F
100
AcDbEntity
  8
1
  6
CONTINUOUS
 62
     7
100
AcDbLine
 10
-183.7458452434455
 20
202.2127095261263
 30
0.0
 11
-187.4986219931781
 21
202.2127095261263
 31
0.0
  0
LINE
  5
F6
330
1F
100
AcDbEntity
  8
1
  6
CONTINUOUS
 62
     7
100
AcDbLine
 10
-183.7458452434455
 20
196.9127095261263
 30
0.0
 11
-187.4986219931781
 21
196.9127095261263
 31
0.0
  0
LINE
  5
F7
330
1F
100
AcDbEntity
  8
1
  6
CONTINUOUS
 62
     7
100
AcDbLine
 10
-183.3680684937129
 20
151.9127095261263
 30
0.0
 11
-176.6180684937129
 21
151.9127095261263
 31
0.0
  0
LINE
  5
F8
330
1F
100
AcDbEntity
  8
1
  6
CONTINUOUS
 62
     7
100
AcDbLine
 10
-237.4930684937129
 20
77.81270952612512
 30
0.0
 11
-237.3270930604511
 21
68.30398332290767
 31
0.0
  0
LINE
  5
F9
330
1F
100
AcDbEntity
  8
1
  6
CONTINUOUS
 62
     7
100
AcDbLine
 10
-122.6590439269748
 20
68.30398332290765
 30
0.0
 11
-122.4930684937129
 21
77.8127095261263
 31
0.0
  0
ARC
  5
FA
330
1F
100
AcDbEntity
  8
1
  6
CONTINUOUS
 62
     7
100
AcDbCircle
 10
-123.158967774553
 20
68.31270952612631
 30
0.0
 40
0.5000000000000004
100
AcDbArc
 50
270.0
 51
358.9999999999998
  0
ARC
  5
FB
330
1F
100
AcDbEntity
  8
1
  6
CONTINUOUS
 62
     7
100
AcDbCircle
 10
-236.8271692128729
 20
68.31270952612631
 30
0.0
 40
0.5000000000000195
100
AcDbArc
 50
181.0000000000002
 51
270.0
  0
LINE
  5
FC
330
1F
100
AcDbEntity
  8
1
  6
CONTINUOUS
 62
     7
100
AcDbLine
 10
-124.6031559881654
 20
102.8041803334879
 30
0.0
 11
-124.6999087340299
 21
102.809816105393
 31
0.0
  0
ARC
  5
FD
330
1F
100
AcDbEntity
  8
1
  6
CONTINUOUS
 62
     7
100
AcDbCircle
 10
-232.318340745969
 20
97.8127095261263
 30
0.0
 40
4.99999999999999
100
AcDbArc
 50
90.0
 51
179.5
  0
LINE
  5
FE
330
1F
100
AcDbEntity
  8
1
  6
CONTINUOUS
 62
     7
100
AcDbLine
 10
-237.3181503612899
 20
97.85634220361817
 30
0.0
 11
-237.493068493713
 21
77.81270952612512
 31
0.0
  0
LINE
  5
FF
330
1F
100
AcDbEntity
  8
1
  6
CONTINUOUS
 62
     7
100
AcDbLine
 10
-122.4930684937129
 20
77.8127095261263
 30
0.0
 11
-122.6939387635435
 21
100.830162597123
 31
0.0
  0
ARC
  5
100
330
1F
100
AcDbEntity
  8
1
  6
CONTINUOUS
 62
     7
100
AcDbCircle
 10
-124.6938626096719
 20
100.8127095261263
 30
0.0
 40
2.000000000000006
100
AcDbArc
 50
0.4999999999999298
 51
89.99999999999982
  0
LINE
  5
101
330
1F
100
AcDbEntity
  8
1
  6
CONTINUOUS
 62
     7
100
AcDbLine
 10
-188.243068493713
 20
97.19732491074161
 30
0.0
 11
-188.243068493713
 21
95.81270952612624
 31
0.0
  0
LINE
  5
102
330
1F
100
AcDbEntity
  8
1
  6
CONTINUOUS
 62
     7
100
AcDbLine
 10
-171.743068493713
 20
95.81270952612624
 30
0.0
 11
-171.743068493713
 21
98.81270952612626
 31
0.0
  0
LINE
  5
103
330
1F
100
AcDbEntity
  8
1
  6
CONTINUOUS
 62
     7
100
AcDbLine
 10
-189.993068493713
 20
100.8127095261263
 30
0.0
 11
-189.993068493713
 21
98.81270952612626
 31
0.0
  0
LINE
  5
104
330
1F
100
AcDbEntity
  8
1
  6
CONTINUOUS
 62
     7
100
AcDbLine
 10
-169.993068493713
 20
98.81270952612626
 30
0.0
 11
-169.993068493713
 21
100.8127095261263
 31
0.0
  0
ARC
  5
105
330
1F
100
AcDbEntity
  8
1
  6
CONTINUOUS
 62
     7
100
AcDbCircle
 10
-174.8930684937129
 20
168.3127095261263
 30
0.0
 40
0.5000000000000004
100
AcDbArc
 50
90.0
 51
180.0
  0
ARC
  5
106
330
1F
100
AcDbEntity
  8
1
  6
CONTINUOUS
 62
     7
100
AcDbCircle
 10
-185.093068493713
 20
168.3127095261263
 30
0.0
 40
0.5000000000000004
100
AcDbArc
 50
0.0
 51
90.0
  0
LINE
  5
107
330
1F
100
AcDbEntity
  8
1
  6
CONTINUOUS
 62
     7
100
AcDbLine
 10
-175.3930684937129
 20
166.8127095261264
 30
0.0
 11
-175.3930684937129
 21
168.3127095261264
 31
0.0
  0
LINE
  5
108
330
1F
100
AcDbEntity
  8
1
  6
CONTINUOUS
 62
     7
100
AcDbLine
 10
-184.593068493713
 20
168.3127095261264
 30
0.0
 11
-184.593068493713
 21
166.8127095261264
 31
0.0
  0
LINE
  5
109
330
1F
100
AcDbEntity
  8
1
  6
CONTINUOUS
 62
     7
100
AcDbLine
 10
-175.9930684937129
 20
192.9127095261263
 30
0.0
 11
-175.9930684937129
 21
196.9127095261263
 31
0.0
  0
LINE
  5
10A
330
1F
100
AcDbEntity
  8
1
  6
CONTINUOUS
 62
     7
100
AcDbLine
 10
-183.9930684937129
 20
196.9127095261263
 30
0.0
 11
-183.9930684937129
 21
192.9127095261263
 31
0.0
  0
LINE
  5
10B
330
1F
100
AcDbEntity
  8
1
  6
CONTINUOUS
 62
     7
100
AcDbLine
 10
-175.9930684937129
 20
152.5377095261263
 30
0.0
 11
-175.9930684937129
 21
166.8127095261263
 31
0.0
  0
LINE
  5
10C
330
1F
100
AcDbEntity
  8
1
  6
CONTINUOUS
 62
     7
100
AcDbLine
 10
-175.9930684937129
 20
170.8127095261263
 30
0.0
 11
-175.9930684937129
 21
192.9127095261263
 31
0.0
  0
LINE
  5
10D
330
1F
100
AcDbEntity
  8
1
  6
CONTINUOUS
 62
     7
100
AcDbLine
 10
-183.9930684937129
 20
192.9127095261263
 30
0.0
 11
-183.9930684937129
 21
170.8127095261263
 31
0.0
  0
LINE
  5
10E
330
1F
100
AcDbEntity
  8
1
  6
CONTINUOUS
 62
     7
100
AcDbLine
 10
-183.9930684937129
 20
166.8127095261263
 30
0.0
 11
-183.9930684937129
 21
152.5377095261263
 31
0.0
  0
LINE
  5
10F
330
1F
100
AcDbEntity
  8
1
  6
CONTINUOUS
 62
     7
100
AcDbLine
 10
-183.9930684937129
 20
152.5377095261263
 30
0.0
 11
-183.3680684937129
 21
151.9127095261263
 31
0.0
  0
LINE
  5
110
330
1F
100
AcDbEntity
  8
1
  6
CONTINUOUS
 62
     7
100
AcDbLine
 10
-176.6180684937129
 20
151.9127095261263
 30
0.0
 11
-175.9930684937129
 21
152.5377095261263
 31
0.0
  0
LINE
  5
111
330
1F
100
AcDbEntity
  8
1
  6
CONTINUOUS
 62
     7
100
AcDbLine
 10
-343.8362098594217
 20
88.81270952612626
 30
0.0
 11
-347.3612159321678
 21
88.81270952612626
 31
0.0
  0
ARC
  5
112
330
1F
100
AcDbEntity
  8
1
  6
CONTINUOUS
 62
     7
100
AcDbCircle
 10
-347.6005846017875
 20
92.62508080599214
 30
0.0
 40
3.819878549841842
100
AcDbArc
 50
273.5927336581033
 51
314.8315096333845
  0
LINE
  5
113
330
1F
100
AcDbEntity
  8
1
  6
CONTINUOUS
 62
     7
100
AcDbLine
 10
-344.9074772881118
 20
89.91608742605037
 30
0.0
 11
-343.8309756523952
 21
89.5036505722086
 31
0.0
  0
LINE
  5
114
330
1F
100
AcDbEntity
  8
1
  6
CONTINUOUS
 62
     7
100
AcDbLine
 10
-336.1694489993209
 20
89.50350416582427
 30
0.0
 11
-335.0925227118881
 21
89.91608742605037
 31
0.0
  0
ARC
  5
115
330
1F
100
AcDbEntity
  8
1
  6
CONTINUOUS
 62
     7
100
AcDbCircle
 10
-332.3725871794456
 20
92.68474253851717
 30
0.0
 40
3.88117255896099
100
AcDbArc
 50
225.5085737276702
 51
266.0671829808415
  0
LINE
  5
116
330
1F
100
AcDbEntity
  8
1
  6
CONTINUOUS
 62
     7
100
AcDbLine
 10
-332.6387840678323
 20
88.81270952612626
 30
0.0
 11
-336.1637901405783
 21
88.81270952612626
 31
0.0
  0
LINE
  5
117
330
1F
100
AcDbEntity
  8
1
  6
CONTINUOUS
 62
     7
100
AcDbLine
 10
-344.9074772881118
 20
95.81270952612626
 30
0.0
 11
-349.8149545762236
 21
95.81270952612626
 31
0.0
  0
LINE
  5
118
330
1F
100
AcDbEntity
  8
1
  6
CONTINUOUS
 62
     7
100
AcDbLine
 10
-344.9074772881118
 20
95.81270952612626
 30
0.0
 11
-344.9074772881118
 21
89.91608742605037
 31
0.0
  0
ARC
  5
119
330
1F
100
AcDbEntity
  8
1
  6
CONTINUOUS
 62
     7
100
AcDbCircle
 10
-347.0950190437812
 20
92.68474253851703
 30
0.0
 40
3.881172558960831
100
AcDbArc
 50
225.5085737276697
 51
266.0671829808425
  0
LINE
  5
11A
330
1F
100
AcDbEntity
  8
1
  6
CONTINUOUS
 62
     7
100
AcDbLine
 10
-349.8149545762237
 20
95.81270952612626
 30
0.0
 11
-349.8149545762237
 21
89.91608742605035
 31
0.0
  0
LINE
  5
11B
330
1F
100
AcDbEntity
  8
1
  6
CONTINUOUS
 62
     7
100
AcDbLine
 10
-335.0925227118881
 20
95.81270952612626
 30
0.0
 11
-336.2251531890016
 21
95.81270952612626
 31
0.0
  0
LINE
  5
11C
330
1F
100
AcDbEntity
  8
1
  6
CONTINUOUS
 62
     7
100
AcDbLine
 10
-343.7748468109984
 20
95.81270952612626
 30
0.0
 11
-344.9074772881119
 21
95.81270952612626
 31
0.0
  0
LINE
  5
11D
330
1F
100
AcDbEntity
  8
1
  6
CONTINUOUS
 62
     7
100
AcDbLine
 10
-335.0925227118881
 20
95.81270952612626
 30
0.0
 11
-335.0925227118881
 21
89.91608742605037
 31
0.0
  0
LINE
  5
11E
330
1F
100
AcDbEntity
  8
1
  6
CONTINUOUS
 62
     7
100
AcDbLine
 10
-330.1850454237763
 20
95.81270952612626
 30
0.0
 11
-330.1850454237763
 21
89.91608742605037
 31
0.0
  0
ARC
  5
11F
330
1F
100
AcDbEntity
  8
1
  6
CONTINUOUS
 62
     7
100
AcDbCircle
 10
-332.8781527374521
 20
92.62508080599223
 30
0.0
 40
3.819878549841928
100
AcDbArc
 50
273.592733658104
 51
314.8315096333843
  0
LINE
  5
120
330
1F
100
AcDbEntity
  8
1
  6
CONTINUOUS
 62
     7
100
AcDbLine
 10
-330.1850454237763
 20
95.81270952612626
 30
0.0
 11
-335.0925227118881
 21
95.81270952612626
 31
0.0
  0
LINE
  5
121
330
1F
100
AcDbEntity
  8
1
  6
CONTINUOUS
 62
     7
100
AcDbLine
 10
-331.4999999999999
 20
88.81270952612626
 30
0.0
 11
-332.6387840678323
 21
88.81270952612626
 31
0.0
  0
LINE
  5
122
330
1F
100
AcDbEntity
  8
1
  6
CONTINUOUS
 62
     7
100
AcDbLine
 10
-347.3612159321678
 20
88.81270952612626
 30
0.0
 11
-348.5000000000001
 21
88.81270952612626
 31
0.0
  0
ARC
  5
123
330
1F
100
AcDbEntity
  8
1
  6
CONTINUOUS
 62
     7
100
AcDbCircle
 10
-336.7818968688344
 20
102.3127095261263
 30
0.0
 40
0.5000000000000004
100
AcDbArc
 50
4.499999999999432
 51
89.9999999999999
  0
ARC
  5
124
330
1F
100
AcDbEntity
  8
1
  6
CONTINUOUS
 62
     7
100
AcDbCircle
 10
-336.7818968688344
 20
102.3127095261263
 30
0.0
 40
0.4999999999999998
100
AcDbArc
 50
0.5000000000003979
 51
4.499999999999432
  0
LINE
  5
125
330
1F
100
AcDbEntity
  8
1
  6
CONTINUOUS
 62
     7
100
AcDbLine
 10
-336.2819159073023
 20
102.3170727938755
 30
0.0
 11
-336.242987701191
 21
97.85634220361818
 31
0.0
  0
LINE
  5
126
330
1F
100
AcDbEntity
  8
1
  6
CONTINUOUS
 62
     7
100
AcDbLine
 10
-343.2181031311656
 20
102.8127095261263
 30
0.0
 11
-336.7818968688344
 21
102.8127095261263
 31
0.0
  0
LINE
  5
127
330
1F
100
AcDbEntity
  8
1
  6
CONTINUOUS
 62
     7
100
AcDbLine
 10
-343.7570122988091
 20
97.85634220361817
 30
0.0
 11
-343.7180840926978
 21
102.3170727938755
 31
0.0
  0
ARC
  5
128
330
1F
100
AcDbEntity
  8
1
  6
CONTINUOUS
 62
     7
100
AcDbCircle
 10
-343.2181031311656
 20
102.3127095261263
 30
0.0
 40
0.5000000000000004
100
AcDbArc
 50
90.00000000000009
 51
179.5000000000002
  0
LINE
  5
129
330
1F
100
AcDbEntity
  8
1
  6
CONTINUOUS
 62
     7
100
AcDbLine
 10
-282.5000000000001
 20
77.8127095261263
 30
0.0
 11
-311.6230745146695
 21
77.8127095261263
 31
0.0
  0
LINE
  5
12A
330
1F
100
AcDbEntity
  8
1
  6
CONTINUOUS
 62
     7
100
AcDbLine
 10
-368.3769254853304
 20
77.8127095261263
 30
0.0
 11
-397.4999999999999
 21
77.8127095261263
 31
0.0
  0
LINE
  5
12B
330
1F
100
AcDbEntity
  8
1
  6
CONTINUOUS
 62
     7
100
AcDbLine
 10
-343.4620531332555
 20
77.8127095261263
 30
0.0
 11
-368.3769254853304
 21
77.8127095261263
 31
0.0
  0
LINE
  5
12C
330
1F
100
AcDbEntity
  8
1
  6
CONTINUOUS
 62
     7
100
AcDbLine
 10
-336.5379468667446
 20
77.8127095261251
 30
0.0
 11
-343.4620531332555
 21
77.8127095261251
 31
0.0
  0
LINE
  5
12D
330
1F
100
AcDbEntity
  8
1
  6
CONTINUOUS
 62
     7
100
AcDbLine
 10
-311.6230745146696
 20
77.8127095261263
 30
0.0
 11
-336.5379468667446
 21
77.8127095261263
 31
0.0
  0
LINE
  5
12E
330
1F
100
AcDbEntity
  8
1
  6
CONTINUOUS
 62
     7
100
AcDbLine
 10
-336.2429877011909
 20
97.85634220361817
 30
0.0
 11
-336.068069568768
 21
77.81270952612631
 31
0.0
  0
LINE
  5
12F
330
1F
100
AcDbEntity
  8
1
  6
CONTINUOUS
 62
     7
100
AcDbLine
 10
-343.9319304312321
 20
77.81270952612631
 30
0.0
 11
-343.7570122988091
 21
97.85634220361818
 31
0.0
  0
LINE
  5
130
330
1F
100
AcDbEntity
  8
1
  6
CONTINUOUS
 62
     7
100
AcDbLine
 10
-283.1658992808401
 20
67.81270952612631
 30
0.0
 11
-396.8341007191599
 21
67.81270952612631
 31
0.0
  0
ARC
  5
131
330
1F
100
AcDbEntity
  8
1
  6
CONTINUOUS
 62
     7
100
AcDbCircle
 10
-335.5724139634704
 20
78.31270952612631
 30
0.0
 40
0.5000000000000004
100
AcDbArc
 50
180.5000000000001
 51
270.0
  0
ARC
  5
132
330
1F
100
AcDbEntity
  8
1
  6
CONTINUOUS
 62
     7
100
AcDbCircle
 10
-344.4275860365295
 20
78.31270952612631
 30
0.0
 40
0.5000000000000004
100
AcDbArc
 50
270.0
 51
359.4999999999999
  0
LINE
  5
133
330
1F
100
AcDbEntity
  8
1
  6
CONTINUOUS
 62
     7
100
AcDbLine
 10
-336.7819090062124
 20
102.8138221707398
 30
0.0
 11
-336.7818968688343
 21
102.8127095261263
 31
0.0
  0
ARC
  5
134
330
1F
100
AcDbEntity
  8
1
  6
CONTINUOUS
 62
     7
100
AcDbCircle
 10
-336.363739353233
 20
104.2101638867388
 30
0.0
 40
0.0653002037211364
100
AcDbArc
 50
0.499999999991701
 51
23.53477548073124
  0
LINE
  5
135
330
1F
100
AcDbEntity
  8
1
  6
CONTINUOUS
 62
     7
100
AcDbLine
 10
-343.7015583640564
 20
104.2107337312847
 30
0.0
 11
-343.7180840926977
 21
102.3170727938755
 31
0.0
  0
LINE
  5
136
330
1F
100
AcDbEntity
  8
1
  6
CONTINUOUS
 62
     7
100
AcDbLine
 10
-336.321984538074
 20
106.908483106539
 30
0.0
 11
-336.2984416359436
 21
104.2107337312847
 31
0.0
  0
LINE
  5
137
330
1F
100
AcDbEntity
  8
1
  6
CONTINUOUS
 62
     7
100
AcDbLine
 10
-343.7015583640564
 20
104.2107337312847
 30
0.0
 11
-343.678015461926
 21
106.908483106539
 31
0.0
  0
LINE
  5
138
330
1F
100
AcDbEntity
  8
1
  6
CONTINUOUS
 62
     7
100
AcDbLine
 10
-336.3516770343079
 20
110.3109061689453
 30
0.0
 11
-336.321984538074
 21
106.908483106539
 31
0.0
  0
ARC
  5
139
330
1F
100
AcDbEntity
  8
1
  6
CONTINUOUS
 62
     7
100
AcDbCircle
 10
-336.8517118111604
 20
110.3127095261263
 30
0.0
 40
0.5000000000000004
100
AcDbArc
 50
34.06350852886339
 51
89.99999999999994
  0
ARC
  5
13A
330
1F
100
AcDbEntity
  8
1
  6
CONTINUOUS
 62
     7
100
AcDbCircle
 10
-343.1482881888396
 20
110.3127095261263
 30
0.0
 40
0.5000000000000004
100
AcDbArc
 50
89.99999999999994
 51
179.5
  0
LINE
  5
13B
330
1F
100
AcDbEntity
  8
1
  6
CONTINUOUS
 62
     7
100
AcDbLine
 10
-343.678015461926
 20
106.908483106539
 30
0.0
 11
-343.6482691503717
 21
110.3170727938755
 31
0.0
  0
LINE
  5
13C
330
1F
100
AcDbEntity
  8
1
  6
CONTINUOUS
 62
     7
100
AcDbLine
 10
-343.1482881888396
 20
110.8127095261263
 30
0.0
 11
-336.8517118111604
 21
110.8127095261263
 31
0.0
  0
LINE
  5
13D
330
1F
100
AcDbEntity
  8
1
  6
CONTINUOUS
 62
     7
100
AcDbLine
 10
-343.7312124720446
 20
100.8127095261263
 30
0.0
 11
-343.7473999538965
 21
100.8127095261263
 31
0.0
  0
LINE
  5
13E
330
1F
100
AcDbEntity
  8
1
  6
CONTINUOUS
 62
     7
100
AcDbLine
 10
-343.7473999538965
 20
100.8127095261263
 30
0.0
 11
-345.1779436209245
 21
100.8127095261263
 31
0.0
  0
LINE
  5
13F
330
1F
100
AcDbEntity
  8
1
  6
CONTINUOUS
 62
     7
100
AcDbLine
 10
-343.4281975675939
 20
110.8127095261263
 30
0.0
 11
-343.1710444238377
 21
110.8127095261263
 31
0.0
  0
LINE
  5
140
330
1F
100
AcDbEntity
  8
1
  6
CONTINUOUS
 62
     7
100
AcDbLine
 10
-343.1710444238376
 20
110.8127095261263
 30
0.0
 11
-343.1482881888396
 21
110.8127095261263
 31
0.0
  0
LINE
  5
141
330
1F
100
AcDbEntity
  8
1
  6
CONTINUOUS
 62
     7
100
AcDbLine
 10
-334.8221866247558
 20
100.8127095261263
 30
0.0
 11
-336.0329002140723
 21
100.8127095261263
 31
0.0
  0
LINE
  5
142
330
1F
100
AcDbEntity
  8
1
  6
CONTINUOUS
 62
     7
100
AcDbLine
 10
-336.0329002140723
 20
100.8127095261263
 30
0.0
 11
-336.2501049983475
 21
100.8127095261263
 31
0.0
  0
LINE
  5
143
330
1F
100
AcDbEntity
  8
1
  6
CONTINUOUS
 62
     7
100
AcDbLine
 10
-336.2501049983475
 20
100.8127095261263
 30
0.0
 11
-336.2687875279553
 21
100.8127095261263
 31
0.0
  0
LINE
  5
144
330
1F
100
AcDbEntity
  8
1
  6
CONTINUOUS
 62
     7
100
AcDbLine
 10
-336.8517118111604
 20
110.8127095261263
 30
0.0
 11
-336.8328286588417
 21
110.8127095261263
 31
0.0
  0
LINE
  5
145
330
1F
100
AcDbEntity
  8
1
  6
CONTINUOUS
 62
     7
100
AcDbLine
 10
-336.8328286588417
 20
110.8127095261263
 30
0.0
 11
-336.6112640661226
 21
110.8127095261263
 31
0.0
  0
ARC
  5
146
330
1F
100
AcDbEntity
  8
1
  6
CONTINUOUS
 62
     7
100
AcDbCircle
 10
-359.8715248000377
 20
105.8127095261263
 30
0.0
 40
10.00035008775985
100
AcDbArc
 50
350.7934288925263
 51
9.206571107473792
  0
LINE
  5
147
330
1F
100
AcDbEntity
  8
1
  6
CONTINUOUS
 62
     7
100
AcDbLine
 10
-345.1779436209245
 20
100.8127095261263
 30
0.0
 11
-350.0
 21
100.8127095261263
 31
0.0
  0
LINE
  5
148
330
1F
100
AcDbEntity
  8
1
  6
CONTINUOUS
 62
     7
100
AcDbLine
 10
-330.0
 20
100.8127095261263
 30
0.0
 11
-334.8221866247558
 21
100.8127095261263
 31
0.0
  0
LINE
  5
149
330
1F
100
AcDbEntity
  8
1
  6
CONTINUOUS
 62
     7
100
AcDbLine
 10
-330.0
 20
100.8127095261263
 30
0.0
 11
-334.7204875500384
 21
100.8127095261263
 31
0.0
  0
LINE
  5
14A
330
1F
100
AcDbEntity
  8
1
  6
CONTINUOUS
 62
     7
100
AcDbLine
 10
-334.7204875500385
 20
100.8127095261263
 30
0.0
 11
-334.8678548017314
 21
100.8127095261263
 31
0.0
  0
LINE
  5
14B
330
1F
100
AcDbEntity
  8
1
  6
CONTINUOUS
 62
     7
100
AcDbLine
 10
-330.0
 20
98.81270952612626
 30
0.0
 11
-336.2501627715102
 21
98.81270952612626
 31
0.0
  0
LINE
  5
14C
330
1F
100
AcDbEntity
  8
1
  6
CONTINUOUS
 62
     7
100
AcDbLine
 10
-345.2796421957495
 20
100.8127095261263
 30
0.0
 11
-350.0
 21
100.8127095261263
 31
0.0
  0
LINE
  5
14D
330
1F
100
AcDbEntity
  8
1
  6
CONTINUOUS
 62
     7
100
AcDbLine
 10
-343.7498372284898
 20
98.81270952612626
 30
0.0
 11
-350.0
 21
98.81270952612626
 31
0.0
  0
LINE
  5
14E
330
1F
100
AcDbEntity
  8
1
  6
CONTINUOUS
 62
     7
100
AcDbLine
 10
-350.9999999999999
 20
125.8127095261263
 30
0.0
 11
-330.5
 21
125.8127095261263
 31
0.0
  0
LINE
  5
14F
330
1F
100
AcDbEntity
  8
1
  6
CONTINUOUS
 62
     7
100
AcDbLine
 10
-350.9999999999999
 20
123.8127095261263
 30
0.0
 11
-330.5
 21
123.8127095261263
 31
0.0
  0
LINE
  5
150
330
1F
100
AcDbEntity
  8
1
  6
CONTINUOUS
 62
     7
100
AcDbLine
 10
-329.5
 20
125.8127095261264
 30
0.0
 11
-329.5
 21
123.8127095261263
 31
0.0
  0
LINE
  5
151
330
1F
100
AcDbEntity
  8
1
  6
CONTINUOUS
 62
     7
100
AcDbLine
 10
-330.5
 20
125.8127095261264
 30
0.0
 11
-329.5
 21
125.8127095261264
 31
0.0
  0
LINE
  5
152
330
1F
100
AcDbEntity
  8
1
  6
CONTINUOUS
 62
     7
100
AcDbLine
 10
-329.5
 20
123.8127095261263
 30
0.0
 11
-330.5
 21
123.8127095261263
 31
0.0
  0
LINE
  5
153
330
1F
100
AcDbEntity
  8
1
  6
CONTINUOUS
 62
     7
100
AcDbLine
 10
-352.0
 20
123.8127095261263
 30
0.0
 11
-352.0
 21
125.8127095261264
 31
0.0
  0
LINE
  5
154
330
1F
100
AcDbEntity
  8
1
  6
CONTINUOUS
 62
     7
100
AcDbLine
 10
-352.0
 20
125.8127095261264
 30
0.0
 11
-350.9999999999999
 21
125.8127095261264
 31
0.0
  0
LINE
  5
155
330
1F
100
AcDbEntity
  8
1
  6
CONTINUOUS
 62
     7
100
AcDbLine
 10
-350.9999999999999
 20
123.8127095261263
 30
0.0
 11
-352.0
 21
123.8127095261263
 31
0.0
  0
LINE
  5
156
330
1F
100
AcDbEntity
  8
1
  6
CONTINUOUS
 62
     7
100
AcDbLine
 10
-352.1
 20
123.5127095261263
 30
0.0
 11
-352.0006274212135
 21
123.787669007838
 31
0.0
  0
LINE
  5
157
330
1F
100
AcDbEntity
  8
1
  6
CONTINUOUS
 62
     7
100
AcDbLine
 10
-352.0006274212135
 20
123.787669007838
 30
0.0
 11
-351.9999999999999
 21
123.8127095261263
 31
0.0
  0
LINE
  5
158
330
1F
100
AcDbEntity
  8
1
  6
CONTINUOUS
 62
     7
100
AcDbLine
 10
-329.5
 20
123.5127095261263
 30
0.0
 11
-329.5
 21
123.8127095261263
 31
0.0
  0
LINE
  5
159
330
1F
100
AcDbEntity
  8
1
  6
CONTINUOUS
 62
     7
100
AcDbLine
 10
-350.4999999999999
 20
156.8127095261264
 30
0.0
 11
-337.4999999999999
 21
156.8127095261264
 31
0.0
  0
LINE
  5
15A
330
1F
100
AcDbEntity
  8
1
  6
CONTINUOUS
 62
     7
100
AcDbLine
 10
-354.5
 20
125.3127095261264
 30
0.0
 11
-354.5
 21
152.8127095261264
 31
0.0
  0
ARC
  5
15B
330
1F
100
AcDbEntity
  8
1
  6
CONTINUOUS
 62
     7
100
AcDbCircle
 10
-352.5
 20
125.3127095261264
 30
0.0
 40
2.000000000000002
100
AcDbArc
 50
180.0000000000002
 51
270.0
  0
LINE
  5
15C
330
1F
100
AcDbEntity
  8
1
  6
CONTINUOUS
 62
     7
100
AcDbLine
 10
-379.5
 20
168.5127095261263
 30
0.0
 11
-379.5
 21
115.4127095261263
 31
0.0
  0
LINE
  5
15D
330
1F
100
AcDbEntity
  8
1
  6
CONTINUOUS
 62
     7
100
AcDbLine
 10
-329.5
 20
168.5127095261263
 30
0.0
 11
-329.5
 21
161.8917109306204
 31
0.0
  0
ARC
  5
15E
330
1F
100
AcDbEntity
  8
1
  6
CONTINUOUS
 62
     7
100
AcDbCircle
 10
-332.5
 20
161.8917109306204
 30
0.0
 40
2.999999999999998
100
AcDbArc
 50
290.5560452195837
 51
0.0
  0
LINE
  5
15F
330
1F
100
AcDbEntity
  8
1
  6
CONTINUOUS
 62
     7
100
AcDbLine
 10
-337.5
 20
156.8127095261264
 30
0.0
 11
-331.4466296752349
 21
159.0827233979133
 31
0.0
  0
ARC
  5
160
330
1F
100
AcDbEntity
  8
1
  6
CONTINUOUS
 62
     7
100
AcDbCircle
 10
-350.4999999999999
 20
152.8127095261264
 30
0.0
 40
3.999999999999996
100
AcDbArc
 50
89.99999999999982
 51
180.0
  0
ARC
  5
161
330
1F
100
AcDbEntity
  8
1
  6
CONTINUOUS
 62
     7
100
AcDbCircle
 10
-352.5
 20
123.8127095261264
 30
0.0
 40
0.5000000000000008
100
AcDbArc
 50
270.0000000000007
 51
323.1301023541471
  0
LINE
  5
162
330
1F
100
AcDbEntity
  8
1
  6
CONTINUOUS
 62
     7
100
AcDbLine
 10
-329.5
 20
123.5127095261263
 30
0.0
 11
-329.5
 21
115.4127095261263
 31
0.0
  0
LINE
  5
163
330
1F
100
AcDbEntity
  8
1
  6
CONTINUOUS
 62
     7
100
AcDbLine
 10
-379.5
 20
115.4127095261263
 30
0.0
 11
-379.5
 21
113.1127095261263
 31
0.0
  0
LINE
  5
164
330
1F
100
AcDbEntity
  8
1
  6
CONTINUOUS
 62
     7
100
AcDbLine
 10
-329.5
 20
115.4127095261263
 30
0.0
 11
-329.5
 21
113.1127095261263
 31
0.0
  0
LINE
  5
165
330
1F
100
AcDbEntity
  8
1
  6
CONTINUOUS
 62
     7
100
AcDbLine
 10
-379.5
 20
170.8127095261263
 30
0.0
 11
-379.5
 21
168.5127095261263
 31
0.0
  0
LINE
  5
166
330
1F
100
AcDbEntity
  8
1
  6
CONTINUOUS
 62
     7
100
AcDbLine
 10
-379.5
 20
170.8127095261263
 30
0.0
 11
-329.5
 21
170.8127095261263
 31
0.0
  0
LINE
  5
167
330
1F
100
AcDbEntity
  8
1
  6
CONTINUOUS
 62
     7
100
AcDbLine
 10
-329.5
 20
170.8127095261263
 30
0.0
 11
-329.5
 21
168.5127095261263
 31
0.0
  0
LINE
  5
168
330
1F
100
AcDbEntity
  8
1
  6
CONTINUOUS
 62
     7
100
AcDbLine
 10
-329.5
 20
112.8127095261263
 30
0.0
 11
-329.5
 21
110.8127095261263
 31
0.0
  0
LINE
  5
169
330
1F
100
AcDbEntity
  8
1
  6
CONTINUOUS
 62
     7
100
AcDbLine
 10
-329.5
 20
110.8127095261263
 30
0.0
 11
-331.0
 21
110.8127095261263
 31
0.0
  0
LINE
  5
16A
330
1F
100
AcDbEntity
  8
1
  6
CONTINUOUS
 62
     7
100
AcDbLine
 10
-331.0
 20
112.8127095261263
 30
0.0
 11
-329.5
 21
112.8127095261263
 31
0.0
  0
LINE
  5
16B
330
1F
100
AcDbEntity
  8
1
  6
CONTINUOUS
 62
     7
100
AcDbLine
 10
-378.0
 20
110.8127095261263
 30
0.0
 11
-344.9084718384848
 21
110.8127095261263
 31
0.0
  0
LINE
  5
16C
330
1F
100
AcDbEntity
  8
1
  6
CONTINUOUS
 62
     7
100
AcDbLine
 10
-344.9084718384848
 20
110.8127095261263
 30
0.0
 11
-343.4282550840164
 21
110.8127095261263
 31
0.0
  0
LINE
  5
16D
330
1F
100
AcDbEntity
  8
1
  6
CONTINUOUS
 62
     7
100
AcDbLine
 10
-343.4282550840164
 20
110.8127095261263
 30
0.0
 11
-343.1482881888396
 21
110.8127095261263
 31
0.0
  0
LINE
  5
16E
330
1F
100
AcDbEntity
  8
1
  6
CONTINUOUS
 62
     7
100
AcDbLine
 10
-336.8517118111604
 20
110.8127095261263
 30
0.0
 11
-336.6109032590516
 21
110.8127095261263
 31
0.0
  0
LINE
  5
16F
330
1F
100
AcDbEntity
  8
1
  6
CONTINUOUS
 62
     7
100
AcDbLine
 10
-336.6109032590516
 20
110.8127095261263
 30
0.0
 11
-335.1031635541223
 21
110.8127095261263
 31
0.0
  0
LINE
  5
170
330
1F
100
AcDbEntity
  8
1
  6
CONTINUOUS
 62
     7
100
AcDbLine
 10
-335.1031635541223
 20
110.8127095261263
 30
0.0
 11
-331.0
 21
110.8127095261263
 31
0.0
  0
LINE
  5
171
330
1F
100
AcDbEntity
  8
1
  6
CONTINUOUS
 62
     7
100
AcDbLine
 10
-378.0
 20
112.8127095261263
 30
0.0
 11
-331.0
 21
112.8127095261263
 31
0.0
  0
LINE
  5
172
330
1F
100
AcDbEntity
  8
1
  6
CONTINUOUS
 62
     7
100
AcDbLine
 10
-378.0
 20
110.8127095261263
 30
0.0
 11
-379.5
 21
110.8127095261263
 31
0.0
  0
LINE
  5
173
330
1F
100
AcDbEntity
  8
1
  6
CONTINUOUS
 62
     7
100
AcDbLine
 10
-379.5
 20
112.8127095261263
 30
0.0
 11
-378.0
 21
112.8127095261263
 31
0.0
  0
LINE
  5
174
330
1F
100
AcDbEntity
  8
1
  6
CONTINUOUS
 62
     7
100
AcDbLine
 10
-379.5
 20
110.8127095261263
 30
0.0
 11
-379.5
 21
112.8127095261263
 31
0.0
  0
LINE
  5
175
330
1F
100
AcDbEntity
  8
1
  6
CONTINUOUS
 62
     7
100
AcDbLine
 10
-329.5
 20
112.8127095261263
 30
0.0
 11
-329.5
 21
113.1127095261263
 31
0.0
  0
LINE
  5
176
330
1F
100
AcDbEntity
  8
1
  6
CONTINUOUS
 62
     7
100
AcDbLine
 10
-379.5
 20
112.8127095261263
 30
0.0
 11
-379.5
 21
113.1127095261263
 31
0.0
  0
LINE
  5
177
330
1F
100
AcDbEntity
  8
1
  6
CONTINUOUS
 62
     7
100
AcDbLine
 10
-348.9999999999999
 20
202.2127095261263
 30
0.0
 11
-348.9999999999999
 21
196.9127095261263
 31
0.0
  0
LINE
  5
178
330
1F
100
AcDbEntity
  8
1
  6
CONTINUOUS
 62
     7
100
AcDbLine
 10
-342.5
 20
202.2127095261263
 30
0.0
 11
-342.5
 21
196.9127095261263
 31
0.0
  0
LINE
  5
179
330
1F
100
AcDbEntity
  8
1
  6
CONTINUOUS
 62
     7
100
AcDbLine
 10
-342.5
 20
196.9127095261263
 30
0.0
 11
-349.0
 21
196.9127095261263
 31
0.0
  0
LINE
  5
17A
330
1F
100
AcDbEntity
  8
1
  6
CONTINUOUS
 62
     7
100
AcDbLine
 10
-342.5
 20
202.2127095261263
 30
0.0
 11
-349.0
 21
202.2127095261263
 31
0.0
  0
LINE
  5
17B
330
1F
100
AcDbEntity
  8
1
  6
CONTINUOUS
 62
     7
100
AcDbLine
 10
-336.0
 20
202.2127095261263
 30
0.0
 11
-336.0
 21
196.9127095261263
 31
0.0
  0
LINE
  5
17C
330
1F
100
AcDbEntity
  8
1
  6
CONTINUOUS
 62
     7
100
AcDbLine
 10
-336.0
 20
196.9127095261263
 30
0.0
 11
-342.5
 21
196.9127095261263
 31
0.0
  0
LINE
  5
17D
330
1F
100
AcDbEntity
  8
1
  6
CONTINUOUS
 62
     7
100
AcDbLine
 10
-336.0
 20
202.2127095261263
 30
0.0
 11
-342.5
 21
202.2127095261263
 31
0.0
  0
LINE
  5
17E
330
1F
100
AcDbEntity
  8
1
  6
CONTINUOUS
 62
     7
100
AcDbLine
 10
-345.875
 20
151.9127095261263
 30
0.0
 11
-339.125
 21
151.9127095261263
 31
0.0
  0
LINE
  5
17F
330
1F
100
AcDbEntity
  8
1
  6
CONTINUOUS
 62
     7
100
AcDbLine
 10
-331.4999999999999
 20
88.81270952612626
 30
0.0
 11
-330.1850454237763
 21
89.91608742605037
 31
0.0
  0
LINE
  5
180
330
1F
100
AcDbEntity
  8
1
  6
CONTINUOUS
 62
     7
100
AcDbLine
 10
-349.8149545762237
 20
89.91608742605035
 30
0.0
 11
-348.5000000000001
 21
88.81270952612626
 31
0.0
  0
LINE
  5
181
330
1F
100
AcDbEntity
  8
1
  6
CONTINUOUS
 62
     7
100
AcDbLine
 10
-397.5
 20
77.8127095261263
 30
0.0
 11
-397.3340245667382
 21
68.30398332290765
 31
0.0
  0
LINE
  5
182
330
1F
100
AcDbEntity
  8
1
  6
CONTINUOUS
 62
     7
100
AcDbLine
 10
-282.6659754332618
 20
68.30398332290765
 30
0.0
 11
-282.4999999999999
 21
77.8127095261263
 31
0.0
  0
ARC
  5
183
330
1F
100
AcDbEntity
  8
1
  6
CONTINUOUS
 62
     7
100
AcDbCircle
 10
-283.1658992808401
 20
68.31270952612631
 30
0.0
 40
0.5000000000000004
100
AcDbArc
 50
270.0000000000024
 51
358.9999999999998
  0
ARC
  5
184
330
1F
100
AcDbEntity
  8
1
  6
CONTINUOUS
 62
     7
100
AcDbCircle
 10
-396.8341007191599
 20
68.31270952612631
 30
0.0
 40
0.499999999999999
100
AcDbArc
 50
181.0000000000002
 51
269.9999999999976
  0
LINE
  5
185
330
1F
100
AcDbEntity
  8
1
  6
CONTINUOUS
 62
     7
100
AcDbLine
 10
-336.2945313615047
 20
102.4656127596641
 30
0.0
 11
-336.2929017973399
 21
102.4867873636756
 31
0.0
  0
LINE
  5
186
330
1F
100
AcDbEntity
  8
1
  6
CONTINUOUS
 62
     7
100
AcDbLine
 10
-336.29290179734
 20
102.4867873636756
 30
0.0
 11
-336.3082290132375
 21
104.2342750804109
 31
0.0
  0
LINE
  5
187
330
1F
100
AcDbEntity
  8
1
  6
CONTINUOUS
 62
     7
100
AcDbLine
 10
-336.356894970885
 20
110.3751251498867
 30
0.0
 11
-336.4375051154087
 21
110.5927681149811
 31
0.0
  0
LINE
  5
188
330
1F
100
AcDbEntity
  8
1
  6
CONTINUOUS
 62
     7
100
AcDbLine
 10
-350.0
 20
104.2128911990224
 30
0.0
 11
-350.0
 21
100.8127095261263
 31
0.0
  0
LINE
  5
189
330
1F
100
AcDbEntity
  8
1
  6
CONTINUOUS
 62
     7
100
AcDbLine
 10
-350.0
 20
110.3127095261266
 30
0.0
 11
-350.0
 21
107.4127095261263
 31
0.0
  0
ARC
  5
18A
330
1F
100
AcDbEntity
  8
1
  6
CONTINUOUS
 62
     7
100
AcDbCircle
 10
-349.5
 20
110.3127095261263
 30
0.0
 40
0.5000000000000004
100
AcDbArc
 50
90.0
 51
180.0
  0
LINE
  5
18B
330
1F
100
AcDbEntity
  8
1
  6
CONTINUOUS
 62
     7
100
AcDbLine
 10
-330.0
 20
100.8127095261263
 30
0.0
 11
-330.082943321673
 21
110.317072793876
 31
0.0
  0
ARC
  5
18C
330
1F
100
AcDbEntity
  8
1
  6
CONTINUOUS
 62
     7
100
AcDbCircle
 10
-330.5829242832051
 20
110.3127095261263
 30
0.0
 40
0.5000000000000004
100
AcDbArc
 50
0.50000000005475
 51
90.0
  0
LINE
  5
18D
330
1F
100
AcDbEntity
  8
1
  6
CONTINUOUS
 62
     7
100
AcDbLine
 10
-348.25
 20
98.81270952612626
 30
0.0
 11
-348.25
 21
95.81270952612624
 31
0.0
  0
LINE
  5
18E
330
1F
100
AcDbEntity
  8
1
  6
CONTINUOUS
 62
     7
100
AcDbLine
 10
-331.7500000000001
 20
95.81270952612624
 30
0.0
 11
-331.7500000000001
 21
98.81270952612626
 31
0.0
  0
LINE
  5
18F
330
1F
100
AcDbEntity
  8
1
  6
CONTINUOUS
 62
     7
100
AcDbLine
 10
-350.0
 20
100.8127095261263
 30
0.0
 11
-350.0
 21
98.81270952612626
 31
0.0
  0
LINE
  5
190
330
1F
100
AcDbEntity
  8
1
  6
CONTINUOUS
 62
     7
100
AcDbLine
 10
-330.0
 20
98.81270952612626
 30
0.0
 11
-330.0
 21
100.8127095261263
 31
0.0
  0
LINE
  5
191
330
1F
100
AcDbEntity
  8
1
  6
CONTINUOUS
 62
     7
100
AcDbLine
 10
-338.5
 20
152.5377095261263
 30
0.0
 11
-338.5
 21
156.8127095261263
 31
0.0
  0
LINE
  5
192
330
1F
100
AcDbEntity
  8
1
  6
CONTINUOUS
 62
     7
100
AcDbLine
 10
-338.5
 20
170.8127095261263
 30
0.0
 11
-338.5
 21
192.9127095261263
 31
0.0
  0
LINE
  5
193
330
1F
100
AcDbEntity
  8
1
  6
CONTINUOUS
 62
     7
100
AcDbLine
 10
-346.5
 20
192.9127095261263
 30
0.0
 11
-346.5
 21
170.8127095261263
 31
0.0
  0
LINE
  5
194
330
1F
100
AcDbEntity
  8
1
  6
CONTINUOUS
 62
     7
100
AcDbLine
 10
-346.5
 20
156.8127095261263
 30
0.0
 11
-346.5
 21
152.5377095261263
 31
0.0
  0
LINE
  5
195
330
1F
100
AcDbEntity
  8
1
  6
CONTINUOUS
 62
     7
100
AcDbLine
 10
-338.5
 20
192.9127095261263
 30
0.0
 11
-338.5
 21
196.9127095261263
 31
0.0
  0
LINE
  5
196
330
1F
100
AcDbEntity
  8
1
  6
CONTINUOUS
 62
     7
100
AcDbLine
 10
-346.5
 20
196.9127095261263
 30
0.0
 11
-346.5
 21
192.9127095261263
 31
0.0
  0
LINE
  5
197
330
1F
100
AcDbEntity
  8
1
  6
CONTINUOUS
 62
     7
100
AcDbLine
 10
-346.5
 20
152.5377095261263
 30
0.0
 11
-345.8750000000001
 21
151.9127095261263
 31
0.0
  0
LINE
  5
198
330
1F
100
AcDbEntity
  8
1
  6
CONTINUOUS
 62
     7
100
AcDbLine
 10
-339.125
 20
151.9127095261263
 30
0.0
 11
-338.5
 21
152.5377095261263
 31
0.0
  0
LINE
  5
199
330
1F
100
AcDbEntity
  8
1
  6
CONTINUOUS
 62
     7
100
AcDbLine
 10
-347.3612159321677
 20
-50.75693150628695
 30
0.0
 11
-344.9074772881118
 21
-46.50693150628695
 31
0.0
  0
LINE
  5
19A
330
1F
100
AcDbEntity
  8
1
  6
CONTINUOUS
 62
     7
100
AcDbLine
 10
-344.9074772881118
 20
-46.50693150628695
 30
0.0
 11
-340.0
 21
-46.50693150628696
 31
0.0
  0
LINE
  5
19B
330
1F
100
AcDbEntity
  8
1
  6
CONTINUOUS
 62
     7
100
AcDbLine
 10
-347.3612159321677
 20
-59.25693150628695
 30
0.0
 11
-349.8149545762236
 21
-55.00693150628695
 31
0.0
  0
LINE
  5
19C
330
1F
100
AcDbEntity
  8
1
  6
CONTINUOUS
 62
     7
100
AcDbLine
 10
-349.8149545762236
 20
-55.00693150628695
 30
0.0
 11
-347.3612159321677
 21
-50.75693150628695
 31
0.0
  0
LINE
  5
19D
330
1F
100
AcDbEntity
  8
1
  6
CONTINUOUS
 62
     7
100
AcDbLine
 10
-344.9074772881118
 20
-63.50693150628696
 30
0.0
 11
-347.3612159321677
 21
-59.25693150628695
 31
0.0
  0
LINE
  5
19E
330
1F
100
AcDbEntity
  8
1
  6
CONTINUOUS
 62
     7
100
AcDbLine
 10
-340.0
 20
-63.50693150628696
 30
0.0
 11
-344.9074772881118
 21
-63.50693150628696
 31
0.0
  0
LINE
  5
19F
330
1F
100
AcDbEntity
  8
1
  6
CONTINUOUS
 62
     7
100
AcDbLine
 10
-332.6387840678323
 20
-59.25693150628695
 30
0.0
 11
-335.0925227118882
 21
-63.50693150628696
 31
0.0
  0
LINE
  5
1A0
330
1F
100
AcDbEntity
  8
1
  6
CONTINUOUS
 62
     7
100
AcDbLine
 10
-335.0925227118882
 20
-63.50693150628696
 30
0.0
 11
-340.0
 21
-63.50693150628696
 31
0.0
  0
LINE
  5
1A1
330
1F
100
AcDbEntity
  8
1
  6
CONTINUOUS
 62
     7
100
AcDbLine
 10
-335.0925227118881
 20
-46.50693150628696
 30
0.0
 11
-332.6387840678323
 21
-50.75693150628694
 31
0.0
  0
LINE
  5
1A2
330
1F
100
AcDbEntity
  8
1
  6
CONTINUOUS
 62
     7
100
AcDbLine
 10
-340.0
 20
-46.50693150628696
 30
0.0
 11
-335.0925227118881
 21
-46.50693150628696
 31
0.0
  0
LINE
  5
1A3
330
1F
100
AcDbEntity
  8
1
  6
CONTINUOUS
 62
     7
100
AcDbLine
 10
-332.6387840678323
 20
-50.75693150628694
 30
0.0
 11
-330.1850454237763
 21
-55.00693150628694
 31
0.0
  0
LINE
  5
1A4
330
1F
100
AcDbEntity
  8
1
  6
CONTINUOUS
 62
     7
100
AcDbLine
 10
-330.1850454237763
 20
-55.00693150628694
 30
0.0
 11
-332.6387840678323
 21
-59.25693150628695
 31
0.0
  0
ARC
  5
1A5
330
1F
100
AcDbEntity
  8
1
  6
CONTINUOUS
 62
     7
100
AcDbCircle
 10
-333.43
 20
-93.54846996782551
 30
0.0
 40
1.150000000000006
100
AcDbArc
 50
155.0107227661122
 51
335.1797396178567
  0
ARC
  5
1A6
330
1F
100
AcDbEntity
  8
1
  6
CONTINUOUS
 62
     7
100
AcDbCircle
 10
-333.4285714285714
 20
-93.54539304474858
 30
0.0
 40
1.149999999999967
100
AcDbArc
 50
335.0107227662589
 51
155.1797396177103
  0
CIRCLE
  5
1A7
330
1F
100
AcDbEntity
  8
1
  6
CONTINUOUS
 62
     7
100
AcDbCircle
 10
-320.2857142857143
 20
-16.46846996782554
 30
0.0
 40
1.149999999999998
  0
CIRCLE
  5
1A8
330
1F
100
AcDbEntity
  8
1
  6
CONTINUOUS
 62
     7
100
AcDbCircle
 10
-323.5714285714286
 20
-96.75693150628705
 30
0.0
 40
1.149999999999998
  0
CIRCLE
  5
1A9
330
1F
100
AcDbEntity
  8
1
  6
CONTINUOUS
 62
     7
100
AcDbCircle
 10
-323.5714285714286
 20
-90.33385458321013
 30
0.0
 40
1.150000000000002
  0
CIRCLE
  5
1AA
330
1F
100
AcDbEntity
  8
1
  6
CONTINUOUS
 62
     7
100
AcDbCircle
 10
-323.5714285714286
 20
-83.9107776601332
 30
0.0
 40
1.149999999999998
  0
CIRCLE
  5
1AB
330
1F
100
AcDbEntity
  8
1
  6
CONTINUOUS
 62
     7
100
AcDbCircle
 10
-320.2857142857143
 20
-19.680008429364
 30
0.0
 40
1.149999999999998
  0
CIRCLE
  5
1AC
330
1F
100
AcDbEntity
  8
1
  6
CONTINUOUS
 62
     7
100
AcDbCircle
 10
-320.2857142857143
 20
-26.10308535244092
 30
0.0
 40
1.149999999999998
  0
CIRCLE
  5
1AD
330
1F
100
AcDbEntity
  8
1
  6
CONTINUOUS
 62
     7
100
AcDbCircle
 10
-320.2857142857143
 20
-80.69923919859474
 30
0.0
 40
1.149999999999995
  0
CIRCLE
  5
1AE
330
1F
100
AcDbEntity
  8
1
  6
CONTINUOUS
 62
     7
100
AcDbCircle
 10
-320.2857142857143
 20
-87.12231612167166
 30
0.0
 40
1.149999999999998
  0
CIRCLE
  5
1AF
330
1F
100
AcDbEntity
  8
1
  6
CONTINUOUS
 62
     7
100
AcDbCircle
 10
-323.5714285714286
 20
-77.48770073705629
 30
0.0
 40
1.150000000000005
  0
CIRCLE
  5
1B0
330
1F
100
AcDbEntity
  8
1
  6
CONTINUOUS
 62
     7
100
AcDbCircle
 10
-323.5714285714286
 20
-29.31462381397938
 30
0.0
 40
1.149999999999998
  0
CIRCLE
  5
1B1
330
1F
100
AcDbEntity
  8
1
  6
CONTINUOUS
 62
     7
100
AcDbCircle
 10
-323.5714285714286
 20
-22.89154689090246
 30
0.0
 40
1.149999999999998
  0
CIRCLE
  5
1B2
330
1F
100
AcDbEntity
  8
1
  6
CONTINUOUS
 62
     7
100
AcDbCircle
 10
-323.5714285714286
 20
-16.46846996782554
 30
0.0
 40
1.149999999999998
  0
CIRCLE
  5
1B3
330
1F
100
AcDbEntity
  8
1
  6
CONTINUOUS
 62
     7
100
AcDbCircle
 10
-326.8571428571429
 20
-96.75693150628705
 30
0.0
 40
1.150000000000002
  0
CIRCLE
  5
1B4
330
1F
100
AcDbEntity
  8
1
  6
CONTINUOUS
 62
     7
100
AcDbCircle
 10
-326.8571428571429
 20
-90.33385458321013
 30
0.0
 40
1.149999999999998
  0
CIRCLE
  5
1B5
330
1F
100
AcDbEntity
  8
1
  6
CONTINUOUS
 62
     7
100
AcDbCircle
 10
-326.8571428571429
 20
-83.9107776601332
 30
0.0
 40
1.149999999999998
  0
CIRCLE
  5
1B6
330
1F
100
AcDbEntity
  8
1
  6
CONTINUOUS
 62
     7
100
AcDbCircle
 10
-326.8571428571429
 20
-77.48770073705629
 30
0.0
 40
1.150000000000005
  0
CIRCLE
  5
1B7
330
1F
100
AcDbEntity
  8
1
  6
CONTINUOUS
 62
     7
100
AcDbCircle
 10
-317.0
 20
-83.9107776601332
 30
0.0
 40
1.149999999999998
  0
CIRCLE
  5
1B8
330
1F
100
AcDbEntity
  8
1
  6
CONTINUOUS
 62
     7
100
AcDbCircle
 10
-317.0
 20
-22.89154689090246
 30
0.0
 40
1.149999999999998
  0
CIRCLE
  5
1B9
330
1F
100
AcDbEntity
  8
1
  6
CONTINUOUS
 62
     7
100
AcDbCircle
 10
-317.0
 20
-16.46846996782554
 30
0.0
 40
1.149999999999998
  0
CIRCLE
  5
1BA
330
1F
100
AcDbEntity
  8
1
  6
CONTINUOUS
 62
     7
100
AcDbCircle
 10
-320.2857142857143
 20
-93.54539304474858
 30
0.0
 40
1.150000000000002
  0
CIRCLE
  5
1BB
330
1F
100
AcDbEntity
  8
1
  6
CONTINUOUS
 62
     7
100
AcDbCircle
 10
-317.0
 20
-90.33385458321013
 30
0.0
 40
1.150000000000002
  0
CIRCLE
  5
1BC
330
1F
100
AcDbEntity
  8
1
  6
CONTINUOUS
 62
     7
100
AcDbCircle
 10
-310.4285714285714
 20
-90.33385458321013
 30
0.0
 40
1.149999999999998
  0
CIRCLE
  5
1BD
330
1F
100
AcDbEntity
  8
1
  6
CONTINUOUS
 62
     7
100
AcDbCircle
 10
-313.7142857142857
 20
-19.680008429364
 30
0.0
 40
1.149999999999998
  0
CIRCLE
  5
1BE
330
1F
100
AcDbEntity
  8
1
  6
CONTINUOUS
 62
     7
100
AcDbCircle
 10
-310.4285714285714
 20
-77.48770073705629
 30
0.0
 40
1.150000000000005
  0
CIRCLE
  5
1BF
330
1F
100
AcDbEntity
  8
1
  6
CONTINUOUS
 62
     7
100
AcDbCircle
 10
-310.4285714285714
 20
-64.64154689090245
 30
0.0
 40
1.149999999999998
  0
CIRCLE
  5
1C0
330
1F
100
AcDbEntity
  8
1
  6
CONTINUOUS
 62
     7
100
AcDbCircle
 10
-313.7142857142857
 20
-35.7377007370563
 30
0.0
 40
1.150000000000012
  0
CIRCLE
  5
1C1
330
1F
100
AcDbEntity
  8
1
  6
CONTINUOUS
 62
     7
100
AcDbCircle
 10
-313.7142857142857
 20
-48.58385458321014
 30
0.0
 40
1.149999999999998
  0
CIRCLE
  5
1C2
330
1F
100
AcDbEntity
  8
1
  6
CONTINUOUS
 62
     7
100
AcDbCircle
 10
-313.7142857142857
 20
-58.21846996782552
 30
0.0
 40
1.149999999999998
  0
CIRCLE
  5
1C3
330
1F
100
AcDbEntity
  8
1
  6
CONTINUOUS
 62
     7
100
AcDbCircle
 10
-313.7142857142857
 20
-64.64154689090245
 30
0.0
 40
1.149999999999998
  0
CIRCLE
  5
1C4
330
1F
100
AcDbEntity
  8
1
  6
CONTINUOUS
 62
     7
100
AcDbCircle
 10
-307.1428571428572
 20
-45.37231612167168
 30
0.0
 40
1.149999999999998
  0
CIRCLE
  5
1C5
330
1F
100
AcDbEntity
  8
1
  6
CONTINUOUS
 62
     7
100
AcDbCircle
 10
-307.1428571428572
 20
-51.7953930447486
 30
0.0
 40
1.149999999999998
  0
CIRCLE
  5
1C6
330
1F
100
AcDbEntity
  8
1
  6
CONTINUOUS
 62
     7
100
AcDbCircle
 10
-307.1428571428572
 20
-61.43000842936398
 30
0.0
 40
1.149999999999998
  0
CIRCLE
  5
1C7
330
1F
100
AcDbEntity
  8
1
  6
CONTINUOUS
 62
     7
100
AcDbCircle
 10
-307.1428571428572
 20
-67.8530853524409
 30
0.0
 40
1.149999999999998
  0
CIRCLE
  5
1C8
330
1F
100
AcDbEntity
  8
1
  6
CONTINUOUS
 62
     7
100
AcDbCircle
 10
-310.4285714285714
 20
-58.21846996782552
 30
0.0
 40
1.149999999999998
  0
CIRCLE
  5
1C9
330
1F
100
AcDbEntity
  8
1
  6
CONTINUOUS
 62
     7
100
AcDbCircle
 10
-310.4285714285714
 20
-48.58385458321014
 30
0.0
 40
1.149999999999998
  0
CIRCLE
  5
1CA
330
1F
100
AcDbEntity
  8
1
  6
CONTINUOUS
 62
     7
100
AcDbCircle
 10
-307.1428571428572
 20
-80.69923919859474
 30
0.0
 40
1.149999999999995
  0
CIRCLE
  5
1CB
330
1F
100
AcDbEntity
  8
1
  6
CONTINUOUS
 62
     7
100
AcDbCircle
 10
-310.4285714285714
 20
-32.52616227551785
 30
0.0
 40
1.149999999999998
  0
CIRCLE
  5
1CC
330
1F
100
AcDbEntity
  8
1
  6
CONTINUOUS
 62
     7
100
AcDbCircle
 10
-330.1428571428572
 20
-19.680008429364
 30
0.0
 40
1.149999999999998
  0
CIRCLE
  5
1CD
330
1F
100
AcDbEntity
  8
1
  6
CONTINUOUS
 62
     7
100
AcDbCircle
 10
-330.1428571428572
 20
-26.10308535244092
 30
0.0
 40
1.149999999999998
  0
CIRCLE
  5
1CE
330
1F
100
AcDbEntity
  8
1
  6
CONTINUOUS
 62
     7
100
AcDbCircle
 10
-330.1428571428572
 20
-80.69923919859474
 30
0.0
 40
1.149999999999995
  0
CIRCLE
  5
1CF
330
1F
100
AcDbEntity
  8
1
  6
CONTINUOUS
 62
     7
100
AcDbCircle
 10
-330.1428571428572
 20
-87.12231612167166
 30
0.0
 40
1.149999999999998
  0
CIRCLE
  5
1D0
330
1F
100
AcDbEntity
  8
1
  6
CONTINUOUS
 62
     7
100
AcDbCircle
 10
-326.8571428571428
 20
-29.31462381397938
 30
0.0
 40
1.149999999999998
  0
CIRCLE
  5
1D1
330
1F
100
AcDbEntity
  8
1
  6
CONTINUOUS
 62
     7
100
AcDbCircle
 10
-326.8571428571428
 20
-22.89154689090246
 30
0.0
 40
1.149999999999998
  0
CIRCLE
  5
1D2
330
1F
100
AcDbEntity
  8
1
  6
CONTINUOUS
 62
     7
100
AcDbCircle
 10
-326.8571428571428
 20
-16.46846996782554
 30
0.0
 40
1.149999999999998
  0
CIRCLE
  5
1D3
330
1F
100
AcDbEntity
  8
1
  6
CONTINUOUS
 62
     7
100
AcDbCircle
 10
-330.1428571428572
 20
-96.75693150628705
 30
0.0
 40
1.150000000000002
  0
CIRCLE
  5
1D4
330
1F
100
AcDbEntity
  8
1
  6
CONTINUOUS
 62
     7
100
AcDbCircle
 10
-333.4285714285714
 20
-26.10308535244092
 30
0.0
 40
1.149999999999998
  0
CIRCLE
  5
1D5
330
1F
100
AcDbEntity
  8
1
  6
CONTINUOUS
 62
     7
100
AcDbCircle
 10
-333.4285714285714
 20
-19.680008429364
 30
0.0
 40
1.149999999999998
  0
CIRCLE
  5
1D6
330
1F
100
AcDbEntity
  8
1
  6
CONTINUOUS
 62
     7
100
AcDbCircle
 10
-313.7142857142857
 20
-87.12231612167166
 30
0.0
 40
1.149999999999998
  0
CIRCLE
  5
1D7
330
1F
100
AcDbEntity
  8
1
  6
CONTINUOUS
 62
     7
100
AcDbCircle
 10
-313.7142857142857
 20
-93.54539304474858
 30
0.0
 40
1.150000000000002
  0
CIRCLE
  5
1D8
330
1F
100
AcDbEntity
  8
1
  6
CONTINUOUS
 62
     7
100
AcDbCircle
 10
-330.1428571428572
 20
-16.46846996782554
 30
0.0
 40
1.149999999999998
  0
CIRCLE
  5
1D9
330
1F
100
AcDbEntity
  8
1
  6
CONTINUOUS
 62
     7
100
AcDbCircle
 10
-333.4285714285714
 20
-87.12231612167166
 30
0.0
 40
1.149999999999998
  0
CIRCLE
  5
1DA
330
1F
100
AcDbEntity
  8
1
  6
CONTINUOUS
 62
     7
100
AcDbCircle
 10
-333.4285714285714
 20
-80.69923919859474
 30
0.0
 40
1.149999999999995
  0
CIRCLE
  5
1DB
330
1F
100
AcDbEntity
  8
1
  6
CONTINUOUS
 62
     7
100
AcDbCircle
 10
-297.2857142857143
 20
-35.7377007370563
 30
0.0
 40
1.150000000000012
  0
CIRCLE
  5
1DC
330
1F
100
AcDbEntity
  8
1
  6
CONTINUOUS
 62
     7
100
AcDbCircle
 10
-297.2857142857143
 20
-42.16077766013322
 30
0.0
 40
1.149999999999998
  0
CIRCLE
  5
1DD
330
1F
100
AcDbEntity
  8
1
  6
CONTINUOUS
 62
     7
100
AcDbCircle
 10
-297.2857142857143
 20
-48.58385458321014
 30
0.0
 40
1.149999999999998
  0
CIRCLE
  5
1DE
330
1F
100
AcDbEntity
  8
1
  6
CONTINUOUS
 62
     7
100
AcDbCircle
 10
-297.2857142857143
 20
-58.21846996782552
 30
0.0
 40
1.149999999999998
  0
CIRCLE
  5
1DF
330
1F
100
AcDbEntity
  8
1
  6
CONTINUOUS
 62
     7
100
AcDbCircle
 10
-297.2857142857143
 20
-64.64154689090245
 30
0.0
 40
1.149999999999998
  0
CIRCLE
  5
1E0
330
1F
100
AcDbEntity
  8
1
  6
CONTINUOUS
 62
     7
100
AcDbCircle
 10
-303.8571428571429
 20
-38.94923919859476
 30
0.0
 40
1.149999999999998
  0
CIRCLE
  5
1E1
330
1F
100
AcDbEntity
  8
1
  6
CONTINUOUS
 62
     7
100
AcDbCircle
 10
-303.8571428571429
 20
-45.37231612167168
 30
0.0
 40
1.149999999999998
  0
CIRCLE
  5
1E2
330
1F
100
AcDbEntity
  8
1
  6
CONTINUOUS
 62
     7
100
AcDbCircle
 10
-303.8571428571429
 20
-51.7953930447486
 30
0.0
 40
1.149999999999998
  0
CIRCLE
  5
1E3
330
1F
100
AcDbEntity
  8
1
  6
CONTINUOUS
 62
     7
100
AcDbCircle
 10
-303.8571428571429
 20
-61.43000842936398
 30
0.0
 40
1.149999999999998
  0
CIRCLE
  5
1E4
330
1F
100
AcDbEntity
  8
1
  6
CONTINUOUS
 62
     7
100
AcDbCircle
 10
-307.1428571428572
 20
-29.31462381397938
 30
0.0
 40
1.149999999999998
  0
CIRCLE
  5
1E5
330
1F
100
AcDbEntity
  8
1
  6
CONTINUOUS
 62
     7
100
AcDbCircle
 10
-307.1428571428572
 20
-42.16077766013322
 30
0.0
 40
1.149999999999998
  0
CIRCLE
  5
1E6
330
1F
100
AcDbEntity
  8
1
  6
CONTINUOUS
 62
     7
100
AcDbCircle
 10
-303.8571428571429
 20
-71.06462381397937
 30
0.0
 40
1.149999999999998
  0
CIRCLE
  5
1E7
330
1F
100
AcDbEntity
  8
1
  6
CONTINUOUS
 62
     7
100
AcDbCircle
 10
-303.8571428571429
 20
-64.64154689090245
 30
0.0
 40
1.149999999999998
  0
CIRCLE
  5
1E8
330
1F
100
AcDbEntity
  8
1
  6
CONTINUOUS
 62
     7
100
AcDbCircle
 10
-300.5714285714286
 20
-45.37231612167168
 30
0.0
 40
1.149999999999998
  0
CIRCLE
  5
1E9
330
1F
100
AcDbEntity
  8
1
  6
CONTINUOUS
 62
     7
100
AcDbCircle
 10
-300.5714285714286
 20
-38.94923919859476
 30
0.0
 40
1.149999999999998
  0
CIRCLE
  5
1EA
330
1F
100
AcDbEntity
  8
1
  6
CONTINUOUS
 62
     7
100
AcDbCircle
 10
-297.2857142857143
 20
-71.06462381397937
 30
0.0
 40
1.149999999999998
  0
CIRCLE
  5
1EB
330
1F
100
AcDbEntity
  8
1
  6
CONTINUOUS
 62
     7
100
AcDbCircle
 10
-300.5714285714286
 20
-35.7377007370563
 30
0.0
 40
1.150000000000012
  0
CIRCLE
  5
1EC
330
1F
100
AcDbEntity
  8
1
  6
CONTINUOUS
 62
     7
100
AcDbCircle
 10
-300.5714285714286
 20
-71.06462381397937
 30
0.0
 40
1.149999999999998
  0
CIRCLE
  5
1ED
330
1F
100
AcDbEntity
  8
1
  6
CONTINUOUS
 62
     7
100
AcDbCircle
 10
-303.8571428571429
 20
-26.10308535244092
 30
0.0
 40
1.149999999999998
  0
CIRCLE
  5
1EE
330
1F
100
AcDbEntity
  8
1
  6
CONTINUOUS
 62
     7
100
AcDbCircle
 10
-300.5714285714286
 20
-61.43000842936398
 30
0.0
 40
1.149999999999998
  0
CIRCLE
  5
1EF
330
1F
100
AcDbEntity
  8
1
  6
CONTINUOUS
 62
     7
100
AcDbCircle
 10
-300.5714285714286
 20
-51.7953930447486
 30
0.0
 40
1.149999999999998
  0
ARC
  5
1F0
330
1F
100
AcDbEntity
  8
1
  6
CONTINUOUS
 62
     7
100
AcDbCircle
 10
-294.2766527338833
 20
-81.80946901956358
 30
0.0
 40
0.9999952607151632
100
AcDbArc
 50
240.0005104731258
 51
329.6211037001902
  0
ARC
  5
1F1
330
1F
100
AcDbEntity
  8
1
  6
CONTINUOUS
 62
     7
100
AcDbCircle
 10
-340.0
 20
-55.00693150628705
 30
0.0
 40
53.99999999999997
100
AcDbArc
 50
329.6216141733181
 51
330.378385826682
  0
ARC
  5
1F2
330
1F
100
AcDbEntity
  8
1
  6
CONTINUOUS
 62
     7
100
AcDbCircle
 10
-293.9266479945587
 20
-81.20324302816361
 30
0.0
 40
0.9999952607151299
100
AcDbArc
 50
330.3788962998054
 51
59.99948952687522
  0
LINE
  5
1F3
330
1F
100
AcDbEntity
  8
1
  6
CONTINUOUS
 62
     7
100
AcDbLine
 10
-293.426642648459
 20
-80.33722618345192
 30
0.0
 11
-315.9423259690822
 21
-67.3377903573018
 31
0.0
  0
ARC
  5
1F4
330
1F
100
AcDbEntity
  8
1
  6
CONTINUOUS
 62
     7
100
AcDbCircle
 10
-316.4422838758753
 20
-68.20383350723974
 30
0.0
 40
1.00003161903288
100
AcDbArc
 50
127.5009480615517
 51
149.9995399426791
  0
ARC
  5
1F5
330
1F
100
AcDbEntity
  8
1
  6
CONTINUOUS
 62
     7
100
AcDbCircle
 10
-316.4423258285336
 20
-68.20377883534411
 30
0.0
 40
0.9999627057415897
100
AcDbArc
 50
105.0
 51
127.5009480615503
  0
ARC
  5
1F6
330
1F
100
AcDbEntity
  8
1
  6
CONTINUOUS
 62
     7
100
AcDbCircle
 10
-316.4423258285336
 20
-68.20377883534418
 30
0.0
 40
0.9999627057416702
100
AcDbArc
 50
82.49905193844904
 51
104.9999999999988
  0
ARC
  5
1F7
330
1F
100
AcDbEntity
  8
1
  6
CONTINUOUS
 62
     7
100
AcDbCircle
 10
-316.4423348246536
 20
-68.20384715892367
 30
0.0
 40
1.000031619032751
100
AcDbArc
 50
60.00046005732077
 51
82.49905193844904
  0
LINE
  5
1F8
330
1F
100
AcDbEntity
  8
1
  6
CONTINUOUS
 62
     7
100
AcDbLine
 10
-317.3083326477283
 20
-67.70381074370054
 30
0.0
 11
-317.6583463554809
 21
-68.31005226887358
 31
0.0
  0
ARC
  5
1F9
330
1F
100
AcDbEntity
  8
1
  6
CONTINUOUS
 62
     7
100
AcDbCircle
 10
-316.7923032055429
 20
-68.81001017566666
 30
0.0
 40
1.000031619032909
100
AcDbArc
 50
217.5009480615493
 51
239.9995399426778
  0
ARC
  5
1FA
330
1F
100
AcDbEntity
  8
1
  6
CONTINUOUS
 62
     7
100
AcDbCircle
 10
-316.7923578774387
 20
-68.81005212832508
 30
0.0
 40
0.9999627057414278
100
AcDbArc
 50
194.9999999999991
 51
217.5009480615518
  0
ARC
  5
1FB
330
1F
100
AcDbEntity
  8
1
  6
CONTINUOUS
 62
     7
100
AcDbCircle
 10
-316.7923578774387
 20
-68.8100521283251
 30
0.0
 40
0.9999627057414243
100
AcDbArc
 50
172.4990519384455
 51
194.9999999999984
  0
ARC
  5
1FC
330
1F
100
AcDbEntity
  8
1
  6
CONTINUOUS
 62
     7
100
AcDbCircle
 10
-316.7922895538588
 20
-68.81006112444516
 30
0.0
 40
1.000031619032937
100
AcDbArc
 50
150.0004600573197
 51
172.4990519384465
  0
LINE
  5
1FD
330
1F
100
AcDbEntity
  8
1
  6
CONTINUOUS
 62
     7
100
AcDbLine
 10
-317.2923259690822
 20
-69.67605894751976
 30
0.0
 11
-294.776642648459
 21
-82.6754947736699
 31
0.0
  0
ARC
  5
1FE
330
1F
100
AcDbEntity
  8
1
  6
CONTINUOUS
 62
     7
100
AcDbCircle
 10
-366.9999943220164
 20
-54.65696312539743
 30
0.0
 40
1.000031619032602
100
AcDbArc
 50
67.50094806154522
 51
89.9995399426779
  0
ARC
  5
1FF
330
1F
100
AcDbEntity
  8
1
  6
CONTINUOUS
 62
     7
100
AcDbCircle
 10
-366.9999679510948
 20
-54.65689945738168
 30
0.0
 40
0.9999627057411884
100
AcDbArc
 50
44.99999999999829
 51
67.50094806155846
  0
ARC
  5
200
330
1F
100
AcDbEntity
  8
1
  6
CONTINUOUS
 62
     7
100
AcDbCircle
 10
-366.9999679510954
 20
-54.65689945738231
 30
0.0
 40
0.9999627057420616
100
AcDbArc
 50
22.49905193845905
 51
44.99999999999886
  0
ARC
  5
201
330
1F
100
AcDbEntity
  8
1
  6
CONTINUOUS
 62
     7
100
AcDbCircle
 10
-367.0000316191114
 20
-54.65692582830332
 30
0.0
 40
1.000031619033525
100
AcDbArc
 50
0.000460057321277
 51
22.49905193843438
  0
LINE
  5
202
330
1F
100
AcDbEntity
  8
1
  6
CONTINUOUS
 62
     7
100
AcDbLine
 10
-366.9999862922475
 20
-53.65693150628699
 30
0.0
 11
-392.9988579445477
 21
-53.65693150628699
 31
0.0
  0
ARC
  5
203
330
1F
100
AcDbEntity
  8
1
  6
CONTINUOUS
 62
     7
100
AcDbCircle
 10
-392.9988490351531
 20
-54.65692676696247
 30
0.0
 40
0.9999952607151468
100
AcDbArc
 50
90.00051047312537
 51
179.6211037001924
  0
ARC
  5
204
330
1F
100
AcDbEntity
  8
1
  6
CONTINUOUS
 62
     7
100
AcDbCircle
 10
-340.0000000000001
 20
-55.00693150628699
 30
0.0
 40
53.99999999999991
100
AcDbArc
 50
179.621614173318
 51
180.3783858266819
  0
ARC
  5
205
330
1F
100
AcDbEntity
  8
1
  6
CONTINUOUS
 62
     7
100
AcDbCircle
 10
-392.9988490351532
 20
-55.35693624561161
 30
0.0
 40
0.9999952607150626
100
AcDbArc
 50
180.3788962998017
 51
269.999489526881
  0
LINE
  5
206
330
1F
100
AcDbEntity
  8
1
  6
CONTINUOUS
 62
     7
100
AcDbLine
 10
-392.9988579445477
 20
-56.35693150628699
 30
0.0
 11
-366.9999862922475
 21
-56.35693150628699
 31
0.0
  0
ARC
  5
207
330
1F
100
AcDbEntity
  8
1
  6
CONTINUOUS
 62
     7
100
AcDbCircle
 10
-367.0000316191114
 20
-55.35693718427067
 30
0.0
 40
1.000031619033525
100
AcDbArc
 50
337.5009480615657
 51
359.9995399426787
  0
ARC
  5
208
330
1F
100
AcDbEntity
  8
1
  6
CONTINUOUS
 62
     7
100
AcDbCircle
 10
-366.9999679510954
 20
-55.3569635551917
 30
0.0
 40
0.9999627057420469
100
AcDbArc
 50
315.0000000000019
 51
337.500948061542
  0
ARC
  5
209
330
1F
100
AcDbEntity
  8
1
  6
CONTINUOUS
 62
     7
100
AcDbCircle
 10
-366.9999679510948
 20
-55.35696355519224
 30
0.0
 40
0.9999627057412717
100
AcDbArc
 50
292.499051938443
 51
315.0000000000014
  0
ARC
  5
20A
330
1F
100
AcDbEntity
  8
1
  6
CONTINUOUS
 62
     7
100
AcDbCircle
 10
-366.9999943220164
 20
-55.35689988717649
 30
0.0
 40
1.000031619032679
100
AcDbArc
 50
270.000460057322
 51
292.4990519384529
  0
LINE
  5
20B
330
1F
100
AcDbEntity
  8
1
  6
CONTINUOUS
 62
     7
100
AcDbLine
 10
-366.0000000000001
 20
-55.35694521403957
 30
0.0
 11
-366.0000000000001
 21
-54.65691779853442
 31
0.0
  0
ARC
  5
20C
330
1F
100
AcDbEntity
  8
1
  6
CONTINUOUS
 62
     7
100
AcDbCircle
 10
-312.9999683808894
 20
-54.65692582830332
 30
0.0
 40
1.000031619032859
100
AcDbArc
 50
157.5009480615497
 51
179.9995399426782
  0
ARC
  5
20D
330
1F
100
AcDbEntity
  8
1
  6
CONTINUOUS
 62
     7
100
AcDbCircle
 10
-313.0000320489048
 20
-54.65689945738232
 30
0.0
 40
0.9999627057419733
100
AcDbArc
 50
134.9999999999972
 51
157.5009480615381
  0
ARC
  5
20E
330
1F
100
AcDbEntity
  8
1
  6
CONTINUOUS
 62
     7
100
AcDbCircle
 10
-313.000032048905
 20
-54.65689945738213
 30
0.0
 40
0.9999627057417282
100
AcDbArc
 50
112.499051938453
 51
134.9999999999978
  0
ARC
  5
20F
330
1F
100
AcDbEntity
  8
1
  6
CONTINUOUS
 62
     7
100
AcDbCircle
 10
-313.0000056779837
 20
-54.65696312539746
 30
0.0
 40
1.000031619032602
100
AcDbArc
 50
90.00046005732214
 51
112.4990519384547
  0
LINE
  5
210
330
1F
100
AcDbEntity
  8
1
  6
CONTINUOUS
 62
     7
100
AcDbLine
 10
-314.0000000000001
 20
-54.65691779853442
 30
0.0
 11
-314.0000000000001
 21
-55.35694521403956
 31
0.0
  0
ARC
  5
211
330
1F
100
AcDbEntity
  8
1
  6
CONTINUOUS
 62
     7
100
AcDbCircle
 10
-313.0000056779837
 20
-55.35689988717652
 30
0.0
 40
1.000031619032595
100
AcDbArc
 50
247.5009480615452
 51
269.9995399426779
  0
ARC
  5
212
330
1F
100
AcDbEntity
  8
1
  6
CONTINUOUS
 62
     7
100
AcDbCircle
 10
-313.000032048905
 20
-55.35696355519185
 30
0.0
 40
0.9999627057417282
100
AcDbArc
 50
225.0000000000023
 51
247.5009480615469
  0
ARC
  5
213
330
1F
100
AcDbEntity
  8
1
  6
CONTINUOUS
 62
     7
100
AcDbCircle
 10
-313.0000320489048
 20
-55.35696355519166
 30
0.0
 40
0.9999627057419733
100
AcDbArc
 50
202.4990519384619
 51
225.0000000000027
  0
ARC
  5
214
330
1F
100
AcDbEntity
  8
1
  6
CONTINUOUS
 62
     7
100
AcDbCircle
 10
-312.9999683808894
 20
-55.35693718427066
 30
0.0
 40
1.000031619032859
100
AcDbArc
 50
180.0004600573217
 51
202.4990519384502
  0
LINE
  5
215
330
1F
100
AcDbEntity
  8
1
  6
CONTINUOUS
 62
     7
100
AcDbLine
 10
-313.0000137077527
 20
-56.35693150628699
 30
0.0
 11
-287.0011420554524
 21
-56.35693150628699
 31
0.0
  0
ARC
  5
216
330
1F
100
AcDbEntity
  8
1
  6
CONTINUOUS
 62
     7
100
AcDbCircle
 10
-287.0011509648469
 20
-55.35693624561152
 30
0.0
 40
0.9999952607151466
100
AcDbArc
 50
270.0005104731254
 51
359.6211037001927
  0
ARC
  5
217
330
1F
100
AcDbEntity
  8
1
  6
CONTINUOUS
 62
     7
100
AcDbCircle
 10
-340.0000000000001
 20
-55.00693150628699
 30
0.0
 40
53.99999999999997
100
AcDbArc
 50
359.621614173318
 51
0.3783858266819493
  0
ARC
  5
218
330
1F
100
AcDbEntity
  8
1
  6
CONTINUOUS
 62
     7
100
AcDbCircle
 10
-287.0011509648468
 20
-54.65692676696236
 30
0.0
 40
0.9999952607150487
100
AcDbArc
 50
0.3788962998008856
 51
89.999489526881
  0
LINE
  5
219
330
1F
100
AcDbEntity
  8
1
  6
CONTINUOUS
 62
     7
100
AcDbLine
 10
-287.0011420554524
 20
-53.65693150628699
 30
0.0
 11
-313.0000137077527
 21
-53.65693150628699
 31
0.0
  0
ARC
  5
21A
330
1F
100
AcDbEntity
  8
1
  6
CONTINUOUS
 62
     7
100
AcDbCircle
 10
-358.8444140617678
 20
-74.34632834476696
 30
0.0
 40
1.000031619032167
100
AcDbArc
 50
22.50094806153572
 51
44.9995399426797
  0
ARC
  5
21B
330
1F
100
AcDbEntity
  8
1
  6
CONTINUOUS
 62
     7
100
AcDbCircle
 10
-358.8443503946247
 20
-74.34630197173911
 30
0.0
 40
0.9999627057408755
100
AcDbArc
 50
0.0
 51
22.50094806156557
  0
ARC
  5
21C
330
1F
100
AcDbEntity
  8
1
  6
CONTINUOUS
 62
     7
100
AcDbCircle
 10
-358.8443503946254
 20
-74.34630197173911
 30
0.0
 40
0.9999627057415972
100
AcDbArc
 50
337.4990519384515
 51
0.0
  0
ARC
  5
21D
330
1F
100
AcDbEntity
  8
1
  6
CONTINUOUS
 62
     7
100
AcDbCircle
 10
-358.8444140617684
 20
-74.34627559871072
 30
0.0
 40
1.000031619032893
100
AcDbArc
 50
315.0004600573193
 51
337.4990519384486
  0
LINE
  5
21E
330
1F
100
AcDbEntity
  8
1
  6
CONTINUOUS
 62
     7
100
AcDbLine
 10
-358.1372792445902
 20
-73.63920488339735
 30
0.0
 11
-358.6322733771103
 21
-73.14421075087718
 31
0.0
  0
ARC
  5
21F
330
1F
100
AcDbEntity
  8
1
  6
CONTINUOUS
 62
     7
100
AcDbCircle
 10
-359.3393440924238
 20
-73.85134556805531
 30
0.0
 40
1.000031619032834
100
AcDbArc
 50
112.5009480615494
 51
134.9995399426797
  0
ARC
  5
220
330
1F
100
AcDbEntity
  8
1
  6
CONTINUOUS
 62
     7
100
AcDbCircle
 10
-359.3393704654521
 20
-73.85128190091224
 30
0.0
 40
0.9999627057414306
100
AcDbArc
 50
90.0
 51
112.5009480615529
  0
ARC
  5
221
330
1F
100
AcDbEntity
  8
1
  6
CONTINUOUS
 62
     7
100
AcDbCircle
 10
-359.3393704654521
 20
-73.85128190091224
 30
0.0
 40
0.9999627057414306
100
AcDbArc
 50
67.49905193844711
 51
90.0
  0
ARC
  5
222
330
1F
100
AcDbEntity
  8
1
  6
CONTINUOUS
 62
     7
100
AcDbCircle
 10
-359.3393968384804
 20
-73.8513455680553
 30
0.0
 40
1.000031619032824
100
AcDbArc
 50
45.00046005731974
 51
67.4990519384503
  0
LINE
  5
223
330
1F
100
AcDbEntity
  8
1
  6
CONTINUOUS
 62
     7
100
AcDbLine
 10
-360.0464675537939
 20
-73.14421075087718
 30
0.0
 11
-378.4304460023341
 21
-91.52818919941738
 31
0.0
  0
ARC
  5
224
330
1F
100
AcDbEntity
  8
1
  6
CONTINUOUS
 62
     7
100
AcDbCircle
 10
-377.7233362724627
 20
-92.23528632950207
 30
0.0
 40
0.9999952607151966
100
AcDbArc
 50
135.00051047313
 51
224.6211037001923
  0
ARC
  5
225
330
1F
100
AcDbEntity
  8
1
  6
CONTINUOUS
 62
     7
100
AcDbCircle
 10
-340.0000000000001
 20
-55.00693150628703
 30
0.0
 40
53.99999999999994
100
AcDbArc
 50
224.621614173318
 51
225.378385826682
  0
ARC
  5
226
330
1F
100
AcDbEntity
  8
1
  6
CONTINUOUS
 62
     7
100
AcDbCircle
 10
-377.2283548232151
 20
-92.73026777874978
 30
0.0
 40
0.9999952607151081
100
AcDbArc
 50
225.3788962998043
 51
314.9994895268762
  0
LINE
  5
227
330
1F
100
AcDbEntity
  8
1
  6
CONTINUOUS
 62
     7
100
AcDbLine
 10
-376.5212576931304
 20
-93.43737750862107
 30
0.0
 11
-358.1372792445902
 21
-75.05339906008085
 31
0.0
  0
ARC
  5
228
330
1F
100
AcDbEntity
  8
1
  6
CONTINUOUS
 62
     7
100
AcDbCircle
 10
-385.7233472661168
 20
-28.20439399301049
 30
0.0
 40
0.999995260715165
100
AcDbArc
 50
60.00051047312594
 51
149.6211037001899
  0
ARC
  5
229
330
1F
100
AcDbEntity
  8
1
  6
CONTINUOUS
 62
     7
100
AcDbCircle
 10
-340.0
 20
-55.00693150628702
 30
0.0
 40
54.00000000000002
100
AcDbArc
 50
149.621614173318
 51
150.378385826682
  0
ARC
  5
22A
330
1F
100
AcDbEntity
  8
1
  6
CONTINUOUS
 62
     7
100
AcDbCircle
 10
-386.0733520054413
 20
-28.81061998441045
 30
0.0
 40
0.9999952607151329
100
AcDbArc
 50
150.3788962998055
 51
239.9994895268753
  0
LINE
  5
22B
330
1F
100
AcDbEntity
  8
1
  6
CONTINUOUS
 62
     7
100
AcDbLine
 10
-364.057674030918
 20
-42.67607265527229
 30
0.0
 11
-386.5733573515411
 21
-29.67663682912215
 31
0.0
  0
ARC
  5
22C
330
1F
100
AcDbEntity
  8
1
  6
CONTINUOUS
 62
     7
100
AcDbCircle
 10
-363.5577161241251
 20
-41.81002950533413
 30
0.0
 40
1.000031619033221
100
AcDbArc
 50
307.5009480615604
 51
329.9995399426787
  0
ARC
  5
22D
330
1F
100
AcDbEntity
  8
1
  6
CONTINUOUS
 62
     7
100
AcDbCircle
 10
-363.5576741714665
 20
-41.81008417722989
 30
0.0
 40
0.9999627057416711
100
AcDbArc
 50
285.000000000002
 51
307.5009480615507
  0
ARC
  5
22E
330
1F
100
AcDbEntity
  8
1
  6
CONTINUOUS
 62
     7
100
AcDbCircle
 10
-363.5576741714664
 20
-41.81008417723028
 30
0.0
 40
0.9999627057412604
100
AcDbArc
 50
262.4990519384489
 51
285.0000000000017
  0
ARC
  5
22F
330
1F
100
AcDbEntity
  8
1
  6
CONTINUOUS
 62
     7
100
AcDbCircle
 10
-363.5576651753464
 20
-41.81001585365023
 30
0.0
 40
1.000031619032913
100
AcDbArc
 50
240.0004600573232
 51
262.4990519384535
  0
LINE
  5
230
330
1F
100
AcDbEntity
  8
1
  6
CONTINUOUS
 62
     7
100
AcDbLine
 10
-362.3416536445191
 20
-41.70381074370051
 30
0.0
 11
-362.6916673522717
 21
-42.31005226887352
 31
0.0
  0
ARC
  5
231
330
1F
100
AcDbEntity
  8
1
  6
CONTINUOUS
 62
     7
100
AcDbCircle
 10
-363.2076967944571
 20
-41.20385283690742
 30
0.0
 40
1.000031619032876
100
AcDbArc
 50
37.50094806155084
 51
59.99953994268022
  0
ARC
  5
232
330
1F
100
AcDbEntity
  8
1
  6
CONTINUOUS
 62
     7
100
AcDbCircle
 10
-363.2076421225613
 20
-41.20381088424902
 30
0.0
 40
0.9999627057414278
100
AcDbArc
 50
14.99999999999915
 51
37.50094806155181
  0
ARC
  5
233
330
1F
100
AcDbEntity
  8
1
  6
CONTINUOUS
 62
     7
100
AcDbCircle
 10
-363.2076421225613
 20
-41.20381088424901
 30
0.0
 40
0.9999627057414261
100
AcDbArc
 50
352.4990519384459
 51
14.99999999999875
  0
ARC
  5
234
330
1F
100
AcDbEntity
  8
1
  6
CONTINUOUS
 62
     7
100
AcDbCircle
 10
-363.2077104461412
 20
-41.20380188812891
 30
0.0
 40
1.000031619033002
100
AcDbArc
 50
330.0004600573193
 51
352.4990519384448
  0
LINE
  5
235
330
1F
100
AcDbEntity
  8
1
  6
CONTINUOUS
 62
     7
100
AcDbLine
 10
-385.223357351541
 20
-27.33836823890417
 30
0.0
 11
-362.7076740309179
 21
-40.33780406505431
 31
0.0
  0
ARC
  5
236
330
1F
100
AcDbEntity
  8
1
  6
CONTINUOUS
 62
     7
100
AcDbCircle
 10
-316.4423348246536
 20
-41.81001585365022
 30
0.0
 40
1.000031619032989
100
AcDbArc
 50
277.5009480615524
 51
299.999539942678
  0
ARC
  5
237
330
1F
100
AcDbEntity
  8
1
  6
CONTINUOUS
 62
     7
100
AcDbCircle
 10
-316.4423258285336
 20
-41.81008417723041
 30
0.0
 40
0.9999627057411788
100
AcDbArc
 50
255.0000000000003
 51
277.5009480615578
  0
ARC
  5
238
330
1F
100
AcDbEntity
  8
1
  6
CONTINUOUS
 62
     7
100
AcDbCircle
 10
-316.4423258285336
 20
-41.81008417723019
 30
0.0
 40
0.9999627057414079
100
AcDbArc
 50
232.4990519384487
 51
255.0000000000004
  0
ARC
  5
239
330
1F
100
AcDbEntity
  8
1
  6
CONTINUOUS
 62
     7
100
AcDbCircle
 10
-316.4422838758752
 20
-41.81002950533438
 30
0.0
 40
1.000031619032835
100
AcDbArc
 50
210.0004600573212
 51
232.4990519384508
  0
LINE
  5
23A
330
1F
100
AcDbEntity
  8
1
  6
CONTINUOUS
 62
     7
100
AcDbLine
 10
-293.4266426484589
 20
-29.67663682912218
 30
0.0
 11
-315.9423259690821
 21
-42.67607265527231
 31
0.0
  0
ARC
  5
23B
330
1F
100
AcDbEntity
  8
1
  6
CONTINUOUS
 62
     7
100
AcDbCircle
 10
-293.9266479945587
 20
-28.81061998441044
 30
0.0
 40
0.9999952607151997
100
AcDbArc
 50
300.0005104731263
 51
29.62110370018872
  0
ARC
  5
23C
330
1F
100
AcDbEntity
  8
1
  6
CONTINUOUS
 62
     7
100
AcDbCircle
 10
-339.9999999999999
 20
-55.00693150628703
 30
0.0
 40
54.00000000000001
100
AcDbArc
 50
29.62161417331799
 51
30.37838582668201
  0
ARC
  5
23D
330
1F
100
AcDbEntity
  8
1
  6
CONTINUOUS
 62
     7
100
AcDbCircle
 10
-294.2766527338832
 20
-28.20439399301041
 30
0.0
 40
0.9999952607151156
100
AcDbArc
 50
30.37889629980481
 51
119.9994895268768
  0
LINE
  5
23E
330
1F
100
AcDbEntity
  8
1
  6
CONTINUOUS
 62
     7
100
AcDbLine
 10
-317.2923259690821
 20
-40.33780406505433
 30
0.0
 11
-294.776642648459
 21
-27.33836823890419
 31
0.0
  0
ARC
  5
23F
330
1F
100
AcDbEntity
  8
1
  6
CONTINUOUS
 62
     7
100
AcDbCircle
 10
-316.7922895538587
 20
-41.20380188812891
 30
0.0
 40
1.000031619033002
100
AcDbArc
 50
187.5009480615552
 51
209.9995399426801
  0
ARC
  5
240
330
1F
100
AcDbEntity
  8
1
  6
CONTINUOUS
 62
     7
100
AcDbCircle
 10
-316.7923578774387
 20
-41.20381088424901
 30
0.0
 40
0.9999627057414261
100
AcDbArc
 50
165.0000000000011
 51
187.500948061554
  0
ARC
  5
241
330
1F
100
AcDbEntity
  8
1
  6
CONTINUOUS
 62
     7
100
AcDbCircle
 10
-316.7923578774389
 20
-41.20381088424896
 30
0.0
 40
0.9999627057412528
100
AcDbArc
 50
142.4990519384449
 51
165.0000000000014
  0
ARC
  5
242
330
1F
100
AcDbEntity
  8
1
  6
CONTINUOUS
 62
     7
100
AcDbCircle
 10
-316.792303205543
 20
-41.20385283690727
 30
0.0
 40
1.000031619032716
100
AcDbArc
 50
120.0004600573213
 51
142.4990519384542
  0
LINE
  5
243
330
1F
100
AcDbEntity
  8
1
  6
CONTINUOUS
 62
     7
100
AcDbLine
 10
-317.3083326477283
 20
-42.31005226887356
 30
0.0
 11
-317.6583463554809
 21
-41.70381074370051
 31
0.0
  0
ARC
  5
244
330
1F
100
AcDbEntity
  8
1
  6
CONTINUOUS
 62
     7
100
AcDbCircle
 10
-340.3499683808894
 20
-82.00692582830338
 30
0.0
 40
1.000031619032803
100
AcDbArc
 50
157.5009480615489
 51
179.9995399426794
  0
ARC
  5
245
330
1F
100
AcDbEntity
  8
1
  6
CONTINUOUS
 62
     7
100
AcDbCircle
 10
-340.3500320489051
 20
-82.0068994573819
 30
0.0
 40
0.9999627057414239
100
AcDbArc
 50
135.0000000000016
 51
157.5009480615546
  0
ARC
  5
246
330
1F
100
AcDbEntity
  8
1
  6
CONTINUOUS
 62
     7
100
AcDbCircle
 10
-340.3500320489049
 20
-82.00689945738212
 30
0.0
 40
0.9999627057417378
100
AcDbArc
 50
112.4990519384562
 51
135.0000000000017
  0
ARC
  5
247
330
1F
100
AcDbEntity
  8
1
  6
CONTINUOUS
 62
     7
100
AcDbCircle
 10
-340.3500056779837
 20
-82.00696312539807
 30
0.0
 40
1.000031619033192
100
AcDbArc
 50
90.00046005732207
 51
112.4990519384444
  0
LINE
  5
248
330
1F
100
AcDbEntity
  8
1
  6
CONTINUOUS
 62
     7
100
AcDbLine
 10
-341.35
 20
-108.0057894508347
 30
0.0
 11
-341.35
 21
-82.00691779853449
 31
0.0
  0
ARC
  5
249
330
1F
100
AcDbEntity
  8
1
  6
CONTINUOUS
 62
     7
100
AcDbCircle
 10
-340.3500047393245
 20
-108.0057805414401
 30
0.0
 40
0.9999952607152025
100
AcDbArc
 50
180.000510473127
 51
269.6211037001908
  0
ARC
  5
24A
330
1F
100
AcDbEntity
  8
1
  6
CONTINUOUS
 62
     7
100
AcDbCircle
 10
-340.0
 20
-55.00693150628707
 30
0.0
 40
53.99999999999998
100
AcDbArc
 50
269.621614173318
 51
270.378385826682
  0
ARC
  5
24B
330
1F
100
AcDbEntity
  8
1
  6
CONTINUOUS
 62
     7
100
AcDbCircle
 10
-339.6499952606755
 20
-108.0057805414401
 30
0.0
 40
0.9999952607152014
100
AcDbArc
 50
270.3788962998091
 51
359.999489526874
  0
LINE
  5
24C
330
1F
100
AcDbEntity
  8
1
  6
CONTINUOUS
 62
     7
100
AcDbLine
 10
-338.65
 20
-82.00691779853449
 30
0.0
 11
-338.65
 21
-108.0057894508347
 31
0.0
  0
ARC
  5
24D
330
1F
100
AcDbEntity
  8
1
  6
CONTINUOUS
 62
     7
100
AcDbCircle
 10
-339.6499943220164
 20
-82.00696312539807
 30
0.0
 40
1.000031619033192
100
AcDbArc
 50
67.50094806155556
 51
89.9995399426779
  0
ARC
  5
24E
330
1F
100
AcDbEntity
  8
1
  6
CONTINUOUS
 62
     7
100
AcDbCircle
 10
-339.6499679510952
 20
-82.00689945738212
 30
0.0
 40
0.9999627057417378
100
AcDbArc
 50
44.99999999999829
 51
67.50094806154374
  0
ARC
  5
24F
330
1F
100
AcDbEntity
  8
1
  6
CONTINUOUS
 62
     7
100
AcDbCircle
 10
-339.6499679510949
 20
-82.00689945738183
 30
0.0
 40
0.9999627057413354
100
AcDbArc
 50
22.49905193844216
 51
44.99999999999773
  0
ARC
  5
250
330
1F
100
AcDbEntity
  8
1
  6
CONTINUOUS
 62
     7
100
AcDbCircle
 10
-339.6500316191106
 20
-82.00692582830338
 30
0.0
 40
1.000031619032693
100
AcDbArc
 50
0.0004600573204812
 51
22.49905193845279
  0
LINE
  5
251
330
1F
100
AcDbEntity
  8
1
  6
CONTINUOUS
 62
     7
100
AcDbLine
 10
-340.3500137077526
 20
-81.00693150628707
 30
0.0
 11
-339.6499862922474
 21
-81.00693150628707
 31
0.0
  0
ARC
  5
252
330
1F
100
AcDbEntity
  8
1
  6
CONTINUOUS
 62
     7
100
AcDbCircle
 10
-340.3500056779837
 20
-28.00689988717598
 30
0.0
 40
1.00003161903315
100
AcDbArc
 50
247.5009480615545
 51
269.9995399426779
  0
ARC
  5
253
330
1F
100
AcDbEntity
  8
1
  6
CONTINUOUS
 62
     7
100
AcDbCircle
 10
-340.3500320489048
 20
-28.00696355519177
 30
0.0
 40
0.999962705741863
100
AcDbArc
 50
225.000000000001
 51
247.5009480615433
  0
ARC
  5
254
330
1F
100
AcDbEntity
  8
1
  6
CONTINUOUS
 62
     7
100
AcDbCircle
 10
-340.3500320489053
 20
-28.0069635551922
 30
0.0
 40
0.9999627057412422
100
AcDbArc
 50
202.4990519384446
 51
225.0000000000014
  0
ARC
  5
255
330
1F
100
AcDbEntity
  8
1
  6
CONTINUOUS
 62
     7
100
AcDbCircle
 10
-340.3499683808894
 20
-28.00693718427064
 30
0.0
 40
1.000031619032803
100
AcDbArc
 50
180.0004600573219
 51
202.4990519384515
  0
LINE
  5
256
330
1F
100
AcDbEntity
  8
1
  6
CONTINUOUS
 62
     7
100
AcDbLine
 10
-339.6499862922474
 20
-29.00693150628696
 30
0.0
 11
-340.3500137077526
 21
-29.00693150628696
 31
0.0
  0
ARC
  5
257
330
1F
100
AcDbEntity
  8
1
  6
CONTINUOUS
 62
     7
100
AcDbCircle
 10
-339.6500316191107
 20
-28.00693718427064
 30
0.0
 40
1.000031619032803
100
AcDbArc
 50
337.5009480615485
 51
359.9995399426788
  0
ARC
  5
258
330
1F
100
AcDbEntity
  8
1
  6
CONTINUOUS
 62
     7
100
AcDbCircle
 10
-339.6499679510949
 20
-28.00696355519209
 30
0.0
 40
0.9999627057414386
100
AcDbArc
 50
315.0000000000008
 51
337.5009480615531
  0
ARC
  5
259
330
1F
100
AcDbEntity
  8
1
  6
CONTINUOUS
 62
     7
100
AcDbCircle
 10
-339.6499679510951
 20
-28.00696355519199
 30
0.0
 40
0.9999627057415833
100
AcDbArc
 50
292.499051938453
 51
315.0000000000016
  0
ARC
  5
25A
330
1F
100
AcDbEntity
  8
1
  6
CONTINUOUS
 62
     7
100
AcDbCircle
 10
-339.6499943220164
 20
-28.00689988717608
 30
0.0
 40
1.000031619033057
100
AcDbArc
 50
270.0004600573221
 51
292.4990519384477
  0
LINE
  5
25B
330
1F
100
AcDbEntity
  8
1
  6
CONTINUOUS
 62
     7
100
AcDbLine
 10
-338.65
 20
-2.008073561739307
 30
0.0
 11
-338.65
 21
-28.00694521403953
 31
0.0
  0
ARC
  5
25C
330
1F
100
AcDbEntity
  8
1
  6
CONTINUOUS
 62
     7
100
AcDbCircle
 10
-339.6499952606755
 20
-2.008082471133883
 30
0.0
 40
0.9999952607151816
100
AcDbArc
 50
0.0005104731265533
 51
89.62110370019082
  0
ARC
  5
25D
330
1F
100
AcDbEntity
  8
1
  6
CONTINUOUS
 62
     7
100
AcDbCircle
 10
-340.0
 20
-55.00693150628695
 30
0.0
 40
53.99999999999996
100
AcDbArc
 50
89.621614173318
 51
90.37838582668202
  0
ARC
  5
25E
330
1F
100
AcDbEntity
  8
1
  6
CONTINUOUS
 62
     7
100
AcDbCircle
 10
-340.3500047393246
 20
-2.008082471133839
 30
0.0
 40
0.9999952607151457
100
AcDbArc
 50
90.37889629980602
 51
179.999489526876
  0
LINE
  5
25F
330
1F
100
AcDbEntity
  8
1
  6
CONTINUOUS
 62
     7
100
AcDbLine
 10
-341.35
 20
-28.00694521403954
 30
0.0
 11
-341.35
 21
-2.008073561739307
 31
0.0
  0
ARC
  5
260
330
1F
100
AcDbEntity
  8
1
  6
CONTINUOUS
 62
     7
100
AcDbCircle
 10
-321.1555859382313
 20
-74.34627559871029
 30
0.0
 40
1.000031619033511
100
AcDbArc
 50
202.5009480615632
 51
224.9995399426797
  0
ARC
  5
261
330
1F
100
AcDbEntity
  8
1
  6
CONTINUOUS
 62
     7
100
AcDbCircle
 10
-321.155649605374
 20
-74.34630197173911
 30
0.0
 40
0.9999627057422078
100
AcDbArc
 50
180.0
 51
202.5009480615339
  0
ARC
  5
262
330
1F
100
AcDbEntity
  8
1
  6
CONTINUOUS
 62
     7
100
AcDbCircle
 10
-321.1556496053748
 20
-74.34630197173911
 30
0.0
 40
0.9999627057414862
100
AcDbArc
 50
157.499051938449
 51
180.0
  0
ARC
  5
263
330
1F
100
AcDbEntity
  8
1
  6
CONTINUOUS
 62
     7
100
AcDbCircle
 10
-321.1555859382318
 20
-74.3463283447675
 30
0.0
 40
1.000031619032893
100
AcDbArc
 50
135.0004600573192
 51
157.4990519384486
  0
LINE
  5
264
330
1F
100
AcDbEntity
  8
1
  6
CONTINUOUS
 62
     7
100
AcDbLine
 10
-303.4787423068697
 20
-93.43737750862105
 30
0.0
 11
-321.8627207554099
 21
-75.05339906008085
 31
0.0
  0
ARC
  5
265
330
1F
100
AcDbEntity
  8
1
  6
CONTINUOUS
 62
     7
100
AcDbCircle
 10
-302.771645176785
 20
-92.73026777874966
 30
0.0
 40
0.9999952607151968
100
AcDbArc
 50
225.0005104731277
 51
314.6211037001913
  0
ARC
  5
266
330
1F
100
AcDbEntity
  8
1
  6
CONTINUOUS
 62
     7
100
AcDbCircle
 10
-340.0000000000001
 20
-55.00693150628703
 30
0.0
 40
53.99999999999998
100
AcDbArc
 50
314.621614173318
 51
315.378385826682
  0
ARC
  5
267
330
1F
100
AcDbEntity
  8
1
  6
CONTINUOUS
 62
     7
100
AcDbCircle
 10
-302.2766637275372
 20
-92.2352863295021
 30
0.0
 40
0.9999952607150197
100
AcDbArc
 50
315.3788962997999
 51
44.99948952688237
  0
LINE
  5
268
330
1F
100
AcDbEntity
  8
1
  6
CONTINUOUS
 62
     7
100
AcDbLine
 10
-319.9535324462062
 20
-73.14421075087718
 30
0.0
 11
-301.569553997666
 21
-91.52818919941737
 31
0.0
  0
ARC
  5
269
330
1F
100
AcDbEntity
  8
1
  6
CONTINUOUS
 62
     7
100
AcDbCircle
 10
-320.6606031615198
 20
-73.85134556805512
 30
0.0
 40
1.000031619032579
100
AcDbArc
 50
112.5009480615448
 51
134.9995399426808
  0
ARC
  5
26A
330
1F
100
AcDbEntity
  8
1
  6
CONTINUOUS
 62
     7
100
AcDbCircle
 10
-320.660629534548
 20
-73.85128190091251
 30
0.0
 40
0.9999627057416943
100
AcDbArc
 50
90.0
 51
112.5009480615471
  0
ARC
  5
26B
330
1F
100
AcDbEntity
  8
1
  6
CONTINUOUS
 62
     7
100
AcDbCircle
 10
-320.660629534548
 20
-73.85128190091251
 30
0.0
 40
0.9999627057416943
100
AcDbArc
 50
67.49905193845291
 51
90.0
  0
ARC
  5
26C
330
1F
100
AcDbEntity
  8
1
  6
CONTINUOUS
 62
     7
100
AcDbCircle
 10
-320.6606559075761
 20
-73.85134556805511
 30
0.0
 40
1.00003161903257
100
AcDbArc
 50
45.00046005731861
 51
67.49905193845483
  0
LINE
  5
26D
330
1F
100
AcDbEntity
  8
1
  6
CONTINUOUS
 62
     7
100
AcDbLine
 10
-321.8627207554099
 20
-73.63920488339737
 30
0.0
 11
-321.3677266228897
 21
-73.14421075087719
 31
0.0
  0
ARC
  5
26E
330
1F
100
AcDbEntity
  8
1
  6
CONTINUOUS
 62
     7
100
AcDbCircle
 10
-320.6606559075763
 20
-36.16251744451885
 30
0.0
 40
1.000031619032741
100
AcDbArc
 50
292.5009480615478
 51
314.9995399426807
  0
ARC
  5
26F
330
1F
100
AcDbEntity
  8
1
  6
CONTINUOUS
 62
     7
100
AcDbCircle
 10
-320.660629534548
 20
-36.1625811116615
 30
0.0
 40
0.9999627057417845
100
AcDbArc
 50
270.0
 51
292.5009480615449
  0
ARC
  5
270
330
1F
100
AcDbEntity
  8
1
  6
CONTINUOUS
 62
     7
100
AcDbCircle
 10
-320.660629534548
 20
-36.1625811116615
 30
0.0
 40
0.9999627057417845
100
AcDbArc
 50
247.499051938455
 51
270.0
  0
ARC
  5
271
330
1F
100
AcDbEntity
  8
1
  6
CONTINUOUS
 62
     7
100
AcDbCircle
 10
-320.6606031615197
 20
-36.16251744451885
 30
0.0
 40
1.000031619032741
100
AcDbArc
 50
225.00046005732
 51
247.4990519384521
  0
LINE
  5
272
330
1F
100
AcDbEntity
  8
1
  6
CONTINUOUS
 62
     7
100
AcDbLine
 10
-301.569553997666
 20
-18.4856738131567
 30
0.0
 11
-319.9535324462062
 21
-36.8696522616969
 31
0.0
  0
ARC
  5
273
330
1F
100
AcDbEntity
  8
1
  6
CONTINUOUS
 62
     7
100
AcDbCircle
 10
-302.2766637275374
 20
-17.77857668307198
 30
0.0
 40
0.9999952607151379
100
AcDbArc
 50
315.0005104731243
 51
44.62110370019343
  0
ARC
  5
274
330
1F
100
AcDbEntity
  8
1
  6
CONTINUOUS
 62
     7
100
AcDbCircle
 10
-340.0000000000001
 20
-55.00693150628703
 30
0.0
 40
53.99999999999997
100
AcDbArc
 50
44.62161417331799
 51
45.378385826682
  0
ARC
  5
275
330
1F
100
AcDbEntity
  8
1
  6
CONTINUOUS
 62
     7
100
AcDbCircle
 10
-302.771645176785
 20
-17.2835952338242
 30
0.0
 40
0.9999952607150076
100
AcDbArc
 50
45.37889629980032
 51
134.9994895268775
  0
LINE
  5
276
330
1F
100
AcDbEntity
  8
1
  6
CONTINUOUS
 62
     7
100
AcDbLine
 10
-321.8627207554099
 20
-34.96046395249324
 30
0.0
 11
-303.4787423068697
 21
-16.57648550395301
 31
0.0
  0
ARC
  5
277
330
1F
100
AcDbEntity
  8
1
  6
CONTINUOUS
 62
     7
100
AcDbCircle
 10
-321.1555859382313
 20
-35.66753466780617
 30
0.0
 40
1.000031619033511
100
AcDbArc
 50
202.5009480615636
 51
224.9995399426802
  0
ARC
  5
278
330
1F
100
AcDbEntity
  8
1
  6
CONTINUOUS
 62
     7
100
AcDbCircle
 10
-321.155649605374
 20
-35.66756104083499
 30
0.0
 40
0.9999627057422078
100
AcDbArc
 50
180.0
 51
202.5009480615342
  0
ARC
  5
279
330
1F
100
AcDbEntity
  8
1
  6
CONTINUOUS
 62
     7
100
AcDbCircle
 10
-321.1556496053748
 20
-35.66756104083498
 30
0.0
 40
0.9999627057414862
100
AcDbArc
 50
157.499051938449
 51
180.0000000000004
  0
ARC
  5
27A
330
1F
100
AcDbEntity
  8
1
  6
CONTINUOUS
 62
     7
100
AcDbCircle
 10
-321.1555859382318
 20
-35.66758741386337
 30
0.0
 40
1.000031619032893
100
AcDbArc
 50
135.0004600573192
 51
157.4990519384482
  0
LINE
  5
27B
330
1F
100
AcDbEntity
  8
1
  6
CONTINUOUS
 62
     7
100
AcDbLine
 10
-321.3677266228897
 20
-36.86965226169693
 30
0.0
 11
-321.86272075541
 21
-36.37465812917674
 31
0.0
  0
ARC
  5
27C
330
1F
100
AcDbEntity
  8
1
  6
CONTINUOUS
 62
     7
100
AcDbCircle
 10
-377.2283548232151
 20
-17.28359523382442
 30
0.0
 40
0.9999952607151995
100
AcDbArc
 50
45.00051047312787
 51
134.621103700191
  0
ARC
  5
27D
330
1F
100
AcDbEntity
  8
1
  6
CONTINUOUS
 62
     7
100
AcDbCircle
 10
-340.0000000000001
 20
-55.00693150628703
 30
0.0
 40
53.99999999999993
100
AcDbArc
 50
134.621614173318
 51
135.378385826682
  0
ARC
  5
27E
330
1F
100
AcDbEntity
  8
1
  6
CONTINUOUS
 62
     7
100
AcDbCircle
 10
-377.7233362724629
 20
-17.77857668307198
 30
0.0
 40
0.9999952607150197
100
AcDbArc
 50
135.3788962997999
 51
224.9994895268823
  0
LINE
  5
27F
330
1F
100
AcDbEntity
  8
1
  6
CONTINUOUS
 62
     7
100
AcDbLine
 10
-360.0464675537939
 20
-36.8696522616969
 30
0.0
 11
-378.4304460023341
 21
-18.4856738131567
 31
0.0
  0
ARC
  5
280
330
1F
100
AcDbEntity
  8
1
  6
CONTINUOUS
 62
     7
100
AcDbCircle
 10
-359.3393968384805
 20
-36.16251744451863
 30
0.0
 40
1.000031619032996
100
AcDbArc
 50
292.5009480615524
 51
314.9995399426793
  0
ARC
  5
281
330
1F
100
AcDbEntity
  8
1
  6
CONTINUOUS
 62
     7
100
AcDbCircle
 10
-359.3393704654521
 20
-36.16258111166175
 30
0.0
 40
0.9999627057415139
100
AcDbArc
 50
270.0
 51
292.5009480615508
  0
ARC
  5
282
330
1F
100
AcDbEntity
  8
1
  6
CONTINUOUS
 62
     7
100
AcDbCircle
 10
-359.3393704654521
 20
-36.16258111166175
 30
0.0
 40
0.9999627057415139
100
AcDbArc
 50
247.499051938449
 51
270.0
  0
ARC
  5
283
330
1F
100
AcDbEntity
  8
1
  6
CONTINUOUS
 62
     7
100
AcDbCircle
 10
-359.3393440924237
 20
-36.16251744451864
 30
0.0
 40
1.000031619032991
100
AcDbArc
 50
225.0004600573211
 51
247.4990519384475
  0
LINE
  5
284
330
1F
100
AcDbEntity
  8
1
  6
CONTINUOUS
 62
     7
100
AcDbLine
 10
-358.1372792445902
 20
-36.37465812917673
 30
0.0
 11
-358.6322733771103
 21
-36.86965226169688
 31
0.0
  0
ARC
  5
285
330
1F
100
AcDbEntity
  8
1
  6
CONTINUOUS
 62
     7
100
AcDbCircle
 10
-358.8444140617678
 20
-35.66758741386284
 30
0.0
 40
1.000031619032172
100
AcDbArc
 50
22.50094806153641
 51
44.99953994267995
  0
ARC
  5
286
330
1F
100
AcDbEntity
  8
1
  6
CONTINUOUS
 62
     7
100
AcDbCircle
 10
-358.8443503946247
 20
-35.66756104083498
 30
0.0
 40
0.9999627057408755
100
AcDbArc
 50
0.0
 51
22.50094806156591
  0
ARC
  5
287
330
1F
100
AcDbEntity
  8
1
  6
CONTINUOUS
 62
     7
100
AcDbCircle
 10
-358.8443503946254
 20
-35.66756104083497
 30
0.0
 40
0.9999627057415972
100
AcDbArc
 50
337.4990519384507
 51
359.9999999999996
  0
ARC
  5
288
330
1F
100
AcDbEntity
  8
1
  6
CONTINUOUS
 62
     7
100
AcDbCircle
 10
-358.8444140617684
 20
-35.66753466780658
 30
0.0
 40
1.000031619032893
100
AcDbArc
 50
315.0004600573193
 51
337.4990519384482
  0
LINE
  5
289
330
1F
100
AcDbEntity
  8
1
  6
CONTINUOUS
 62
     7
100
AcDbLine
 10
-376.5212576931304
 20
-16.57648550395303
 30
0.0
 11
-358.1372792445902
 21
-34.96046395249322
 31
0.0
  0
ARC
  5
28A
330
1F
100
AcDbEntity
  8
1
  6
CONTINUOUS
 62
     7
100
AcDbCircle
 10
-386.0733520054414
 20
-81.20324302816358
 30
0.0
 40
0.9999952607150824
100
AcDbArc
 50
120.0005104731225
 51
209.6211037001963
  0
ARC
  5
28B
330
1F
100
AcDbEntity
  8
1
  6
CONTINUOUS
 62
     7
100
AcDbCircle
 10
-340.0
 20
-55.00693150628705
 30
0.0
 40
54.00000000000001
100
AcDbArc
 50
209.621614173318
 51
210.378385826682
  0
ARC
  5
28C
330
1F
100
AcDbEntity
  8
1
  6
CONTINUOUS
 62
     7
100
AcDbCircle
 10
-385.7233472661168
 20
-81.80946901956372
 30
0.0
 40
0.9999952607150735
100
AcDbArc
 50
210.3788962998024
 51
299.9994895268781
  0
LINE
  5
28D
330
1F
100
AcDbEntity
  8
1
  6
CONTINUOUS
 62
     7
100
AcDbLine
 10
-362.7076740309179
 20
-69.67605894751975
 30
0.0
 11
-385.223357351541
 21
-82.6754947736699
 31
0.0
  0
ARC
  5
28E
330
1F
100
AcDbEntity
  8
1
  6
CONTINUOUS
 62
     7
100
AcDbCircle
 10
-363.2077104461412
 20
-68.81006112444514
 30
0.0
 40
1.000031619032943
100
AcDbArc
 50
7.500948061554368
 51
29.999539942681
  0
ARC
  5
28F
330
1F
100
AcDbEntity
  8
1
  6
CONTINUOUS
 62
     7
100
AcDbCircle
 10
-363.2076421225613
 20
-68.81005212832507
 30
0.0
 40
0.9999627057414243
100
AcDbArc
 50
345.0000000000016
 51
7.500948061554424
  0
ARC
  5
290
330
1F
100
AcDbEntity
  8
1
  6
CONTINUOUS
 62
     7
100
AcDbCircle
 10
-363.2076421225613
 20
-68.81005212832505
 30
0.0
 40
0.9999627057414278
100
AcDbArc
 50
322.4990519384482
 51
345.0000000000009
  0
ARC
  5
291
330
1F
100
AcDbEntity
  8
1
  6
CONTINUOUS
 62
     7
100
AcDbCircle
 10
-363.2076967944571
 20
-68.81001017566663
 30
0.0
 40
1.000031619032909
100
AcDbArc
 50
300.0004600573222
 51
322.4990519384507
  0
LINE
  5
292
330
1F
100
AcDbEntity
  8
1
  6
CONTINUOUS
 62
     7
100
AcDbLine
 10
-362.6916673522717
 20
-67.70381074370052
 30
0.0
 11
-362.3416536445191
 21
-68.31005226887355
 31
0.0
  0
ARC
  5
293
330
1F
100
AcDbEntity
  8
1
  6
CONTINUOUS
 62
     7
100
AcDbCircle
 10
-363.5576651753465
 20
-68.20384715892364
 30
0.0
 40
1.000031619032751
100
AcDbArc
 50
97.50094806155107
 51
119.9995399426825
  0
ARC
  5
294
330
1F
100
AcDbEntity
  8
1
  6
CONTINUOUS
 62
     7
100
AcDbCircle
 10
-363.5576741714665
 20
-68.20377883534417
 30
0.0
 40
0.9999627057416702
100
AcDbArc
 50
75.00000000000131
 51
97.50094806155101
  0
ARC
  5
295
330
1F
100
AcDbEntity
  8
1
  6
CONTINUOUS
 62
     7
100
AcDbCircle
 10
-363.5576741714665
 20
-68.20377883534408
 30
0.0
 40
0.9999627057415897
100
AcDbArc
 50
52.49905193844971
 51
75.0
  0
ARC
  5
296
330
1F
100
AcDbEntity
  8
1
  6
CONTINUOUS
 62
     7
100
AcDbCircle
 10
-363.5577161241249
 20
-68.20383350723971
 30
0.0
 40
1.00003161903288
100
AcDbArc
 50
30.00046005732093
 51
52.49905193844825
  0
LINE
  5
297
330
1F
100
AcDbEntity
  8
1
  6
CONTINUOUS
 62
     7
100
AcDbLine
 10
-386.5733573515411
 20
-80.3372261834519
 30
0.0
 11
-364.057674030918
 21
-67.33779035730178
 31
0.0
  0
CIRCLE
  5
298
330
1F
100
AcDbEntity
  8
1
  6
CONTINUOUS
 62
     7
100
AcDbCircle
 10
-300.5714285714286
 20
-58.21846996782552
 30
0.0
 40
1.149999999999998
  0
CIRCLE
  5
299
330
1F
100
AcDbEntity
  8
1
  6
CONTINUOUS
 62
     7
100
AcDbCircle
 10
-300.5714285714286
 20
-64.64154689090245
 30
0.0
 40
1.149999999999998
  0
CIRCLE
  5
29A
330
1F
100
AcDbEntity
  8
1
  6
CONTINUOUS
 62
     7
100
AcDbCircle
 10
-300.5714285714286
 20
-74.27616227551782
 30
0.0
 40
1.149999999999995
  0
CIRCLE
  5
29B
330
1F
100
AcDbEntity
  8
1
  6
CONTINUOUS
 62
     7
100
AcDbCircle
 10
-300.5714285714286
 20
-67.8530853524409
 30
0.0
 40
1.149999999999998
  0
CIRCLE
  5
29C
330
1F
100
AcDbEntity
  8
1
  6
CONTINUOUS
 62
     7
100
AcDbCircle
 10
-297.2857142857143
 20
-74.27616227551782
 30
0.0
 40
1.149999999999995
  0
CIRCLE
  5
29D
330
1F
100
AcDbEntity
  8
1
  6
CONTINUOUS
 62
     7
100
AcDbCircle
 10
-297.2857142857143
 20
-67.8530853524409
 30
0.0
 40
1.149999999999998
  0
CIRCLE
  5
29E
330
1F
100
AcDbEntity
  8
1
  6
CONTINUOUS
 62
     7
100
AcDbCircle
 10
-300.5714285714286
 20
-42.16077766013322
 30
0.0
 40
1.149999999999998
  0
CIRCLE
  5
29F
330
1F
100
AcDbEntity
  8
1
  6
CONTINUOUS
 62
     7
100
AcDbCircle
 10
-300.5714285714286
 20
-48.58385458321014
 30
0.0
 40
1.149999999999998
  0
CIRCLE
  5
2A0
330
1F
100
AcDbEntity
  8
1
  6
CONTINUOUS
 62
     7
100
AcDbCircle
 10
-303.8571428571429
 20
-67.8530853524409
 30
0.0
 40
1.149999999999998
  0
CIRCLE
  5
2A1
330
1F
100
AcDbEntity
  8
1
  6
CONTINUOUS
 62
     7
100
AcDbCircle
 10
-303.8571428571429
 20
-80.69923919859474
 30
0.0
 40
1.149999999999995
  0
CIRCLE
  5
2A2
330
1F
100
AcDbEntity
  8
1
  6
CONTINUOUS
 62
     7
100
AcDbCircle
 10
-307.1428571428572
 20
-32.52616227551785
 30
0.0
 40
1.149999999999998
  0
CIRCLE
  5
2A3
330
1F
100
AcDbEntity
  8
1
  6
CONTINUOUS
 62
     7
100
AcDbCircle
 10
-303.8571428571429
 20
-83.9107776601332
 30
0.0
 40
1.149999999999998
  0
CIRCLE
  5
2A4
330
1F
100
AcDbEntity
  8
1
  6
CONTINUOUS
 62
     7
100
AcDbCircle
 10
-303.8571428571429
 20
-58.21846996782552
 30
0.0
 40
1.149999999999998
  0
CIRCLE
  5
2A5
330
1F
100
AcDbEntity
  8
1
  6
CONTINUOUS
 62
     7
100
AcDbCircle
 10
-303.8571428571429
 20
-48.58385458321014
 30
0.0
 40
1.149999999999998
  0
CIRCLE
  5
2A6
330
1F
100
AcDbEntity
  8
1
  6
CONTINUOUS
 62
     7
100
AcDbCircle
 10
-303.8571428571429
 20
-42.16077766013322
 30
0.0
 40
1.149999999999998
  0
CIRCLE
  5
2A7
330
1F
100
AcDbEntity
  8
1
  6
CONTINUOUS
 62
     7
100
AcDbCircle
 10
-303.8571428571429
 20
-29.31462381397938
 30
0.0
 40
1.149999999999998
  0
CIRCLE
  5
2A8
330
1F
100
AcDbEntity
  8
1
  6
CONTINUOUS
 62
     7
100
AcDbCircle
 10
-297.2857142857143
 20
-61.43000842936398
 30
0.0
 40
1.149999999999998
  0
CIRCLE
  5
2A9
330
1F
100
AcDbEntity
  8
1
  6
CONTINUOUS
 62
     7
100
AcDbCircle
 10
-297.2857142857143
 20
-51.7953930447486
 30
0.0
 40
1.149999999999998
  0
CIRCLE
  5
2AA
330
1F
100
AcDbEntity
  8
1
  6
CONTINUOUS
 62
     7
100
AcDbCircle
 10
-297.2857142857143
 20
-45.37231612167168
 30
0.0
 40
1.149999999999998
  0
CIRCLE
  5
2AB
330
1F
100
AcDbEntity
  8
1
  6
CONTINUOUS
 62
     7
100
AcDbCircle
 10
-297.2857142857143
 20
-38.94923919859476
 30
0.0
 40
1.149999999999998
  0
CIRCLE
  5
2AC
330
1F
100
AcDbEntity
  8
1
  6
CONTINUOUS
 62
     7
100
AcDbCircle
 10
-369.5714285714286
 20
-77.48770073705629
 30
0.0
 40
1.150000000000005
  0
CIRCLE
  5
2AD
330
1F
100
AcDbEntity
  8
1
  6
CONTINUOUS
 62
     7
100
AcDbCircle
 10
-369.5714285714286
 20
-90.33385458321011
 30
0.0
 40
1.149999999999998
  0
CIRCLE
  5
2AE
330
1F
100
AcDbEntity
  8
1
  6
CONTINUOUS
 62
     7
100
AcDbCircle
 10
-366.2857142857143
 20
-16.46846996782554
 30
0.0
 40
1.149999999999998
  0
CIRCLE
  5
2AF
330
1F
100
AcDbEntity
  8
1
  6
CONTINUOUS
 62
     7
100
AcDbCircle
 10
-366.2857142857143
 20
-19.680008429364
 30
0.0
 40
1.149999999999998
  0
CIRCLE
  5
2B0
330
1F
100
AcDbEntity
  8
1
  6
CONTINUOUS
 62
     7
100
AcDbCircle
 10
-366.2857142857143
 20
-22.89154689090246
 30
0.0
 40
1.149999999999998
  0
CIRCLE
  5
2B1
330
1F
100
AcDbEntity
  8
1
  6
CONTINUOUS
 62
     7
100
AcDbCircle
 10
-366.2857142857143
 20
-35.7377007370563
 30
0.0
 40
1.150000000000012
  0
CIRCLE
  5
2B2
330
1F
100
AcDbEntity
  8
1
  6
CONTINUOUS
 62
     7
100
AcDbCircle
 10
-366.2857142857143
 20
-45.37231612167168
 30
0.0
 40
1.149999999999998
  0
CIRCLE
  5
2B3
330
1F
100
AcDbEntity
  8
1
  6
CONTINUOUS
 62
     7
100
AcDbCircle
 10
-366.2857142857143
 20
-48.58385458321014
 30
0.0
 40
1.149999999999998
  0
CIRCLE
  5
2B4
330
1F
100
AcDbEntity
  8
1
  6
CONTINUOUS
 62
     7
100
AcDbCircle
 10
-369.5714285714286
 20
-67.8530853524409
 30
0.0
 40
1.149999999999998
  0
CIRCLE
  5
2B5
330
1F
100
AcDbEntity
  8
1
  6
CONTINUOUS
 62
     7
100
AcDbCircle
 10
-369.5714285714286
 20
-64.64154689090245
 30
0.0
 40
1.149999999999998
  0
CIRCLE
  5
2B6
330
1F
100
AcDbEntity
  8
1
  6
CONTINUOUS
 62
     7
100
AcDbCircle
 10
-369.5714285714286
 20
-61.43000842936398
 30
0.0
 40
1.149999999999998
  0
CIRCLE
  5
2B7
330
1F
100
AcDbEntity
  8
1
  6
CONTINUOUS
 62
     7
100
AcDbCircle
 10
-369.5714285714286
 20
-58.21846996782552
 30
0.0
 40
1.149999999999998
  0
CIRCLE
  5
2B8
330
1F
100
AcDbEntity
  8
1
  6
CONTINUOUS
 62
     7
100
AcDbCircle
 10
-369.5714285714286
 20
-51.7953930447486
 30
0.0
 40
1.149999999999998
  0
CIRCLE
  5
2B9
330
1F
100
AcDbEntity
  8
1
  6
CONTINUOUS
 62
     7
100
AcDbCircle
 10
-369.5714285714286
 20
-48.58385458321014
 30
0.0
 40
1.149999999999998
  0
CIRCLE
  5
2BA
330
1F
100
AcDbEntity
  8
1
  6
CONTINUOUS
 62
     7
100
AcDbCircle
 10
-369.5714285714286
 20
-45.37231612167168
 30
0.0
 40
1.149999999999998
  0
CIRCLE
  5
2BB
330
1F
100
AcDbEntity
  8
1
  6
CONTINUOUS
 62
     7
100
AcDbCircle
 10
-369.5714285714286
 20
-42.16077766013322
 30
0.0
 40
1.149999999999998
  0
CIRCLE
  5
2BC
330
1F
100
AcDbEntity
  8
1
  6
CONTINUOUS
 62
     7
100
AcDbCircle
 10
-366.2857142857143
 20
-51.7953930447486
 30
0.0
 40
1.149999999999998
  0
CIRCLE
  5
2BD
330
1F
100
AcDbEntity
  8
1
  6
CONTINUOUS
 62
     7
100
AcDbCircle
 10
-366.2857142857143
 20
-58.21846996782552
 30
0.0
 40
1.149999999999998
  0
CIRCLE
  5
2BE
330
1F
100
AcDbEntity
  8
1
  6
CONTINUOUS
 62
     7
100
AcDbCircle
 10
-366.2857142857143
 20
-61.43000842936398
 30
0.0
 40
1.149999999999998
  0
CIRCLE
  5
2BF
330
1F
100
AcDbEntity
  8
1
  6
CONTINUOUS
 62
     7
100
AcDbCircle
 10
-366.2857142857143
 20
-64.64154689090245
 30
0.0
 40
1.149999999999998
  0
CIRCLE
  5
2C0
330
1F
100
AcDbEntity
  8
1
  6
CONTINUOUS
 62
     7
100
AcDbCircle
 10
-366.2857142857143
 20
-74.2761622755178
 30
0.0
 40
1.149999999999991
  0
CIRCLE
  5
2C1
330
1F
100
AcDbEntity
  8
1
  6
CONTINUOUS
 62
     7
100
AcDbCircle
 10
-366.2857142857143
 20
-87.12231612167166
 30
0.0
 40
1.149999999999998
  0
CIRCLE
  5
2C2
330
1F
100
AcDbEntity
  8
1
  6
CONTINUOUS
 62
     7
100
AcDbCircle
 10
-366.2857142857143
 20
-90.33385458321011
 30
0.0
 40
1.149999999999995
  0
CIRCLE
  5
2C3
330
1F
100
AcDbEntity
  8
1
  6
CONTINUOUS
 62
     7
100
AcDbCircle
 10
-366.2857142857143
 20
-93.54539304474856
 30
0.0
 40
1.149999999999998
  0
CIRCLE
  5
2C4
330
1F
100
AcDbEntity
  8
1
  6
CONTINUOUS
 62
     7
100
AcDbCircle
 10
-346.5714285714286
 20
-13.25693150628708
 30
0.0
 40
1.149999999999998
  0
CIRCLE
  5
2C5
330
1F
100
AcDbEntity
  8
1
  6
CONTINUOUS
 62
     7
100
AcDbCircle
 10
-346.5714285714286
 20
-16.46846996782554
 30
0.0
 40
1.149999999999998
  0
CIRCLE
  5
2C6
330
1F
100
AcDbEntity
  8
1
  6
CONTINUOUS
 62
     7
100
AcDbCircle
 10
-346.5714285714286
 20
-19.680008429364
 30
0.0
 40
1.149999999999998
  0
CIRCLE
  5
2C7
330
1F
100
AcDbEntity
  8
1
  6
CONTINUOUS
 62
     7
100
AcDbCircle
 10
-346.5714285714286
 20
-22.89154689090246
 30
0.0
 40
1.149999999999998
  0
CIRCLE
  5
2C8
330
1F
100
AcDbEntity
  8
1
  6
CONTINUOUS
 62
     7
100
AcDbCircle
 10
-346.5714285714286
 20
-26.10308535244092
 30
0.0
 40
1.149999999999998
  0
CIRCLE
  5
2C9
330
1F
100
AcDbEntity
  8
1
  6
CONTINUOUS
 62
     7
100
AcDbCircle
 10
-346.5714285714286
 20
-29.31462381397938
 30
0.0
 40
1.149999999999998
  0
CIRCLE
  5
2CA
330
1F
100
AcDbEntity
  8
1
  6
CONTINUOUS
 62
     7
100
AcDbCircle
 10
-346.5714285714286
 20
-80.69923919859474
 30
0.0
 40
1.149999999999995
  0
CIRCLE
  5
2CB
330
1F
100
AcDbEntity
  8
1
  6
CONTINUOUS
 62
     7
100
AcDbCircle
 10
-346.5714285714286
 20
-83.9107776601332
 30
0.0
 40
1.149999999999998
  0
CIRCLE
  5
2CC
330
1F
100
AcDbEntity
  8
1
  6
CONTINUOUS
 62
     7
100
AcDbCircle
 10
-376.1428571428572
 20
-71.06462381397937
 30
0.0
 40
1.149999999999998
  0
CIRCLE
  5
2CD
330
1F
100
AcDbEntity
  8
1
  6
CONTINUOUS
 62
     7
100
AcDbCircle
 10
-376.1428571428572
 20
-67.8530853524409
 30
0.0
 40
1.149999999999998
  0
CIRCLE
  5
2CE
330
1F
100
AcDbEntity
  8
1
  6
CONTINUOUS
 62
     7
100
AcDbCircle
 10
-376.1428571428572
 20
-64.64154689090245
 30
0.0
 40
1.149999999999998
  0
CIRCLE
  5
2CF
330
1F
100
AcDbEntity
  8
1
  6
CONTINUOUS
 62
     7
100
AcDbCircle
 10
-376.1428571428572
 20
-61.43000842936398
 30
0.0
 40
1.149999999999998
  0
CIRCLE
  5
2D0
330
1F
100
AcDbEntity
  8
1
  6
CONTINUOUS
 62
     7
100
AcDbCircle
 10
-376.1428571428572
 20
-58.21846996782552
 30
0.0
 40
1.149999999999998
  0
CIRCLE
  5
2D1
330
1F
100
AcDbEntity
  8
1
  6
CONTINUOUS
 62
     7
100
AcDbCircle
 10
-376.1428571428572
 20
-51.7953930447486
 30
0.0
 40
1.149999999999998
  0
CIRCLE
  5
2D2
330
1F
100
AcDbEntity
  8
1
  6
CONTINUOUS
 62
     7
100
AcDbCircle
 10
-376.1428571428572
 20
-48.58385458321014
 30
0.0
 40
1.149999999999998
  0
CIRCLE
  5
2D3
330
1F
100
AcDbEntity
  8
1
  6
CONTINUOUS
 62
     7
100
AcDbCircle
 10
-376.1428571428572
 20
-45.37231612167168
 30
0.0
 40
1.149999999999998
  0
CIRCLE
  5
2D4
330
1F
100
AcDbEntity
  8
1
  6
CONTINUOUS
 62
     7
100
AcDbCircle
 10
-376.1428571428572
 20
-42.16077766013322
 30
0.0
 40
1.149999999999998
  0
CIRCLE
  5
2D5
330
1F
100
AcDbEntity
  8
1
  6
CONTINUOUS
 62
     7
100
AcDbCircle
 10
-376.1428571428572
 20
-38.94923919859476
 30
0.0
 40
1.149999999999998
  0
CIRCLE
  5
2D6
330
1F
100
AcDbEntity
  8
1
  6
CONTINUOUS
 62
     7
100
AcDbCircle
 10
-376.1428571428572
 20
-29.31462381397938
 30
0.0
 40
1.149999999999998
  0
CIRCLE
  5
2D7
330
1F
100
AcDbEntity
  8
1
  6
CONTINUOUS
 62
     7
100
AcDbCircle
 10
-376.1428571428572
 20
-26.10308535244092
 30
0.0
 40
1.149999999999998
  0
CIRCLE
  5
2D8
330
1F
100
AcDbEntity
  8
1
  6
CONTINUOUS
 62
     7
100
AcDbCircle
 10
-379.4285714285714
 20
-74.2761622755178
 30
0.0
 40
1.149999999999988
  0
CIRCLE
  5
2D9
330
1F
100
AcDbEntity
  8
1
  6
CONTINUOUS
 62
     7
100
AcDbCircle
 10
-379.4285714285714
 20
-71.06462381397937
 30
0.0
 40
1.149999999999998
  0
CIRCLE
  5
2DA
330
1F
100
AcDbEntity
  8
1
  6
CONTINUOUS
 62
     7
100
AcDbCircle
 10
-379.4285714285714
 20
-67.8530853524409
 30
0.0
 40
1.149999999999998
  0
CIRCLE
  5
2DB
330
1F
100
AcDbEntity
  8
1
  6
CONTINUOUS
 62
     7
100
AcDbCircle
 10
-379.4285714285714
 20
-64.64154689090245
 30
0.0
 40
1.149999999999998
  0
CIRCLE
  5
2DC
330
1F
100
AcDbEntity
  8
1
  6
CONTINUOUS
 62
     7
100
AcDbCircle
 10
-372.8571428571429
 20
-58.21846996782552
 30
0.0
 40
1.149999999999998
  0
CIRCLE
  5
2DD
330
1F
100
AcDbEntity
  8
1
  6
CONTINUOUS
 62
     7
100
AcDbCircle
 10
-372.8571428571429
 20
-61.43000842936398
 30
0.0
 40
1.149999999999998
  0
CIRCLE
  5
2DE
330
1F
100
AcDbEntity
  8
1
  6
CONTINUOUS
 62
     7
100
AcDbCircle
 10
-372.8571428571429
 20
-64.64154689090245
 30
0.0
 40
1.149999999999998
  0
CIRCLE
  5
2DF
330
1F
100
AcDbEntity
  8
1
  6
CONTINUOUS
 62
     7
100
AcDbCircle
 10
-372.8571428571429
 20
-67.8530853524409
 30
0.0
 40
1.149999999999998
  0
CIRCLE
  5
2E0
330
1F
100
AcDbEntity
  8
1
  6
CONTINUOUS
 62
     7
100
AcDbCircle
 10
-372.8571428571429
 20
-77.48770073705629
 30
0.0
 40
1.150000000000005
  0
CIRCLE
  5
2E1
330
1F
100
AcDbEntity
  8
1
  6
CONTINUOUS
 62
     7
100
AcDbCircle
 10
-372.8571428571429
 20
-80.69923919859473
 30
0.0
 40
1.149999999999995
  0
CIRCLE
  5
2E2
330
1F
100
AcDbEntity
  8
1
  6
CONTINUOUS
 62
     7
100
AcDbCircle
 10
-369.5714285714286
 20
-19.680008429364
 30
0.0
 40
1.149999999999998
  0
CIRCLE
  5
2E3
330
1F
100
AcDbEntity
  8
1
  6
CONTINUOUS
 62
     7
100
AcDbCircle
 10
-369.5714285714286
 20
-32.52616227551785
 30
0.0
 40
1.149999999999998
  0
CIRCLE
  5
2E4
330
1F
100
AcDbEntity
  8
1
  6
CONTINUOUS
 62
     7
100
AcDbCircle
 10
-376.1428571428572
 20
-80.69923919859473
 30
0.0
 40
1.149999999999995
  0
CIRCLE
  5
2E5
330
1F
100
AcDbEntity
  8
1
  6
CONTINUOUS
 62
     7
100
AcDbCircle
 10
-376.1428571428572
 20
-83.91077766013319
 30
0.0
 40
1.149999999999998
  0
CIRCLE
  5
2E6
330
1F
100
AcDbEntity
  8
1
  6
CONTINUOUS
 62
     7
100
AcDbCircle
 10
-372.8571428571429
 20
-29.31462381397938
 30
0.0
 40
1.149999999999998
  0
CIRCLE
  5
2E7
330
1F
100
AcDbEntity
  8
1
  6
CONTINUOUS
 62
     7
100
AcDbCircle
 10
-372.8571428571429
 20
-32.52616227551785
 30
0.0
 40
1.149999999999998
  0
CIRCLE
  5
2E8
330
1F
100
AcDbEntity
  8
1
  6
CONTINUOUS
 62
     7
100
AcDbCircle
 10
-372.8571428571429
 20
-42.16077766013322
 30
0.0
 40
1.149999999999998
  0
CIRCLE
  5
2E9
330
1F
100
AcDbEntity
  8
1
  6
CONTINUOUS
 62
     7
100
AcDbCircle
 10
-372.8571428571429
 20
-45.37231612167168
 30
0.0
 40
1.149999999999998
  0
CIRCLE
  5
2EA
330
1F
100
AcDbEntity
  8
1
  6
CONTINUOUS
 62
     7
100
AcDbCircle
 10
-372.8571428571429
 20
-48.58385458321014
 30
0.0
 40
1.149999999999998
  0
CIRCLE
  5
2EB
330
1F
100
AcDbEntity
  8
1
  6
CONTINUOUS
 62
     7
100
AcDbCircle
 10
-372.8571428571429
 20
-51.7953930447486
 30
0.0
 40
1.149999999999998
  0
CIRCLE
  5
2EC
330
1F
100
AcDbEntity
  8
1
  6
CONTINUOUS
 62
     7
100
AcDbCircle
 10
-359.7142857142858
 20
-13.25693150628708
 30
0.0
 40
1.149999999999998
  0
CIRCLE
  5
2ED
330
1F
100
AcDbEntity
  8
1
  6
CONTINUOUS
 62
     7
100
AcDbCircle
 10
-356.4285714285714
 20
-96.75693150628705
 30
0.0
 40
1.150000000000005
  0
CIRCLE
  5
2EE
330
1F
100
AcDbEntity
  8
1
  6
CONTINUOUS
 62
     7
100
AcDbCircle
 10
-356.4285714285714
 20
-93.54539304474856
 30
0.0
 40
1.149999999999998
  0
CIRCLE
  5
2EF
330
1F
100
AcDbEntity
  8
1
  6
CONTINUOUS
 62
     7
100
AcDbCircle
 10
-356.4285714285714
 20
-90.33385458321011
 30
0.0
 40
1.149999999999995
  0
CIRCLE
  5
2F0
330
1F
100
AcDbEntity
  8
1
  6
CONTINUOUS
 62
     7
100
AcDbCircle
 10
-359.7142857142858
 20
-16.46846996782554
 30
0.0
 40
1.149999999999998
  0
CIRCLE
  5
2F1
330
1F
100
AcDbEntity
  8
1
  6
CONTINUOUS
 62
     7
100
AcDbCircle
 10
-359.7142857142858
 20
-19.680008429364
 30
0.0
 40
1.149999999999998
  0
CIRCLE
  5
2F2
330
1F
100
AcDbEntity
  8
1
  6
CONTINUOUS
 62
     7
100
AcDbCircle
 10
-359.7142857142858
 20
-22.89154689090246
 30
0.0
 40
1.149999999999998
  0
CIRCLE
  5
2F3
330
1F
100
AcDbEntity
  8
1
  6
CONTINUOUS
 62
     7
100
AcDbCircle
 10
-359.7142857142858
 20
-26.10308535244092
 30
0.0
 40
1.149999999999998
  0
CIRCLE
  5
2F4
330
1F
100
AcDbEntity
  8
1
  6
CONTINUOUS
 62
     7
100
AcDbCircle
 10
-356.4285714285714
 20
-87.12231612167166
 30
0.0
 40
1.149999999999998
  0
CIRCLE
  5
2F5
330
1F
100
AcDbEntity
  8
1
  6
CONTINUOUS
 62
     7
100
AcDbCircle
 10
-356.4285714285714
 20
-83.9107776601332
 30
0.0
 40
1.149999999999998
  0
CIRCLE
  5
2F6
330
1F
100
AcDbEntity
  8
1
  6
CONTINUOUS
 62
     7
100
AcDbCircle
 10
-356.4285714285714
 20
-80.69923919859474
 30
0.0
 40
1.149999999999995
  0
CIRCLE
  5
2F7
330
1F
100
AcDbEntity
  8
1
  6
CONTINUOUS
 62
     7
100
AcDbCircle
 10
-356.4285714285714
 20
-77.48770073705629
 30
0.0
 40
1.150000000000005
  0
CIRCLE
  5
2F8
330
1F
100
AcDbEntity
  8
1
  6
CONTINUOUS
 62
     7
100
AcDbCircle
 10
-356.4285714285714
 20
-32.52616227551785
 30
0.0
 40
1.149999999999998
  0
CIRCLE
  5
2F9
330
1F
100
AcDbEntity
  8
1
  6
CONTINUOUS
 62
     7
100
AcDbCircle
 10
-356.4285714285714
 20
-29.31462381397938
 30
0.0
 40
1.149999999999998
  0
CIRCLE
  5
2FA
330
1F
100
AcDbEntity
  8
1
  6
CONTINUOUS
 62
     7
100
AcDbCircle
 10
-356.4285714285714
 20
-26.10308535244092
 30
0.0
 40
1.149999999999998
  0
CIRCLE
  5
2FB
330
1F
100
AcDbEntity
  8
1
  6
CONTINUOUS
 62
     7
100
AcDbCircle
 10
-356.4285714285714
 20
-22.89154689090246
 30
0.0
 40
1.149999999999998
  0
CIRCLE
  5
2FC
330
1F
100
AcDbEntity
  8
1
  6
CONTINUOUS
 62
     7
100
AcDbCircle
 10
-363.0000000000001
 20
-93.54539304474856
 30
0.0
 40
1.149999999999998
  0
CIRCLE
  5
2FD
330
1F
100
AcDbEntity
  8
1
  6
CONTINUOUS
 62
     7
100
AcDbCircle
 10
-363.0000000000001
 20
-90.33385458321011
 30
0.0
 40
1.149999999999995
  0
CIRCLE
  5
2FE
330
1F
100
AcDbEntity
  8
1
  6
CONTINUOUS
 62
     7
100
AcDbCircle
 10
-363.0000000000001
 20
-87.12231612167166
 30
0.0
 40
1.149999999999998
  0
CIRCLE
  5
2FF
330
1F
100
AcDbEntity
  8
1
  6
CONTINUOUS
 62
     7
100
AcDbCircle
 10
-363.0000000000001
 20
-83.9107776601332
 30
0.0
 40
1.149999999999998
  0
CIRCLE
  5
300
330
1F
100
AcDbEntity
  8
1
  6
CONTINUOUS
 62
     7
100
AcDbCircle
 10
-363.0000000000001
 20
-26.10308535244092
 30
0.0
 40
1.149999999999998
  0
CIRCLE
  5
301
330
1F
100
AcDbEntity
  8
1
  6
CONTINUOUS
 62
     7
100
AcDbCircle
 10
-363.0000000000001
 20
-22.89154689090246
 30
0.0
 40
1.149999999999998
  0
CIRCLE
  5
302
330
1F
100
AcDbEntity
  8
1
  6
CONTINUOUS
 62
     7
100
AcDbCircle
 10
-363.0000000000001
 20
-19.680008429364
 30
0.0
 40
1.149999999999998
  0
CIRCLE
  5
303
330
1F
100
AcDbEntity
  8
1
  6
CONTINUOUS
 62
     7
100
AcDbCircle
 10
-363.0000000000001
 20
-16.46846996782554
 30
0.0
 40
1.149999999999998
  0
CIRCLE
  5
304
330
1F
100
AcDbEntity
  8
1
  6
CONTINUOUS
 62
     7
100
AcDbCircle
 10
-359.7142857142858
 20
-29.31462381397938
 30
0.0
 40
1.149999999999998
  0
CIRCLE
  5
305
330
1F
100
AcDbEntity
  8
1
  6
CONTINUOUS
 62
     7
100
AcDbCircle
 10
-359.7142857142858
 20
-80.69923919859474
 30
0.0
 40
1.149999999999995
  0
CIRCLE
  5
306
330
1F
100
AcDbEntity
  8
1
  6
CONTINUOUS
 62
     7
100
AcDbCircle
 10
-359.7142857142858
 20
-83.9107776601332
 30
0.0
 40
1.149999999999998
  0
CIRCLE
  5
307
330
1F
100
AcDbEntity
  8
1
  6
CONTINUOUS
 62
     7
100
AcDbCircle
 10
-359.7142857142858
 20
-87.12231612167166
 30
0.0
 40
1.149999999999998
  0
CIRCLE
  5
308
330
1F
100
AcDbEntity
  8
1
  6
CONTINUOUS
 62
     7
100
AcDbCircle
 10
-359.7142857142858
 20
-96.75693150628705
 30
0.0
 40
1.150000000000005
  0
CIRCLE
  5
309
330
1F
100
AcDbEntity
  8
1
  6
CONTINUOUS
 62
     7
100
AcDbCircle
 10
-359.7142857142858
 20
-93.54539304474856
 30
0.0
 40
1.149999999999998
  0
CIRCLE
  5
30A
330
1F
100
AcDbEntity
  8
1
  6
CONTINUOUS
 62
     7
100
AcDbCircle
 10
-359.7142857142858
 20
-90.33385458321011
 30
0.0
 40
1.149999999999995
  0
CIRCLE
  5
30B
330
1F
100
AcDbEntity
  8
1
  6
CONTINUOUS
 62
     7
100
AcDbCircle
 10
-349.8571428571428
 20
-29.31462381397938
 30
0.0
 40
1.149999999999998
  0
CIRCLE
  5
30C
330
1F
100
AcDbEntity
  8
1
  6
CONTINUOUS
 62
     7
100
AcDbCircle
 10
-349.8571428571428
 20
-80.69923919859474
 30
0.0
 40
1.149999999999995
  0
CIRCLE
  5
30D
330
1F
100
AcDbEntity
  8
1
  6
CONTINUOUS
 62
     7
100
AcDbCircle
 10
-349.8571428571428
 20
-83.9107776601332
 30
0.0
 40
1.149999999999998
  0
CIRCLE
  5
30E
330
1F
100
AcDbEntity
  8
1
  6
CONTINUOUS
 62
     7
100
AcDbCircle
 10
-349.8571428571428
 20
-87.12231612167166
 30
0.0
 40
1.149999999999998
  0
CIRCLE
  5
30F
330
1F
100
AcDbEntity
  8
1
  6
CONTINUOUS
 62
     7
100
AcDbCircle
 10
-353.1428571428572
 20
-13.25693150628708
 30
0.0
 40
1.149999999999998
  0
CIRCLE
  5
310
330
1F
100
AcDbEntity
  8
1
  6
CONTINUOUS
 62
     7
100
AcDbCircle
 10
-349.8571428571428
 20
-96.75693150628705
 30
0.0
 40
1.150000000000002
  0
CIRCLE
  5
311
330
1F
100
AcDbEntity
  8
1
  6
CONTINUOUS
 62
     7
100
AcDbCircle
 10
-349.8571428571428
 20
-93.54539304474858
 30
0.0
 40
1.150000000000002
  0
CIRCLE
  5
312
330
1F
100
AcDbEntity
  8
1
  6
CONTINUOUS
 62
     7
100
AcDbCircle
 10
-349.8571428571428
 20
-90.33385458321013
 30
0.0
 40
1.149999999999998
  0
CIRCLE
  5
313
330
1F
100
AcDbEntity
  8
1
  6
CONTINUOUS
 62
     7
100
AcDbCircle
 10
-349.8571428571428
 20
-13.25693150628708
 30
0.0
 40
1.149999999999998
  0
CIRCLE
  5
314
330
1F
100
AcDbEntity
  8
1
  6
CONTINUOUS
 62
     7
100
AcDbCircle
 10
-346.5714285714286
 20
-87.12231612167166
 30
0.0
 40
1.149999999999998
  0
CIRCLE
  5
315
330
1F
100
AcDbEntity
  8
1
  6
CONTINUOUS
 62
     7
100
AcDbCircle
 10
-349.8571428571428
 20
-16.46846996782554
 30
0.0
 40
1.149999999999998
  0
CIRCLE
  5
316
330
1F
100
AcDbEntity
  8
1
  6
CONTINUOUS
 62
     7
100
AcDbCircle
 10
-349.8571428571428
 20
-19.680008429364
 30
0.0
 40
1.149999999999998
  0
CIRCLE
  5
317
330
1F
100
AcDbEntity
  8
1
  6
CONTINUOUS
 62
     7
100
AcDbCircle
 10
-349.8571428571428
 20
-22.89154689090246
 30
0.0
 40
1.149999999999998
  0
CIRCLE
  5
318
330
1F
100
AcDbEntity
  8
1
  6
CONTINUOUS
 62
     7
100
AcDbCircle
 10
-349.8571428571428
 20
-26.10308535244092
 30
0.0
 40
1.149999999999998
  0
CIRCLE
  5
319
330
1F
100
AcDbEntity
  8
1
  6
CONTINUOUS
 62
     7
100
AcDbCircle
 10
-353.1428571428572
 20
-83.9107776601332
 30
0.0
 40
1.149999999999998
  0
CIRCLE
  5
31A
330
1F
100
AcDbEntity
  8
1
  6
CONTINUOUS
 62
     7
100
AcDbCircle
 10
-353.1428571428572
 20
-87.12231612167166
 30
0.0
 40
1.149999999999998
  0
CIRCLE
  5
31B
330
1F
100
AcDbEntity
  8
1
  6
CONTINUOUS
 62
     7
100
AcDbCircle
 10
-353.1428571428572
 20
-90.33385458321013
 30
0.0
 40
1.149999999999998
  0
CIRCLE
  5
31C
330
1F
100
AcDbEntity
  8
1
  6
CONTINUOUS
 62
     7
100
AcDbCircle
 10
-353.1428571428572
 20
-93.54539304474858
 30
0.0
 40
1.150000000000002
  0
CIRCLE
  5
31D
330
1F
100
AcDbEntity
  8
1
  6
CONTINUOUS
 62
     7
100
AcDbCircle
 10
-356.4285714285714
 20
-19.680008429364
 30
0.0
 40
1.149999999999998
  0
CIRCLE
  5
31E
330
1F
100
AcDbEntity
  8
1
  6
CONTINUOUS
 62
     7
100
AcDbCircle
 10
-356.4285714285714
 20
-16.46846996782554
 30
0.0
 40
1.149999999999998
  0
CIRCLE
  5
31F
330
1F
100
AcDbEntity
  8
1
  6
CONTINUOUS
 62
     7
100
AcDbCircle
 10
-356.4285714285714
 20
-13.25693150628708
 30
0.0
 40
1.149999999999998
  0
CIRCLE
  5
320
330
1F
100
AcDbEntity
  8
1
  6
CONTINUOUS
 62
     7
100
AcDbCircle
 10
-353.1428571428572
 20
-96.75693150628705
 30
0.0
 40
1.150000000000002
  0
CIRCLE
  5
321
330
1F
100
AcDbEntity
  8
1
  6
CONTINUOUS
 62
     7
100
AcDbCircle
 10
-353.1428571428572
 20
-80.69923919859474
 30
0.0
 40
1.149999999999995
  0
CIRCLE
  5
322
330
1F
100
AcDbEntity
  8
1
  6
CONTINUOUS
 62
     7
100
AcDbCircle
 10
-353.1428571428572
 20
-77.48770073705629
 30
0.0
 40
1.150000000000005
  0
CIRCLE
  5
323
330
1F
100
AcDbEntity
  8
1
  6
CONTINUOUS
 62
     7
100
AcDbCircle
 10
-353.1428571428572
 20
-32.52616227551785
 30
0.0
 40
1.149999999999998
  0
CIRCLE
  5
324
330
1F
100
AcDbEntity
  8
1
  6
CONTINUOUS
 62
     7
100
AcDbCircle
 10
-353.1428571428572
 20
-29.31462381397938
 30
0.0
 40
1.149999999999998
  0
CIRCLE
  5
325
330
1F
100
AcDbEntity
  8
1
  6
CONTINUOUS
 62
     7
100
AcDbCircle
 10
-353.1428571428572
 20
-26.10308535244092
 30
0.0
 40
1.149999999999998
  0
CIRCLE
  5
326
330
1F
100
AcDbEntity
  8
1
  6
CONTINUOUS
 62
     7
100
AcDbCircle
 10
-353.1428571428572
 20
-22.89154689090246
 30
0.0
 40
1.149999999999998
  0
CIRCLE
  5
327
330
1F
100
AcDbEntity
  8
1
  6
CONTINUOUS
 62
     7
100
AcDbCircle
 10
-353.1428571428572
 20
-19.680008429364
 30
0.0
 40
1.149999999999998
  0
CIRCLE
  5
328
330
1F
100
AcDbEntity
  8
1
  6
CONTINUOUS
 62
     7
100
AcDbCircle
 10
-353.1428571428572
 20
-16.46846996782554
 30
0.0
 40
1.149999999999998
  0
CIRCLE
  5
329
330
1F
100
AcDbEntity
  8
1
  6
CONTINUOUS
 62
     7
100
AcDbCircle
 10
-333.4285714285714
 20
-29.31462381397938
 30
0.0
 40
1.149999999999998
  0
CIRCLE
  5
32A
330
1F
100
AcDbEntity
  8
1
  6
CONTINUOUS
 62
     7
100
AcDbCircle
 10
-333.4285714285714
 20
-83.9107776601332
 30
0.0
 40
1.149999999999998
  0
CIRCLE
  5
32B
330
1F
100
AcDbEntity
  8
1
  6
CONTINUOUS
 62
     7
100
AcDbCircle
 10
-330.1428571428572
 20
-13.25693150628708
 30
0.0
 40
1.149999999999998
  0
CIRCLE
  5
32C
330
1F
100
AcDbEntity
  8
1
  6
CONTINUOUS
 62
     7
100
AcDbCircle
 10
-333.4285714285714
 20
-13.25693150628708
 30
0.0
 40
1.149999999999998
  0
CIRCLE
  5
32D
330
1F
100
AcDbEntity
  8
1
  6
CONTINUOUS
 62
     7
100
AcDbCircle
 10
-313.7142857142857
 20
-90.33385458321013
 30
0.0
 40
1.150000000000002
  0
CIRCLE
  5
32E
330
1F
100
AcDbEntity
  8
1
  6
CONTINUOUS
 62
     7
100
AcDbCircle
 10
-333.4285714285714
 20
-16.46846996782554
 30
0.0
 40
1.149999999999998
  0
CIRCLE
  5
32F
330
1F
100
AcDbEntity
  8
1
  6
CONTINUOUS
 62
     7
100
AcDbCircle
 10
-333.4285714285714
 20
-22.89154689090246
 30
0.0
 40
1.149999999999998
  0
CIRCLE
  5
330
330
1F
100
AcDbEntity
  8
1
  6
CONTINUOUS
 62
     7
100
AcDbCircle
 10
-330.1428571428572
 20
-93.54539304474858
 30
0.0
 40
1.150000000000002
  0
CIRCLE
  5
331
330
1F
100
AcDbEntity
  8
1
  6
CONTINUOUS
 62
     7
100
AcDbCircle
 10
-326.8571428571428
 20
-13.25693150628708
 30
0.0
 40
1.149999999999998
  0
CIRCLE
  5
332
330
1F
100
AcDbEntity
  8
1
  6
CONTINUOUS
 62
     7
100
AcDbCircle
 10
-326.8571428571428
 20
-19.680008429364
 30
0.0
 40
1.149999999999998
  0
CIRCLE
  5
333
330
1F
100
AcDbEntity
  8
1
  6
CONTINUOUS
 62
     7
100
AcDbCircle
 10
-326.8571428571428
 20
-26.10308535244092
 30
0.0
 40
1.149999999999998
  0
CIRCLE
  5
334
330
1F
100
AcDbEntity
  8
1
  6
CONTINUOUS
 62
     7
100
AcDbCircle
 10
-330.1428571428572
 20
-90.33385458321013
 30
0.0
 40
1.149999999999998
  0
CIRCLE
  5
335
330
1F
100
AcDbEntity
  8
1
  6
CONTINUOUS
 62
     7
100
AcDbCircle
 10
-330.1428571428572
 20
-83.9107776601332
 30
0.0
 40
1.149999999999998
  0
CIRCLE
  5
336
330
1F
100
AcDbEntity
  8
1
  6
CONTINUOUS
 62
     7
100
AcDbCircle
 10
-330.1428571428572
 20
-29.31462381397938
 30
0.0
 40
1.149999999999998
  0
CIRCLE
  5
337
330
1F
100
AcDbEntity
  8
1
  6
CONTINUOUS
 62
     7
100
AcDbCircle
 10
-330.1428571428572
 20
-22.89154689090246
 30
0.0
 40
1.149999999999998
  0
CIRCLE
  5
338
330
1F
100
AcDbEntity
  8
1
  6
CONTINUOUS
 62
     7
100
AcDbCircle
 10
-310.4285714285714
 20
-42.16077766013322
 30
0.0
 40
1.149999999999998
  0
CIRCLE
  5
339
330
1F
100
AcDbEntity
  8
1
  6
CONTINUOUS
 62
     7
100
AcDbCircle
 10
-310.4285714285714
 20
-19.680008429364
 30
0.0
 40
1.149999999999998
  0
CIRCLE
  5
33A
330
1F
100
AcDbEntity
  8
1
  6
CONTINUOUS
 62
     7
100
AcDbCircle
 10
-310.4285714285714
 20
-45.37231612167168
 30
0.0
 40
1.149999999999998
  0
CIRCLE
  5
33B
330
1F
100
AcDbEntity
  8
1
  6
CONTINUOUS
 62
     7
100
AcDbCircle
 10
-310.4285714285714
 20
-51.7953930447486
 30
0.0
 40
1.149999999999998
  0
CIRCLE
  5
33C
330
1F
100
AcDbEntity
  8
1
  6
CONTINUOUS
 62
     7
100
AcDbCircle
 10
-307.1428571428572
 20
-77.48770073705629
 30
0.0
 40
1.150000000000005
  0
CIRCLE
  5
33D
330
1F
100
AcDbEntity
  8
1
  6
CONTINUOUS
 62
     7
100
AcDbCircle
 10
-307.1428571428572
 20
-64.64154689090245
 30
0.0
 40
1.149999999999998
  0
CIRCLE
  5
33E
330
1F
100
AcDbEntity
  8
1
  6
CONTINUOUS
 62
     7
100
AcDbCircle
 10
-307.1428571428572
 20
-58.21846996782552
 30
0.0
 40
1.149999999999998
  0
CIRCLE
  5
33F
330
1F
100
AcDbEntity
  8
1
  6
CONTINUOUS
 62
     7
100
AcDbCircle
 10
-307.1428571428572
 20
-48.58385458321014
 30
0.0
 40
1.149999999999998
  0
CIRCLE
  5
340
330
1F
100
AcDbEntity
  8
1
  6
CONTINUOUS
 62
     7
100
AcDbCircle
 10
-313.7142857142857
 20
-74.2761622755178
 30
0.0
 40
1.149999999999991
  0
CIRCLE
  5
341
330
1F
100
AcDbEntity
  8
1
  6
CONTINUOUS
 62
     7
100
AcDbCircle
 10
-313.7142857142857
 20
-61.43000842936398
 30
0.0
 40
1.149999999999998
  0
CIRCLE
  5
342
330
1F
100
AcDbEntity
  8
1
  6
CONTINUOUS
 62
     7
100
AcDbCircle
 10
-313.7142857142857
 20
-51.7953930447486
 30
0.0
 40
1.149999999999998
  0
CIRCLE
  5
343
330
1F
100
AcDbEntity
  8
1
  6
CONTINUOUS
 62
     7
100
AcDbCircle
 10
-313.7142857142857
 20
-45.37231612167168
 30
0.0
 40
1.149999999999998
  0
CIRCLE
  5
344
330
1F
100
AcDbEntity
  8
1
  6
CONTINUOUS
 62
     7
100
AcDbCircle
 10
-310.4285714285714
 20
-61.43000842936398
 30
0.0
 40
1.149999999999998
  0
CIRCLE
  5
345
330
1F
100
AcDbEntity
  8
1
  6
CONTINUOUS
 62
     7
100
AcDbCircle
 10
-310.4285714285714
 20
-67.8530853524409
 30
0.0
 40
1.149999999999998
  0
CIRCLE
  5
346
330
1F
100
AcDbEntity
  8
1
  6
CONTINUOUS
 62
     7
100
AcDbCircle
 10
-313.7142857142857
 20
-22.89154689090246
 30
0.0
 40
1.149999999999998
  0
CIRCLE
  5
347
330
1F
100
AcDbEntity
  8
1
  6
CONTINUOUS
 62
     7
100
AcDbCircle
 10
-313.7142857142857
 20
-16.46846996782554
 30
0.0
 40
1.149999999999998
  0
CIRCLE
  5
348
330
1F
100
AcDbEntity
  8
1
  6
CONTINUOUS
 62
     7
100
AcDbCircle
 10
-382.7142857142857
 20
-45.37231612167168
 30
0.0
 40
1.149999999999998
  0
CIRCLE
  5
349
330
1F
100
AcDbEntity
  8
1
  6
CONTINUOUS
 62
     7
100
AcDbCircle
 10
-382.7142857142857
 20
-42.16077766013322
 30
0.0
 40
1.149999999999998
  0
CIRCLE
  5
34A
330
1F
100
AcDbEntity
  8
1
  6
CONTINUOUS
 62
     7
100
AcDbCircle
 10
-382.7142857142857
 20
-38.94923919859476
 30
0.0
 40
1.149999999999998
  0
CIRCLE
  5
34B
330
1F
100
AcDbEntity
  8
1
  6
CONTINUOUS
 62
     7
100
AcDbCircle
 10
-382.7142857142857
 20
-35.7377007370563
 30
0.0
 40
1.150000000000012
  0
CIRCLE
  5
34C
330
1F
100
AcDbEntity
  8
1
  6
CONTINUOUS
 62
     7
100
AcDbCircle
 10
-317.0
 20
-93.54539304474858
 30
0.0
 40
1.150000000000002
  0
CIRCLE
  5
34D
330
1F
100
AcDbEntity
  8
1
  6
CONTINUOUS
 62
     7
100
AcDbCircle
 10
-317.0
 20
-87.12231612167166
 30
0.0
 40
1.149999999999998
  0
CIRCLE
  5
34E
330
1F
100
AcDbEntity
  8
1
  6
CONTINUOUS
 62
     7
100
AcDbCircle
 10
-320.2857142857143
 20
-96.75693150628705
 30
0.0
 40
1.149999999999998
  0
CIRCLE
  5
34F
330
1F
100
AcDbEntity
  8
1
  6
CONTINUOUS
 62
     7
100
AcDbCircle
 10
-317.0
 20
-19.680008429364
 30
0.0
 40
1.149999999999998
  0
CIRCLE
  5
350
330
1F
100
AcDbEntity
  8
1
  6
CONTINUOUS
 62
     7
100
AcDbCircle
 10
-317.0
 20
-26.10308535244092
 30
0.0
 40
1.149999999999998
  0
CIRCLE
  5
351
330
1F
100
AcDbEntity
  8
1
  6
CONTINUOUS
 62
     7
100
AcDbCircle
 10
-382.7142857142857
 20
-48.58385458321014
 30
0.0
 40
1.149999999999998
  0
CIRCLE
  5
352
330
1F
100
AcDbEntity
  8
1
  6
CONTINUOUS
 62
     7
100
AcDbCircle
 10
-382.7142857142857
 20
-51.7953930447486
 30
0.0
 40
1.149999999999998
  0
CIRCLE
  5
353
330
1F
100
AcDbEntity
  8
1
  6
CONTINUOUS
 62
     7
100
AcDbCircle
 10
-382.7142857142857
 20
-58.21846996782552
 30
0.0
 40
1.149999999999998
  0
CIRCLE
  5
354
330
1F
100
AcDbEntity
  8
1
  6
CONTINUOUS
 62
     7
100
AcDbCircle
 10
-382.7142857142857
 20
-61.43000842936398
 30
0.0
 40
1.149999999999998
  0
CIRCLE
  5
355
330
1F
100
AcDbEntity
  8
1
  6
CONTINUOUS
 62
     7
100
AcDbCircle
 10
-382.7142857142857
 20
-64.64154689090245
 30
0.0
 40
1.149999999999998
  0
CIRCLE
  5
356
330
1F
100
AcDbEntity
  8
1
  6
CONTINUOUS
 62
     7
100
AcDbCircle
 10
-382.7142857142857
 20
-67.8530853524409
 30
0.0
 40
1.149999999999998
  0
CIRCLE
  5
357
330
1F
100
AcDbEntity
  8
1
  6
CONTINUOUS
 62
     7
100
AcDbCircle
 10
-382.7142857142857
 20
-71.06462381397937
 30
0.0
 40
1.149999999999998
  0
CIRCLE
  5
358
330
1F
100
AcDbEntity
  8
1
  6
CONTINUOUS
 62
     7
100
AcDbCircle
 10
-382.7142857142857
 20
-74.2761622755178
 30
0.0
 40
1.149999999999988
  0
CIRCLE
  5
359
330
1F
100
AcDbEntity
  8
1
  6
CONTINUOUS
 62
     7
100
AcDbCircle
 10
-379.4285714285714
 20
-35.7377007370563
 30
0.0
 40
1.150000000000012
  0
CIRCLE
  5
35A
330
1F
100
AcDbEntity
  8
1
  6
CONTINUOUS
 62
     7
100
AcDbCircle
 10
-379.4285714285714
 20
-38.94923919859476
 30
0.0
 40
1.149999999999998
  0
CIRCLE
  5
35B
330
1F
100
AcDbEntity
  8
1
  6
CONTINUOUS
 62
     7
100
AcDbCircle
 10
-379.4285714285714
 20
-42.16077766013322
 30
0.0
 40
1.149999999999998
  0
CIRCLE
  5
35C
330
1F
100
AcDbEntity
  8
1
  6
CONTINUOUS
 62
     7
100
AcDbCircle
 10
-379.4285714285714
 20
-45.37231612167168
 30
0.0
 40
1.149999999999998
  0
CIRCLE
  5
35D
330
1F
100
AcDbEntity
  8
1
  6
CONTINUOUS
 62
     7
100
AcDbCircle
 10
-379.4285714285714
 20
-48.58385458321014
 30
0.0
 40
1.149999999999998
  0
CIRCLE
  5
35E
330
1F
100
AcDbEntity
  8
1
  6
CONTINUOUS
 62
     7
100
AcDbCircle
 10
-379.4285714285714
 20
-51.7953930447486
 30
0.0
 40
1.149999999999998
  0
CIRCLE
  5
35F
330
1F
100
AcDbEntity
  8
1
  6
CONTINUOUS
 62
     7
100
AcDbCircle
 10
-379.4285714285714
 20
-58.21846996782552
 30
0.0
 40
1.149999999999998
  0
CIRCLE
  5
360
330
1F
100
AcDbEntity
  8
1
  6
CONTINUOUS
 62
     7
100
AcDbCircle
 10
-379.4285714285714
 20
-61.43000842936398
 30
0.0
 40
1.149999999999998
  0
CIRCLE
  5
361
330
1F
100
AcDbEntity
  8
1
  6
CONTINUOUS
 62
     7
100
AcDbCircle
 10
-326.8571428571428
 20
-32.52616227551785
 30
0.0
 40
1.149999999999998
  0
CIRCLE
  5
362
330
1F
100
AcDbEntity
  8
1
  6
CONTINUOUS
 62
     7
100
AcDbCircle
 10
-326.8571428571429
 20
-80.69923919859474
 30
0.0
 40
1.149999999999995
  0
CIRCLE
  5
363
330
1F
100
AcDbEntity
  8
1
  6
CONTINUOUS
 62
     7
100
AcDbCircle
 10
-326.8571428571429
 20
-87.12231612167166
 30
0.0
 40
1.149999999999998
  0
CIRCLE
  5
364
330
1F
100
AcDbEntity
  8
1
  6
CONTINUOUS
 62
     7
100
AcDbCircle
 10
-326.8571428571429
 20
-93.54539304474858
 30
0.0
 40
1.150000000000002
  0
CIRCLE
  5
365
330
1F
100
AcDbEntity
  8
1
  6
CONTINUOUS
 62
     7
100
AcDbCircle
 10
-323.5714285714286
 20
-13.25693150628708
 30
0.0
 40
1.149999999999998
  0
CIRCLE
  5
366
330
1F
100
AcDbEntity
  8
1
  6
CONTINUOUS
 62
     7
100
AcDbCircle
 10
-323.5714285714286
 20
-19.680008429364
 30
0.0
 40
1.149999999999998
  0
CIRCLE
  5
367
330
1F
100
AcDbEntity
  8
1
  6
CONTINUOUS
 62
     7
100
AcDbCircle
 10
-323.5714285714286
 20
-26.10308535244092
 30
0.0
 40
1.149999999999998
  0
CIRCLE
  5
368
330
1F
100
AcDbEntity
  8
1
  6
CONTINUOUS
 62
     7
100
AcDbCircle
 10
-323.5714285714286
 20
-32.52616227551785
 30
0.0
 40
1.149999999999998
  0
CIRCLE
  5
369
330
1F
100
AcDbEntity
  8
1
  6
CONTINUOUS
 62
     7
100
AcDbCircle
 10
-320.2857142857143
 20
-90.33385458321013
 30
0.0
 40
1.150000000000002
  0
CIRCLE
  5
36A
330
1F
100
AcDbEntity
  8
1
  6
CONTINUOUS
 62
     7
100
AcDbCircle
 10
-320.2857142857143
 20
-83.9107776601332
 30
0.0
 40
1.149999999999998
  0
CIRCLE
  5
36B
330
1F
100
AcDbEntity
  8
1
  6
CONTINUOUS
 62
     7
100
AcDbCircle
 10
-320.2857142857143
 20
-29.31462381397938
 30
0.0
 40
1.149999999999998
  0
CIRCLE
  5
36C
330
1F
100
AcDbEntity
  8
1
  6
CONTINUOUS
 62
     7
100
AcDbCircle
 10
-320.2857142857143
 20
-22.89154689090246
 30
0.0
 40
1.149999999999998
  0
CIRCLE
  5
36D
330
1F
100
AcDbEntity
  8
1
  6
CONTINUOUS
 62
     7
100
AcDbCircle
 10
-323.5714285714286
 20
-80.69923919859474
 30
0.0
 40
1.149999999999995
  0
CIRCLE
  5
36E
330
1F
100
AcDbEntity
  8
1
  6
CONTINUOUS
 62
     7
100
AcDbCircle
 10
-323.5714285714286
 20
-87.12231612167166
 30
0.0
 40
1.149999999999998
  0
CIRCLE
  5
36F
330
1F
100
AcDbEntity
  8
1
  6
CONTINUOUS
 62
     7
100
AcDbCircle
 10
-323.5714285714286
 20
-93.54539304474858
 30
0.0
 40
1.150000000000002
  0
CIRCLE
  5
370
330
1F
100
AcDbEntity
  8
1
  6
CONTINUOUS
 62
     7
100
AcDbCircle
 10
-320.2857142857143
 20
-13.25693150628708
 30
0.0
 40
1.149999999999998
  0
ARC
  5
371
330
1F
100
AcDbEntity
  8
1
  6
CONTINUOUS
 62
     7
100
AcDbCircle
 10
-333.4285714285714
 20
-90.33385458321013
 30
0.0
 40
1.150000000000001
100
AcDbArc
 50
335.0107227662418
 51
155.1797396177519
  0
ARC
  5
372
330
1F
100
AcDbEntity
  8
1
  6
CONTINUOUS
 62
     7
100
AcDbCircle
 10
-333.43
 20
-90.33693150628704
 30
0.0
 40
1.149999999999983
100
AcDbArc
 50
155.0107227661548
 51
335.1797396178395
  0
CIRCLE
  5
373
330
1F
100
AcDbEntity
  8
1
  6
CONTINUOUS
 62
     7
100
AcDbCircle
 10
-346.5700000000001
 20
-96.76000842936396
 30
0.0
 40
1.150000000000005
  0
ARC
  5
374
330
1F
100
AcDbEntity
  8
1
  6
CONTINUOUS
 62
     7
100
AcDbCircle
 10
-346.5714285714286
 20
-93.54539304474858
 30
0.0
 40
1.149999999999992
100
AcDbArc
 50
24.8202603822073
 51
204.9892772337173
  0
ARC
  5
375
330
1F
100
AcDbEntity
  8
1
  6
CONTINUOUS
 62
     7
100
AcDbCircle
 10
-346.5700000000001
 20
-93.54846996782551
 30
0.0
 40
1.149999999999971
100
AcDbArc
 50
204.8202603821196
 51
24.98927723380496
  0
ARC
  5
376
330
1F
100
AcDbEntity
  8
1
  6
CONTINUOUS
 62
     7
100
AcDbCircle
 10
-346.5714285714286
 20
-90.33385458321013
 30
0.0
 40
1.149999999999975
100
AcDbArc
 50
24.82026038218541
 51
204.9892772337394
  0
ARC
  5
377
330
1F
100
AcDbEntity
  8
1
  6
CONTINUOUS
 62
     7
100
AcDbCircle
 10
-346.5700000000001
 20
-90.33693150628704
 30
0.0
 40
1.149999999999989
100
AcDbArc
 50
204.8202603821413
 51
24.98927723378324
  0
CIRCLE
  5
378
330
1F
100
AcDbEntity
  8
1
  6
CONTINUOUS
 62
     7
100
AcDbCircle
 10
-333.43
 20
-96.76000842936396
 30
0.0
 40
1.150000000000002
  0
CIRCLE
  5
379
330
1F
100
AcDbEntity
  8
1
  6
CONTINUOUS
 62
     7
100
AcDbCircle
 10
-317.0
 20
-13.2569315062871
 30
0.0
 40
1.500000000000001
  0
CIRCLE
  5
37A
330
1F
100
AcDbEntity
  8
1
  6
CONTINUOUS
 62
     7
100
AcDbCircle
 10
-363.0000000000001
 20
-13.2569315062871
 30
0.0
 40
1.500000000000001
  0
CIRCLE
  5
37B
330
1F
100
AcDbEntity
  8
1
  6
CONTINUOUS
 62
     7
100
AcDbCircle
 10
-317.0
 20
-96.75693150628705
 30
0.0
 40
1.495636566104616
  0
CIRCLE
  5
37C
330
1F
100
AcDbEntity
  8
1
  6
CONTINUOUS
 62
     7
100
AcDbCircle
 10
-363.0000000000001
 20
-96.75693150628705
 30
0.0
 40
1.495636566104623
  0
ARC
  5
37D
330
1F
100
AcDbEntity
  8
1
  6
CONTINUOUS
 62
     7
100
AcDbCircle
 10
-340.0
 20
-55.00693150628705
 30
0.0
 40
57.49999999999999
100
AcDbArc
 50
299.5716610843662
 51
299.6120179897616
  0
ARC
  5
37E
330
1F
100
AcDbEntity
  8
1
  6
CONTINUOUS
 62
     7
100
AcDbCircle
 10
-340.0
 20
-55.00693150628705
 30
0.0
 40
57.49999999999999
100
AcDbArc
 50
240.3879820102384
 51
240.4283389156338
  0
CIRCLE
  5
37F
330
1F
100
AcDbEntity
  8
1
  6
CONTINUOUS
 62
     7
100
AcDbCircle
 10
-317.0
 20
-13.25693150628708
 30
0.0
 40
1.097447882367153
  0
CIRCLE
  5
380
330
1F
100
AcDbEntity
  8
1
  6
CONTINUOUS
 62
     7
100
AcDbCircle
 10
-363.0000000000001
 20
-13.25693150628708
 30
0.0
 40
1.097447882367153
  0
CIRCLE
  5
381
330
1F
100
AcDbEntity
  8
1
  6
CONTINUOUS
 62
     7
100
AcDbCircle
 10
-363.0000000000001
 20
-96.75693150628705
 30
0.0
 40
1.097447882367153
  0
CIRCLE
  5
382
330
1F
100
AcDbEntity
  8
1
  6
CONTINUOUS
 62
     7
100
AcDbCircle
 10
-317.0
 20
-96.75693150628706
 30
0.0
 40
1.09744788236716
  0
LINE
  5
383
330
1F
100
AcDbEntity
  8
1
  6
CONTINUOUS
 62
     7
100
AcDbLine
 10
-343.7725631661442
 20
-34.83785328635512
 30
0.0
 11
-343.9276050749975
 21
-33.9196333363662
 31
0.0
  0
LINE
  5
384
330
1F
100
AcDbEntity
  8
1
  6
CONTINUOUS
 62
     7
100
AcDbLine
 10
-344.4275860365295
 20
-33.99237187403379
 30
0.0
 11
-343.9276050749975
 21
-33.9196333363662
 31
0.0
  0
ARC
  5
385
330
1F
100
AcDbEntity
  8
1
  6
CONTINUOUS
 62
     7
100
AcDbCircle
 10
-340.0
 20
-55.00693150628705
 30
0.0
 40
21.47592220716957
100
AcDbArc
 50
101.8977124521607
 51
258.1022875478393
  0
LINE
  5
386
330
1F
100
AcDbEntity
  8
1
  6
CONTINUOUS
 62
     7
100
AcDbLine
 10
-343.9276050749975
 20
-76.09422967620789
 30
0.0
 11
-344.4275860365295
 21
-76.0214911385403
 31
0.0
  0
LINE
  5
387
330
1F
100
AcDbEntity
  8
1
  6
CONTINUOUS
 62
     7
100
AcDbLine
 10
-343.9276050749975
 20
-76.09422967620789
 30
0.0
 11
-343.7725631661443
 21
-75.17600972621898
 31
0.0
  0
LINE
  5
388
330
1F
100
AcDbEntity
  8
1
  6
CONTINUOUS
 62
     7
100
AcDbLine
 10
-336.2274368338557
 20
-75.17600972621898
 30
0.0
 11
-336.0723949250025
 21
-76.09422967620789
 31
0.0
  0
LINE
  5
389
330
1F
100
AcDbEntity
  8
1
  6
CONTINUOUS
 62
     7
100
AcDbLine
 10
-335.5724139634704
 20
-76.0214911385403
 30
0.0
 11
-336.0723949250025
 21
-76.09422967620789
 31
0.0
  0
ARC
  5
38A
330
1F
100
AcDbEntity
  8
1
  6
CONTINUOUS
 62
     7
100
AcDbCircle
 10
-340.0
 20
-55.00693150628705
 30
0.0
 40
21.47592220716959
100
AcDbArc
 50
281.8977124521605
 51
78.1022875478393
  0
LINE
  5
38B
330
1F
100
AcDbEntity
  8
1
  6
CONTINUOUS
 62
     7
100
AcDbLine
 10
-336.0723949250025
 20
-33.9196333363662
 30
0.0
 11
-335.5724139634704
 21
-33.99237187403379
 31
0.0
  0
LINE
  5
38C
330
1F
100
AcDbEntity
  8
1
  6
CONTINUOUS
 62
     7
100
AcDbLine
 10
-336.0723949250025
 20
-33.9196333363662
 30
0.0
 11
-336.2274368338557
 21
-34.83785328635512
 31
0.0
  0
LINE
  5
38D
330
1F
100
AcDbEntity
  8
1
  6
CONTINUOUS
 62
     7
100
AcDbLine
 10
-340.1913344132068
 20
-100.3069315062871
 30
0.0
 11
-339.8086655867932
 21
-100.3069315062871
 31
0.0
  0
LINE
  5
38E
330
1F
100
AcDbEntity
  8
1
  6
CONTINUOUS
 62
     7
100
AcDbLine
 10
-336.2687875279554
 20
-70.07763318147967
 30
0.0
 11
-336.2274368338557
 21
-75.17600972621898
 31
0.0
  0
LINE
  5
38F
330
1F
100
AcDbEntity
  8
1
  6
CONTINUOUS
 62
     7
100
AcDbLine
 10
-343.7312124720446
 20
-39.93622983109442
 30
0.0
 11
-343.7725631661442
 21
-34.83785328635512
 31
0.0
  0
LINE
  5
390
330
1F
100
AcDbEntity
  8
1
  6
CONTINUOUS
 62
     7
100
AcDbLine
 10
-336.2274368338557
 20
-34.83785328635512
 30
0.0
 11
-336.2687875279554
 21
-39.93622983109442
 31
0.0
  0
LINE
  5
391
330
1F
100
AcDbEntity
  8
1
  6
CONTINUOUS
 62
     7
100
AcDbLine
 10
-343.7725631661443
 20
-75.17600972621898
 30
0.0
 11
-343.7312124720446
 21
-70.07763318147967
 31
0.0
  0
ARC
  5
392
330
1F
100
AcDbEntity
  8
1
  6
CONTINUOUS
 62
     7
100
AcDbCircle
 10
-346.7314023680893
 20
-66.12867415283256
 30
0.0
 40
3.000189896284116
100
AcDbArc
 50
0.000723793028726
 51
58.81608835648632
  0
ARC
  5
393
330
1F
100
AcDbEntity
  8
1
  6
CONTINUOUS
 62
     7
100
AcDbCircle
 10
-333.2689186481193
 20
-43.88536980266888
 30
0.0
 40
2.999868879851259
100
AcDbArc
 50
179.9998181761453
 51
238.816636493445
  0
ARC
  5
394
330
1F
100
AcDbEntity
  8
1
  6
CONTINUOUS
 62
     7
100
AcDbCircle
 10
-333.2689186481173
 20
-66.12849320990634
 30
0.0
 40
2.999868879853213
100
AcDbArc
 50
121.1833635065757
 51
180.0001818238334
  0
ARC
  5
395
330
1F
100
AcDbEntity
  8
1
  6
CONTINUOUS
 62
     7
100
AcDbCircle
 10
-346.7314001987172
 20
-43.88519008253927
 30
0.0
 40
3.000187726896789
100
AcDbArc
 50
301.1838882917817
 51
359.9992995587031
  0
LINE
  5
396
330
1F
100
AcDbEntity
  8
1
  6
CONTINUOUS
 62
     7
100
AcDbLine
 10
-343.7312124720446
 20
-43.88522675985477
 30
0.0
 11
-343.7312124720446
 21
-39.93622983109442
 31
0.0
  0
LINE
  5
397
330
1F
100
AcDbEntity
  8
1
  6
CONTINUOUS
 62
     7
100
AcDbLine
 10
-343.7312124720446
 20
-70.07763318147967
 30
0.0
 11
-343.7312124720446
 21
-66.12863625271932
 31
0.0
  0
LINE
  5
398
330
1F
100
AcDbEntity
  8
1
  6
CONTINUOUS
 62
     7
100
AcDbLine
 10
-336.2687875279554
 20
-39.93622983109442
 30
0.0
 11
-336.2687875279554
 21
-43.8853602828102
 31
0.0
  0
LINE
  5
399
330
1F
100
AcDbEntity
  8
1
  6
CONTINUOUS
 62
     7
100
AcDbLine
 10
-336.2687875279554
 20
-66.1285027297639
 30
0.0
 11
-336.2687875279554
 21
-70.07763318147967
 31
0.0
  0
CIRCLE
  5
39A
330
1F
100
AcDbEntity
  8
1
  6
CONTINUOUS
 62
     7
100
AcDbCircle
 10
-340.0
 20
-55.00693150628695
 30
0.0
 40
10.0
  0
LINE
  5
39B
330
1F
100
AcDbEntity
  8
1
  6
CONTINUOUS
 62
     7
100
AcDbLine
 10
-329.5
 20
-46.70693150628703
 30
0.0
 11
-329.5
 21
-62.70693150628706
 31
0.0
  0
LINE
  5
39C
330
1F
100
AcDbEntity
  8
1
  6
CONTINUOUS
 62
     7
100
AcDbLine
 10
-359.0056632256914
 20
-65.00693150628706
 30
0.0
 11
-343.9493899384568
 21
-65.00693150628706
 31
0.0
  0
LINE
  5
39D
330
1F
100
AcDbEntity
  8
1
  6
CONTINUOUS
 62
     7
100
AcDbLine
 10
-336.050969171448
 20
-65.00693150628706
 30
0.0
 11
-329.5
 21
-65.00693150628706
 31
0.0
  0
LINE
  5
39E
330
1F
100
AcDbEntity
  8
1
  6
CONTINUOUS
 62
     7
100
AcDbLine
 10
-329.5
 20
-62.70693150628706
 30
0.0
 11
-329.5
 21
-65.00693150628706
 31
0.0
  0
LINE
  5
39F
330
1F
100
AcDbEntity
  8
1
  6
CONTINUOUS
 62
     7
100
AcDbLine
 10
-359.0056632256914
 20
-45.00693150628705
 30
0.0
 11
-343.9490771868408
 21
-45.00693150628705
 31
0.0
  0
LINE
  5
3A0
330
1F
100
AcDbEntity
  8
1
  6
CONTINUOUS
 62
     7
100
AcDbLine
 10
-336.0506559282471
 20
-45.00693150628704
 30
0.0
 11
-329.5
 21
-45.00693150628704
 31
0.0
  0
LINE
  5
3A1
330
1F
100
AcDbEntity
  8
1
  6
CONTINUOUS
 62
     7
100
AcDbLine
 10
-329.5
 20
-45.00693150628705
 30
0.0
 11
-329.5
 21
-46.70693150628703
 31
0.0
  0
ARC
  5
3A2
330
1F
100
AcDbEntity
  8
1
  6
CONTINUOUS
 62
     7
100
AcDbCircle
 10
-352.3070441552829
 20
-65.22851175711469
 30
0.0
 40
0.316900253003485
100
AcDbArc
 50
345.6728134745834
 51
43.97807683237659
  0
LINE
  5
3A3
330
1F
100
AcDbEntity
  8
1
  6
CONTINUOUS
 62
     7
100
AcDbLine
 10
-352.0790009757503
 20
-65.00846158414886
 30
0.0
 11
-352.1
 21
-65.00693150628706
 31
0.0
  0
ARC
  5
3A4
330
1F
100
AcDbEntity
  8
1
  6
CONTINUOUS
 62
     7
100
AcDbCircle
 10
-352.1865725012885
 20
-44.82446050896785
 30
0.0
 40
0.201966489403608
100
AcDbArc
 50
295.3817798202982
 51
22.52032019659464
  0
LWPOLYLINE
  5
3A5
330
1F
100
AcDbEntity
  8
1
  6
CONTINUOUS
 62
     7
100
AcDbPolyline
 90
        3
 70
     0
 43
0.0
 10
-352.0000072181699
 20
-44.7471051085302
 10
-352.0000000007344
 20
-44.7203943635213
 10
-352.0
 20
-44.70693150628704
  0
LINE
  5
3A6
330
1F
100
AcDbEntity
  8
1
  6
CONTINUOUS
 62
     7
100
AcDbLine
 10
-329.5
 20
-45.00693150628705
 30
0.0
 11
-329.5
 21
-44.70693150628704
 31
0.0
  0
LINE
  5
3A7
330
1F
100
AcDbEntity
  8
1
  6
CONTINUOUS
 62
     7
100
AcDbLine
 10
-329.5
 20
-65.30693150628706
 30
0.0
 11
-329.5
 21
-65.00693150628706
 31
0.0
  0
ARC
  5
3A8
330
1F
100
AcDbEntity
  8
1
  6
CONTINUOUS
 62
     7
100
AcDbCircle
 10
-350.9999999999999
 20
-38.50693150628705
 30
0.0
 40
1.000000000000001
100
AcDbArc
 50
90.0
 51
180.0
  0
LINE
  5
3A9
330
1F
100
AcDbEntity
  8
1
  6
CONTINUOUS
 62
     7
100
AcDbLine
 10
-350.9999999999999
 20
-37.50693150628705
 30
0.0
 11
-343.7364309212635
 21
-37.50693150628705
 31
0.0
  0
LINE
  5
3AA
330
1F
100
AcDbEntity
  8
1
  6
CONTINUOUS
 62
     7
100
AcDbLine
 10
-336.2635717579237
 20
-37.50693150628705
 30
0.0
 11
-330.5
 21
-37.50693150628703
 31
0.0
  0
ARC
  5
3AB
330
1F
100
AcDbEntity
  8
1
  6
CONTINUOUS
 62
     7
100
AcDbCircle
 10
-330.5
 20
-38.50693150628703
 30
0.0
 40
1.000000000000001
100
AcDbArc
 50
0.0
 51
90.0000000000005
  0
LINE
  5
3AC
330
1F
100
AcDbEntity
  8
1
  6
CONTINUOUS
 62
     7
100
AcDbLine
 10
-352.0
 20
-38.50693150628705
 30
0.0
 11
-352.0
 21
-44.70693150628704
 31
0.0
  0
LINE
  5
3AD
330
1F
100
AcDbEntity
  8
1
  6
CONTINUOUS
 62
     7
100
AcDbLine
 10
-329.5
 20
-38.50693150628703
 30
0.0
 11
-329.5
 21
-44.70693150628704
 31
0.0
  0
LINE
  5
3AE
330
1F
100
AcDbEntity
  8
1
  6
CONTINUOUS
 62
     7
100
AcDbLine
 10
-352.0
 20
-71.50693150628706
 30
0.0
 11
-352.0
 21
-65.30693150628689
 31
0.0
  0
ARC
  5
3AF
330
1F
100
AcDbEntity
  8
1
  6
CONTINUOUS
 62
     7
100
AcDbCircle
 10
-330.5
 20
-71.50693150628703
 30
0.0
 40
1.000000000000001
100
AcDbArc
 50
269.9999999999996
 51
0.0
  0
LINE
  5
3B0
330
1F
100
AcDbEntity
  8
1
  6
CONTINUOUS
 62
     7
100
AcDbLine
 10
-350.9999999999999
 20
-72.50693150628703
 30
0.0
 11
-343.7364280481622
 21
-72.50693150628703
 31
0.0
  0
LINE
  5
3B1
330
1F
100
AcDbEntity
  8
1
  6
CONTINUOUS
 62
     7
100
AcDbLine
 10
-336.2635690880066
 20
-72.50693150628703
 30
0.0
 11
-330.5
 21
-72.50693150628703
 31
0.0
  0
ARC
  5
3B2
330
1F
100
AcDbEntity
  8
1
  6
CONTINUOUS
 62
     7
100
AcDbCircle
 10
-350.9999999999999
 20
-71.50693150628706
 30
0.0
 40
1.000000000000001
100
AcDbArc
 50
180.0
 51
270.0
  0
LINE
  5
3B3
330
1F
100
AcDbEntity
  8
1
  6
CONTINUOUS
 62
     7
100
AcDbLine
 10
-329.5
 20
-71.50693150628703
 30
0.0
 11
-329.5
 21
-65.30693150628704
 31
0.0
  0
LINE
  5
3B4
330
1F
100
AcDbEntity
  8
1
  6
CENTER
 62
     1
100
AcDbLine
 10
-134.6430684937129
 20
97.81270952612631
 30
0.0
 11
-125.343068493713
 21
97.81270952612631
 31
0.0
  0
LINE
  5
3B6
330
1F
100
AcDbEntity
  8
1
  6
CONTINUOUS
 62
     7
100
AcDbLine
 10
-123.158967774553
 20
67.81270952612631
 30
0.0
 11
-236.8271692128728
 21
67.81270952612631
 31
0.0
  0
LINE
  5
3B7
330
1F
100
AcDbEntity
  8
1
  6
CONTINUOUS
 62
     7
100
AcDbLine
 10
-336.0
 20
202.2127095261263
 30
0.0
 11
-349.0
 21
202.2127095261263
 31
0.0
  0
LINE
  5
3B8
330
1F
100
AcDbEntity
  8
1
  6
CONTINUOUS
 62
     7
100
AcDbLine
 10
-164.9223668185203
 20
100.8127095261263
 30
0.0
 11
-195.0637701689056
 21
100.8127095261263
 31
0.0
  0
LINE
  5
3B9
330
1F
100
AcDbEntity
  8
1
  6
CONTINUOUS
 62
     7
100
AcDbLine
 10
-335.0925227118881
 20
-46.50693150628695
 30
0.0
 11
-330.1850454237763
 21
-55.00693150628694
 31
0.0
  0
LINE
  5
3BA
330
1F
100
AcDbEntity
  8
1
  6
CONTINUOUS
 62
     7
100
AcDbLine
 10
-187.993068493713
 20
168.5127095261263
 30
0.0
 11
-187.993068493713
 21
115.4127095261263
 31
0.0
  0
LINE
  5
3BB
330
1F
100
AcDbEntity
  8
1
  6
CONTINUOUS
 62
     7
100
AcDbLine
 10
-329.5
 20
123.8127095261263
 30
0.0
 11
-352.0
 21
123.8127095261263
 31
0.0
  0
LINE
  5
3BC
330
1F
100
AcDbEntity
  8
1
  6
CONTINUOUS
 62
     7
100
AcDbLine
 10
-349.8149545762236
 20
-55.00693150628695
 30
0.0
 11
-344.9074772881118
 21
-46.50693150628695
 31
0.0
  0
LINE
  5
3BD
330
1F
100
AcDbEntity
  8
1
  6
CONTINUOUS
 62
     7
100
AcDbLine
 10
-379.5
 20
112.8127095261263
 30
0.0
 11
-329.5
 21
112.8127095261263
 31
0.0
  0
LINE
  5
3BE
330
1F
100
AcDbEntity
  8
1
  6
CONTINUOUS
 62
     7
100
AcDbLine
 10
-346.5
 20
196.9127095261263
 30
0.0
 11
-346.5
 21
170.8127095261263
 31
0.0
  0
LINE
  5
3BF
330
1F
100
AcDbEntity
  8
1
  6
CONTINUOUS
 62
     7
100
AcDbLine
 10
-336.3516770343079
 20
110.3109061689453
 30
0.0
 11
-336.2984416359436
 21
104.2107337312847
 31
0.0
  0
LINE
  5
3C0
330
1F
100
AcDbEntity
  8
1
  6
CONTINUOUS
 62
     7
100
AcDbLine
 10
-122.493068493713
 20
77.81270952612631
 30
0.0
 11
-237.4930684937129
 21
77.81270952612631
 31
0.0
  0
LINE
  5
3C1
330
1F
100
AcDbEntity
  8
1
  6
CENTER
 62
     1
100
AcDbLine
 10
-129.9930684937129
 20
93.16270952612632
 30
0.0
 11
-129.9930684937129
 21
102.4627095261263
 31
0.0
  0
LINE
  5
3C2
330
1F
100
AcDbEntity
  8
1
  6
CONTINUOUS
 62
     7
100
AcDbLine
 10
-335.0925227118882
 20
-63.50693150628696
 30
0.0
 11
-344.9074772881118
 21
-63.50693150628696
 31
0.0
  0
LINE
  5
3C3
330
1F
100
AcDbEntity
  8
1
  6
CONTINUOUS
 62
     7
100
AcDbLine
 10
-169.6930684937129
 20
125.8127095261264
 30
0.0
 11
-162.4930684937129
 21
125.8127095261264
 31
0.0
  0
LINE
  5
3C4
330
1F
100
AcDbEntity
  8
1
  6
CONTINUOUS
 62
     7
100
AcDbLine
 10
-329.5
 20
170.8127095261263
 30
0.0
 11
-329.5
 21
161.8917109306204
 31
0.0
  0
LINE
  5
3C5
330
1F
100
AcDbEntity
  8
1
  6
CONTINUOUS
 62
     7
100
AcDbLine
 10
-330.1850454237763
 20
-55.00693150628694
 30
0.0
 11
-335.0925227118881
 21
-63.50693150628697
 31
0.0
  0
LINE
  5
3C6
330
1F
100
AcDbEntity
  8
1
  6
CONTINUOUS
 62
     7
100
AcDbLine
 10
-175.9930684937129
 20
170.8127095261263
 30
0.0
 11
-175.9930684937129
 21
196.9127095261263
 31
0.0
  0
LINE
  5
3C7
330
1F
100
AcDbEntity
  8
1
  6
CONTINUOUS
 62
     7
100
AcDbLine
 10
-329.5
 20
-71.50693150628703
 30
0.0
 11
-329.5
 21
-38.50693150628703
 31
0.0
  0
LINE
  5
3C8
330
1F
100
AcDbEntity
  8
1
  6
CONTINUOUS
 62
     7
100
AcDbLine
 10
-172.4875149942478
 20
202.2127095261263
 30
0.0
 11
-187.4986219931781
 21
202.2127095261263
 31
0.0
  0
LINE
  5
3C9
330
1F
100
AcDbEntity
  8
1
  6
CONTINUOUS
 62
     7
100
AcDbLine
 10
-190.293068493713
 20
123.8127095261263
 30
0.0
 11
-197.4930684937129
 21
123.8127095261263
 31
0.0
  0
LINE
  5
3CA
330
1F
100
AcDbEntity
  8
1
  6
CENTER
 62
     1
100
AcDbLine
 10
-340.0
 20
-114.506931506287
 30
0.0
 11
-340.0
 21
4.493068493712948
 31
0.0
  0
LINE
  5
3CB
330
1F
100
AcDbEntity
  8
1
  6
CONTINUOUS
 62
     7
100
AcDbLine
 10
-188.493068493713
 20
88.81270952612626
 30
0.0
 11
-188.493068493713
 21
95.81270952612626
 31
0.0
  0
LINE
  5
3CC
330
1F
100
AcDbEntity
  8
1
  6
CENTER
 62
     1
100
AcDbLine
 10
-179.9930684937128
 20
220.0000000000001
 30
0.0
 11
-179.993068493713
 21
60.00000000000002
 31
0.0
  0
LINE
  5
3CD
330
1F
100
AcDbEntity
  8
1
  6
CONTINUOUS
 62
     7
100
AcDbLine
 10
-183.9930684937129
 20
196.9127095261263
 30
0.0
 11
-183.9930684937129
 21
170.8127095261263
 31
0.0
  0
LINE
  5
3CE
330
1F
100
AcDbEntity
  8
1
  6
CONTINUOUS
 62
     7
100
AcDbLine
 10
-344.9074772881118
 20
-63.50693150628696
 30
0.0
 11
-349.8149545762236
 21
-55.00693150628695
 31
0.0
  0
LINE
  5
3CF
330
1F
100
AcDbEntity
  8
1
  6
CONTINUOUS
 62
     7
100
AcDbLine
 10
-171.493068493713
 20
88.81270952612626
 30
0.0
 11
-188.4930684937131
 21
88.81270952612626
 31
0.0
  0
LINE
  5
3D0
330
1F
100
AcDbEntity
  8
1
  6
CONTINUOUS
 62
     7
100
AcDbLine
 10
-329.5
 20
110.8127095261263
 30
0.0
 11
-379.5
 21
110.8127095261263
 31
0.0
  0
LINE
  5
3D1
330
1F
100
AcDbEntity
  8
1
  6
CONTINUOUS
 62
     7
100
AcDbLine
 10
-343.9319304312323
 20
77.81270952612631
 30
0.0
 11
-343.6482691503717
 21
110.3170727938755
 31
0.0
  0
LINE
  5
3D2
330
1F
100
AcDbEntity
  8
1
  6
CONTINUOUS
 62
     7
100
AcDbLine
 10
-187.693068493713
 20
115.1127095261263
 30
0.0
 11
-171.9930684937129
 21
115.1127095261263
 31
0.0
  0
LINE
  5
3D3
330
1F
100
AcDbEntity
  8
1
  6
CONTINUOUS
 62
     7
100
AcDbLine
 10
-189.7930684937129
 20
112.8127095261263
 30
0.0
 11
-172.2930684937129
 21
112.8127095261263
 31
0.0
  0
LINE
  5
3D4
330
1F
100
AcDbEntity
  8
1
  6
CONTINUOUS
 62
     7
100
AcDbLine
 10
-344.9074772881118
 20
-46.50693150628696
 30
0.0
 11
-335.0925227118881
 21
-46.50693150628696
 31
0.0
  0
LINE
  5
3D5
330
1F
100
AcDbEntity
  8
1
  6
CONTINUOUS
 62
     7
100
AcDbLine
 10
-350.0
 20
104.2128911990224
 30
0.0
 11
-350.0
 21
98.81270952612626
 31
0.0
  0
LINE
  5
3D6
330
1F
100
AcDbEntity
  8
1
  6
CONTINUOUS
 62
     7
100
AcDbLine
 10
-330.0
 20
100.8127095261263
 30
0.0
 11
-336.2687875279553
 21
100.8127095261263
 31
0.0
  0
LINE
  5
3D7
330
1F
100
AcDbEntity
  8
1
  6
CONTINUOUS
 62
     7
100
AcDbLine
 10
-379.5
 20
110.8127095261263
 30
0.0
 11
-379.5
 21
170.8127095261263
 31
0.0
  0
LINE
  5
3D8
330
1F
100
AcDbEntity
  8
1
  6
CENTER
 62
     1
100
AcDbLine
 10
-340.0
 20
215.0
 30
0.0
 11
-340.0
 21
66.80432977521389
 31
0.0
  0
LINE
  5
3D9
330
1F
100
AcDbEntity
  8
1
  6
CONTINUOUS
 62
     7
100
AcDbLine
 10
-171.993068493713
 20
113.1127095261263
 30
0.0
 11
-171.993068493713
 21
168.5127095261263
 31
0.0
  0
LINE
  5
3DA
330
1F
100
AcDbEntity
  8
1
  6
CONTINUOUS
 62
     7
100
AcDbLine
 10
-124.5935717370574
 20
102.803622058344
 30
0.0
 11
-124.6999087340299
 21
102.809816105393
 31
0.0
  0
LINE
  5
3DB
330
1F
100
AcDbEntity
  8
1
  6
CONTINUOUS
 62
     7
100
AcDbLine
 10
-338.5
 20
170.8127095261263
 30
0.0
 11
-338.5
 21
196.9127095261263
 31
0.0
  0
LINE
  5
3DC
330
1F
100
AcDbEntity
  8
1
  6
CONTINUOUS
 62
     7
100
AcDbLine
 10
-187.993068493713
 20
123.5127095261263
 30
0.0
 11
-171.9930684937129
 21
123.5127095261263
 31
0.0
  0
LINE
  5
3DD
330
1F
100
AcDbEntity
  8
1
  6
CONTINUOUS
 62
     7
100
AcDbLine
 10
-336.2819159073023
 20
102.3170727938755
 30
0.0
 11
-336.068069568768
 21
77.81270952612631
 31
0.0
  0
LINE
  5
3DE
330
1F
100
AcDbEntity
  8
1
  6
CONTINUOUS
 62
     7
100
AcDbLine
 10
-189.9930684937129
 20
125.7930603763246
 30
0.0
 11
-189.993068493713
 21
168.5127095261263
 31
0.0
  0
LINE
  5
3DF
330
1F
100
AcDbEntity
  8
1
  6
CONTINUOUS
 62
     7
100
AcDbLine
 10
-343.7312124720446
 20
100.8127095261263
 30
0.0
 11
-350.0
 21
100.8127095261263
 31
0.0
  0
LINE
  5
3E0
330
1F
100
AcDbEntity
  8
1
  6
CONTINUOUS
 62
     7
100
AcDbLine
 10
-171.7506026422772
 20
110.8127095261263
 30
0.0
 11
-160.3969505257349
 21
110.8127095261263
 31
0.0
  0
LINE
  5
3E1
330
1F
100
AcDbEntity
  8
1
  6
CONTINUOUS
 62
     7
100
AcDbLine
 10
-169.993068493713
 20
168.5127095261263
 30
0.0
 11
-169.9930684937129
 21
125.7930603763246
 31
0.0
  0
LINE
  5
3E2
330
1F
100
AcDbEntity
  8
1
  6
CONTINUOUS
 62
     7
100
AcDbLine
 10
-162.4930684937129
 20
123.8127095261263
 30
0.0
 11
-169.6930684937129
 21
123.8127095261263
 31
0.0
  0
LINE
  5
3E3
330
1F
100
AcDbEntity
  8
1
  6
CENTER
 62
     1
100
AcDbLine
 10
-399.5
 20
-55.00693150628705
 30
0.0
 11
-280.5
 21
-55.00693150628705
 31
0.0
  0
LINE
  5
3E4
330
1F
100
AcDbEntity
  8
1
  6
CONTINUOUS
 62
     7
100
AcDbLine
 10
-172.2930684937129
 20
110.8127095261263
 30
0.0
 11
-189.7930684937129
 21
110.8127095261263
 31
0.0
  0
LINE
  5
3E5
330
1F
100
AcDbEntity
  8
1
  6
CONTINUOUS
 62
     7
100
AcDbLine
 10
-197.4930684937129
 20
125.8127095261263
 30
0.0
 11
-190.293068493713
 21
125.8127095261267
 31
0.0
  0
LINE
  5
3E6
330
1F
100
AcDbEntity
  8
1
  6
CONTINUOUS
 62
     7
100
AcDbLine
 10
-172.1930684937129
 20
113.1127095261263
 30
0.0
 11
-187.693068493713
 21
113.1127095261263
 31
0.0
  0
LINE
  5
3E7
330
1F
100
AcDbEntity
  8
1
  6
CONTINUOUS
 62
     7
100
AcDbLine
 10
-172.4875149942478
 20
196.9127095261263
 30
0.0
 11
-187.4986219931781
 21
196.9127095261263
 31
0.0
  0
LINE
  5
3E8
330
1F
100
AcDbEntity
  8
1
  6
CONTINUOUS
 62
     7
100
AcDbLine
 10
-171.493068493713
 20
95.81270952612626
 30
0.0
 11
-171.493068493713
 21
88.81270952612626
 31
0.0
  0
LINE
  5
3E9
330
1F
100
AcDbEntity
  8
1
  6
CONTINUOUS
 62
     7
100
AcDbLine
 10
-331.4999999999999
 20
88.81270952612626
 30
0.0
 11
-336.1637901405783
 21
88.81270952612626
 31
0.0
  0
LINE
  5
3EA
330
1F
100
AcDbEntity
  8
1
  6
CONTINUOUS
 62
     7
100
AcDbLine
 10
-343.8362098594217
 20
88.81270952612626
 30
0.0
 11
-348.5000000000001
 21
88.81270952612626
 31
0.0
  0
ARC
  5
3EB
330
1F
100
AcDbEntity
  8
1
  6
CONTINUOUS
 62
     7
100
AcDbCircle
 10
-336.7818968688344
 20
102.3127095261263
 30
0.0
 40
0.4999999999999998
100
AcDbArc
 50
0.5000000000005116
 51
90.0
  0
LINE
  5
3EC
330
1F
100
AcDbEntity
  8
1
  6
CONTINUOUS
 62
     7
100
AcDbLine
 10
-199.5891864616907
 20
110.8127095261263
 30
0.0
 11
-189.8728659861269
 21
110.8127095261263
 31
0.0
  0
LINE
  5
3ED
330
1F
100
AcDbEntity
  8
1
  6
CONTINUOUS
 62
     7
100
AcDbLine
 10
-330.1850454237763
 20
95.81270952612626
 30
0.0
 11
-336.2251531890016
 21
95.81270952612626
 31
0.0
  0
LINE
  5
3EE
330
1F
100
AcDbEntity
  8
1
  6
CONTINUOUS
 62
     7
100
AcDbLine
 10
-336.0
 20
196.9127095261263
 30
0.0
 11
-349.0
 21
196.9127095261263
 31
0.0
  0
LINE
  5
3EF
330
1F
100
AcDbEntity
  8
1
  6
CONTINUOUS
 62
     7
100
AcDbLine
 10
-282.5000000000001
 20
77.8127095261263
 30
0.0
 11
-397.4999999999998
 21
77.8127095261263
 31
0.0
  0
LINE
  5
3F0
330
1F
100
AcDbEntity
  8
1
  6
CONTINUOUS
 62
     7
100
AcDbLine
 10
-171.493068493713
 20
95.81270952612626
 30
0.0
 11
-188.493068493713
 21
95.81270952612626
 31
0.0
  0
LINE
  5
3F1
330
1F
100
AcDbEntity
  8
1
  6
CONTINUOUS
 62
     7
100
AcDbLine
 10
-329.5
 20
110.8127095261263
 30
0.0
 11
-329.5
 21
125.8127095261264
 31
0.0
  0
LINE
  5
3F2
330
1F
100
AcDbEntity
  8
1
  6
CONTINUOUS
 62
     7
100
AcDbLine
 10
-343.7748468109984
 20
95.81270952612626
 30
0.0
 11
-349.8149545762236
 21
95.81270952612626
 31
0.0
  0
LINE
  5
3F3
330
1F
100
AcDbEntity
  8
1
  6
CONTINUOUS
 62
     7
100
AcDbLine
 10
-232.318340745969
 20
102.8127095261263
 30
0.0
 11
-207.0546213065217
 21
102.8127095261263
 31
0.0
  0
CIRCLE
  5
3F4
330
1F
100
AcDbEntity
  8
1
  6
CONTINUOUS
 62
     7
100
AcDbCircle
 10
-340.0
 20
-55.00693150628705
 30
0.0
 40
57.5
  0
LINE
  5
3F5
330
1F
100
AcDbEntity
  8
1
  6
CONTINUOUS
 62
     7
100
AcDbLine
 10
-352.0
 20
125.8127095261264
 30
0.0
 11
-329.5
 21
125.8127095261265
 31
0.0
  0
ENDSEC
  0
SECTION
  2
OBJECTS
  0
DICTIONARY
  5
C
330
0
100
AcDbDictionary
  3
ACAD_GROUP
350
D
  3
ACAD_LAYOUT
350
1A
  3
ACAD_MATERIAL
350
43
  3
ACAD_MLEADERSTYLE
350
6B
  3
ACAD_MLINESTYLE
350
17
  3
ACAD_PLOTSETTINGS
350
19
  3
ACAD_SCALELIST
350
47
  3
ACAD_VISUALSTYLE
350
2A
  3
ACDBHEADERROUNDTRIPXREC
350
3F6
  3
ACDBVARIABLEDICTIONARY
350
417
  0
DICTIONARY
  5
41E
330
8
100
AcDbDictionary
280
     1
  3
ACAD_XREC_ROUNDTRIP
360
41F
  0
DICTIONARY
  5
D
102
{ACAD_REACTORS
330
C
102
}
330
C
100
AcDbDictionary
  0
DICTIONARY
  5
1A
102
{ACAD_REACTORS
330
C
102
}
330
C
100
AcDbDictionary
  0
DICTIONARY
  5
43
102
{ACAD_REACTORS
330
C
102
}
330
C
100
AcDbDictionary
  3
BYBLOCK
350
45
  3
BYLAYER
350
44
  3
GLOBAL
350
46
  0
DICTIONARY
  5
6B
102
{ACAD_REACTORS
330
C
102
}
330
C
100
AcDbDictionary
  3
STANDARD
350
6C
  0
DICTIONARY
  5
17
102
{ACAD_REACTORS
330
C
102
}
330
C
100
AcDbDictionary
  3
STANDARD
350
18
  0
DICTIONARY
  5
19
102
{ACAD_REACTORS
330
C
102
}
330
C
100
AcDbDictionary
  0
DICTIONARY
  5
47
102
{ACAD_REACTORS
330
C
102
}
330
C
100
AcDbDictionary
  3
A0
350
48
  3
A1
350
49
  3
A2
350
4A
  3
A3
350
4B
  3
A4
350
4C
  3
A5
350
4D
  3
A6
350
4E
  3
A7
350
4F
  3
A8
350
50
  3
A9
350
51
  3
B0
350
52
  3
B1
350
53
  3
B2
350
54
  3
B3
350
55
  3
B4
350
56
  3
B5
350
57
  3
B6
350
58
  3
B7
350
59
  3
B8
350
5A
  3
B9
350
5B
  3
C0
350
5C
  3
C1
350
5D
  3
C2
350
5E
  3
C3
350
5F
  3
C4
350
60
  3
C5
350
61
  3
C6
350
62
  3
C7
350
63
  3
C8
350
64
  3
C9
350
65
  3
D0
350
66
  3
D1
350
67
  3
D2
350
68
  0
DICTIONARY
  5
2A
102
{ACAD_REACTORS
330
C
102
}
330
C
100
AcDbDictionary
  3
2DWIREFRAME
350
2F
  3
BASIC
350
32
  3
BRIGHTEN
350
36
  3
COLORCHANGE
350
3A
  3
CONCEPTUAL
350
34
  3
DIM
350
35
  3
EDGECOLOROFF
350
3D
  3
FACEPATTERN
350
39
  3
FLAT
350
2B
  3
FLATWITHEDGES
350
2C
  3
GOURAUD
350
2D
  3
GOURAUDWITHEDGES
350
2E
  3
HIDDEN
350
31
  3
JITTEROFF
350
3B
  3
LINEPATTERN
350
38
  3
OVERHANGOFF
350
3C
  3
REALISTIC
350
33
  3
SHADED
350
42
  3
SHADED_WITH_EDGES
350
41
  3
SHADES_OF_GRAY
350
3E
  3
SKETCHY
350
3F
  3
THICKEN
350
37
  3
WIREFRAME
350
30
  3
X-RAY
350
40
  0
DICTIONARY
  5
3F6
102
{ACAD_REACTORS
330
C
102
}
330
C
100
AcDbDictionary
  3
CEPSNID
350
400
  3
CEPSNTYPE
350
3FF
  3
DIMSTYLEDATA
350
416
  3
FINGERPRINTGUID
350
401
  3
HYPERLINKBASE
350
3F9
  3
INSUNITS
350
3FE
  3
LAYOUTDICT
350
3FB
  3
LWETCUNION
350
3FD
  3
PLOTSETDICT
350
3FC
  3
PSVPSCALE
350
403
  3
PUCSBASE
350
406
  3
PUCSORGBACK
350
40C
  3
PUCSORGBOTTOM
350
408
  3
PUCSORGFRONT
350
40B
  3
PUCSORGLEFT
350
409
  3
PUCSORGRIGHT
350
40A
  3
PUCSORGTOP
350
407
  3
PUCSORTHOREF
350
404
  3
PUCSORTHOVIEW
350
405
  3
STYLESHEET
350
3FA
  3
TSTACKALIGN
350
3F7
  3
TSTACKSIZE
350
3F8
  3
UCSBASE
350
40F
  3
UCSORGBACK
350
415
  3
UCSORGBOTTOM
350
411
  3
UCSORGFRONT
350
414
  3
UCSORGLEFT
350
412
  3
UCSORGRIGHT
350
413
  3
UCSORGTOP
350
410
  3
UCSORTHOREF
350
40D
  3
UCSORTHOVIEW
350
40E
  3
VERSIONGUID
350
402
  0
DICTIONARY
  5
417
102
{ACAD_REACTORS
330
C
102
}
330
C
100
AcDbDictionary
  3
CANNOSCALE
350
420
  3
CMLEADERSTYLE
350
419
  3
CTABLESTYLE
350
418
  3
DIMASSOC
350
41C
  3
HIDETEXT
350
41D
  3
MSLTSCALE
350
421
  0
XRECORD
  5
41F
102
{ACAD_REACTORS
330
41E
102
}
330
41E
100
AcDbXrecord
102
VTR_0.000_0.000_1.000_1.000_VISUALSTYLE
340
2F
102
VTR_0.000_0.000_1.000_1.000_GRIDDISPLAY
 70
     3
102
VTR_0.000_0.000_1.000_1.000_GRIDMAJOR
 70
     5
102
VTR_0.000_0.000_1.000_1.000_DEFAULTLIGHTING
280
     1
102
VTR_0.000_0.000_1.000_1.000_DEFAULTLIGHTINGTYPE
 70
     1
102
VTR_0.000_0.000_1.000_1.000_BRIGHTNESS
141
0.0
102
VTR_0.000_0.000_1.000_1.000_CONTRAST
142
0.0
  0
MATERIAL
  5
45
102
{ACAD_REACTORS
330
43
102
}
102
{ACAD_XDICTIONARY
360
424
102
}
330
43
100
AcDbMaterial
  1
BYBLOCK
  0
MATERIAL
  5
44
102
{ACAD_REACTORS
330
43
102
}
102
{ACAD_XDICTIONARY
360
422
102
}
330
43
100
AcDbMaterial
  1
BYLAYER
  0
MATERIAL
  5
46
102
{ACAD_REACTORS
330
43
102
}
102
{ACAD_XDICTIONARY
360
426
102
}
330
43
100
AcDbMaterial
  1
GLOBAL
  0
ACAD_PROXY_OBJECT
  5
6C
102
{ACAD_REACTORS
330
6B
102
}
330
6B
100
AcDbProxyObject
 90
      499
 91
      505
 93
      610
310
40901902A4063FBFFFFFE056BD1B81E855B9FC0AD7A3703D0AD73F4214DD185B99185C9900AD7A3703D0AC73F90141901A02B5E8DC0F42B1CFC02B5E8DC0F42B1CFE5764000000000000300FC0
340
14
340
0
340
11
340
0
 94
        0
1001
ACAD_MLEADERVER
1070
     2
  0
MLINESTYLE
  5
18
102
{ACAD_REACTORS
330
17
102
}
330
17
100
AcDbMlineStyle
  2
Standard
 70
     0
  3

 62
   256
 51
90.0
 52
90.0
 71
     2
 49
0.5
 62
   256
  6
BYLAYER
 49
-0.5
 62
   256
  6
BYLAYER
  0
ACAD_PROXY_OBJECT
  5
48
102
{ACAD_REACTORS
330
47
102
}
330
47
100
AcDbProxyObject
 90
      499
 91
      503
 93
       41
310
903313A31580
  0
ACAD_PROXY_OBJECT
  5
49
102
{ACAD_REACTORS
330
47
102
}
330
47
100
AcDbProxyObject
 90
      499
 91
      503
 93
      105
310
903313A324000000000000004000
  0
ACAD_PROXY_OBJECT
  5
4A
102
{ACAD_REACTORS
330
47
102
}
330
47
100
AcDbProxyObject
 90
      499
 91
      503
 93
      105
310
903313A344000000000000104000
  0
ACAD_PROXY_OBJECT
  5
4B
102
{ACAD_REACTORS
330
47
102
}
330
47
100
AcDbProxyObject
 90
      499
 91
      503
 93
      105
310
903313A354000000000000144000
  0
ACAD_PROXY_OBJECT
  5
4C
102
{ACAD_REACTORS
330
47
102
}
330
47
100
AcDbProxyObject
 90
      499
 91
      503
 93
      105
310
903313A384000000000000204000
  0
ACAD_PROXY_OBJECT
  5
4D
102
{ACAD_REACTORS
330
47
102
}
330
47
100
AcDbProxyObject
 90
      499
 91
      503
 93
      113
310
904313A31304000000000000244000
  0
ACAD_PROXY_OBJECT
  5
4E
102
{ACAD_REACTORS
330
47
102
}
330
47
100
AcDbProxyObject
 90
      499
 91
      503
 93
      113
310
904313A31364000000000000304000
  0
ACAD_PROXY_OBJECT
  5
4F
102
{ACAD_REACTORS
330
47
102
}
330
47
100
AcDbProxyObject
 90
      499
 91
      503
 93
      113
310
904313A32304000000000000344000
  0
ACAD_PROXY_OBJECT
  5
50
102
{ACAD_REACTORS
330
47
102
}
330
47
100
AcDbProxyObject
 90
      499
 91
      503
 93
      113
310
904313A333040000000000003E4000
  0
ACAD_PROXY_OBJECT
  5
51
102
{ACAD_REACTORS
330
47
102
}
330
47
100
AcDbProxyObject
 90
      499
 91
      503
 93
      113
310
904313A34304000000000000444000
  0
ACAD_PROXY_OBJECT
  5
52
102
{ACAD_REACTORS
330
47
102
}
330
47
100
AcDbProxyObject
 90
      499
 91
      503
 93
      113
310
904313A35304000000000000494000
  0
ACAD_PROXY_OBJECT
  5
53
102
{ACAD_REACTORS
330
47
102
}
330
47
100
AcDbProxyObject
 90
      499
 91
      503
 93
      121
310
905313A3130304000000000000594000
  0
ACAD_PROXY_OBJECT
  5
54
102
{ACAD_REACTORS
330
47
102
}
330
47
100
AcDbProxyObject
 90
      499
 91
      503
 93
      105
310
903323A310000000000000010100
  0
ACAD_PROXY_OBJECT
  5
55
102
{ACAD_REACTORS
330
47
102
}
330
47
100
AcDbProxyObject
 90
      499
 91
      503
 93
      105
310
903343A310000000000000410100
  0
ACAD_PROXY_OBJECT
  5
56
102
{ACAD_REACTORS
330
47
102
}
330
47
100
AcDbProxyObject
 90
      499
 91
      503
 93
      105
310
903383A310000000000000810100
  0
ACAD_PROXY_OBJECT
  5
57
102
{ACAD_REACTORS
330
47
102
}
330
47
100
AcDbProxyObject
 90
      499
 91
      503
 93
      113
310
90431303A310000000000000910100
  0
ACAD_PROXY_OBJECT
  5
58
102
{ACAD_REACTORS
330
47
102
}
330
47
100
AcDbProxyObject
 90
      499
 91
      503
 93
      121
310
9053130303A310000000000001650100
  0
ACAD_PROXY_OBJECT
  5
59
102
{ACAD_REACTORS
330
47
102
}
330
47
100
AcDbProxyObject
 90
      499
 91
      503
 93
      257
310
90E312F31323822203D2031272D3022000000000000200FC000000000000284000
  0
ACAD_PROXY_OBJECT
  5
5A
102
{ACAD_REACTORS
330
47
102
}
330
47
100
AcDbProxyObject
 90
      499
 91
      503
 93
      249
310
90D312F363422203D2031272D3022000000000000240FC000000000000284000
  0
ACAD_PROXY_OBJECT
  5
5B
102
{ACAD_REACTORS
330
47
102
}
330
47
100
AcDbProxyObject
 90
      499
 91
      503
 93
      249
310
90D312F333222203D2031272D3022000000000000280FC000000000000284000
  0
ACAD_PROXY_OBJECT
  5
5C
102
{ACAD_REACTORS
330
47
102
}
330
47
100
AcDbProxyObject
 90
      499
 91
      503
 93
      249
310
90D312F313622203D2031272D30220000000000002C0FC000000000000284000
  0
ACAD_PROXY_OBJECT
  5
5D
102
{ACAD_REACTORS
330
47
102
}
330
47
100
AcDbProxyObject
 90
      499
 91
      503
 93
      249
310
90D332F333222203D2031272D30220000000000002E0FC000000000000284000
  0
ACAD_PROXY_OBJECT
  5
5E
102
{ACAD_REACTORS
330
47
102
}
330
47
100
AcDbProxyObject
 90
      499
 91
      503
 93
      241
310
90C312F3822203D2031272D3022000000000000300FC000000000000284000
  0
ACAD_PROXY_OBJECT
  5
5F
102
{ACAD_REACTORS
330
47
102
}
330
47
100
AcDbProxyObject
 90
      499
 91
      503
 93
      249
310
90D332F313622203D2031272D3022000000000000320FC000000000000284000
  0
ACAD_PROXY_OBJECT
  5
60
102
{ACAD_REACTORS
330
47
102
}
330
47
100
AcDbProxyObject
 90
      499
 91
      503
 93
      241
310
90C312F3422203D2031272D3022000000000000340FC000000000000284000
  0
ACAD_PROXY_OBJECT
  5
61
102
{ACAD_REACTORS
330
47
102
}
330
47
100
AcDbProxyObject
 90
      499
 91
      503
 93
      241
310
90C332F3822203D2031272D3022000000000000360FC000000000000284000
  0
ACAD_PROXY_OBJECT
  5
62
102
{ACAD_REACTORS
330
47
102
}
330
47
100
AcDbProxyObject
 90
      499
 91
      503
 93
      241
310
90C312F3222203D2031272D3022000000000000380FC000000000000284000
  0
ACAD_PROXY_OBJECT
  5
63
102
{ACAD_REACTORS
330
47
102
}
330
47
100
AcDbProxyObject
 90
      499
 91
      503
 93
      241
310
90C332F3422203D2031272D30220000000000003A0FC000000000000284000
  0
ACAD_PROXY_OBJECT
  5
64
102
{ACAD_REACTORS
330
47
102
}
330
47
100
AcDbProxyObject
 90
      499
 91
      503
 93
      161
310
90A3122203D2031272D30224000000000000284000
  0
ACAD_PROXY_OBJECT
  5
65
102
{ACAD_REACTORS
330
47
102
}
330
47
100
AcDbProxyObject
 90
      499
 91
      503
 93
      257
310
90E312D312F3222203D2031272D30220000000000003E0FC000000000000284000
  0
ACAD_PROXY_OBJECT
  5
66
102
{ACAD_REACTORS
330
47
102
}
330
47
100
AcDbProxyObject
 90
      499
 91
      503
 93
      225
310
90A3322203D2031272D302200000000000002100000000000000284000
  0
ACAD_PROXY_OBJECT
  5
67
102
{ACAD_REACTORS
330
47
102
}
330
47
100
AcDbProxyObject
 90
      499
 91
      503
 93
      225
310
90A3622203D2031272D302200000000000006100000000000000284000
  0
ACAD_PROXY_OBJECT
  5
68
102
{ACAD_REACTORS
330
47
102
}
330
47
100
AcDbProxyObject
 90
      499
 91
      503
 93
      249
310
90D31272D3022203D2031272D30220000000000000A100000000000000284000
  0
ACAD_PROXY_OBJECT
  5
2F
102
{ACAD_REACTORS
330
2A
102
}
330
2A
100
AcDbProxyObject
 90
      499
 91
      501
 93
      436
310
42CC9915DA5C99599C985B595049028333333333333E33F0000000000000F90107901411070040501600405405064090741402480A0340
1001
ACAD
1000
AcDbSavedByObjectVersion
1070
     0
  0
ACAD_PROXY_OBJECT
  5
32
102
{ACAD_REACTORS
330
2A
102
}
330
2A
100
AcDbProxyObject
 90
      499
 91
      501
 93
      388
310
4150985CDA58D07406404333333333333E33F0000000000000F90107A41107004050150841D405064090741402480A0350
1001
ACAD
1000
AcDbSavedByObjectVersion
1070
     0
  0
ACAD_PROXY_OBJECT
  5
36
102
{ACAD_REACTORS
330
2A
102
}
330
2A
100
AcDbProxyObject
 90
      499
 91
      501
 93
      428
310
42109C9A59DA1D195B90C409028333333333333E33F0000000000000F9010790141107004050150841D405064090741402480A029950
1001
ACAD
1000
AcDbSavedByObjectVersion
1070
     0
  0
ACAD_PROXY_OBJECT
  5
3A
102
{ACAD_REACTORS
330
2A
102
}
330
2A
100
AcDbProxyObject
 90
      499
 91
      501
 93
      452
310
42D0DBDB1BDC90DA185B99D95104090240C333333333333E33F0000000000000F90108901411070040501508421405064090741402480A0350
1001
ACAD
1000
AcDbSavedByObjectVersion
1070
     0
  0
ACAD_PROXY_OBJECT
  5
34
102
{ACAD_REACTORS
330
2A
102
}
330
2A
100
AcDbProxyObject
 90
      499
 91
      501
 93
      500
310
4290DBDB98D95C1D1D585B10940D028333333333333E33F0000000000000F90107902409070040501000000000018199010841D405064090740C02480A0340
1001
ACAD
1000
AcDbSavedByObjectVersion
1070
     0
  0
ACAD_PROXY_OBJECT
  5
35
102
{ACAD_REACTORS
330
2A
102
}
330
2A
100
AcDbProxyObject
 90
      499
 91
      501
 93
      412
310
40D11A5B50B409028333333333333E33F0000000000000F9010790141107004050150841D405064090741402480A02677FFFFFD0
1001
ACAD
1000
AcDbSavedByObjectVersion
1070
     0
  0
ACAD_PROXY_OBJECT
  5
3D
102
{ACAD_REACTORS
330
2A
102
}
330
2A
100
AcDbProxyObject
 90
      499
 91
      501
 93
      452
310
43115919D950DBDB1BDC93D999916409028333333333333E33F0000000000000F9010790141107004050150841D405064090741402480A0350
1001
ACAD
1000
AcDbSavedByObjectVersion
1070
     0
  0
ACAD_PROXY_OBJECT
  5
39
102
{ACAD_REACTORS
330
2A
102
}
330
2A
100
AcDbProxyObject
 90
      499
 91
      501
 93
      444
310
42D19858D95C185D1D195C9B90F409028333333333333E33F0000000000000F9010790141107004050150841D405064090741402480A0350
1001
ACAD
1000
AcDbSavedByObjectVersion
1070
     0
  0
ACAD_PROXY_OBJECT
  5
2B
102
{ACAD_REACTORS
330
2A
102
}
330
2A
100
AcDbProxyObject
 90
      499
 91
      501
 93
      380
310
41119B185D240901404333333333333E33F0000000000000F9010740A907004050150841D405064090741402480A1B50
1001
ACAD
1000
AcDbSavedByObjectVersion
1070
     0
  0
ACAD_PROXY_OBJECT
  5
2C
102
{ACAD_REACTORS
330
2A
102
}
330
2A
100
AcDbProxyObject
 90
      499
 91
      501
 93
      468
310
43519B185D15DA5D1A115919D95CD0140901404333333333333E33F0000000000000F90107409019070040501600405405064090741402480A1B50
1001
ACAD
1000
AcDbSavedByObjectVersion
1070
     0
  0
ACAD_PROXY_OBJECT
  5
2D
102
{ACAD_REACTORS
330
2A
102
}
330
2A
100
AcDbProxyObject
 90
      499
 91
      501
 93
      404
310
41D1DBDD5C985D5910240902404333333333333E33F0000000000000F9010740A9070040501641D405064090741402480A1B50
1001
ACAD
1000
AcDbSavedByObjectVersion
1070
     0
  0
ACAD_PROXY_OBJECT
  5
2E
102
{ACAD_REACTORS
330
2A
102
}
330
2A
100
AcDbProxyObject
 90
      499
 91
      501
 93
      492
310
4411DBDD5C985D5915DA5D1A115919D95CD0340902404333333333333E33F0000000000000F90107409019070040501600405405064090741402480A1B50
1001
ACAD
1000
AcDbSavedByObjectVersion
1070
     0
  0
ACAD_PROXY_OBJECT
  5
31
102
{ACAD_REACTORS
330
2A
102
}
330
2A
100
AcDbProxyObject
 90
      499
 91
      501
 93
      476
310
41921A5919195B90640502408333333333333E33F0000000000000F901079024090700405020000000000001110200405405064090740C02480A0340
1001
ACAD
1000
AcDbSavedByObjectVersion
1070
     0
  0
ACAD_PROXY_OBJECT
  5
3B
102
{ACAD_REACTORS
330
2A
102
}
330
2A
100
AcDbProxyObject
 90
      499
 91
      501
 93
      428
310
42529A5D1D195C93D999914409028333333333333E33F0000000000000F9010790141107004050150A41D405064090741402480A0350
1001
ACAD
1000
AcDbSavedByObjectVersion
1070
     0
  0
ACAD_PROXY_OBJECT
  5
38
102
{ACAD_REACTORS
330
2A
102
}
330
2A
100
AcDbProxyObject
 90
      499
 91
      501
 93
      444
310
42D31A5B995C185D1D195C9B90E409028333333333333E33F0000000000000F9010790141107004050750841D405064090741402483A0350
1001
ACAD
1000
AcDbSavedByObjectVersion
1070
     0
  0
ACAD_PROXY_OBJECT
  5
3C
102
{ACAD_REACTORS
330
2A
102
}
330
2A
100
AcDbProxyObject
 90
      499
 91
      501
 93
      444
310
42D3DD995C9A185B99D3D999915409028333333333333E33F0000000000000F9010790141107004050150941D405064090741402480A0350
1001
ACAD
1000
AcDbSavedByObjectVersion
1070
     0
  0
ACAD_PROXY_OBJECT
  5
33
102
{ACAD_REACTORS
330
2A
102
}
330
2A
100
AcDbProxyObject
 90
      499
 91
      501
 93
      428
310
425499585B1A5CDD1A58D08409038333333333333E33F0000000000000F9010740A907004050150800405405064090740C02480A1B40
1001
ACAD
1000
AcDbSavedByObjectVersion
1070
     0
  0
ACAD_PROXY_OBJECT
  5
42
102
{ACAD_REACTORS
330
2A
102
}
330
2A
100
AcDbProxyObject
 90
      499
 91
      501
 93
      420
310
4194DA1859195911B40902404333333333333E33F0000000000000F9010740A41107004050150800405405064090840C02480A0B40
1001
ACAD
1000
AcDbSavedByObjectVersion
1070
     0
  0
ACAD_PROXY_OBJECT
  5
41
102
{ACAD_REACTORS
330
2A
102
}
330
2A
100
AcDbProxyObject
 90
      499
 91
      501
 93
      516
310
4454DA18591959081DDA5D1A08195919D95CD1A40902404333333333333E33F0000000000000F901074090142907004050250800405405064090740C02480A0B40
1001
ACAD
1000
AcDbSavedByObjectVersion
1070
     0
  0
ACAD_PROXY_OBJECT
  5
3E
102
{ACAD_REACTORS
330
2A
102
}
330
2A
100
AcDbProxyObject
 90
      499
 91
      501
 93
      532
310
4394DA1859195CC81BD98811DC985E5174090240C333333333333E33F0000000000000F901079024090741D01000000000000111010841D405064090740C02480A0340
1001
ACAD
1000
AcDbSavedByObjectVersion
1070
     0
  0
ACAD_PROXY_OBJECT
  5
3F
102
{ACAD_REACTORS
330
2A
102
}
330
2A
100
AcDbProxyObject
 90
      499
 91
      501
 93
      476
310
41D4DAD95D18DA1E51840502408333333333333E33F0000000000000F901079024090741D01000000000000111010B41D405064090741802480A0340
1001
ACAD
1000
AcDbSavedByObjectVersion
1070
     0
  0
ACAD_PROXY_OBJECT
  5
37
102
{ACAD_REACTORS
330
2A
102
}
330
2A
100
AcDbProxyObject
 90
      499
 91
      501
 93
      412
310
41D51A1A58DAD95B90D409028333333333333E33F0000000000000F9010790141107004050150C41D405064090741402480A0350
1001
ACAD
1000
AcDbSavedByObjectVersion
1070
     0
  0
ACAD_PROXY_OBJECT
  5
30
102
{ACAD_REACTORS
330
2A
102
}
330
2A
100
AcDbProxyObject
 90
      499
 91
      501
 93
      420
310
4255DA5C99599C985B595059028333333333333E33F0000000000000F90107901411070040501600405405064090740C02480A0340
1001
ACAD
1000
AcDbSavedByObjectVersion
1070
     0
  0
ACAD_PROXY_OBJECT
  5
40
102
{ACAD_REACTORS
330
2A
102
}
330
2A
100
AcDbProxyObject
 90
      499
 91
      501
 93
      404
310
41560B54985E51940902404000000000000E03F0000000000000F9010740501907004050150841D405064090740C02480A1B40
1001
ACAD
1000
AcDbSavedByObjectVersion
1070
     0
  0
XRECORD
  5
400
102
{ACAD_REACTORS
330
3F6
102
}
330
3F6
100
AcDbXrecord
340
0
  0
XRECORD
  5
3FF
102
{ACAD_REACTORS
330
3F6
102
}
330
3F6
100
AcDbXrecord
 90
        0
  0
XRECORD
  5
416
102
{ACAD_REACTORS
330
3F6
102
}
330
3F6
100
AcDbXrecord
1000
DSTYLE
1002
{
1070
   179
 70
     2
1070
   171
 70
     2
1070
   143
 40
25.4
1070
   274
 70
     2
1070
    41
 40
3.0
1070
   141
 40
0.09
1070
    43
 40
0.38
1070
   278
 70
    46
1070
    44
 40
1.5
1070
    42
 40
0.0625
1070
   147
 40
1.5
1070
   272
 70
     4
1070
    73
 70
     1
1070
   172
 70
     0
1070
    74
 70
     1
1070
   283
 70
     1
1070
   340
340
6F
1070
   140
 40
3.0
1070
   284
 70
     0
1070
    78
 70
     0
1002
}
  0
XRECORD
  5
401
102
{ACAD_REACTORS
330
3F6
102
}
330
3F6
100
AcDbXrecord
  1
{F5ECC260-5715-40A6-BF29-46A8EFD8BAE4}
  0
XRECORD
  5
3F9
102
{ACAD_REACTORS
330
3F6
102
}
330
3F6
100
AcDbXrecord
  1

  0
XRECORD
  5
3FE
102
{ACAD_REACTORS
330
3F6
102
}
330
3F6
100
AcDbXrecord
 90
        4
  0
XRECORD
  5
3FB
102
{ACAD_REACTORS
330
3F6
102
}
330
3F6
100
AcDbXrecord
340
1A
  0
XRECORD
  5
3FD
102
{ACAD_REACTORS
330
3F6
102
}
330
3F6
100
AcDbXrecord
 90
    10269
  0
XRECORD
  5
3FC
102
{ACAD_REACTORS
330
3F6
102
}
330
3F6
100
AcDbXrecord
340
19
  0
XRECORD
  5
403
102
{ACAD_REACTORS
330
3F6
102
}
330
3F6
100
AcDbXrecord
 40
0.0
  0
XRECORD
  5
406
102
{ACAD_REACTORS
330
3F6
102
}
330
3F6
100
AcDbXrecord
340
0
  0
XRECORD
  5
40C
102
{ACAD_REACTORS
330
3F6
102
}
330
3F6
100
AcDbXrecord
 10
0.0
 20
0.0
 30
0.0
  0
XRECORD
  5
408
102
{ACAD_REACTORS
330
3F6
102
}
330
3F6
100
AcDbXrecord
 10
0.0
 20
0.0
 30
0.0
  0
XRECORD
  5
40B
102
{ACAD_REACTORS
330
3F6
102
}
330
3F6
100
AcDbXrecord
 10
0.0
 20
0.0
 30
0.0
  0
XRECORD
  5
409
102
{ACAD_REACTORS
330
3F6
102
}
330
3F6
100
AcDbXrecord
 10
0.0
 20
0.0
 30
0.0
  0
XRECORD
  5
40A
102
{ACAD_REACTORS
330
3F6
102
}
330
3F6
100
AcDbXrecord
 10
0.0
 20
0.0
 30
0.0
  0
XRECORD
  5
407
102
{ACAD_REACTORS
330
3F6
102
}
330
3F6
100
AcDbXrecord
 10
0.0
 20
0.0
 30
0.0
  0
XRECORD
  5
404
102
{ACAD_REACTORS
330
3F6
102
}
330
3F6
100
AcDbXrecord
340
0
  0
XRECORD
  5
405
102
{ACAD_REACTORS
330
3F6
102
}
330
3F6
100
AcDbXrecord
 70
     0
  0
XRECORD
  5
3FA
102
{ACAD_REACTORS
330
3F6
102
}
330
3F6
100
AcDbXrecord
  1

  0
XRECORD
  5
3F7
102
{ACAD_REACTORS
330
3F6
102
}
330
3F6
100
AcDbXrecord
 90
        1
  0
XRECORD
  5
3F8
102
{ACAD_REACTORS
330
3F6
102
}
330
3F6
100
AcDbXrecord
 90
       70
  0
XRECORD
  5
40F
102
{ACAD_REACTORS
330
3F6
102
}
330
3F6
100
AcDbXrecord
340
0
  0
XRECORD
  5
415
102
{ACAD_REACTORS
330
3F6
102
}
330
3F6
100
AcDbXrecord
 10
0.0
 20
0.0
 30
0.0
  0
XRECORD
  5
411
102
{ACAD_REACTORS
330
3F6
102
}
330
3F6
100
AcDbXrecord
 10
0.0
 20
0.0
 30
0.0
  0
XRECORD
  5
414
102
{ACAD_REACTORS
330
3F6
102
}
330
3F6
100
AcDbXrecord
 10
0.0
 20
0.0
 30
0.0
  0
XRECORD
  5
412
102
{ACAD_REACTORS
330
3F6
102
}
330
3F6
100
AcDbXrecord
 10
0.0
 20
0.0
 30
0.0
  0
XRECORD
  5
413
102
{ACAD_REACTORS
330
3F6
102
}
330
3F6
100
AcDbXrecord
 10
0.0
 20
0.0
 30
0.0
  0
XRECORD
  5
410
102
{ACAD_REACTORS
330
3F6
102
}
330
3F6
100
AcDbXrecord
 10
0.0
 20
0.0
 30
0.0
  0
XRECORD
  5
40D
102
{ACAD_REACTORS
330
3F6
102
}
330
3F6
100
AcDbXrecord
340
0
  0
XRECORD
  5
40E
102
{ACAD_REACTORS
330
3F6
102
}
330
3F6
100
AcDbXrecord
 70
     0
  0
XRECORD
  5
402
102
{ACAD_REACTORS
330
3F6
102
}
330
3F6
100
AcDbXrecord
  1
{FAEB1C32-E019-11D5-929B-00C0DF256EC4}
  0
DICTIONARYVAR
  5
420
102
{ACAD_REACTORS
330
417
102
}
330
417
100
DictionaryVariables
280
     0
  1
1:1
  0
DICTIONARYVAR
  5
419
102
{ACAD_REACTORS
330
417
102
}
330
417
100
DictionaryVariables
280
     0
  1
Standard
  0
DICTIONARYVAR
  5
418
102
{ACAD_REACTORS
330
417
102
}
330
417
100
DictionaryVariables
280
     0
  1
Standard
  0
DICTIONARYVAR
  5
41C
102
{ACAD_REACTORS
330
417
102
}
330
417
100
DictionaryVariables
280
     0
  1
2
  0
DICTIONARYVAR
  5
41D
102
{ACAD_REACTORS
330
417
102
}
330
417
100
DictionaryVariables
280
     0
  1
1
  0
DICTIONARYVAR
  5
421
102
{ACAD_REACTORS
330
417
102
}
330
417
100
DictionaryVariables
280
     0
  1
1
  0
DICTIONARY
  5
424
330
45
100
AcDbDictionary
280
     1
  3
ACAD_XREC_ROUNDTRIP
360
425
  0
DICTIONARY
  5
422
330
44
100
AcDbDictionary
280
     1
  3
ACAD_XREC_ROUNDTRIP
360
423
  0
DICTIONARY
  5
426
330
46
100
AcDbDictionary
280
     1
  3
ACAD_XREC_ROUNDTRIP
360
427
  0
XRECORD
  5
425
102
{ACAD_REACTORS
330
424
102
}
330
424
100
AcDbXrecord
102
MATERIAL
148
0.0
149
0.0
149
0.0
 93
        0
 94
      127
282
     0
 72
     1
 77
     1
171
     1
175
     1
179
     1
273
     0
  0
XRECORD
  5
423
102
{ACAD_REACTORS
330
422
102
}
330
422
100
AcDbXrecord
102
MATERIAL
148
0.0
149
0.0
149
0.0
 93
        0
 94
      127
282
     0
 72
     1
 77
     1
171
     1
175
     1
179
     1
273
     0
  0
XRECORD
  5
427
102
{ACAD_REACTORS
330
426
102
}
330
426
100
AcDbXrecord
102
MATERIAL
148
0.0
149
0.0
149
0.0
 93
        0
 94
      127
282
     0
 72
     1
 77
     1
171
     1
175
     1
179
     1
273
     0
  0
ENDSEC
  0
EOF
