  0
SECTION
  2
HEADER
  9
$ACADVER
  1
AC1006
  9
$DWGCODEPAGE
  3
ansi_932
  9
$INSBASE
 10
0.0
 20
0.0
 30
0.0
  9
$EXTMIN
 10
0.0
 20
0.0
  9
$EXTMAX
 10
881.8396946368
 20
831.8018088792
  9
$LIMMIN
 10
0.0
 20
0.0
  9
$LIMMAX
 10
12.0
 20
9.0
  9
$ORTHOMODE
 70
     0
  9
$REGENMODE
 70
     1
  9
$FILLMODE
 70
     1
  9
$QTEXTMODE
 70
     0
  9
$MIRRTEXT
 70
     1
  9
$DRAGMODE
 70
     2
  9
$LTSCALE
 40
1.0
  9
$OSMODE
 70
    37
  9
$ATTMODE
 70
     1
  9
$TEXTSIZE
 40
0.2
  9
$TRACEWID
 40
0.05
  9
$TEXTSTYLE
  7
STANDARD
  9
$CLAYER
  8
0
  9
$CELTYPE
  6
BYLAYER
  9
$CECOLOR
 62
   256
  9
$DIMSCALE
 40
1.0
  9
$DIMASZ
 40
2.4
  9
$DIMEXO
 40
0.0625
  9
$DIMDLI
 40
0.38
  9
$DIMRND
 40
0.0
  9
$DIMDLE
 40
0.0
  9
$DIMEXE
 40
1.2
  9
$DIMTP
 40
0.0
  9
$DIMTM
 40
0.0
  9
$DIMTXT
 40
8.0
  9
$DIMCEN
 40
0.09
  9
$DIMTSZ
 40
0.0
  9
$DIMTOL
 70
     0
  9
$DIMLIM
 70
     0
  9
$DIMTIH
 70
     1
  9
$DIMTOH
 70
     1
  9
$DIMSE1
 70
     0
  9
$DIMSE2
 70
     0
  9
$DIMTAD
 70
     1
  9
$DIMZIN
 70
     0
  9
$DIMBLK
  1

  9
$DIMASO
 70
     1
  9
$DIMSHO
 70
     1
  9
$DIMPOST
  1

  9
$DIMAPOST
  1

  9
$DIMALT
 70
     0
  9
$DIMALTD
 70
     2
  9
$DIMALTF
 40
25.4
  9
$DIMLFAC
 40
1.0
  9
$DIMTOFL
 70
     0
  9
$DIMTVP
 40
0.0
  9
$DIMTIX
 70
     0
  9
$DIMSOXD
 70
     0
  9
$DIMSAH
 70
     0
  9
$DIMBLK1
  1

  9
$DIMBLK2
  1

  9
$LUNITS
 70
     2
  9
$LUPREC
 70
     4
  9
$SKETCHINC
 40
0.1
  9
$FILLETRAD
 40
0.5
  9
$AUNITS
 70
     0
  9
$AUPREC
 70
     0
  9
$MENU
  1
.
  9
$ELEVATION
 40
0.0
  9
$THICKNESS
 40
0.0
  9
$LIMCHECK
 70
     0
  9
$CHAMFERA
 40
0.0
  9
$CHAMFERB
 40
0.0
  9
$SKPOLY
 70
     0
  9
$TDCREATE
 40
2460587.365809444
  9
$TDUPDATE
 40
2460587.365809792
  9
$TDINDWG
 40
0.0000000116
  9
$TDUSRTIMER
 40
0.0000000116
  9
$USRTIMER
 70
     1
  9
$ANGBASE
 50
0.0
  9
$ANGDIR
 70
     0
  9
$PDMODE
 70
     0
  9
$PDSIZE
 40
0.0
  9
$PLINEWID
 40
0.0
  9
$COORDS
 70
     1
  9
$SPLFRAME
 70
     0
  9
$SPLINETYPE
 70
     6
  9
$SPLINESEGS
 70
     8
  9
$ATTDIA
 70
     0
  9
$ATTREQ
 70
     1
  9
$HANDLING
 70
     1
  9
$HANDSEED
  5
20A
  9
$SURFTAB1
 70
     6
  9
$SURFTAB2
 70
     6
  9
$SURFTYPE
 70
     6
  9
$SURFU
 70
     6
  9
$SURFV
 70
     6
  9
$UCSNAME
  2

  9
$UCSORG
 10
0.0
 20
0.0
 30
0.0
  9
$UCSXDIR
 10
1.0
 20
0.0
 30
0.0
  9
$UCSYDIR
 10
0.0
 20
1.0
 30
0.0
  9
$USERI1
 70
     0
  9
$USERI2
 70
     0
  9
$USERI3
 70
     0
  9
$USERI4
 70
     0
  9
$USERI5
 70
     0
  9
$USERR1
 40
0.0
  9
$USERR2
 40
0.0
  9
$USERR3
 40
0.0
  9
$USERR4
 40
0.0
  9
$USERR5
 40
0.0
  9
$WORLDVIEW
 70
     1
  0
ENDSEC
  0
SECTION
  2
TABLES
  0
TABLE
  2
VPORT
 70
     1
  0
VPORT
  2
*ACTIVE
 70
     0
 10
0.0
 20
0.0
 11
1.0
 21
1.0
 12
440.9198473184
 22
415.9009044396
 13
0.0
 23
0.0
 14
0.5
 24
0.5
 15
0.5
 25
0.5
 16
0.0
 26
0.0
 36
1.0
 17
0.0
 27
0.0
 37
0.0
 40
831.8018088792
 41
1.6
 42
50.0
 43
0.0
 44
0.0
 50
0.0
 51
0.0
 71
     0
 72
   100
 73
     1
 74
     3
 75
     0
 76
     0
 77
     0
 78
     0
  0
ENDTAB
  0
TABLE
  2
LTYPE
 70
     1
  0
LTYPE
  2
CONTINUOUS
 70
     0
  3
Solid line
 72
    65
 73
     0
 40
0.0
  0
ENDTAB
  0
TABLE
  2
LAYER
 70
     2
  0
LAYER
  2
0
 70
     0
 62
     7
  6
CONTINUOUS
  0
LAYER
  2
1
 70
     0
 62
     7
  6
CONTINUOUS
  0
ENDTAB
  0
TABLE
  2
STYLE
 70
     2
  0
STYLE
  2
STANDARD
 70
     0
 40
0.0
 41
1.0
 50
0.0
 71
     0
 42
0.2
  3
txt
  4

  0
STYLE
  2
ＭＳ_ゴシック
 70
     0
 40
0.0
 41
1.0
 50
0.0
 71
     0
 42
0.2
  3
ＭＳ ゴシック.shx
  4

  0
ENDTAB
  0
TABLE
  2
VIEW
 70
     0
  0
ENDTAB
  0
TABLE
  2
UCS
 70
     0
  0
ENDTAB
  0
ENDSEC
  0
SECTION
  2
BLOCKS
  0
BLOCK
  8
0
  2
D_FRAME_DRAWING_21
 70
     0
 10
0.0
 20
0.0
 30
0.0
  0
LINE
  5
189
  8
0
  6
CONTINUOUS
 62
     7
 10
0.0
 20
0.0
 30
0.0
 11
420.0
 21
0.0
 31
0.0
  0
LINE
  5
18A
  8
0
  6
CONTINUOUS
 62
     7
 10
420.0
 20
0.0
 30
0.0
 11
420.0
 21
297.0
 31
0.0
  0
LINE
  5
18B
  8
0
  6
CONTINUOUS
 62
     7
 10
420.0
 20
297.0
 30
0.0
 11
0.0
 21
297.0
 31
0.0
  0
LINE
  5
18C
  8
0
  6
CONTINUOUS
 62
     7
 10
0.0
 20
297.0
 30
0.0
 11
0.0
 21
0.0
 31
0.0
  0
LINE
  5
18D
  8
0
  6
CONTINUOUS
 62
     7
 10
10.0
 20
10.0
 30
0.0
 11
409.9999999999999
 21
10.0
 31
0.0
  0
LINE
  5
18E
  8
0
  6
CONTINUOUS
 62
     7
 10
409.9999999999999
 20
10.0
 30
0.0
 11
409.9999999999999
 21
286.9999999999999
 31
0.0
  0
LINE
  5
18F
  8
0
  6
CONTINUOUS
 62
     7
 10
409.9999999999999
 20
286.9999999999999
 30
0.0
 11
10.00000000000006
 21
286.9999999999999
 31
0.0
  0
LINE
  5
190
  8
0
  6
CONTINUOUS
 62
     7
 10
10.0
 20
286.9999999999999
 30
0.0
 11
10.0
 21
10.00000000000001
 31
0.0
  0
LINE
  5
191
  8
0
  6
CONTINUOUS
 62
     7
 10
210.0
 20
0.0
 30
0.0
 11
210.0
 21
10.0
 31
0.0
  0
LINE
  5
192
  8
0
  6
CONTINUOUS
 62
     7
 10
420.0
 20
148.5
 30
0.0
 11
409.9999999999999
 21
148.5
 31
0.0
  0
LINE
  5
193
  8
0
  6
CONTINUOUS
 62
     7
 10
210.0
 20
297.0
 30
0.0
 11
210.0
 21
286.9999999999999
 31
0.0
  0
LINE
  5
194
  8
0
  6
CONTINUOUS
 62
     7
 10
0.0
 20
148.5
 30
0.0
 11
10.0
 21
148.5
 31
0.0
  0
POLYLINE
  5
195
  8
0
  6
CONTINUOUS
 62
     7
 66
     1
 10
0.0
 20
0.0
 30
0.0
 70
     1
  0
VERTEX
  5
1DB
  8
0
  6
CONTINUOUS
 62
     7
 10
11.0
 20
152.5
 30
0.0
  0
VERTEX
  5
1DC
  8
0
  6
CONTINUOUS
 62
     7
 10
0.0
 20
148.5
 30
0.0
  0
VERTEX
  5
1DD
  8
0
  6
CONTINUOUS
 62
     7
 10
11.0
 20
144.5
 30
0.0
  0
VERTEX
  5
1DE
  8
0
  6
CONTINUOUS
 62
     7
 10
11.0
 20
152.5
 30
0.0
  0
SEQEND
  5
208
  8
0
  6
CONTINUOUS
 62
     7
  0
INSERT
  5
196
  8
0
 62
     7
  2
*U2
 10
0.0
 20
0.0
 30
0.0
  0
POLYLINE
  5
197
  8
0
  6
CONTINUOUS
 62
     7
 66
     1
 10
0.0
 20
0.0
 30
0.0
 70
     1
  0
VERTEX
  5
1E1
  8
0
  6
CONTINUOUS
 62
     7
 10
206.0
 20
11.0
 30
0.0
  0
VERTEX
  5
1E2
  8
0
  6
CONTINUOUS
 62
     7
 10
210.0
 20
0.0
 30
0.0
  0
VERTEX
  5
1E3
  8
0
  6
CONTINUOUS
 62
     7
 10
214.0
 20
11.0
 30
0.0
  0
VERTEX
  5
1E4
  8
0
  6
CONTINUOUS
 62
     7
 10
206.0
 20
11.0
 30
0.0
  0
SEQEND
  5
209
  8
0
  6
CONTINUOUS
 62
     7
  0
INSERT
  5
198
  8
0
 62
     7
  2
*U3
 10
0.0
 20
0.0
 30
0.0
  0
LINE
  5
199
  8
0
  6
CONTINUOUS
 62
     7
 10
367.5
 20
286.9999999999999
 30
0.0
 11
367.5
 21
292.0
 31
0.0
  0
TEXT
  5
19A
  8
0
  6
CONTINUOUS
 62
     7
 10
391.6340909090909
 20
291.8324293485057
 30
0.0
 40
3.5
  1
A
 50
270.0
  0
LINE
  5
19B
  8
0
  6
CONTINUOUS
 62
     7
 10
367.5
 20
10.0
 30
0.0
 11
367.5
 21
5.0
 31
0.0
  0
TEXT
  5
19C
  8
0
  6
CONTINUOUS
 62
     7
 10
392.9868888333125
 20
4.602272727272727
 30
0.0
 40
3.5
  1
A
  0
LINE
  5
19D
  8
0
  6
CONTINUOUS
 62
     7
 10
315.0
 20
286.9999999999999
 30
0.0
 11
315.0
 21
292.0
 31
0.0
  0
TEXT
  5
19E
  8
0
  6
CONTINUOUS
 62
     7
 10
339.1340909090909
 20
291.9745607727899
 30
0.0
 40
3.5
  1
B
 50
270.0
  0
LINE
  5
19F
  8
0
  6
CONTINUOUS
 62
     7
 10
315.0
 20
10.0
 30
0.0
 11
315.0
 21
5.0
 31
0.0
  0
TEXT
  5
1A0
  8
0
  6
CONTINUOUS
 62
     7
 10
340.3447574090284
 20
4.602272727272727
 30
0.0
 40
3.5
  1
B
  0
LINE
  5
1A1
  8
0
  6
CONTINUOUS
 62
     7
 10
262.5
 20
286.9999999999999
 30
0.0
 11
262.5
 21
292.0
 31
0.0
  0
TEXT
  5
1A2
  8
0
  6
CONTINUOUS
 62
     7
 10
286.6327779167187
 20
291.9399305989747
 30
0.0
 40
3.5
  1
C
 50
270.0
  0
LINE
  5
1A3
  8
0
  6
CONTINUOUS
 62
     7
 10
262.5
 20
10.0
 30
0.0
 11
262.5
 21
5.0
 31
0.0
  0
TEXT
  5
1A4
  8
0
  6
CONTINUOUS
 62
     7
 10
287.8793875828435
 20
4.600959734900587
 30
0.0
 40
3.5
  1
C
  0
LINE
  5
1A5
  8
0
  6
CONTINUOUS
 62
     7
 10
210.0
 20
286.9999999999999
 30
0.0
 11
210.0
 21
292.0
 31
0.0
  0
TEXT
  5
1A6
  8
0
  6
CONTINUOUS
 62
     7
 10
234.1340909090909
 20
291.9745607727898
 30
0.0
 40
3.5
  1
D
 50
270.0
  0
LINE
  5
1A7
  8
0
  6
CONTINUOUS
 62
     7
 10
157.5
 20
286.9999999999999
 30
0.0
 11
157.5
 21
292.0
 31
0.0
  0
TEXT
  5
1A8
  8
0
  6
CONTINUOUS
 62
     7
 10
181.6327779167188
 20
292.027463423784
 30
0.0
 40
3.5
  1
E
 50
270.0
  0
LINE
  5
1A9
  8
0
  6
CONTINUOUS
 62
     7
 10
157.5
 20
10.0
 30
0.0
 11
157.5
 21
5.0
 31
0.0
  0
LINE
  5
1AA
  8
0
  6
CONTINUOUS
 62
     7
 10
105.0
 20
286.9999999999999
 30
0.0
 11
105.0
 21
292.0
 31
0.0
  0
TEXT
  5
1AB
  8
0
  6
CONTINUOUS
 62
     7
 10
129.1327779167188
 20
291.9924502938602
 30
0.0
 40
3.5
  1
F
 50
270.0
  0
LINE
  5
1AC
  8
0
  6
CONTINUOUS
 62
     7
 10
105.0
 20
10.0
 30
0.0
 11
105.0
 21
5.0
 31
0.0
  0
TEXT
  5
1AD
  8
0
  6
CONTINUOUS
 62
     7
 10
130.326867887958
 20
4.600959734900587
 30
0.0
 40
3.5
  1
F
  0
LINE
  5
1AE
  8
0
  6
CONTINUOUS
 62
     7
 10
52.50000000000004
 20
286.9999999999999
 30
0.0
 11
52.50000000000004
 21
292.0
 31
0.0
  0
TEXT
  5
1AF
  8
0
  6
CONTINUOUS
 62
     7
 10
76.6327779167188
 20
291.9399305989746
 30
0.0
 40
3.5
  1
G
 50
270.0
  0
LINE
  5
1B0
  8
0
  6
CONTINUOUS
 62
     7
 10
52.50000000000004
 20
10.0
 30
0.0
 11
52.50000000000004
 21
5.0
 31
0.0
  0
TEXT
  5
1B1
  8
0
  6
CONTINUOUS
 62
     7
 10
77.8793875828436
 20
4.600959734900587
 30
0.0
 40
3.5
  1
G
  0
TEXT
  5
1B2
  8
0
  6
CONTINUOUS
 62
     7
 10
24.13277791671879
 20
291.9749437288983
 30
0.0
 40
3.5
  1
H
 50
270.0
  0
TEXT
  5
1B3
  8
0
  6
CONTINUOUS
 62
     7
 10
25.34437445291988
 20
4.600959734900587
 30
0.0
 40
3.5
  1
H
  0
LINE
  5
1B4
  8
0
  6
CONTINUOUS
 62
     7
 10
409.9999999999999
 20
74.25
 30
0.0
 11
414.9999999999999
 21
74.25
 31
0.0
  0
TEXT
  5
1B5
  8
0
  6
CONTINUOUS
 62
     7
 10
412.9326059772414
 20
35.00777791671877
 30
0.0
 40
3.5
  1
1
  0
LINE
  5
1B6
  8
0
  6
CONTINUOUS
 62
     7
 10
10.0
 20
74.25
 30
0.0
 11
5.0
 21
74.25
 31
0.0
  0
TEXT
  5
1B7
  8
0
  6
CONTINUOUS
 62
     7
 10
4.600959734900584
 20
38.26171220457671
 30
0.0
 40
3.5
  1
1
 50
270.0
  0
LINE
  5
1B8
  8
0
  6
CONTINUOUS
 62
     7
 10
409.9999999999999
 20
148.5
 30
0.0
 11
414.9999999999999
 21
148.5
 31
0.0
  0
TEXT
  5
1B9
  8
0
  6
CONTINUOUS
 62
     7
 10
413.163692634738
 20
109.2577779167188
 30
0.0
 40
3.5
  1
2
  0
LINE
  5
1BA
  8
0
  6
CONTINUOUS
 62
     7
 10
10.0
 20
148.5
 30
0.0
 11
5.0
 21
148.5
 31
0.0
  0
TEXT
  5
1BB
  8
0
  6
CONTINUOUS
 62
     7
 10
4.600959734900599
 20
112.2806255470802
 30
0.0
 40
3.5
  1
2
 50
270.0
  0
LINE
  5
1BC
  8
0
  6
CONTINUOUS
 62
     7
 10
409.9999999999999
 20
222.75
 30
0.0
 11
414.9999999999999
 21
222.75
 31
0.0
  0
TEXT
  5
1BD
  8
0
  6
CONTINUOUS
 62
     7
 10
413.1811991996998
 20
183.5077779167188
 30
0.0
 40
3.5
  1
3
  0
LINE
  5
1BE
  8
0
  6
CONTINUOUS
 62
     7
 10
10.0
 20
222.75
 30
0.0
 11
5.0
 21
222.75
 31
0.0
  0
TEXT
  5
1BF
  8
0
  6
CONTINUOUS
 62
     7
 10
4.600959734900584
 20
186.5131189821183
 30
0.0
 40
3.5
  1
3
 50
270.0
  0
TEXT
  5
1C0
  8
0
  6
CONTINUOUS
 62
     7
 10
413.2351413029886
 20
257.7590909090909
 30
0.0
 40
3.5
  1
4
  0
TEXT
  5
1C1
  8
0
  6
CONTINUOUS
 62
     7
 10
4.60227272727272
 20
260.7091768788295
 30
0.0
 40
3.5
  1
4
 50
270.0
  0
LINE
  5
1C2
  8
0
  6
CONTINUOUS
 62
     7
 10
220.0
 20
10.0
 30
0.0
 11
220.0
 21
7.0
 31
0.0
  0
LINE
  5
1C3
  8
0
  6
CONTINUOUS
 62
     7
 10
200.0
 20
10.0
 30
0.0
 11
200.0
 21
7.0
 31
0.0
  0
LINE
  5
1C4
  8
0
  6
CONTINUOUS
 62
     7
 10
230.0
 20
10.0
 30
0.0
 11
230.0
 21
7.0
 31
0.0
  0
LINE
  5
1C5
  8
0
  6
CONTINUOUS
 62
     7
 10
190.0
 20
10.0
 30
0.0
 11
190.0
 21
7.0
 31
0.0
  0
LINE
  5
1C6
  8
0
  6
CONTINUOUS
 62
     7
 10
240.0
 20
10.0
 30
0.0
 11
240.0
 21
7.0
 31
0.0
  0
LINE
  5
1C7
  8
0
  6
CONTINUOUS
 62
     7
 10
180.0
 20
10.0
 30
0.0
 11
180.0
 21
7.0
 31
0.0
  0
LINE
  5
1C8
  8
0
  6
CONTINUOUS
 62
     7
 10
250.0
 20
10.0
 30
0.0
 11
250.0
 21
7.0
 31
0.0
  0
LINE
  5
1C9
  8
0
  6
CONTINUOUS
 62
     7
 10
170.0
 20
10.0
 30
0.0
 11
170.0
 21
7.0
 31
0.0
  0
LINE
  5
1CA
  8
0
  6
CONTINUOUS
 62
     7
 10
260.0
 20
10.0
 30
0.0
 11
260.0
 21
5.0
 31
0.0
  0
LINE
  5
1CB
  8
0
  6
CONTINUOUS
 62
     7
 10
160.0
 20
10.0
 30
0.0
 11
160.0
 21
5.0
 31
0.0
  0
LINE
  5
1CC
  8
0
  6
CONTINUOUS
 62
     7
 10
260.0
 20
10.0
 30
0.0
 11
160.0
 21
10.0
 31
0.0
  0
LINE
  5
1CD
  8
0
  6
CONTINUOUS
 62
     7
 10
260.0
 20
7.0
 30
0.0
 11
160.0
 21
7.0
 31
0.0
  0
INSERT
  5
1CE
  8
0
 62
     7
  2
*U4
 10
0.0
 20
0.0
 30
0.0
  0
INSERT
  5
1CF
  8
0
 62
     7
  2
*U5
 10
0.0
 20
0.0
 30
0.0
  0
INSERT
  5
1D0
  8
0
 62
     7
  2
*U6
 10
0.0
 20
0.0
 30
0.0
  0
INSERT
  5
1D1
  8
0
 62
     7
  2
*U7
 10
0.0
 20
0.0
 30
0.0
  0
ENDBLK
  8
0
  0
BLOCK
  8
0
  2
*U2
 70
     1
 10
0.0
 20
0.0
 30
0.0
  0
SOLID
  5
1E0
  8
0
  6
CONTINUOUS
 62
     7
 10
11.0
 20
144.5
 30
0.0
 11
6.999999999999999
 21
148.5
 31
0.0
 12
11.0
 22
152.5
 32
0.0
 13
11.0
 23
152.5
 33
0.0
  0
ENDBLK
  8
0
  0
BLOCK
  8
0
  2
*U3
 70
     1
 10
0.0
 20
0.0
 30
0.0
  0
SOLID
  5
1E6
  8
0
  6
CONTINUOUS
 62
     7
 10
210.0
 20
6.999999999999999
 30
0.0
 11
206.0
 21
11.0
 31
0.0
 12
210.0
 22
11.0
 32
0.0
 13
210.0
 23
11.0
 33
0.0
  0
SOLID
  5
1E7
  8
0
  6
CONTINUOUS
 62
     7
 10
210.0
 20
6.999999999999999
 30
0.0
 11
210.0
 21
11.0
 31
0.0
 12
214.0
 22
11.0
 32
0.0
 13
214.0
 23
11.0
 33
0.0
  0
ENDBLK
  8
0
  0
BLOCK
  8
0
  2
*U4
 70
     1
 10
0.0
 20
0.0
 30
0.0
  0
SOLID
  5
1E9
  8
0
  6
CONTINUOUS
 62
     7
 10
0.0
 20
0.0
 30
0.0
 11
0.0
 21
10.0
 31
0.0
 12
2.0
 22
0.0
 32
0.0
 13
2.0
 23
0.0
 33
0.0
  0
SOLID
  5
1EA
  8
0
  6
CONTINUOUS
 62
     7
 10
2.0
 20
0.0
 30
0.0
 11
0.0
 21
10.0
 31
0.0
 12
2.0
 22
10.0
 32
0.0
 13
2.0
 23
10.0
 33
0.0
  0
SOLID
  5
1EB
  8
0
  6
CONTINUOUS
 62
     7
 10
2.0
 20
0.0
 30
0.0
 11
2.0
 21
2.0
 31
0.0
 12
10.0
 22
0.0
 32
0.0
 13
10.0
 23
0.0
 33
0.0
  0
SOLID
  5
1EC
  8
0
  6
CONTINUOUS
 62
     7
 10
10.0
 20
0.0
 30
0.0
 11
2.0
 21
2.0
 31
0.0
 12
10.0
 22
2.0
 32
0.0
 13
10.0
 23
2.0
 33
0.0
  0
ENDBLK
  8
0
  0
BLOCK
  8
0
  2
*U5
 70
     1
 10
0.0
 20
0.0
 30
0.0
  0
SOLID
  5
1EE
  8
0
  6
CONTINUOUS
 62
     7
 10
409.9999999999999
 20
0.0
 30
0.0
 11
409.9999999999999
 21
2.0
 31
0.0
 12
418.0
 22
0.0
 32
0.0
 13
418.0
 23
0.0
 33
0.0
  0
SOLID
  5
1EF
  8
0
  6
CONTINUOUS
 62
     7
 10
418.0
 20
0.0
 30
0.0
 11
409.9999999999999
 21
2.0
 31
0.0
 12
418.0
 22
2.0
 32
0.0
 13
418.0
 23
2.0
 33
0.0
  0
SOLID
  5
1F0
  8
0
  6
CONTINUOUS
 62
     7
 10
418.0
 20
0.0
 30
0.0
 11
418.0
 21
10.0
 31
0.0
 12
420.0
 22
0.0
 32
0.0
 13
420.0
 23
0.0
 33
0.0
  0
SOLID
  5
1F1
  8
0
  6
CONTINUOUS
 62
     7
 10
420.0
 20
0.0
 30
0.0
 11
418.0
 21
10.0
 31
0.0
 12
420.0
 22
10.0
 32
0.0
 13
420.0
 23
10.0
 33
0.0
  0
ENDBLK
  8
0
  0
BLOCK
  8
0
  2
*U6
 70
     1
 10
0.0
 20
0.0
 30
0.0
  0
SOLID
  5
1F3
  8
0
  6
CONTINUOUS
 62
     7
 10
409.9999999999999
 20
295.0
 30
0.0
 11
409.9999999999999
 21
297.0
 31
0.0
 12
418.0
 22
295.0
 32
0.0
 13
418.0
 23
295.0
 33
0.0
  0
SOLID
  5
1F4
  8
0
  6
CONTINUOUS
 62
     7
 10
418.0
 20
295.0
 30
0.0
 11
409.9999999999999
 21
297.0
 31
0.0
 12
418.0
 22
297.0
 32
0.0
 13
418.0
 23
297.0
 33
0.0
  0
SOLID
  5
1F5
  8
0
  6
CONTINUOUS
 62
     7
 10
418.0
 20
286.9999999999999
 30
0.0
 11
418.0
 21
297.0
 31
0.0
 12
420.0
 22
286.9999999999999
 32
0.0
 13
420.0
 23
286.9999999999999
 33
0.0
  0
SOLID
  5
1F6
  8
0
  6
CONTINUOUS
 62
     7
 10
420.0
 20
286.9999999999999
 30
0.0
 11
418.0
 21
297.0
 31
0.0
 12
420.0
 22
297.0
 32
0.0
 13
420.0
 23
297.0
 33
0.0
  0
ENDBLK
  8
0
  0
BLOCK
  8
0
  2
*U7
 70
     1
 10
0.0
 20
0.0
 30
0.0
  0
SOLID
  5
1F8
  8
0
  6
CONTINUOUS
 62
     7
 10
0.0
 20
286.9999999999999
 30
0.0
 11
0.0
 21
297.0
 31
0.0
 12
2.0
 22
286.9999999999999
 32
0.0
 13
2.0
 23
286.9999999999999
 33
0.0
  0
SOLID
  5
1F9
  8
0
  6
CONTINUOUS
 62
     7
 10
2.0
 20
286.9999999999999
 30
0.0
 11
0.0
 21
297.0
 31
0.0
 12
2.0
 22
297.0
 32
0.0
 13
2.0
 23
297.0
 33
0.0
  0
SOLID
  5
1FA
  8
0
  6
CONTINUOUS
 62
     7
 10
2.0
 20
295.0
 30
0.0
 11
2.0
 21
297.0
 31
0.0
 12
10.0
 22
295.0
 32
0.0
 13
10.0
 23
295.0
 33
0.0
  0
SOLID
  5
1FB
  8
0
  6
CONTINUOUS
 62
     7
 10
10.0
 20
295.0
 30
0.0
 11
2.0
 21
297.0
 31
0.0
 12
10.0
 22
297.0
 32
0.0
 13
10.0
 23
297.0
 33
0.0
  0
ENDBLK
  8
0
  0
ENDSEC
  0
SECTION
  2
ENTITIES
  0
LINE
  5
70
  8
1
  6
CONTINUOUS
 62
     7
 10
852.0247396368
 20
829.4018088792
 30
0.0
 11
871.6546496368
 21
829.4018088792
 31
0.0
  0
LINE
  5
71
  8
1
  6
CONTINUOUS
 62
     7
 10
628.8396946368
 20
829.4018088792
 30
0.0
 11
645.8396946368
 21
829.4018088792
 31
0.0
  0
LINE
  5
72
  8
1
  6
CONTINUOUS
 62
     7
 10
628.8396946368
 20
829.4018088792
 30
0.0
 11
628.8396946368
 21
821.4018088792
 31
0.0
  0
LINE
  5
73
  8
1
  6
CONTINUOUS
 62
     7
 10
637.3396946368
 20
829.4018088792
 30
0.0
 11
637.3396946368
 21
821.4018088792
 31
0.0
  0
LINE
  5
74
  8
1
  6
CONTINUOUS
 62
     7
 10
738.8396946368
 20
821.4018088792
 30
0.0
 11
738.8396946368
 21
829.4018088792
 31
0.0
  0
LINE
  5
75
  8
1
  6
CONTINUOUS
 62
     7
 10
755.8396946368
 20
829.4018088792
 30
0.0
 11
755.8396946368
 21
821.4018088792
 31
0.0
  0
LINE
  5
76
  8
1
  6
CONTINUOUS
 62
     7
 10
645.8396946368
 20
829.4018088792
 30
0.0
 11
645.8396946368
 21
821.4018088792
 31
0.0
  0
LINE
  5
77
  8
1
  6
CONTINUOUS
 62
     7
 10
747.3396946368
 20
829.4018088792
 30
0.0
 11
747.3396946368
 21
821.4018088792
 31
0.0
  0
LINE
  5
78
  8
1
  6
CONTINUOUS
 62
     7
 10
738.8396946368
 20
829.4018088792
 30
0.0
 11
755.8396946368
 21
829.4018088792
 31
0.0
  0
LINE
  5
79
  8
1
  6
CONTINUOUS
 62
     7
 10
852.0247396368
 20
829.4018088792
 30
0.0
 11
852.0247396368
 21
821.4018088792
 31
0.0
  0
LINE
  5
7A
  8
1
  6
CONTINUOUS
 62
     7
 10
856.9322176368
 20
829.4018088792
 30
0.0
 11
856.9322176368
 21
821.4018088792
 31
0.0
  0
LINE
  5
7B
  8
1
  6
CONTINUOUS
 62
     7
 10
866.7471716368
 20
829.4018088792
 30
0.0
 11
866.7471716368
 21
821.4018088792
 31
0.0
  0
LINE
  5
7C
  8
1
  6
CONTINUOUS
 62
     7
 10
871.6546496368
 20
829.4018088792
 30
0.0
 11
871.6546496368
 21
821.4018088792
 31
0.0
  0
LINE
  5
7D
  8
1
  6
CONTINUOUS
 62
     7
 10
738.3396946368
 20
661.8018088792
 30
0.0
 11
738.3396946368
 21
660.2018088792
 31
0.0
  0
LINE
  5
7E
  8
1
  6
CONTINUOUS
 62
     7
 10
747.3396946368
 20
644.2018088792
 30
0.0
 11
747.3396946368
 21
660.2018088792
 31
0.0
  0
LINE
  5
7F
  8
1
  6
CONTINUOUS
 62
     7
 10
852.0247396368
 20
821.4018088792
 30
0.0
 11
871.6546496368
 21
821.4018088792
 31
0.0
  0
LINE
  5
80
  8
1
  6
CONTINUOUS
 62
     7
 10
849.8896946368
 20
786.8018088792
 30
0.0
 11
847.5896946368
 21
786.8018088792
 31
0.0
  0
LINE
  5
81
  8
1
  6
CONTINUOUS
 62
     7
 10
873.7896946368
 20
786.8018088792
 30
0.0
 11
873.7896946368
 21
809.0018088792
 31
0.0
  0
LINE
  5
82
  8
1
  6
CONTINUOUS
 62
     7
 10
856.9322176368
 20
821.4018088792
 30
0.0
 11
856.9322176368
 21
813.4018088792
 31
0.0
  0
LINE
  5
83
  8
1
  6
CONTINUOUS
 62
     7
 10
876.0896946368
 20
786.8018088792
 30
0.0
 11
873.7896946368
 21
786.8018088792
 31
0.0
  0
LINE
  5
84
  8
1
  6
CONTINUOUS
 62
     7
 10
738.8396946368
 20
644.2018088792
 30
0.0
 11
755.8396946368
 21
644.2018088792
 31
0.0
  0
LINE
  5
85
  8
1
  6
CONTINUOUS
 62
     7
 10
752.0896946368
 20
641.8018088792
 30
0.0
 11
752.0896946368
 21
644.2018088792
 31
0.0
  0
LINE
  5
86
  8
1
  6
CONTINUOUS
 62
     7
 10
857.0896946368
 20
831.8018088792
 30
0.0
 11
866.5896946368
 21
831.8018088792
 31
0.0
  0
LINE
  5
87
  8
1
  6
CONTINUOUS
 62
     7
 10
852.0247396368
 20
821.4018088792
 30
0.0
 11
852.0247396368
 21
813.4018088792
 31
0.0
  0
LINE
  5
88
  8
1
  6
CONTINUOUS
 62
     7
 10
871.6546496368
 20
821.4018088792
 30
0.0
 11
871.6546496368
 21
813.4018088792
 31
0.0
  0
LINE
  5
89
  8
1
  6
CONTINUOUS
 62
     7
 10
866.7471716368
 20
821.4018088792
 30
0.0
 11
866.7471716368
 21
813.4018088792
 31
0.0
  0
LINE
  5
8A
  8
1
  6
CONTINUOUS
 62
     7
 10
849.8896946368
 20
809.0018088792
 30
0.0
 11
849.8896946368
 21
786.8018088792
 31
0.0
  0
LINE
  5
8B
  8
1
  6
CONTINUOUS
 62
     7
 10
642.0896946368
 20
641.8018088792
 30
0.0
 11
642.0896946368
 21
644.2018088792
 31
0.0
  0
LINE
  5
8C
  8
1
  6
CONTINUOUS
 62
     7
 10
871.6546496368
 20
813.4018088792
 30
0.0
 11
852.0247396368
 21
813.4018088792
 31
0.0
  0
ARC
  5
8D
  8
1
  6
CONTINUOUS
 62
     7
 10
873.2896946368
 20
809.0018088792
 30
0.0
 40
2.8
 50
0.0
 51
90.0
  0
LINE
  5
8E
  8
1
  6
CONTINUOUS
 62
     7
 10
645.8396946368
 20
821.4018088792
 30
0.0
 11
645.8396946368
 21
813.4018088792
 31
0.0
  0
LINE
  5
8F
  8
1
  6
CONTINUOUS
 62
     7
 10
838.2896946368
 20
656.2962558792
 30
0.0
 11
838.2896946368
 21
671.3073628792
 31
0.0
  0
LINE
  5
90
  8
1
  6
CONTINUOUS
 62
     7
 10
756.3396946368
 20
660.2018088792
 30
0.0
 11
738.3396946368
 21
660.2018088792
 31
0.0
  0
LINE
  5
91
  8
1
  6
CONTINUOUS
 62
     7
 10
755.8396946368
 20
644.2018088792
 30
0.0
 11
755.8396946368
 21
660.2018088792
 31
0.0
  0
CIRCLE
  5
92
  8
1
  6
CONTINUOUS
 62
     7
 10
692.3396946368
 20
663.8018088792
 30
0.0
 40
4.0
  0
LINE
  5
93
  8
1
  6
CONTINUOUS
 62
     7
 10
845.0896946368
 20
671.3073628792
 30
0.0
 11
838.2896946368
 21
671.3073628792
 31
0.0
  0
LINE
  5
94
  8
1
  6
CONTINUOUS
 62
     7
 10
738.8396946368
 20
660.2018088792
 30
0.0
 11
738.8396946368
 21
644.2018088792
 31
0.0
  0
LINE
  5
95
  8
1
  6
CONTINUOUS
 62
     7
 10
756.3396946368
 20
660.2018088792
 30
0.0
 11
756.3396946368
 21
661.8018088792
 31
0.0
  0
LINE
  5
96
  8
1
  6
CONTINUOUS
 62
     7
 10
752.0896946368
 20
641.8018088792
 30
0.0
 11
742.5896946368
 21
641.8018088792
 31
0.0
  0
LINE
  5
97
  8
1
  6
CONTINUOUS
 62
     7
 10
742.5896946368
 20
831.8018088792
 30
0.0
 11
752.0896946368
 21
831.8018088792
 31
0.0
  0
LINE
  5
98
  8
1
  6
CONTINUOUS
 62
     7
 10
646.3396946368
 20
660.2018088792
 30
0.0
 11
646.3396946368
 21
661.8018088792
 31
0.0
  0
LINE
  5
99
  8
1
  6
CONTINUOUS
 62
     7
 10
738.8396946368
 20
813.4018088792
 30
0.0
 11
738.8396946368
 21
821.4018088792
 31
0.0
  0
LINE
  5
9A
  8
1
  6
CONTINUOUS
 62
     7
 10
870.8396946368
 20
811.8018088792
 30
0.0
 11
870.8396946368
 21
813.4018088792
 31
0.0
  0
LINE
  5
9B
  8
1
  6
CONTINUOUS
 62
     7
 10
852.8396946368
 20
813.4018088792
 30
0.0
 11
852.8396946368
 21
811.8018088792
 31
0.0
  0
LINE
  5
9C
  8
1
  6
CONTINUOUS
 62
     7
 10
742.5896946368
 20
644.2018088792
 30
0.0
 11
742.5896946368
 21
641.8018088792
 31
0.0
  0
LINE
  5
9D
  8
1
  6
CONTINUOUS
 62
     7
 10
755.8396946368
 20
652.2018088792
 30
0.0
 11
738.8396946368
 21
652.2018088792
 31
0.0
  0
LINE
  5
9E
  8
1
  6
CONTINUOUS
 62
     7
 10
857.0896946368
 20
831.8018088792
 30
0.0
 11
857.0896946368
 21
829.4018088792
 31
0.0
  0
LINE
  5
9F
  8
1
  6
CONTINUOUS
 62
     7
 10
857.0896946368
 20
809.5018088792
 30
0.0
 11
857.0896946368
 21
664.1018088792
 31
0.0
  0
LINE
  5
A0
  8
1
  6
CONTINUOUS
 62
     7
 10
742.5896946368
 20
831.8018088792
 30
0.0
 11
742.5896946368
 21
829.4018088792
 31
0.0
  0
LINE
  5
A1
  8
1
  6
CONTINUOUS
 62
     7
 10
866.5896946368
 20
664.1018088792
 30
0.0
 11
866.5896946368
 21
809.5018088792
 31
0.0
  0
LINE
  5
A2
  8
1
  6
CONTINUOUS
 62
     7
 10
866.5896946368
 20
829.4018088792
 30
0.0
 11
866.5896946368
 21
831.8018088792
 31
0.0
  0
LINE
  5
A3
  8
1
  6
CONTINUOUS
 62
     7
 10
752.0896946368
 20
829.4018088792
 30
0.0
 11
752.0896946368
 21
831.8018088792
 31
0.0
  0
LINE
  5
A4
  8
1
  6
CONTINUOUS
 62
     7
 10
632.5896946368
 20
831.8018088792
 30
0.0
 11
632.5896946368
 21
829.4018088792
 31
0.0
  0
LINE
  5
A5
  8
1
  6
CONTINUOUS
 62
     7
 10
642.0896946368
 20
829.4018088792
 30
0.0
 11
642.0896946368
 21
831.8018088792
 31
0.0
  0
TEXT
  5
A6
  8
1
  6
CONTINUOUS
 62
     7
 10
751.678501121108
 20
557.8570722727272
 30
0.0
 40
6.0
  1
ＳＧＰＡ－１０－３
 41
0.888341
  0
LINE
  5
A7
  8
1
  6
CONTINUOUS
 62
     7
 10
646.3396946368
 20
813.4018088792
 30
0.0
 11
628.3396946368
 21
813.4018088792
 31
0.0
  0
LINE
  5
A8
  8
1
  6
CONTINUOUS
 62
     7
 10
847.5896946368
 20
786.8018088792
 30
0.0
 11
847.5896946368
 21
809.0018088792
 31
0.0
  0
LINE
  5
A9
  8
1
  6
CONTINUOUS
 62
     7
 10
632.5896946368
 20
786.8018088792
 30
0.0
 11
632.5896946368
 21
686.8018088792
 31
0.0
  0
LINE
  5
AA
  8
1
  6
CONTINUOUS
 62
     7
 10
873.2896946368
 20
809.5018088792
 30
0.0
 11
850.3896946368
 21
809.5018088792
 31
0.0
  0
ARC
  5
AB
  8
1
  6
CONTINUOUS
 62
     7
 10
873.2896946368
 20
809.0018088792
 30
0.0
 40
0.5
 50
0.0
 51
90.0
  0
LINE
  5
AC
  8
1
  6
CONTINUOUS
 62
     7
 10
637.3396946368
 20
821.4018088792
 30
0.0
 11
637.3396946368
 21
813.4018088792
 31
0.0
  0
LINE
  5
AD
  8
1
  6
CONTINUOUS
 62
     7
 10
646.3396946368
 20
811.8018088792
 30
0.0
 11
646.3396946368
 21
813.4018088792
 31
0.0
  0
LINE
  5
AE
  8
1
  6
CONTINUOUS
 62
     7
 10
672.3396946368
 20
642.8018088792
 30
0.0
 11
672.3396946368
 21
648.8018088792
 31
0.0
  0
LINE
  5
AF
  8
1
  6
CONTINUOUS
 62
     7
 10
628.3396946368
 20
813.4018088792
 30
0.0
 11
628.3396946368
 21
811.8018088792
 31
0.0
  0
LINE
  5
B0
  8
1
  6
CONTINUOUS
 62
     7
 10
742.5896946368
 20
786.8018088792
 30
0.0
 11
742.5896946368
 21
686.8018088792
 31
0.0
  0
ARC
  5
B1
  8
1
  6
CONTINUOUS
 62
     7
 10
692.5896946368
 20
654.2936208792
 30
0.0
 40
7.4
 50
179.197277
 51
180.0
  0
LINE
  5
B2
  8
1
  6
CONTINUOUS
 62
     7
 10
685.1896946368
 20
637.4018088792
 30
0.0
 11
685.1896946368
 21
654.2936208792
 31
0.0
  0
LINE
  5
B3
  8
1
  6
CONTINUOUS
 62
     7
 10
682.5896946368
 20
654.2936208792
 30
0.0
 11
682.5896946368
 21
637.1018088792
 31
0.0
  0
ARC
  5
B4
  8
1
  6
CONTINUOUS
 62
     7
 10
692.5896946368
 20
654.2936208792
 30
0.0
 40
10.0
 50
171.767363
 51
180.0
  0
LINE
  5
B5
  8
1
  6
CONTINUOUS
 62
     7
 10
707.3896946368
 20
652.5018088792
 30
0.0
 11
704.8896946368
 21
652.5018088792
 31
0.0
  0
LINE
  5
B6
  8
1
  6
CONTINUOUS
 62
     7
 10
876.0896946368
 20
809.0018088792
 30
0.0
 11
876.0896946368
 21
786.8018088792
 31
0.0
  0
ARC
  5
B7
  8
1
  6
CONTINUOUS
 62
     7
 10
850.3896946368
 20
809.0018088792
 30
0.0
 40
2.8
 50
90.0
 51
180.0
  0
LINE
  5
B8
  8
1
  6
CONTINUOUS
 62
     7
 10
680.5896946368
 20
657.8018088792
 30
0.0
 11
680.0396946368
 21
657.8018088792
 31
0.0
  0
LINE
  5
B9
  8
1
  6
CONTINUOUS
 62
     7
 10
756.3396946368
 20
811.8018088792
 30
0.0
 11
756.3396946368
 21
813.4018088792
 31
0.0
  0
LINE
  5
BA
  8
1
  6
CONTINUOUS
 62
     7
 10
850.3896946368
 20
811.8018088792
 30
0.0
 11
873.2896946368
 21
811.8018088792
 31
0.0
  0
LINE
  5
BB
  8
1
  6
CONTINUOUS
 62
     7
 10
646.3396946368
 20
660.2018088792
 30
0.0
 11
628.3396946368
 21
660.2018088792
 31
0.0
  0
LINE
  5
BC
  8
1
  6
CONTINUOUS
 62
     7
 10
632.5896946368
 20
831.8018088792
 30
0.0
 11
642.0896946368
 21
831.8018088792
 31
0.0
  0
LINE
  5
BD
  8
1
  6
CONTINUOUS
 62
     7
 10
628.8396946368
 20
821.4018088792
 30
0.0
 11
645.8396946368
 21
821.4018088792
 31
0.0
  0
LINE
  5
BE
  8
1
  6
CONTINUOUS
 62
     7
 10
642.0896946368
 20
641.8018088792
 30
0.0
 11
632.5896946368
 21
641.8018088792
 31
0.0
  0
LINE
  5
BF
  8
1
  6
CONTINUOUS
 62
     7
 10
738.3396946368
 20
813.4018088792
 30
0.0
 11
738.3396946368
 21
811.8018088792
 31
0.0
  0
ARC
  5
C0
  8
1
  6
CONTINUOUS
 62
     7
 10
850.3896946368
 20
809.0018088792
 30
0.0
 40
0.5
 50
90.0
 51
180.0
  0
LINE
  5
C1
  8
1
  6
CONTINUOUS
 62
     7
 10
628.8396946368
 20
821.4018088792
 30
0.0
 11
628.8396946368
 21
813.4018088792
 31
0.0
  0
LINE
  5
C2
  8
1
  6
CONTINUOUS
 62
     7
 10
632.5896946368
 20
644.2018088792
 30
0.0
 11
632.5896946368
 21
641.8018088792
 31
0.0
  0
LINE
  5
C3
  8
1
  6
CONTINUOUS
 62
     7
 10
642.0896946368
 20
686.8018088792
 30
0.0
 11
642.0896946368
 21
786.8018088792
 31
0.0
  0
LINE
  5
C4
  8
1
  6
CONTINUOUS
 62
     7
 10
752.0896946368
 20
686.8018088792
 30
0.0
 11
752.0896946368
 21
786.8018088792
 31
0.0
  0
LINE
  5
C5
  8
1
  6
CONTINUOUS
 62
     7
 10
628.3396946368
 20
661.8018088792
 30
0.0
 11
628.3396946368
 21
660.2018088792
 31
0.0
  0
LINE
  5
C6
  8
1
  6
CONTINUOUS
 62
     7
 10
738.8396946368
 20
821.4018088792
 30
0.0
 11
755.8396946368
 21
821.4018088792
 31
0.0
  0
ARC
  5
C7
  8
1
  6
CONTINUOUS
 62
     7
 10
682.3396946368
 20
617.8018088792
 30
0.0
 40
2.3
 50
180.0
 51
183.475233
  0
LINE
  5
C8
  8
1
  6
CONTINUOUS
 62
     7
 10
703.1354656368
 20
592.9623898792
 30
0.0
 11
704.6354656368
 21
617.6623898792
 31
0.0
  0
LINE
  5
C9
  8
1
  6
CONTINUOUS
 62
     7
 10
682.3396946368
 20
655.9955618792
 30
0.0
 11
682.3396946368
 21
617.8018088792
 31
0.0
  0
LINE
  5
CA
  8
1
  6
CONTINUOUS
 62
     7
 10
692.0896946368
 20
634.8018088792
 30
0.0
 11
692.0896946368
 21
637.4018088792
 31
0.0
  0
LINE
  5
CB
  8
1
  6
CONTINUOUS
 62
     7
 10
692.5896946368
 20
637.4018088792
 30
0.0
 11
702.0896946368
 21
637.4018088792
 31
0.0
  0
LINE
  5
CC
  8
1
  6
CONTINUOUS
 62
     7
 10
692.0896946368
 20
637.4018088792
 30
0.0
 11
682.5896946368
 21
637.4018088792
 31
0.0
  0
LINE
  5
CD
  8
1
  6
CONTINUOUS
 62
     7
 10
704.6396946368
 20
617.8018088792
 30
0.0
 11
704.6396946368
 21
657.8018088792
 31
0.0
  0
LINE
  5
CE
  8
1
  6
CONTINUOUS
 62
     7
 10
682.3396946368
 20
617.8018088792
 30
0.0
 11
680.0396946368
 21
617.8018088792
 31
0.0
  0
LINE
  5
CF
  8
1
  6
CONTINUOUS
 62
     7
 10
683.8396946368
 20
590.8018088792
 30
0.0
 11
700.8396946368
 21
590.8018088792
 31
0.0
  0
LINE
  5
D0
  8
1
  6
CONTINUOUS
 62
     7
 10
702.0896946368
 20
654.2936208792
 30
0.0
 11
702.0896946368
 21
637.1018088792
 31
0.0
  0
LINE
  5
D1
  8
1
  6
CONTINUOUS
 62
     7
 10
673.3396946368
 20
641.8018088792
 30
0.0
 11
680.0396946368
 21
641.8018088792
 31
0.0
  0
LINE
  5
D2
  8
1
  6
CONTINUOUS
 62
     7
 10
699.4896946368
 20
649.8018088792
 30
0.0
 11
685.1896946368
 21
649.8018088792
 31
0.0
  0
LINE
  5
D3
  8
1
  6
CONTINUOUS
 62
     7
 10
673.3396946368
 20
649.8018088792
 30
0.0
 11
672.3396946368
 21
648.8018088792
 31
0.0
  0
LINE
  5
D4
  8
1
  6
CONTINUOUS
 62
     7
 10
876.0896946368
 20
686.8018088792
 30
0.0
 11
876.0896946368
 21
653.8018088792
 31
0.0
  0
LINE
  5
D5
  8
1
  6
CONTINUOUS
 62
     7
 10
702.3396946368
 20
655.9955618792
 30
0.0
 11
702.3396946368
 21
617.8018088792
 31
0.0
  0
LINE
  5
D6
  8
1
  6
CONTINUOUS
 62
     7
 10
873.7896946368
 20
664.9018088792
 30
0.0
 11
873.7896946368
 21
686.8018088792
 31
0.0
  0
LINE
  5
D7
  8
1
  6
CONTINUOUS
 62
     7
 10
872.9896946368
 20
661.8018088792
 30
0.0
 11
850.6896946368
 21
661.8018088792
 31
0.0
  0
LINE
  5
D8
  8
1
  6
CONTINUOUS
 62
     7
 10
681.5439236368
 20
592.9623898792
 30
0.0
 11
680.0439236368
 21
617.6623898792
 31
0.0
  0
LINE
  5
D9
  8
1
  6
CONTINUOUS
 62
     7
 10
680.0396946368
 20
617.8018088792
 30
0.0
 11
680.0396946368
 21
657.8018088792
 31
0.0
  0
LINE
  5
DA
  8
1
  6
CONTINUOUS
 62
     7
 10
692.5896946368
 20
634.8018088792
 30
0.0
 11
692.5896946368
 21
637.4018088792
 31
0.0
  0
LINE
  5
DB
  8
1
  6
CONTINUOUS
 62
     7
 10
699.4896946368
 20
637.4018088792
 30
0.0
 11
699.4896946368
 21
654.2936208792
 31
0.0
  0
LINE
  5
DC
  8
1
  6
CONTINUOUS
 62
     7
 10
704.8896946368
 20
639.1018088792
 30
0.0
 11
707.3896946368
 21
639.1018088792
 31
0.0
  0
LINE
  5
DD
  8
1
  6
CONTINUOUS
 62
     7
 10
847.5896946368
 20
653.8018088792
 30
0.0
 11
847.5896946368
 21
686.8018088792
 31
0.0
  0
LINE
  5
DE
  8
1
  6
CONTINUOUS
 62
     7
 10
849.8896946368
 20
686.8018088792
 30
0.0
 11
849.8896946368
 21
664.9018088792
 31
0.0
  0
LINE
  5
DF
  8
1
  6
CONTINUOUS
 62
     7
 10
702.3396946368
 20
617.8018088792
 30
0.0
 11
700.8396946368
 21
593.1018088792
 31
0.0
  0
ARC
  5
E0
  8
1
  6
CONTINUOUS
 62
     7
 10
872.9896946368
 20
664.9018088792
 30
0.0
 40
3.1
 50
270.0
 51
0.0
  0
LINE
  5
E1
  8
1
  6
CONTINUOUS
 62
     7
 10
684.8896946368
 20
634.8018088792
 30
0.0
 11
692.0896946368
 21
634.8018088792
 31
0.0
  0
LINE
  5
E2
  8
1
  6
CONTINUOUS
 62
     7
 10
850.3896946368
 20
664.4018088792
 30
0.0
 11
873.2896946368
 21
664.4018088792
 31
0.0
  0
ARC
  5
E3
  8
1
  6
CONTINUOUS
 62
     7
 10
700.8396946368
 20
593.1018088792
 30
0.0
 40
2.3
 50
270.0
 51
356.524767
  0
LINE
  5
E4
  8
1
  6
CONTINUOUS
 62
     7
 10
699.7896946368
 20
634.8018088792
 30
0.0
 11
692.5896946368
 21
634.8018088792
 31
0.0
  0
LINE
  5
E5
  8
1
  6
CONTINUOUS
 62
     7
 10
704.0896946368
 20
657.8018088792
 30
0.0
 11
704.6396946368
 21
657.8018088792
 31
0.0
  0
ARC
  5
E6
  8
1
  6
CONTINUOUS
 62
     7
 10
683.8396946368
 20
593.1018088792
 30
0.0
 40
2.3
 50
183.475233
 51
270.0
  0
ARC
  5
E7
  8
1
  6
CONTINUOUS
 62
     7
 10
684.8896946368
 20
637.1018088792
 30
0.0
 40
2.3
 50
180.0
 51
270.0
  0
LINE
  5
E8
  8
1
  6
CONTINUOUS
 62
     7
 10
672.3396946368
 20
642.8018088792
 30
0.0
 11
673.3396946368
 21
641.8018088792
 31
0.0
  0
LINE
  5
E9
  8
1
  6
CONTINUOUS
 62
     7
 10
873.7896946368
 20
686.8018088792
 30
0.0
 11
876.0896946368
 21
686.8018088792
 31
0.0
  0
ARC
  5
EA
  8
1
  6
CONTINUOUS
 62
     7
 10
873.2896946368
 20
664.9018088792
 30
0.0
 40
0.5
 50
270.0
 51
0.0
  0
ARC
  5
EB
  8
1
  6
CONTINUOUS
 62
     7
 10
850.3896946368
 20
664.9018088792
 30
0.0
 40
0.5
 50
180.0
 51
270.0
  0
ARC
  5
EC
  8
1
  6
CONTINUOUS
 62
     7
 10
850.6896946368
 20
664.9018088792
 30
0.0
 40
3.1
 50
180.0
 51
270.0
  0
LINE
  5
ED
  8
1
  6
CONTINUOUS
 62
     7
 10
850.3396946368
 20
661.8216308792
 30
0.0
 11
850.3396946368
 21
649.2296368792
 31
0.0
  0
LINE
  5
EE
  8
1
  6
CONTINUOUS
 62
     7
 10
847.5896946368
 20
686.8018088792
 30
0.0
 11
849.8896946368
 21
686.8018088792
 31
0.0
  0
LINE
  5
EF
  8
1
  6
CONTINUOUS
 62
     7
 10
873.3396946368
 20
661.8216308792
 30
0.0
 11
873.3396946368
 21
649.2296368792
 31
0.0
  0
ARC
  5
F0
  8
1
  6
CONTINUOUS
 62
     7
 10
699.7896946368
 20
637.1018088792
 30
0.0
 40
2.3
 50
270.0
 51
0.0
  0
ARC
  5
F1
  8
1
  6
CONTINUOUS
 62
     7
 10
692.0896946368
 20
654.2936208792
 30
0.0
 40
7.4
 50
0.0
 51
0.8027229999999997
  0
LINE
  5
F2
  8
1
  6
CONTINUOUS
 62
     7
 10
680.0396946368
 20
649.8018088792
 30
0.0
 11
673.3396946368
 21
649.8018088792
 31
0.0
  0
LINE
  5
F3
  8
1
  6
CONTINUOUS
 62
     7
 10
682.3396946368
 20
617.8018088792
 30
0.0
 11
683.8396946368
 21
593.1018088792
 31
0.0
  0
ARC
  5
F4
  8
1
  6
CONTINUOUS
 62
     7
 10
692.0896946368
 20
654.2936208792
 30
0.0
 40
10.0
 50
0.0
 51
8.232636999999999
  0
LINE
  5
F5
  8
1
  6
CONTINUOUS
 62
     7
 10
685.1896946368
 20
641.8018088792
 30
0.0
 11
699.4896946368
 21
641.8018088792
 31
0.0
  0
ARC
  5
F6
  8
1
  6
CONTINUOUS
 62
     7
 10
702.3396946368
 20
617.8018088792
 30
0.0
 40
2.3
 50
356.524767
 51
0.0
  0
LINE
  5
F7
  8
1
  6
CONTINUOUS
 62
     7
 10
702.3396946368
 20
617.8018088792
 30
0.0
 11
704.6396946368
 21
617.8018088792
 31
0.0
  0
LINE
  5
F8
  8
1
  6
CONTINUOUS
 62
     7
 10
700.8396946368
 20
593.1018088792
 30
0.0
 11
683.8396946368
 21
593.1018088792
 31
0.0
  0
LINE
  5
F9
  8
1
  6
CONTINUOUS
 62
     7
 10
853.5896946368
 20
661.8018088792
 30
0.0
 11
853.5896946368
 21
658.8018088792
 31
0.0
  0
LINE
  5
FA
  8
1
  6
CONTINUOUS
 62
     7
 10
870.0896946368
 20
658.8018088792
 30
0.0
 11
870.0896946368
 21
661.8018088792
 31
0.0
  0
LINE
  5
FB
  8
1
  6
CONTINUOUS
 62
     7
 10
853.3396946368
 20
600.8018088792
 30
0.0
 11
855.3396946368
 21
600.8018088792
 31
0.0
  0
LINE
  5
FC
  8
1
  6
CONTINUOUS
 62
     7
 10
876.0896946368
 20
653.8018088792
 30
0.0
 11
873.7896946368
 21
653.8018088792
 31
0.0
  0
LINE
  5
FD
  8
1
  6
CONTINUOUS
 62
     7
 10
871.0772986368
 20
658.8018088792
 30
0.0
 11
852.6020906368
 21
658.8018088792
 31
0.0
  0
ARC
  5
FE
  8
1
  6
CONTINUOUS
 62
     7
 10
844.8396946368
 20
638.7647208792
 30
0.0
 40
5.0
 50
338.198591
 51
0.0
  0
LINE
  5
FF
  8
1
  6
CONTINUOUS
 62
     7
 10
877.8896946368
 20
678.9018088792
 30
0.0
 11
877.8896946368
 21
672.6018088792
 31
0.0
  0
LINE
  5
100
  8
1
  6
CONTINUOUS
 62
     7
 10
852.6020906368
 20
652.4018088792
 30
0.0
 11
871.0772986368
 21
652.4018088792
 31
0.0
  0
ARC
  5
101
  8
1
  6
CONTINUOUS
 62
     7
 10
875.3896946368
 20
672.6018088792
 30
0.0
 40
2.5
 50
286.260205
 51
0.0
  0
LINE
  5
102
  8
1
  6
CONTINUOUS
 62
     7
 10
852.6020906368
 20
652.4018088792
 30
0.0
 11
852.6020906368
 21
658.8018088792
 31
0.0
  0
LINE
  5
103
  8
1
  6
CONTINUOUS
 62
     7
 10
857.2208926368
 20
652.4018088792
 30
0.0
 11
857.2208926368
 21
658.8018088792
 31
0.0
  0
LINE
  5
104
  8
1
  6
CONTINUOUS
 62
     7
 10
849.8896946368
 20
653.8018088792
 30
0.0
 11
849.8896946368
 21
661.9068128792
 31
0.0
  0
LINE
  5
105
  8
1
  6
CONTINUOUS
 62
     7
 10
871.0772986368
 20
652.4018088792
 30
0.0
 11
871.0772986368
 21
658.8018088792
 31
0.0
  0
LINE
  5
106
  8
1
  6
CONTINUOUS
 62
     7
 10
868.3396946368
 20
649.5545858792
 30
0.0
 11
863.4079336247
 21
652.4019388582
 31
0.0
  0
LINE
  5
107
  8
1
  6
CONTINUOUS
 62
     7
 10
861.8396946368
 20
638.2962558792
 30
0.0
 11
868.3396946368
 21
642.0490318792
 31
0.0
  0
LINE
  5
108
  8
1
  6
CONTINUOUS
 62
     7
 10
847.5896946368
 20
653.8018088792
 30
0.0
 11
849.8896946368
 21
653.8018088792
 31
0.0
  0
LINE
  5
109
  8
1
  6
CONTINUOUS
 62
     7
 10
664.8396946368
 20
673.2018088792
 30
0.0
 11
664.8396946368
 21
678.3018088792
 31
0.0
  0
LINE
  5
10A
  8
1
  6
CONTINUOUS
 62
     7
 10
845.7896946368
 20
672.6018088792
 30
0.0
 11
845.7896946368
 21
678.9018088792
 31
0.0
  0
LINE
  5
10B
  8
1
  6
CONTINUOUS
 62
     7
 10
866.4584966368
 20
652.4018088792
 30
0.0
 11
866.4584966368
 21
658.8018088792
 31
0.0
  0
ARC
  5
10C
  8
1
  6
CONTINUOUS
 62
     7
 10
716.8396946368
 20
673.2018088792
 30
0.0
 40
3.0
 50
270.0
 51
0.0
  0
ARC
  5
10D
  8
1
  6
CONTINUOUS
 62
     7
 10
848.2896946368
 20
672.6018088792
 30
0.0
 40
2.5
 50
180.0
 51
253.739795
  0
LINE
  5
10E
  8
1
  6
CONTINUOUS
 62
     7
 10
851.8396946368
 20
609.3018088792
 30
0.0
 11
851.8396946368
 21
602.3018088792
 31
0.0
  0
LINE
  5
10F
  8
1
  6
CONTINUOUS
 62
     7
 10
870.3396946368
 20
610.8018088792
 30
0.0
 11
868.3396946368
 21
610.8018088792
 31
0.0
  0
ARC
  5
110
  8
1
  6
CONTINUOUS
 62
     7
 10
855.3396946368
 20
599.3018088792
 30
0.0
 40
1.5
 50
0.0
 51
90.0
  0
LINE
  5
111
  8
1
  6
CONTINUOUS
 62
     7
 10
857.7081726368
 20
617.6623898792
 30
0.0
 11
858.3396946368
 21
617.8018088792
 31
0.0
  0
LINE
  5
112
  8
1
  6
CONTINUOUS
 62
     7
 10
866.8396946368
 20
590.8018088792
 30
0.0
 11
866.8396946368
 21
599.3018088792
 31
0.0
  0
LINE
  5
113
  8
1
  6
CONTINUOUS
 62
     7
 10
873.7896946368
 20
653.8018088792
 30
0.0
 11
873.7896946368
 21
661.9068128792
 31
0.0
  0
LINE
  5
114
  8
1
  6
CONTINUOUS
 62
     7
 10
860.2718696368
 20
652.4021778792
 30
0.0
 11
855.3396946409
 21
649.554585872
 31
0.0
  0
LINE
  5
115
  8
1
  6
CONTINUOUS
 62
     7
 10
865.3396946368
 20
617.8018088792
 30
0.0
 11
865.9712166368
 21
617.6623898792
 31
0.0
  0
ARC
  5
116
  8
1
  6
CONTINUOUS
 62
     7
 10
848.2896946368
 20
678.9018088792
 30
0.0
 40
2.5
 50
106.260205
 51
180.0
  0
LINE
  5
117
  8
1
  6
CONTINUOUS
 62
     7
 10
845.0896946368
 20
671.3073628792
 30
0.0
 11
845.0896946368
 21
656.2962558792
 31
0.0
  0
ARC
  5
118
  8
1
  6
CONTINUOUS
 62
     7
 10
868.3396946368
 20
599.3018088792
 30
0.0
 40
1.5
 50
90.0
 51
180.0
  0
ARC
  5
119
  8
1
  6
CONTINUOUS
 62
     7
 10
853.3396946368
 20
602.3018088792
 30
0.0
 40
1.5
 50
180.0
 51
270.0
  0
LINE
  5
11A
  8
1
  6
CONTINUOUS
 62
     7
 10
707.3896946368
 20
649.5545858792
 30
0.0
 11
712.8896946368
 21
649.5545858792
 31
0.0
  0
LINE
  5
11B
  8
1
  6
CONTINUOUS
 62
     7
 10
855.3396946368
 20
610.8018088792
 30
0.0
 11
853.3396946368
 21
610.8018088792
 31
0.0
  0
LINE
  5
11C
  8
1
  6
CONTINUOUS
 62
     7
 10
881.8396946368
 20
590.8018088792
 30
0.0
 11
841.8396946368
 21
590.8018088792
 31
0.0
  0
ARC
  5
11D
  8
1
  6
CONTINUOUS
 62
     7
 10
853.3396946368
 20
609.3018088792
 30
0.0
 40
1.5
 50
90.0
 51
180.0
  0
LINE
  5
11E
  8
1
  6
CONTINUOUS
 62
     7
 10
868.3396946368
 20
642.0490318792
 30
0.0
 11
868.3396946368
 21
649.5545858792
 31
0.0
  0
LINE
  5
11F
  8
1
  6
CONTINUOUS
 62
     7
 10
868.3396946368
 20
600.8018088792
 30
0.0
 11
870.3396946368
 21
600.8018088792
 31
0.0
  0
LINE
  5
120
  8
1
  6
CONTINUOUS
 62
     7
 10
866.8396946368
 20
612.3018088792
 30
0.0
 11
866.8396946368
 21
616.3018088792
 31
0.0
  0
LINE
  5
121
  8
1
  6
CONTINUOUS
 62
     7
 10
841.8396946368
 20
590.8018088792
 30
0.0
 11
841.8396946368
 21
617.8018088792
 31
0.0
  0
LINE
  5
122
  8
1
  6
CONTINUOUS
 62
     7
 10
856.8396946368
 20
599.3018088792
 30
0.0
 11
856.8396946368
 21
590.8018088792
 31
0.0
  0
ARC
  5
123
  8
1
  6
CONTINUOUS
 62
     7
 10
870.3396946368
 20
609.3018088792
 30
0.0
 40
1.5
 50
0.0
 51
90.0
  0
ARC
  5
124
  8
1
  6
CONTINUOUS
 62
     7
 10
858.3396946368
 20
616.3018088792
 30
0.0
 40
1.5
 50
114.898665
 51
180.0
  0
ARC
  5
125
  8
1
  6
CONTINUOUS
 62
     7
 10
870.3396946368
 20
602.3018088792
 30
0.0
 40
1.5
 50
270.0
 51
0.0
  0
ARC
  5
126
  8
1
  6
CONTINUOUS
 62
     7
 10
865.3396946368
 20
616.3018088792
 30
0.0
 40
1.5
 50
0.0
 51
65.101335
  0
LINE
  5
127
  8
1
  6
CONTINUOUS
 62
     7
 10
871.8396946368
 20
602.3018088792
 30
0.0
 11
871.8396946368
 21
609.3018088792
 31
0.0
  0
LINE
  5
128
  8
1
  6
CONTINUOUS
 62
     7
 10
855.3396946368
 20
642.0490318792
 30
0.0
 11
861.8396946368
 21
638.2962558792
 31
0.0
  0
LINE
  5
129
  8
1
  6
CONTINUOUS
 62
     7
 10
707.3896946368
 20
653.3073628792
 30
0.0
 11
712.8896946368
 21
653.3073628792
 31
0.0
  0
LINE
  5
12A
  8
1
  6
CONTINUOUS
 62
     7
 10
866.8396946368
 20
593.1018088792
 30
0.0
 11
856.8396946368
 21
593.1018088792
 31
0.0
  0
ARC
  5
12B
  8
1
  6
CONTINUOUS
 62
     7
 10
875.3896946368
 20
678.9018088792
 30
0.0
 40
2.5
 50
0.0
 51
73.739795
  0
LINE
  5
12C
  8
1
  6
CONTINUOUS
 62
     7
 10
855.3396946368
 20
649.5545858792
 30
0.0
 11
855.3396946368
 21
642.0490318792
 31
0.0
  0
LINE
  5
12D
  8
1
  6
CONTINUOUS
 62
     7
 10
716.8396946368
 20
670.2018088792
 30
0.0
 11
698.6674116368
 21
670.2018088792
 31
0.0
  0
LINE
  5
12E
  8
1
  6
CONTINUOUS
 62
     7
 10
628.8396946368
 20
660.2018088792
 30
0.0
 11
628.8396946368
 21
644.2018088792
 31
0.0
  0
LINE
  5
12F
  8
1
  6
CONTINUOUS
 62
     7
 10
845.0896946368
 20
657.1018088792
 30
0.0
 11
847.5896946368
 21
657.1018088792
 31
0.0
  0
ARC
  5
130
  8
1
  6
CONTINUOUS
 62
     7
 10
624.3396946368
 20
788.8018088792
 30
0.0
 40
2.0
 50
180.0
 51
270.0
  0
LINE
  5
131
  8
1
  6
CONTINUOUS
 62
     7
 10
849.8396946368
 20
638.7647208792
 30
0.0
 11
849.8396946368
 21
645.8018088792
 31
0.0
  0
LINE
  5
132
  8
1
  6
CONTINUOUS
 62
     7
 10
873.3396946368
 20
659.8018088792
 30
0.0
 11
873.7896946368
 21
659.8018088792
 31
0.0
  0
LINE
  5
133
  8
1
  6
CONTINUOUS
 62
     7
 10
645.8396946368
 20
652.2018088792
 30
0.0
 11
628.8396946368
 21
652.2018088792
 31
0.0
  0
LINE
  5
134
  8
1
  6
CONTINUOUS
 62
     7
 10
856.8396946368
 20
616.3018088792
 30
0.0
 11
856.8396946368
 21
612.3018088792
 31
0.0
  0
ARC
  5
135
  8
1
  6
CONTINUOUS
 62
     7
 10
760.3396946368
 20
684.8018088792
 30
0.0
 40
2.0
 50
0.0
 51
90.0
  0
ARC
  5
136
  8
1
  6
CONTINUOUS
 62
     7
 10
868.3396946368
 20
612.3018088792
 30
0.0
 40
1.5
 50
180.0
 51
270.0
  0
LINE
  5
137
  8
1
  6
CONTINUOUS
 62
     7
 10
762.3396946368
 20
661.8018088792
 30
0.0
 11
762.3396946368
 21
684.8018088792
 31
0.0
  0
LINE
  5
138
  8
1
  6
CONTINUOUS
 62
     7
 10
756.3396946368
 20
813.4018088792
 30
0.0
 11
738.3396946368
 21
813.4018088792
 31
0.0
  0
LINE
  5
139
  8
1
  6
CONTINUOUS
 62
     7
 10
622.3396946368
 20
661.8018088792
 30
0.0
 11
622.3396946368
 21
684.8018088792
 31
0.0
  0
ARC
  5
13A
  8
1
  6
CONTINUOUS
 62
     7
 10
624.3396946368
 20
684.8018088792
 30
0.0
 40
2.0
 50
90.0
 51
180.0
  0
LINE
  5
13B
  8
1
  6
CONTINUOUS
 62
     7
 10
706.6164656368
 20
786.8018088792
 30
0.0
 11
695.3396946368
 21
789.3018088792
 31
0.0
  0
ARC
  5
13C
  8
1
  6
CONTINUOUS
 62
     7
 10
760.3396946368
 20
788.8018088792
 30
0.0
 40
2.0
 50
270.0
 51
0.0
  0
ARC
  5
13D
  8
1
  6
CONTINUOUS
 62
     7
 10
855.3396946368
 20
612.3018088792
 30
0.0
 40
1.5
 50
270.0
 51
0.0
  0
LINE
  5
13E
  8
1
  6
CONTINUOUS
 62
     7
 10
755.8396946368
 20
821.4018088792
 30
0.0
 11
755.8396946368
 21
813.4018088792
 31
0.0
  0
LINE
  5
13F
  8
1
  6
CONTINUOUS
 62
     7
 10
706.6164656368
 20
786.8018088792
 30
0.0
 11
760.3396946368
 21
786.8018088792
 31
0.0
  0
LINE
  5
140
  8
1
  6
CONTINUOUS
 62
     7
 10
846.9332286368
 20
670.5018088792
 30
0.0
 11
845.0896946368
 21
670.5018088792
 31
0.0
  0
LINE
  5
141
  8
1
  6
CONTINUOUS
 62
     7
 10
689.3396946368
 20
789.3018088792
 30
0.0
 11
678.0629236368
 21
786.8018088792
 31
0.0
  0
LINE
  5
142
  8
1
  6
CONTINUOUS
 62
     7
 10
622.3396946368
 20
788.8018088792
 30
0.0
 11
622.3396946368
 21
811.8018088792
 31
0.0
  0
LINE
  5
143
  8
1
  6
CONTINUOUS
 62
     7
 10
624.3396946368
 20
786.8018088792
 30
0.0
 11
678.0629236368
 21
786.8018088792
 31
0.0
  0
LINE
  5
144
  8
1
  6
CONTINUOUS
 62
     7
 10
849.8896946368
 20
659.8018088792
 30
0.0
 11
850.3396946368
 21
659.8018088792
 31
0.0
  0
LINE
  5
145
  8
1
  6
CONTINUOUS
 62
     7
 10
622.3396946368
 20
811.8018088792
 30
0.0
 11
762.3396946368
 21
811.8018088792
 31
0.0
  0
LINE
  5
146
  8
1
  6
CONTINUOUS
 62
     7
 10
645.8396946368
 20
644.2018088792
 30
0.0
 11
645.8396946368
 21
660.2018088792
 31
0.0
  0
LINE
  5
147
  8
1
  6
CONTINUOUS
 62
     7
 10
628.8396946368
 20
644.2018088792
 30
0.0
 11
645.8396946368
 21
644.2018088792
 31
0.0
  0
LINE
  5
148
  8
1
  6
CONTINUOUS
 62
     7
 10
637.3396946368
 20
644.2018088792
 30
0.0
 11
637.3396946368
 21
660.2018088792
 31
0.0
  0
LINE
  5
149
  8
1
  6
CONTINUOUS
 62
     7
 10
881.8396946368
 20
617.8018088792
 30
0.0
 11
881.8396946368
 21
590.8018088792
 31
0.0
  0
LINE
  5
14A
  8
1
  6
CONTINUOUS
 62
     7
 10
747.3396946368
 20
821.4018088792
 30
0.0
 11
747.3396946368
 21
813.4018088792
 31
0.0
  0
LINE
  5
14B
  8
1
  6
CONTINUOUS
 62
     7
 10
762.3396946368
 20
788.8018088792
 30
0.0
 11
762.3396946368
 21
811.8018088792
 31
0.0
  0
LINE
  5
14C
  8
1
  6
CONTINUOUS
 62
     7
 10
695.3396946368
 20
789.3018088792
 30
0.0
 11
689.3396946368
 21
789.3018088792
 31
0.0
  0
LINE
  5
14D
  8
1
  6
CONTINUOUS
 62
     7
 10
712.8896946368
 20
638.2962558792
 30
0.0
 11
712.8896946368
 21
653.3073628792
 31
0.0
  0
LINE
  5
14E
  8
1
  6
CONTINUOUS
 62
     7
 10
624.3396946368
 20
686.8018088792
 30
0.0
 11
678.0629236368
 21
686.8018088792
 31
0.0
  0
LINE
  5
14F
  8
1
  6
CONTINUOUS
 62
     7
 10
692.3396946368
 20
656.2962558792
 30
0.0
 11
698.8396946368
 21
660.0490318792
 31
0.0
  0
LINE
  5
150
  8
1
  6
CONTINUOUS
 62
     7
 10
669.8396946368
 20
664.8018088792
 30
0.0
 11
669.8497966368
 21
664.9018088792
 31
0.0
  0
LINE
  5
151
  8
1
  6
CONTINUOUS
 62
     7
 10
685.8396946368
 20
667.5545858792
 30
0.0
 11
685.8396946368
 21
660.0490318792
 31
0.0
  0
LINE
  5
152
  8
1
  6
CONTINUOUS
 62
     7
 10
704.8896946368
 20
652.5018088792
 30
0.0
 11
704.8896946368
 21
639.1018088792
 31
0.0
  0
LINE
  5
153
  8
1
  6
CONTINUOUS
 62
     7
 10
707.3896946368
 20
638.2962558792
 30
0.0
 11
712.8896946368
 21
638.2962558792
 31
0.0
  0
LINE
  5
154
  8
1
  6
CONTINUOUS
 62
     7
 10
685.8396946368
 20
660.0490318792
 30
0.0
 11
692.3396946368
 21
656.2962558792
 31
0.0
  0
LINE
  5
155
  8
1
  6
CONTINUOUS
 62
     7
 10
622.3396946368
 20
661.8018088792
 30
0.0
 11
669.8396946368
 21
661.8018088792
 31
0.0
  0
LINE
  5
156
  8
1
  6
CONTINUOUS
 62
     7
 10
698.8396946368
 20
660.0490318792
 30
0.0
 11
698.8396946368
 21
667.5545858792
 31
0.0
  0
LINE
  5
157
  8
1
  6
CONTINUOUS
 62
     7
 10
698.8396946368
 20
667.5545858792
 30
0.0
 11
692.3396942038
 21
671.3073621292
 31
0.0
  0
LINE
  5
158
  8
1
  6
CONTINUOUS
 62
     7
 10
706.6164656368
 20
686.8018088792
 30
0.0
 11
760.3396946368
 21
686.8018088792
 31
0.0
  0
LINE
  5
159
  8
1
  6
CONTINUOUS
 62
     7
 10
692.3396946368
 20
671.3073628792
 30
0.0
 11
685.8396950698
 21
667.5545851292
 31
0.0
  0
ARC
  5
15A
  8
1
  6
CONTINUOUS
 62
     7
 10
688.5896946368
 20
663.8018088792
 30
0.0
 40
10.0
 50
186.62581
 51
270.0
  0
LINE
  5
15B
  8
1
  6
CONTINUOUS
 62
     7
 10
695.3396946368
 20
684.3018088792
 30
0.0
 11
706.6164656368
 21
686.8018088792
 31
0.0
  0
ARC
  5
15C
  8
1
  6
CONTINUOUS
 62
     7
 10
670.3396946368
 20
664.8018088792
 30
0.0
 40
0.5
 50
90.0
 51
168.463041
  0
LINE
  5
15D
  8
1
  6
CONTINUOUS
 62
     7
 10
707.3896946368
 20
653.3073628792
 30
0.0
 11
707.3896946368
 21
638.2962558792
 31
0.0
  0
LINE
  5
15E
  8
1
  6
CONTINUOUS
 62
     7
 10
688.5896946368
 20
653.8018088792
 30
0.0
 11
696.0896946368
 21
653.8018088792
 31
0.0
  0
LINE
  5
15F
  8
1
  6
CONTINUOUS
 62
     7
 10
675.6765226368
 20
665.3018088792
 30
0.0
 11
670.3396946368
 21
665.3018088792
 31
0.0
  0
ARC
  5
160
  8
1
  6
CONTINUOUS
 62
     7
 10
675.6765226368
 20
662.3018088792
 30
0.0
 40
3.0
 50
6.625810000000001
 51
90.0
  0
ARC
  5
161
  8
1
  6
CONTINUOUS
 62
     7
 10
696.0896946368
 20
663.8018088792
 30
0.0
 40
10.0
 50
270.0
 51
353.3741900000001
  0
LINE
  5
162
  8
1
  6
CONTINUOUS
 62
     7
 10
714.8396946368
 20
661.8018088792
 30
0.0
 11
762.3396946368
 21
661.8018088792
 31
0.0
  0
LINE
  5
163
  8
1
  6
CONTINUOUS
 62
     7
 10
707.3896946368
 20
642.0490318792
 30
0.0
 11
712.8896946368
 21
642.0490318792
 31
0.0
  0
LINE
  5
164
  8
1
  6
CONTINUOUS
 62
     7
 10
689.3396946368
 20
684.3018088792
 30
0.0
 11
695.3396946368
 21
684.3018088792
 31
0.0
  0
LINE
  5
165
  8
1
  6
CONTINUOUS
 62
     7
 10
714.8295926368
 20
664.9018088792
 30
0.0
 11
714.8396946368
 21
664.8018088792
 31
0.0
  0
LINE
  5
166
  8
1
  6
CONTINUOUS
 62
     7
 10
669.8396946368
 20
664.8018088792
 30
0.0
 11
669.8396946368
 21
661.8018088792
 31
0.0
  0
LINE
  5
167
  8
1
  6
CONTINUOUS
 62
     7
 10
678.0629236368
 20
686.8018088792
 30
0.0
 11
689.3396946368
 21
684.3018088792
 31
0.0
  0
LINE
  5
168
  8
1
  6
CONTINUOUS
 62
     7
 10
714.8396946368
 20
661.8018088792
 30
0.0
 11
714.8396946368
 21
664.8018088792
 31
0.0
  0
LINE
  5
169
  8
1
  6
CONTINUOUS
 62
     7
 10
845.0896946368
 20
667.5545858792
 30
0.0
 11
838.2896946368
 21
667.5545858792
 31
0.0
  0
LINE
  5
16A
  8
1
  6
CONTINUOUS
 62
     7
 10
881.5896946368
 20
670.3018088792
 30
0.0
 11
876.0896946368
 21
670.3018088792
 31
0.0
  0
ARC
  5
16B
  8
1
  6
CONTINUOUS
 62
     7
 10
692.3396946368
 20
663.8018088792
 30
0.0
 40
9.0
 50
45.32539000000001
 51
134.67461
  0
ARC
  5
16C
  8
1
  6
CONTINUOUS
 62
     7
 10
667.8396946368
 20
678.3018088792
 30
0.0
 40
3.0
 50
90.0
 51
180.0
  0
LINE
  5
16D
  8
1
  6
CONTINUOUS
 62
     7
 10
667.8396946368
 20
681.3018088792
 30
0.0
 11
716.8396946368
 21
681.3018088792
 31
0.0
  0
LINE
  5
16E
  8
1
  6
CONTINUOUS
 62
     7
 10
714.3396946368
 20
665.3018088792
 30
0.0
 11
709.0028666368
 21
665.3018088792
 31
0.0
  0
LINE
  5
16F
  8
1
  6
CONTINUOUS
 62
     7
 10
881.5896946368
 20
657.3018088792
 30
0.0
 11
881.5896946368
 21
670.3018088792
 31
0.0
  0
ARC
  5
170
  8
1
  6
CONTINUOUS
 62
     7
 10
716.8396946368
 20
678.3018088792
 30
0.0
 40
3.0
 50
0.0
 51
90.0
  0
ARC
  5
171
  8
1
  6
CONTINUOUS
 62
     7
 10
667.8396946368
 20
673.2018088792
 30
0.0
 40
3.0
 50
180.0
 51
270.0
  0
LINE
  5
172
  8
1
  6
CONTINUOUS
 62
     7
 10
836.0896946368
 20
661.3018088792
 30
0.0
 11
837.5896946368
 21
659.8018088792
 31
0.0
  0
ARC
  5
173
  8
1
  6
CONTINUOUS
 62
     7
 10
714.3396946368
 20
664.8018088792
 30
0.0
 40
0.5
 50
11.536959
 51
90.0
  0
LINE
  5
174
  8
1
  6
CONTINUOUS
 62
     7
 10
845.0896946368
 20
660.0490318792
 30
0.0
 11
838.2896946368
 21
660.0490318792
 31
0.0
  0
LINE
  5
175
  8
1
  6
CONTINUOUS
 62
     7
 10
876.0896946368
 20
657.3018088792
 30
0.0
 11
881.5896946368
 21
657.3018088792
 31
0.0
  0
LINE
  5
176
  8
1
  6
CONTINUOUS
 62
     7
 10
837.5896946368
 20
659.8018088792
 30
0.0
 11
838.2896946368
 21
659.8018088792
 31
0.0
  0
LINE
  5
177
  8
1
  6
CONTINUOUS
 62
     7
 10
837.5896946368
 20
667.8018088792
 30
0.0
 11
836.0896946368
 21
666.3018088792
 31
0.0
  0
LINE
  5
178
  8
1
  6
CONTINUOUS
 62
     7
 10
686.0119776368
 20
670.2018088792
 30
0.0
 11
667.8396946368
 21
670.2018088792
 31
0.0
  0
LINE
  5
179
  8
1
  6
CONTINUOUS
 62
     7
 10
845.0896946368
 20
656.2962558792
 30
0.0
 11
838.2896946368
 21
656.2962558792
 31
0.0
  0
LINE
  5
17A
  8
1
  6
CONTINUOUS
 62
     7
 10
838.2896946368
 20
667.8018088792
 30
0.0
 11
837.5896946368
 21
667.8018088792
 31
0.0
  0
LINE
  5
17B
  8
1
  6
CONTINUOUS
 62
     7
 10
719.8396946368
 20
678.3018088792
 30
0.0
 11
719.8396946368
 21
673.2018088792
 31
0.0
  0
LINE
  5
17C
  8
1
  6
CONTINUOUS
 62
     7
 10
881.5896946368
 20
663.8018088792
 30
0.0
 11
876.0896946368
 21
663.8018088792
 31
0.0
  0
LINE
  5
17D
  8
1
  6
CONTINUOUS
 62
     7
 10
836.0896946368
 20
666.3018088792
 30
0.0
 11
836.0896946368
 21
661.3018088792
 31
0.0
  0
ARC
  5
17E
  8
1
  6
CONTINUOUS
 62
     7
 10
709.0028666368
 20
662.3018088792
 30
0.0
 40
3.0
 50
90.0
 51
173.37419
  0
CIRCLE
  5
17F
  8
1
  6
CONTINUOUS
 62
     7
 10
692.3396946368
 20
663.8018088792
 30
0.0
 40
7.5055536246
  0
LINE
  5
180
  8
1
  6
CONTINUOUS
 62
     7
 10
841.8396946368
 20
617.8018088792
 30
0.0
 11
849.4820776368
 21
636.9077678792
 31
0.0
  0
LINE
  5
181
  8
1
  6
CONTINUOUS
 62
     7
 10
858.3396946368
 20
617.8018088792
 30
0.0
 11
865.3396946368
 21
617.8018088792
 31
0.0
  0
LINE
  5
182
  8
1
  6
CONTINUOUS
 62
     7
 10
874.1973116368
 20
636.9077678792
 30
0.0
 11
881.8396946368
 21
617.8018088792
 31
0.0
  0
ARC
  5
183
  8
1
  6
CONTINUOUS
 62
     7
 10
878.8396946368
 20
638.7647208792
 30
0.0
 40
5.0
 50
180.0
 51
201.801409
  0
LINE
  5
184
  8
1
  6
CONTINUOUS
 62
     7
 10
873.8396946368
 20
645.8018088792
 30
0.0
 11
873.8396946368
 21
638.7647208792
 31
0.0
  0
ARC
  5
185
  8
1
  6
CONTINUOUS
 62
     7
 10
861.8396946368
 20
645.8018088792
 30
0.0
 40
12.0
 50
0.0
 51
39.664035
  0
ARC
  5
186
  8
1
  6
CONTINUOUS
 62
     7
 10
861.8396946368
 20
645.8018088792
 30
0.0
 40
12.0
 50
140.335965
 51
180.0
  0
INSERT
  5
188
  8
0
 62
     7
  2
D_FRAME_DRAWING_21
 10
0.0
 20
0.0
 30
0.0
  0
ENDSEC
  0
EOF
