  0
SECTION
  2
HEADER
  9
$ACADVER
  1
AC1006
  9
$DWGCODEPAGE
  3
ansi_932
  9
$INSBASE
 10
0.0
 20
0.0
 30
0.0
  9
$EXTMIN
 10
0.0
 20
0.0
  9
$EXTMAX
 10
1326.6206428773
 20
843.4513842081
  9
$LIMMIN
 10
0.0
 20
0.0
  9
$LIMMAX
 10
12.0
 20
9.0
  9
$ORTHOMODE
 70
     0
  9
$REGENMODE
 70
     1
  9
$FILLMODE
 70
     1
  9
$QTEXTMODE
 70
     0
  9
$MIRRTEXT
 70
     1
  9
$DRAGMODE
 70
     2
  9
$LTSCALE
 40
1.0
  9
$OSMODE
 70
    37
  9
$ATTMODE
 70
     1
  9
$TEXTSIZE
 40
0.2
  9
$TRACEWID
 40
0.05
  9
$TEXTSTYLE
  7
STANDARD
  9
$CLAYER
  8
0
  9
$CELTYPE
  6
BYLAYER
  9
$CECOLOR
 62
   256
  9
$DIMSCALE
 40
1.0
  9
$DIMASZ
 40
2.4
  9
$DIMEXO
 40
0.0625
  9
$DIMDLI
 40
0.38
  9
$DIMRND
 40
0.0
  9
$DIMDLE
 40
0.0
  9
$DIMEXE
 40
1.2
  9
$DIMTP
 40
0.0
  9
$DIMTM
 40
0.0
  9
$DIMTXT
 40
8.0
  9
$DIMCEN
 40
0.09
  9
$DIMTSZ
 40
0.0
  9
$DIMTOL
 70
     0
  9
$DIMLIM
 70
     0
  9
$DIMTIH
 70
     1
  9
$DIMTOH
 70
     1
  9
$DIMSE1
 70
     0
  9
$DIMSE2
 70
     0
  9
$DIMTAD
 70
     1
  9
$DIMZIN
 70
     0
  9
$DIMBLK
  1

  9
$DIMASO
 70
     1
  9
$DIMSHO
 70
     1
  9
$DIMPOST
  1

  9
$DIMAPOST
  1

  9
$DIMALT
 70
     0
  9
$DIMALTD
 70
     2
  9
$DIMALTF
 40
25.4
  9
$DIMLFAC
 40
1.0
  9
$DIMTOFL
 70
     0
  9
$DIMTVP
 40
0.0
  9
$DIMTIX
 70
     0
  9
$DIMSOXD
 70
     0
  9
$DIMSAH
 70
     0
  9
$DIMBLK1
  1

  9
$DIMBLK2
  1

  9
$LUNITS
 70
     2
  9
$LUPREC
 70
     4
  9
$SKETCHINC
 40
0.1
  9
$FILLETRAD
 40
0.5
  9
$AUNITS
 70
     0
  9
$AUPREC
 70
     0
  9
$MENU
  1
.
  9
$ELEVATION
 40
0.0
  9
$THICKNESS
 40
0.0
  9
$LIMCHECK
 70
     0
  9
$CHAMFERA
 40
0.0
  9
$CHAMFERB
 40
0.0
  9
$SKPOLY
 70
     0
  9
$TDCREATE
 40
2460587.36703015
  9
$TDUPDATE
 40
2460587.367030521
  9
$TDINDWG
 40
0.0000000116
  9
$TDUSRTIMER
 40
0.0000000116
  9
$USRTIMER
 70
     1
  9
$ANGBASE
 50
0.0
  9
$ANGDIR
 70
     0
  9
$PDMODE
 70
     0
  9
$PDSIZE
 40
0.0
  9
$PLINEWID
 40
0.0
  9
$COORDS
 70
     1
  9
$SPLFRAME
 70
     0
  9
$SPLINETYPE
 70
     6
  9
$SPLINESEGS
 70
     8
  9
$ATTDIA
 70
     0
  9
$ATTREQ
 70
     1
  9
$HANDLING
 70
     1
  9
$HANDSEED
  5
1EB
  9
$SURFTAB1
 70
     6
  9
$SURFTAB2
 70
     6
  9
$SURFTYPE
 70
     6
  9
$SURFU
 70
     6
  9
$SURFV
 70
     6
  9
$UCSNAME
  2

  9
$UCSORG
 10
0.0
 20
0.0
 30
0.0
  9
$UCSXDIR
 10
1.0
 20
0.0
 30
0.0
  9
$UCSYDIR
 10
0.0
 20
1.0
 30
0.0
  9
$USERI1
 70
     0
  9
$USERI2
 70
     0
  9
$USERI3
 70
     0
  9
$USERI4
 70
     0
  9
$USERI5
 70
     0
  9
$USERR1
 40
0.0
  9
$USERR2
 40
0.0
  9
$USERR3
 40
0.0
  9
$USERR4
 40
0.0
  9
$USERR5
 40
0.0
  9
$WORLDVIEW
 70
     1
  0
ENDSEC
  0
SECTION
  2
TABLES
  0
TABLE
  2
VPORT
 70
     1
  0
VPORT
  2
*ACTIVE
 70
     0
 10
0.0
 20
0.0
 11
1.0
 21
1.0
 12
663.31032143865
 22
421.72569210405
 13
0.0
 23
0.0
 14
0.5
 24
0.5
 15
0.5
 25
0.5
 16
0.0
 26
0.0
 36
1.0
 17
0.0
 27
0.0
 37
0.0
 40
843.4513842081
 41
1.6
 42
50.0
 43
0.0
 44
0.0
 50
0.0
 51
0.0
 71
     0
 72
   100
 73
     1
 74
     3
 75
     0
 76
     0
 77
     0
 78
     0
  0
ENDTAB
  0
TABLE
  2
LTYPE
 70
     1
  0
LTYPE
  2
CONTINUOUS
 70
     0
  3
Solid line
 72
    65
 73
     0
 40
0.0
  0
ENDTAB
  0
TABLE
  2
LAYER
 70
     1
  0
LAYER
  2
0
 70
     0
 62
     7
  6
CONTINUOUS
  0
ENDTAB
  0
TABLE
  2
STYLE
 70
     2
  0
STYLE
  2
STANDARD
 70
     0
 40
0.0
 41
1.0
 50
0.0
 71
     0
 42
0.2
  3
txt
  4

  0
STYLE
  2
ＭＳ_ゴシック
 70
     0
 40
0.0
 41
1.0
 50
0.0
 71
     0
 42
0.2
  3
ＭＳ ゴシック.shx
  4

  0
ENDTAB
  0
TABLE
  2
VIEW
 70
     0
  0
ENDTAB
  0
TABLE
  2
UCS
 70
     0
  0
ENDTAB
  0
ENDSEC
  0
SECTION
  2
BLOCKS
  0
BLOCK
  8
0
  2
D_FRAME_DRAWING_21
 70
     0
 10
0.0
 20
0.0
 30
0.0
  0
LINE
  5
169
  8
0
  6
CONTINUOUS
 62
     7
 10
0.0
 20
0.0
 30
0.0
 11
420.0
 21
0.0
 31
0.0
  0
LINE
  5
16A
  8
0
  6
CONTINUOUS
 62
     7
 10
420.0
 20
0.0
 30
0.0
 11
420.0
 21
297.0
 31
0.0
  0
LINE
  5
16B
  8
0
  6
CONTINUOUS
 62
     7
 10
420.0
 20
297.0
 30
0.0
 11
0.0
 21
297.0
 31
0.0
  0
LINE
  5
16C
  8
0
  6
CONTINUOUS
 62
     7
 10
0.0
 20
297.0
 30
0.0
 11
0.0
 21
0.0
 31
0.0
  0
LINE
  5
16D
  8
0
  6
CONTINUOUS
 62
     7
 10
10.0
 20
10.0
 30
0.0
 11
409.9999999999999
 21
10.0
 31
0.0
  0
LINE
  5
16E
  8
0
  6
CONTINUOUS
 62
     7
 10
409.9999999999999
 20
10.0
 30
0.0
 11
409.9999999999999
 21
286.9999999999999
 31
0.0
  0
LINE
  5
16F
  8
0
  6
CONTINUOUS
 62
     7
 10
409.9999999999999
 20
286.9999999999999
 30
0.0
 11
10.00000000000006
 21
286.9999999999999
 31
0.0
  0
LINE
  5
170
  8
0
  6
CONTINUOUS
 62
     7
 10
10.0
 20
286.9999999999999
 30
0.0
 11
10.0
 21
10.00000000000001
 31
0.0
  0
LINE
  5
171
  8
0
  6
CONTINUOUS
 62
     7
 10
210.0
 20
0.0
 30
0.0
 11
210.0
 21
10.0
 31
0.0
  0
LINE
  5
172
  8
0
  6
CONTINUOUS
 62
     7
 10
420.0
 20
148.5
 30
0.0
 11
409.9999999999999
 21
148.5
 31
0.0
  0
LINE
  5
173
  8
0
  6
CONTINUOUS
 62
     7
 10
210.0
 20
297.0
 30
0.0
 11
210.0
 21
286.9999999999999
 31
0.0
  0
LINE
  5
174
  8
0
  6
CONTINUOUS
 62
     7
 10
0.0
 20
148.5
 30
0.0
 11
10.0
 21
148.5
 31
0.0
  0
POLYLINE
  5
175
  8
0
  6
CONTINUOUS
 62
     7
 66
     1
 10
0.0
 20
0.0
 30
0.0
 70
     1
  0
VERTEX
  5
1BC
  8
0
  6
CONTINUOUS
 62
     7
 10
11.0
 20
152.5
 30
0.0
  0
VERTEX
  5
1BD
  8
0
  6
CONTINUOUS
 62
     7
 10
0.0
 20
148.5
 30
0.0
  0
VERTEX
  5
1BE
  8
0
  6
CONTINUOUS
 62
     7
 10
11.0
 20
144.5
 30
0.0
  0
VERTEX
  5
1BF
  8
0
  6
CONTINUOUS
 62
     7
 10
11.0
 20
152.5
 30
0.0
  0
SEQEND
  5
1E9
  8
0
  6
CONTINUOUS
 62
     7
  0
INSERT
  5
176
  8
0
 62
     7
  2
*U2
 10
0.0
 20
0.0
 30
0.0
  0
POLYLINE
  5
177
  8
0
  6
CONTINUOUS
 62
     7
 66
     1
 10
0.0
 20
0.0
 30
0.0
 70
     1
  0
VERTEX
  5
1C2
  8
0
  6
CONTINUOUS
 62
     7
 10
206.0
 20
11.0
 30
0.0
  0
VERTEX
  5
1C3
  8
0
  6
CONTINUOUS
 62
     7
 10
210.0
 20
0.0
 30
0.0
  0
VERTEX
  5
1C4
  8
0
  6
CONTINUOUS
 62
     7
 10
214.0
 20
11.0
 30
0.0
  0
VERTEX
  5
1C5
  8
0
  6
CONTINUOUS
 62
     7
 10
206.0
 20
11.0
 30
0.0
  0
SEQEND
  5
1EA
  8
0
  6
CONTINUOUS
 62
     7
  0
INSERT
  5
178
  8
0
 62
     7
  2
*U3
 10
0.0
 20
0.0
 30
0.0
  0
LINE
  5
179
  8
0
  6
CONTINUOUS
 62
     7
 10
367.5
 20
286.9999999999999
 30
0.0
 11
367.5
 21
292.0
 31
0.0
  0
TEXT
  5
17A
  8
0
  6
CONTINUOUS
 62
     7
 10
391.6340909090909
 20
291.8324293485057
 30
0.0
 40
3.5
  1
A
 50
270.0
  0
LINE
  5
17B
  8
0
  6
CONTINUOUS
 62
     7
 10
367.5
 20
10.0
 30
0.0
 11
367.5
 21
5.0
 31
0.0
  0
TEXT
  5
17C
  8
0
  6
CONTINUOUS
 62
     7
 10
392.9868888333125
 20
4.602272727272727
 30
0.0
 40
3.5
  1
A
  0
LINE
  5
17D
  8
0
  6
CONTINUOUS
 62
     7
 10
315.0
 20
286.9999999999999
 30
0.0
 11
315.0
 21
292.0
 31
0.0
  0
TEXT
  5
17E
  8
0
  6
CONTINUOUS
 62
     7
 10
339.1340909090909
 20
291.9745607727899
 30
0.0
 40
3.5
  1
B
 50
270.0
  0
LINE
  5
17F
  8
0
  6
CONTINUOUS
 62
     7
 10
315.0
 20
10.0
 30
0.0
 11
315.0
 21
5.0
 31
0.0
  0
TEXT
  5
180
  8
0
  6
CONTINUOUS
 62
     7
 10
340.3447574090284
 20
4.602272727272727
 30
0.0
 40
3.5
  1
B
  0
LINE
  5
181
  8
0
  6
CONTINUOUS
 62
     7
 10
262.5
 20
286.9999999999999
 30
0.0
 11
262.5
 21
292.0
 31
0.0
  0
TEXT
  5
182
  8
0
  6
CONTINUOUS
 62
     7
 10
286.6327779167187
 20
291.9399305989747
 30
0.0
 40
3.5
  1
C
 50
270.0
  0
LINE
  5
183
  8
0
  6
CONTINUOUS
 62
     7
 10
262.5
 20
10.0
 30
0.0
 11
262.5
 21
5.0
 31
0.0
  0
TEXT
  5
184
  8
0
  6
CONTINUOUS
 62
     7
 10
287.8793875828435
 20
4.600959734900587
 30
0.0
 40
3.5
  1
C
  0
LINE
  5
185
  8
0
  6
CONTINUOUS
 62
     7
 10
210.0
 20
286.9999999999999
 30
0.0
 11
210.0
 21
292.0
 31
0.0
  0
TEXT
  5
186
  8
0
  6
CONTINUOUS
 62
     7
 10
234.1340909090909
 20
291.9745607727898
 30
0.0
 40
3.5
  1
D
 50
270.0
  0
LINE
  5
187
  8
0
  6
CONTINUOUS
 62
     7
 10
157.5
 20
286.9999999999999
 30
0.0
 11
157.5
 21
292.0
 31
0.0
  0
TEXT
  5
188
  8
0
  6
CONTINUOUS
 62
     7
 10
181.6327779167188
 20
292.027463423784
 30
0.0
 40
3.5
  1
E
 50
270.0
  0
LINE
  5
189
  8
0
  6
CONTINUOUS
 62
     7
 10
157.5
 20
10.0
 30
0.0
 11
157.5
 21
5.0
 31
0.0
  0
LINE
  5
18A
  8
0
  6
CONTINUOUS
 62
     7
 10
105.0
 20
286.9999999999999
 30
0.0
 11
105.0
 21
292.0
 31
0.0
  0
TEXT
  5
18B
  8
0
  6
CONTINUOUS
 62
     7
 10
129.1327779167188
 20
291.9924502938602
 30
0.0
 40
3.5
  1
F
 50
270.0
  0
LINE
  5
18C
  8
0
  6
CONTINUOUS
 62
     7
 10
105.0
 20
10.0
 30
0.0
 11
105.0
 21
5.0
 31
0.0
  0
TEXT
  5
18D
  8
0
  6
CONTINUOUS
 62
     7
 10
130.326867887958
 20
4.600959734900587
 30
0.0
 40
3.5
  1
F
  0
LINE
  5
18E
  8
0
  6
CONTINUOUS
 62
     7
 10
52.50000000000004
 20
286.9999999999999
 30
0.0
 11
52.50000000000004
 21
292.0
 31
0.0
  0
TEXT
  5
18F
  8
0
  6
CONTINUOUS
 62
     7
 10
76.6327779167188
 20
291.9399305989746
 30
0.0
 40
3.5
  1
G
 50
270.0
  0
LINE
  5
190
  8
0
  6
CONTINUOUS
 62
     7
 10
52.50000000000004
 20
10.0
 30
0.0
 11
52.50000000000004
 21
5.0
 31
0.0
  0
TEXT
  5
191
  8
0
  6
CONTINUOUS
 62
     7
 10
77.8793875828436
 20
4.600959734900587
 30
0.0
 40
3.5
  1
G
  0
TEXT
  5
192
  8
0
  6
CONTINUOUS
 62
     7
 10
24.13277791671879
 20
291.9749437288983
 30
0.0
 40
3.5
  1
H
 50
270.0
  0
TEXT
  5
193
  8
0
  6
CONTINUOUS
 62
     7
 10
25.34437445291988
 20
4.600959734900587
 30
0.0
 40
3.5
  1
H
  0
LINE
  5
194
  8
0
  6
CONTINUOUS
 62
     7
 10
409.9999999999999
 20
74.25
 30
0.0
 11
414.9999999999999
 21
74.25
 31
0.0
  0
TEXT
  5
195
  8
0
  6
CONTINUOUS
 62
     7
 10
412.9326059772414
 20
35.00777791671877
 30
0.0
 40
3.5
  1
1
  0
LINE
  5
196
  8
0
  6
CONTINUOUS
 62
     7
 10
10.0
 20
74.25
 30
0.0
 11
5.0
 21
74.25
 31
0.0
  0
TEXT
  5
197
  8
0
  6
CONTINUOUS
 62
     7
 10
4.600959734900584
 20
38.26171220457671
 30
0.0
 40
3.5
  1
1
 50
270.0
  0
LINE
  5
198
  8
0
  6
CONTINUOUS
 62
     7
 10
409.9999999999999
 20
148.5
 30
0.0
 11
414.9999999999999
 21
148.5
 31
0.0
  0
TEXT
  5
199
  8
0
  6
CONTINUOUS
 62
     7
 10
413.163692634738
 20
109.2577779167188
 30
0.0
 40
3.5
  1
2
  0
LINE
  5
19A
  8
0
  6
CONTINUOUS
 62
     7
 10
10.0
 20
148.5
 30
0.0
 11
5.0
 21
148.5
 31
0.0
  0
TEXT
  5
19B
  8
0
  6
CONTINUOUS
 62
     7
 10
4.600959734900599
 20
112.2806255470802
 30
0.0
 40
3.5
  1
2
 50
270.0
  0
LINE
  5
19C
  8
0
  6
CONTINUOUS
 62
     7
 10
409.9999999999999
 20
222.75
 30
0.0
 11
414.9999999999999
 21
222.75
 31
0.0
  0
TEXT
  5
19D
  8
0
  6
CONTINUOUS
 62
     7
 10
413.1811991996998
 20
183.5077779167188
 30
0.0
 40
3.5
  1
3
  0
LINE
  5
19E
  8
0
  6
CONTINUOUS
 62
     7
 10
10.0
 20
222.75
 30
0.0
 11
5.0
 21
222.75
 31
0.0
  0
TEXT
  5
19F
  8
0
  6
CONTINUOUS
 62
     7
 10
4.600959734900584
 20
186.5131189821183
 30
0.0
 40
3.5
  1
3
 50
270.0
  0
TEXT
  5
1A0
  8
0
  6
CONTINUOUS
 62
     7
 10
413.2351413029886
 20
257.7590909090909
 30
0.0
 40
3.5
  1
4
  0
TEXT
  5
1A1
  8
0
  6
CONTINUOUS
 62
     7
 10
4.60227272727272
 20
260.7091768788295
 30
0.0
 40
3.5
  1
4
 50
270.0
  0
LINE
  5
1A2
  8
0
  6
CONTINUOUS
 62
     7
 10
220.0
 20
10.0
 30
0.0
 11
220.0
 21
7.0
 31
0.0
  0
LINE
  5
1A3
  8
0
  6
CONTINUOUS
 62
     7
 10
200.0
 20
10.0
 30
0.0
 11
200.0
 21
7.0
 31
0.0
  0
LINE
  5
1A4
  8
0
  6
CONTINUOUS
 62
     7
 10
230.0
 20
10.0
 30
0.0
 11
230.0
 21
7.0
 31
0.0
  0
LINE
  5
1A5
  8
0
  6
CONTINUOUS
 62
     7
 10
190.0
 20
10.0
 30
0.0
 11
190.0
 21
7.0
 31
0.0
  0
LINE
  5
1A6
  8
0
  6
CONTINUOUS
 62
     7
 10
240.0
 20
10.0
 30
0.0
 11
240.0
 21
7.0
 31
0.0
  0
LINE
  5
1A7
  8
0
  6
CONTINUOUS
 62
     7
 10
180.0
 20
10.0
 30
0.0
 11
180.0
 21
7.0
 31
0.0
  0
LINE
  5
1A8
  8
0
  6
CONTINUOUS
 62
     7
 10
250.0
 20
10.0
 30
0.0
 11
250.0
 21
7.0
 31
0.0
  0
LINE
  5
1A9
  8
0
  6
CONTINUOUS
 62
     7
 10
170.0
 20
10.0
 30
0.0
 11
170.0
 21
7.0
 31
0.0
  0
LINE
  5
1AA
  8
0
  6
CONTINUOUS
 62
     7
 10
260.0
 20
10.0
 30
0.0
 11
260.0
 21
5.0
 31
0.0
  0
LINE
  5
1AB
  8
0
  6
CONTINUOUS
 62
     7
 10
160.0
 20
10.0
 30
0.0
 11
160.0
 21
5.0
 31
0.0
  0
LINE
  5
1AC
  8
0
  6
CONTINUOUS
 62
     7
 10
260.0
 20
10.0
 30
0.0
 11
160.0
 21
10.0
 31
0.0
  0
LINE
  5
1AD
  8
0
  6
CONTINUOUS
 62
     7
 10
260.0
 20
7.0
 30
0.0
 11
160.0
 21
7.0
 31
0.0
  0
INSERT
  5
1AE
  8
0
 62
     7
  2
*U4
 10
0.0
 20
0.0
 30
0.0
  0
INSERT
  5
1AF
  8
0
 62
     7
  2
*U5
 10
0.0
 20
0.0
 30
0.0
  0
INSERT
  5
1B0
  8
0
 62
     7
  2
*U6
 10
0.0
 20
0.0
 30
0.0
  0
INSERT
  5
1B1
  8
0
 62
     7
  2
*U7
 10
0.0
 20
0.0
 30
0.0
  0
ENDBLK
  8
0
  0
BLOCK
  8
0
  2
*U2
 70
     1
 10
0.0
 20
0.0
 30
0.0
  0
SOLID
  5
1C1
  8
0
  6
CONTINUOUS
 62
     7
 10
11.0
 20
144.5
 30
0.0
 11
6.999999999999999
 21
148.5
 31
0.0
 12
11.0
 22
152.5
 32
0.0
 13
11.0
 23
152.5
 33
0.0
  0
ENDBLK
  8
0
  0
BLOCK
  8
0
  2
*U3
 70
     1
 10
0.0
 20
0.0
 30
0.0
  0
SOLID
  5
1C7
  8
0
  6
CONTINUOUS
 62
     7
 10
210.0
 20
6.999999999999999
 30
0.0
 11
206.0
 21
11.0
 31
0.0
 12
210.0
 22
11.0
 32
0.0
 13
210.0
 23
11.0
 33
0.0
  0
SOLID
  5
1C8
  8
0
  6
CONTINUOUS
 62
     7
 10
210.0
 20
6.999999999999999
 30
0.0
 11
210.0
 21
11.0
 31
0.0
 12
214.0
 22
11.0
 32
0.0
 13
214.0
 23
11.0
 33
0.0
  0
ENDBLK
  8
0
  0
BLOCK
  8
0
  2
*U4
 70
     1
 10
0.0
 20
0.0
 30
0.0
  0
SOLID
  5
1CA
  8
0
  6
CONTINUOUS
 62
     7
 10
0.0
 20
0.0
 30
0.0
 11
0.0
 21
10.0
 31
0.0
 12
2.0
 22
0.0
 32
0.0
 13
2.0
 23
0.0
 33
0.0
  0
SOLID
  5
1CB
  8
0
  6
CONTINUOUS
 62
     7
 10
2.0
 20
0.0
 30
0.0
 11
0.0
 21
10.0
 31
0.0
 12
2.0
 22
10.0
 32
0.0
 13
2.0
 23
10.0
 33
0.0
  0
SOLID
  5
1CC
  8
0
  6
CONTINUOUS
 62
     7
 10
2.0
 20
0.0
 30
0.0
 11
2.0
 21
2.0
 31
0.0
 12
10.0
 22
0.0
 32
0.0
 13
10.0
 23
0.0
 33
0.0
  0
SOLID
  5
1CD
  8
0
  6
CONTINUOUS
 62
     7
 10
10.0
 20
0.0
 30
0.0
 11
2.0
 21
2.0
 31
0.0
 12
10.0
 22
2.0
 32
0.0
 13
10.0
 23
2.0
 33
0.0
  0
ENDBLK
  8
0
  0
BLOCK
  8
0
  2
*U5
 70
     1
 10
0.0
 20
0.0
 30
0.0
  0
SOLID
  5
1CF
  8
0
  6
CONTINUOUS
 62
     7
 10
409.9999999999999
 20
0.0
 30
0.0
 11
409.9999999999999
 21
2.0
 31
0.0
 12
418.0
 22
0.0
 32
0.0
 13
418.0
 23
0.0
 33
0.0
  0
SOLID
  5
1D0
  8
0
  6
CONTINUOUS
 62
     7
 10
418.0
 20
0.0
 30
0.0
 11
409.9999999999999
 21
2.0
 31
0.0
 12
418.0
 22
2.0
 32
0.0
 13
418.0
 23
2.0
 33
0.0
  0
SOLID
  5
1D1
  8
0
  6
CONTINUOUS
 62
     7
 10
418.0
 20
0.0
 30
0.0
 11
418.0
 21
10.0
 31
0.0
 12
420.0
 22
0.0
 32
0.0
 13
420.0
 23
0.0
 33
0.0
  0
SOLID
  5
1D2
  8
0
  6
CONTINUOUS
 62
     7
 10
420.0
 20
0.0
 30
0.0
 11
418.0
 21
10.0
 31
0.0
 12
420.0
 22
10.0
 32
0.0
 13
420.0
 23
10.0
 33
0.0
  0
ENDBLK
  8
0
  0
BLOCK
  8
0
  2
*U6
 70
     1
 10
0.0
 20
0.0
 30
0.0
  0
SOLID
  5
1D4
  8
0
  6
CONTINUOUS
 62
     7
 10
409.9999999999999
 20
295.0
 30
0.0
 11
409.9999999999999
 21
297.0
 31
0.0
 12
418.0
 22
295.0
 32
0.0
 13
418.0
 23
295.0
 33
0.0
  0
SOLID
  5
1D5
  8
0
  6
CONTINUOUS
 62
     7
 10
418.0
 20
295.0
 30
0.0
 11
409.9999999999999
 21
297.0
 31
0.0
 12
418.0
 22
297.0
 32
0.0
 13
418.0
 23
297.0
 33
0.0
  0
SOLID
  5
1D6
  8
0
  6
CONTINUOUS
 62
     7
 10
418.0
 20
286.9999999999999
 30
0.0
 11
418.0
 21
297.0
 31
0.0
 12
420.0
 22
286.9999999999999
 32
0.0
 13
420.0
 23
286.9999999999999
 33
0.0
  0
SOLID
  5
1D7
  8
0
  6
CONTINUOUS
 62
     7
 10
420.0
 20
286.9999999999999
 30
0.0
 11
418.0
 21
297.0
 31
0.0
 12
420.0
 22
297.0
 32
0.0
 13
420.0
 23
297.0
 33
0.0
  0
ENDBLK
  8
0
  0
BLOCK
  8
0
  2
*U7
 70
     1
 10
0.0
 20
0.0
 30
0.0
  0
SOLID
  5
1D9
  8
0
  6
CONTINUOUS
 62
     7
 10
0.0
 20
286.9999999999999
 30
0.0
 11
0.0
 21
297.0
 31
0.0
 12
2.0
 22
286.9999999999999
 32
0.0
 13
2.0
 23
286.9999999999999
 33
0.0
  0
SOLID
  5
1DA
  8
0
  6
CONTINUOUS
 62
     7
 10
2.0
 20
286.9999999999999
 30
0.0
 11
0.0
 21
297.0
 31
0.0
 12
2.0
 22
297.0
 32
0.0
 13
2.0
 23
297.0
 33
0.0
  0
SOLID
  5
1DB
  8
0
  6
CONTINUOUS
 62
     7
 10
2.0
 20
295.0
 30
0.0
 11
2.0
 21
297.0
 31
0.0
 12
10.0
 22
295.0
 32
0.0
 13
10.0
 23
295.0
 33
0.0
  0
SOLID
  5
1DC
  8
0
  6
CONTINUOUS
 62
     7
 10
10.0
 20
295.0
 30
0.0
 11
2.0
 21
297.0
 31
0.0
 12
10.0
 22
297.0
 32
0.0
 13
10.0
 23
297.0
 33
0.0
  0
ENDBLK
  8
0
  0
ENDSEC
  0
SECTION
  2
ENTITIES
  0
LINE
  5
6F
  8
0
  6
CONTINUOUS
 62
     7
 10
1098.8706428773
 20
841.0513842081
 30
0.0
 11
1098.8706428773
 21
833.0513842081
 31
0.0
  0
LINE
  5
70
  8
0
  6
CONTINUOUS
 62
     7
 10
1107.3706428773
 20
841.0513842081
 30
0.0
 11
1107.3706428773
 21
833.0513842081
 31
0.0
  0
LINE
  5
71
  8
0
  6
CONTINUOUS
 62
     7
 10
1208.8706428773
 20
841.0513842081
 30
0.0
 11
1225.8706428773
 21
841.0513842081
 31
0.0
  0
LINE
  5
72
  8
0
  6
CONTINUOUS
 62
     7
 10
1115.8706428773
 20
841.0513842081
 30
0.0
 11
1115.8706428773
 21
833.0513842081
 31
0.0
  0
LINE
  5
73
  8
0
  6
CONTINUOUS
 62
     7
 10
1217.3706428773
 20
841.0513842081
 30
0.0
 11
1217.3706428773
 21
833.0513842081
 31
0.0
  0
LINE
  5
74
  8
0
  6
CONTINUOUS
 62
     7
 10
1098.8706428773
 20
841.0513842081
 30
0.0
 11
1115.8706428773
 21
841.0513842081
 31
0.0
  0
LINE
  5
75
  8
0
  6
CONTINUOUS
 62
     7
 10
1225.8706428773
 20
841.0513842081
 30
0.0
 11
1225.8706428773
 21
833.0513842081
 31
0.0
  0
LINE
  5
76
  8
0
  6
CONTINUOUS
 62
     7
 10
1297.0556878773
 20
841.0513842081
 30
0.0
 11
1316.6855978773
 21
841.0513842081
 31
0.0
  0
LINE
  5
77
  8
0
  6
CONTINUOUS
 62
     7
 10
1297.0556878773
 20
841.0513842081
 30
0.0
 11
1297.0556878773
 21
833.0513842081
 31
0.0
  0
LINE
  5
78
  8
0
  6
CONTINUOUS
 62
     7
 10
1311.7781198773
 20
841.0513842081
 30
0.0
 11
1311.7781198773
 21
833.0513842081
 31
0.0
  0
LINE
  5
79
  8
0
  6
CONTINUOUS
 62
     7
 10
1301.9631658773
 20
841.0513842081
 30
0.0
 11
1301.9631658773
 21
833.0513842081
 31
0.0
  0
LINE
  5
7A
  8
0
  6
CONTINUOUS
 62
     7
 10
1316.6855978773
 20
841.0513842081
 30
0.0
 11
1316.6855978773
 21
833.0513842081
 31
0.0
  0
LINE
  5
7B
  8
0
  6
CONTINUOUS
 62
     7
 10
1208.8706428773
 20
833.0513842081
 30
0.0
 11
1208.8706428773
 21
841.0513842081
 31
0.0
  0
LINE
  5
7C
  8
0
  6
CONTINUOUS
 62
     7
 10
1212.6206428773
 20
843.4513842081
 30
0.0
 11
1212.6206428773
 21
841.0513842081
 31
0.0
  0
LINE
  5
7D
  8
0
  6
CONTINUOUS
 62
     7
 10
1302.1206428773
 20
843.4513842081
 30
0.0
 11
1302.1206428773
 21
841.0513842081
 31
0.0
  0
LINE
  5
7E
  8
0
  6
CONTINUOUS
 62
     7
 10
1311.6206428773
 20
841.0513842081
 30
0.0
 11
1311.6206428773
 21
843.4513842081
 31
0.0
  0
LINE
  5
7F
  8
0
  6
CONTINUOUS
 62
     7
 10
1112.1206428773
 20
841.0513842081
 30
0.0
 11
1112.1206428773
 21
843.4513842081
 31
0.0
  0
LINE
  5
80
  8
0
  6
CONTINUOUS
 62
     7
 10
1311.6206428773
 20
676.0513842081
 30
0.0
 11
1311.6206428773
 21
821.1513842081
 31
0.0
  0
LINE
  5
81
  8
0
  6
CONTINUOUS
 62
     7
 10
1222.1206428773
 20
841.0513842081
 30
0.0
 11
1222.1206428773
 21
843.4513842081
 31
0.0
  0
LINE
  5
82
  8
0
  6
CONTINUOUS
 62
     7
 10
1102.6206428773
 20
843.4513842081
 30
0.0
 11
1102.6206428773
 21
841.0513842081
 31
0.0
  0
LINE
  5
83
  8
0
  6
CONTINUOUS
 62
     7
 10
1302.1206428773
 20
821.1513842081
 30
0.0
 11
1302.1206428773
 21
676.0513842081
 31
0.0
  0
LINE
  5
84
  8
0
  6
CONTINUOUS
 62
     7
 10
1322.9206428773
 20
690.5513842081
 30
0.0
 11
1322.9206428773
 21
684.2513842081
 31
0.0
  0
LINE
  5
85
  8
0
  6
CONTINUOUS
 62
     7
 10
1170.7706428773
 20
631.7513842081
 30
0.0
 11
1153.9706428773
 21
631.7513842081
 31
0.0
  0
LINE
  5
86
  8
0
  6
CONTINUOUS
 62
     7
 10
1152.3706428773
 20
640.8254348748
 30
0.0
 11
1153.9706428773
 21
631.7513842081
 31
0.0
  0
ARC
  5
87
  8
0
  6
CONTINUOUS
 62
     7
 10
1320.4206428773
 20
684.2513842081
 30
0.0
 40
2.5
 50
286.260205
 51
0.0
  0
LINE
  5
88
  8
0
  6
CONTINUOUS
 62
     7
 10
1294.9206428773
 20
671.4513842081
 30
0.0
 11
1295.3706428773
 21
671.4513842081
 31
0.0
  0
LINE
  5
89
  8
0
  6
CONTINUOUS
 62
     7
 10
1294.8706428773
 20
629.4513842081
 30
0.0
 11
1318.8706428773
 21
629.4513842081
 31
0.0
  0
LINE
  5
8A
  8
0
  6
CONTINUOUS
 62
     7
 10
1292.6206428773
 20
698.4513842081
 30
0.0
 11
1294.9206428773
 21
698.4513842081
 31
0.0
  0
ARC
  5
8B
  8
0
  6
CONTINUOUS
 62
     7
 10
1170.7706428773
 20
631.7513842081
 30
0.0
 40
2.3
 50
270.0
 51
349.9999999999999
  0
LINE
  5
8C
  8
0
  6
CONTINUOUS
 62
     7
 10
1318.3706428773
 20
671.4513842081
 30
0.0
 11
1318.8206428773
 21
671.4513842081
 31
0.0
  0
LINE
  5
8D
  8
0
  6
CONTINUOUS
 62
     7
 10
1173.0357008773
 20
631.3519932081
 30
0.0
 11
1174.6706428773
 21
640.6242107071
 31
0.0
  0
LINE
  5
8E
  8
0
  6
CONTINUOUS
 62
     7
 10
1156.3239498773
 20
629.4513842081
 30
0.0
 11
1156.3239498773
 21
631.7513842081
 31
0.0
  0
ARC
  5
8F
  8
0
  6
CONTINUOUS
 62
     7
 10
1295.7206428773
 20
676.5513842081
 30
0.0
 40
3.1
 50
180.0
 51
270.0
  0
LINE
  5
90
  8
0
  6
CONTINUOUS
 62
     7
 10
1153.9706428773
 20
629.4513842081
 30
0.0
 11
1170.7706428773
 21
629.4513842081
 31
0.0
  0
ARC
  5
91
  8
0
  6
CONTINUOUS
 62
     7
 10
1094.3706428773
 20
696.4513842081
 30
0.0
 40
2.0
 50
90.0
 51
180.0
  0
LINE
  5
92
  8
0
  6
CONTINUOUS
 62
     7
 10
1232.3706428773
 20
800.4513842081
 30
0.0
 11
1232.3706428773
 21
823.4513842081
 31
0.0
  0
ARC
  5
93
  8
0
  6
CONTINUOUS
 62
     7
 10
1320.4206428773
 20
690.5513842081
 30
0.0
 40
2.5
 50
0.0
 51
73.739795
  0
LINE
  5
94
  8
0
  6
CONTINUOUS
 62
     7
 10
1092.3706428773
 20
673.4513842081
 30
0.0
 11
1092.3706428773
 21
696.4513842081
 31
0.0
  0
ARC
  5
95
  8
0
  6
CONTINUOUS
 62
     7
 10
1230.3706428773
 20
800.4513842081
 30
0.0
 40
2.0
 50
270.0
 51
0.0
  0
ARC
  5
96
  8
0
  6
CONTINUOUS
 62
     7
 10
1293.3206428773
 20
684.2513842081
 30
0.0
 40
2.5
 50
180.0
 51
253.739795
  0
LINE
  5
97
  8
0
  6
CONTINUOUS
 62
     7
 10
1290.1206428773
 20
668.7513842081
 30
0.0
 11
1292.6206428773
 21
668.7513842081
 31
0.0
  0
LINE
  5
98
  8
0
  6
CONTINUOUS
 62
     7
 10
1291.9641768773
 20
682.1513842081
 30
0.0
 11
1290.1206428773
 21
682.1513842081
 31
0.0
  0
ARC
  5
99
  8
0
  6
CONTINUOUS
 62
     7
 10
1153.9706428773
 20
631.7513842081
 30
0.0
 40
2.3
 50
190.0
 51
270.0
  0
LINE
  5
9A
  8
0
  6
CONTINUOUS
 62
     7
 10
1168.4173358773
 20
631.7513842081
 30
0.0
 11
1168.4173358773
 21
629.4513842081
 31
0.0
  0
LINE
  5
9B
  8
0
  6
CONTINUOUS
 62
     7
 10
1151.7055848773
 20
631.3519932081
 30
0.0
 11
1150.0706428773
 21
640.6242107071
 31
0.0
  0
ARC
  5
9C
  8
0
  6
CONTINUOUS
 62
     7
 10
1230.3706428773
 20
696.4513842081
 30
0.0
 40
2.0
 50
0.0
 51
90.0
  0
LINE
  5
9D
  8
0
  6
CONTINUOUS
 62
     7
 10
1290.8206428773
 20
684.2513842081
 30
0.0
 11
1290.8206428773
 21
690.5513842081
 31
0.0
  0
LINE
  5
9E
  8
0
  6
CONTINUOUS
 62
     7
 10
1232.3706428773
 20
673.4513842081
 30
0.0
 11
1232.3706428773
 21
696.4513842081
 31
0.0
  0
LINE
  5
9F
  8
0
  6
CONTINUOUS
 62
     7
 10
1176.6474138773
 20
798.4513842081
 30
0.0
 11
1230.3706428773
 21
798.4513842081
 31
0.0
  0
LINE
  5
A0
  8
0
  6
CONTINUOUS
 62
     7
 10
1295.4206428773
 20
676.0513842081
 30
0.0
 11
1318.3206428773
 21
676.0513842081
 31
0.0
  0
LINE
  5
A1
  8
0
  6
CONTINUOUS
 62
     7
 10
1176.6474138773
 20
798.4513842081
 30
0.0
 11
1165.3706428773
 21
800.9513842081
 31
0.0
  0
LINE
  5
A2
  8
0
  6
CONTINUOUS
 62
     7
 10
1172.3706428773
 20
640.8254348748
 30
0.0
 11
1170.7706428773
 21
631.7513842081
 31
0.0
  0
ARC
  5
A3
  8
0
  6
CONTINUOUS
 62
     7
 10
1295.4206428773
 20
676.5513842081
 30
0.0
 40
0.5
 50
180.0
 51
270.0
  0
LINE
  5
A4
  8
0
  6
CONTINUOUS
 62
     7
 10
1098.8706428773
 20
671.8513842081
 30
0.0
 11
1098.8706428773
 21
655.8513842081
 31
0.0
  0
LINE
  5
A5
  8
0
  6
CONTINUOUS
 62
     7
 10
1092.3706428773
 20
800.4513842081
 30
0.0
 11
1092.3706428773
 21
823.4513842081
 31
0.0
  0
LINE
  5
A6
  8
0
  6
CONTINUOUS
 62
     7
 10
1225.8706428773
 20
833.0513842081
 30
0.0
 11
1225.8706428773
 21
825.0513842081
 31
0.0
  0
LINE
  5
A7
  8
0
  6
CONTINUOUS
 62
     7
 10
1107.3706428773
 20
833.0513842081
 30
0.0
 11
1107.3706428773
 21
825.0513842081
 31
0.0
  0
LINE
  5
A8
  8
0
  6
CONTINUOUS
 62
     7
 10
1116.3706428773
 20
825.0513842081
 30
0.0
 11
1098.3706428773
 21
825.0513842081
 31
0.0
  0
LINE
  5
A9
  8
0
  6
CONTINUOUS
 62
     7
 10
1226.3706428773
 20
825.0513842081
 30
0.0
 11
1208.3706428773
 21
825.0513842081
 31
0.0
  0
LINE
  5
AA
  8
0
  6
CONTINUOUS
 62
     7
 10
1226.3706428773
 20
823.4513842081
 30
0.0
 11
1226.3706428773
 21
825.0513842081
 31
0.0
  0
LINE
  5
AB
  8
0
  6
CONTINUOUS
 62
     7
 10
1098.3706428773
 20
673.4513842081
 30
0.0
 11
1098.3706428773
 21
671.8513842081
 31
0.0
  0
LINE
  5
AC
  8
0
  6
CONTINUOUS
 62
     7
 10
1112.1206428773
 20
653.4513842081
 30
0.0
 11
1112.1206428773
 21
655.8513842081
 31
0.0
  0
LINE
  5
AD
  8
0
  6
CONTINUOUS
 62
     7
 10
1112.1206428773
 20
698.4513842081
 30
0.0
 11
1112.1206428773
 21
798.4513842081
 31
0.0
  0
LINE
  5
AE
  8
0
  6
CONTINUOUS
 62
     7
 10
1208.3706428773
 20
825.0513842081
 30
0.0
 11
1208.3706428773
 21
823.4513842081
 31
0.0
  0
LINE
  5
AF
  8
0
  6
CONTINUOUS
 62
     7
 10
1115.8706428773
 20
833.0513842081
 30
0.0
 11
1115.8706428773
 21
825.0513842081
 31
0.0
  0
ARC
  5
B0
  8
0
  6
CONTINUOUS
 62
     7
 10
1318.3206428773
 20
820.6513842081
 30
0.0
 40
0.5
 50
0.0
 51
90.0
  0
ARC
  5
B1
  8
0
  6
CONTINUOUS
 62
     7
 10
1295.4206428773
 20
820.6513842081
 30
0.0
 40
2.8
 50
90.0
 51
180.0
  0
LINE
  5
B2
  8
0
  6
CONTINUOUS
 62
     7
 10
1212.6206428773
 20
843.4513842081
 30
0.0
 11
1222.1206428773
 21
843.4513842081
 31
0.0
  0
LINE
  5
B3
  8
0
  6
CONTINUOUS
 62
     7
 10
1098.8706428773
 20
833.0513842081
 30
0.0
 11
1115.8706428773
 21
833.0513842081
 31
0.0
  0
LINE
  5
B4
  8
0
  6
CONTINUOUS
 62
     7
 10
1292.6206428773
 20
798.4513842081
 30
0.0
 11
1292.6206428773
 21
820.6513842081
 31
0.0
  0
LINE
  5
B5
  8
0
  6
CONTINUOUS
 62
     7
 10
1321.1206428773
 20
820.6513842081
 30
0.0
 11
1321.1206428773
 21
798.4513842081
 31
0.0
  0
LINE
  5
B6
  8
0
  6
CONTINUOUS
 62
     7
 10
1318.3206428773
 20
821.1513842081
 30
0.0
 11
1295.4206428773
 21
821.1513842081
 31
0.0
  0
LINE
  5
B7
  8
0
  6
CONTINUOUS
 62
     7
 10
1295.4206428773
 20
823.4513842081
 30
0.0
 11
1318.3206428773
 21
823.4513842081
 31
0.0
  0
LINE
  5
B8
  8
0
  6
CONTINUOUS
 62
     7
 10
1116.3706428773
 20
671.8513842081
 30
0.0
 11
1116.3706428773
 21
673.4513842081
 31
0.0
  0
ARC
  5
B9
  8
0
  6
CONTINUOUS
 62
     7
 10
1318.3206428773
 20
820.6513842081
 30
0.0
 40
2.8
 50
0.0
 51
90.0
  0
LINE
  5
BA
  8
0
  6
CONTINUOUS
 62
     7
 10
1208.8706428773
 20
825.0513842081
 30
0.0
 11
1208.8706428773
 21
833.0513842081
 31
0.0
  0
LINE
  5
BB
  8
0
  6
CONTINUOUS
 62
     7
 10
1294.9206428773
 20
820.6513842081
 30
0.0
 11
1294.9206428773
 21
798.4513842081
 31
0.0
  0
LINE
  5
BC
  8
0
  6
CONTINUOUS
 62
     7
 10
1115.8706428773
 20
663.8513842081
 30
0.0
 11
1098.8706428773
 21
663.8513842081
 31
0.0
  0
ARC
  5
BD
  8
0
  6
CONTINUOUS
 62
     7
 10
1094.3706428773
 20
800.4513842081
 30
0.0
 40
2.0
 50
180.0
 51
270.0
  0
LINE
  5
BE
  8
0
  6
CONTINUOUS
 62
     7
 10
1116.3706428773
 20
823.4513842081
 30
0.0
 11
1116.3706428773
 21
825.0513842081
 31
0.0
  0
LINE
  5
BF
  8
0
  6
CONTINUOUS
 62
     7
 10
1212.6206428773
 20
798.4513842081
 30
0.0
 11
1212.6206428773
 21
698.4513842081
 31
0.0
  0
LINE
  5
C0
  8
0
  6
CONTINUOUS
 62
     7
 10
1102.6206428773
 20
798.4513842081
 30
0.0
 11
1102.6206428773
 21
698.4513842081
 31
0.0
  0
LINE
  5
C1
  8
0
  6
CONTINUOUS
 62
     7
 10
1098.8706428773
 20
655.8513842081
 30
0.0
 11
1115.8706428773
 21
655.8513842081
 31
0.0
  0
LINE
  5
C2
  8
0
  6
CONTINUOUS
 62
     7
 10
1102.6206428773
 20
843.4513842081
 30
0.0
 11
1112.1206428773
 21
843.4513842081
 31
0.0
  0
LINE
  5
C3
  8
0
  6
CONTINUOUS
 62
     7
 10
1112.1206428773
 20
653.4513842081
 30
0.0
 11
1102.6206428773
 21
653.4513842081
 31
0.0
  0
LINE
  5
C4
  8
0
  6
CONTINUOUS
 62
     7
 10
1222.1206428773
 20
698.4513842081
 30
0.0
 11
1222.1206428773
 21
798.4513842081
 31
0.0
  0
LINE
  5
C5
  8
0
  6
CONTINUOUS
 62
     7
 10
1098.8706428773
 20
833.0513842081
 30
0.0
 11
1098.8706428773
 21
825.0513842081
 31
0.0
  0
LINE
  5
C6
  8
0
  6
CONTINUOUS
 62
     7
 10
1102.6206428773
 20
655.8513842081
 30
0.0
 11
1102.6206428773
 21
653.4513842081
 31
0.0
  0
ARC
  5
C7
  8
0
  6
CONTINUOUS
 62
     7
 10
1295.4206428773
 20
820.6513842081
 30
0.0
 40
0.5
 50
90.0
 51
180.0
  0
LINE
  5
C8
  8
0
  6
CONTINUOUS
 62
     7
 10
1107.3706428773
 20
655.8513842081
 30
0.0
 11
1107.3706428773
 21
671.8513842081
 31
0.0
  0
LINE
  5
C9
  8
0
  6
CONTINUOUS
 62
     7
 10
1116.3706428773
 20
671.8513842081
 30
0.0
 11
1098.3706428773
 21
671.8513842081
 31
0.0
  0
LINE
  5
CA
  8
0
  6
CONTINUOUS
 62
     7
 10
1208.8706428773
 20
833.0513842081
 30
0.0
 11
1225.8706428773
 21
833.0513842081
 31
0.0
  0
LINE
  5
CB
  8
0
  6
CONTINUOUS
 62
     7
 10
1217.3706428773
 20
833.0513842081
 30
0.0
 11
1217.3706428773
 21
825.0513842081
 31
0.0
  0
LINE
  5
CC
  8
0
  6
CONTINUOUS
 62
     7
 10
1098.3706428773
 20
825.0513842081
 30
0.0
 11
1098.3706428773
 21
823.4513842081
 31
0.0
  0
LINE
  5
CD
  8
0
  6
CONTINUOUS
 62
     7
 10
1092.3706428773
 20
823.4513842081
 30
0.0
 11
1232.3706428773
 21
823.4513842081
 31
0.0
  0
LINE
  5
CE
  8
0
  6
CONTINUOUS
 62
     7
 10
1159.3706428773
 20
800.9513842081
 30
0.0
 11
1148.0938718773
 21
798.4513842081
 31
0.0
  0
LINE
  5
CF
  8
0
  6
CONTINUOUS
 62
     7
 10
1115.8706428773
 20
655.8513842081
 30
0.0
 11
1115.8706428773
 21
671.8513842081
 31
0.0
  0
LINE
  5
D0
  8
0
  6
CONTINUOUS
 62
     7
 10
1094.3706428773
 20
798.4513842081
 30
0.0
 11
1148.0938718773
 21
798.4513842081
 31
0.0
  0
LINE
  5
D1
  8
0
  6
CONTINUOUS
 62
     7
 10
1165.3706428773
 20
800.9513842081
 30
0.0
 11
1159.3706428773
 21
800.9513842081
 31
0.0
  0
LINE
  5
D2
  8
0
  6
CONTINUOUS
 62
     7
 10
1222.1206428773
 20
653.4513842081
 30
0.0
 11
1222.1206428773
 21
655.8513842081
 31
0.0
  0
LINE
  5
D3
  8
0
  6
CONTINUOUS
 62
     7
 10
1316.6855978773
 20
825.0513842081
 30
0.0
 11
1297.0556878773
 21
825.0513842081
 31
0.0
  0
LINE
  5
D4
  8
0
  6
CONTINUOUS
 62
     7
 10
1316.6855978773
 20
833.0513842081
 30
0.0
 11
1316.6855978773
 21
825.0513842081
 31
0.0
  0
LINE
  5
D5
  8
0
  6
CONTINUOUS
 62
     7
 10
1302.1206428773
 20
843.4513842081
 30
0.0
 11
1311.6206428773
 21
843.4513842081
 31
0.0
  0
LINE
  5
D6
  8
0
  6
CONTINUOUS
 62
     7
 10
1208.8706428773
 20
671.8513842081
 30
0.0
 11
1208.8706428773
 21
655.8513842081
 31
0.0
  0
LINE
  5
D7
  8
0
  6
CONTINUOUS
 62
     7
 10
1301.9631658773
 20
833.0513842081
 30
0.0
 11
1301.9631658773
 21
825.0513842081
 31
0.0
  0
LINE
  5
D8
  8
0
  6
CONTINUOUS
 62
     7
 10
1297.8706428773
 20
825.0513842081
 30
0.0
 11
1297.8706428773
 21
823.4513842081
 31
0.0
  0
LINE
  5
D9
  8
0
  6
CONTINUOUS
 62
     7
 10
1297.0556878773
 20
833.0513842081
 30
0.0
 11
1316.6855978773
 21
833.0513842081
 31
0.0
  0
LINE
  5
DA
  8
0
  6
CONTINUOUS
 62
     7
 10
1226.3706428773
 20
671.8513842081
 30
0.0
 11
1226.3706428773
 21
673.4513842081
 31
0.0
  0
LINE
  5
DB
  8
0
  6
CONTINUOUS
 62
     7
 10
1208.8706428773
 20
655.8513842081
 30
0.0
 11
1225.8706428773
 21
655.8513842081
 31
0.0
  0
LINE
  5
DC
  8
0
  6
CONTINUOUS
 62
     7
 10
1226.3706428773
 20
671.8513842081
 30
0.0
 11
1208.3706428773
 21
671.8513842081
 31
0.0
  0
LINE
  5
DD
  8
0
  6
CONTINUOUS
 62
     7
 10
1208.3706428773
 20
673.4513842081
 30
0.0
 11
1208.3706428773
 21
671.8513842081
 31
0.0
  0
LINE
  5
DE
  8
0
  6
CONTINUOUS
 62
     7
 10
1225.8706428773
 20
663.8513842081
 30
0.0
 11
1208.8706428773
 21
663.8513842081
 31
0.0
  0
LINE
  5
DF
  8
0
  6
CONTINUOUS
 62
     7
 10
1321.1206428773
 20
798.4513842081
 30
0.0
 11
1318.8206428773
 21
798.4513842081
 31
0.0
  0
LINE
  5
E0
  8
0
  6
CONTINUOUS
 62
     7
 10
1225.8706428773
 20
655.8513842081
 30
0.0
 11
1225.8706428773
 21
671.8513842081
 31
0.0
  0
LINE
  5
E1
  8
0
  6
CONTINUOUS
 62
     7
 10
1217.3706428773
 20
655.8513842081
 30
0.0
 11
1217.3706428773
 21
671.8513842081
 31
0.0
  0
LINE
  5
E2
  8
0
  6
CONTINUOUS
 62
     7
 10
1311.7781198773
 20
833.0513842081
 30
0.0
 11
1311.7781198773
 21
825.0513842081
 31
0.0
  0
LINE
  5
E3
  8
0
  6
CONTINUOUS
 62
     7
 10
1294.9206428773
 20
798.4513842081
 30
0.0
 11
1292.6206428773
 21
798.4513842081
 31
0.0
  0
LINE
  5
E4
  8
0
  6
CONTINUOUS
 62
     7
 10
1318.8206428773
 20
798.4513842081
 30
0.0
 11
1318.8206428773
 21
820.6513842081
 31
0.0
  0
LINE
  5
E5
  8
0
  6
CONTINUOUS
 62
     7
 10
1222.1206428773
 20
653.4513842081
 30
0.0
 11
1212.6206428773
 21
653.4513842081
 31
0.0
  0
LINE
  5
E6
  8
0
  6
CONTINUOUS
 62
     7
 10
1212.6206428773
 20
655.8513842081
 30
0.0
 11
1212.6206428773
 21
653.4513842081
 31
0.0
  0
LINE
  5
E7
  8
0
  6
CONTINUOUS
 62
     7
 10
1297.0556878773
 20
833.0513842081
 30
0.0
 11
1297.0556878773
 21
825.0513842081
 31
0.0
  0
LINE
  5
E8
  8
0
  6
CONTINUOUS
 62
     7
 10
1315.8706428773
 20
823.4513842081
 30
0.0
 11
1315.8706428773
 21
825.0513842081
 31
0.0
  0
ARC
  5
E9
  8
0
  6
CONTINUOUS
 62
     7
 10
1293.3206428773
 20
690.5513842081
 30
0.0
 40
2.5
 50
106.260205
 51
180.0
  0
LINE
  5
EA
  8
0
  6
CONTINUOUS
 62
     7
 10
1298.6206428773
 20
673.4513842081
 30
0.0
 11
1298.6206428773
 21
670.4513842081
 31
0.0
  0
ARC
  5
EB
  8
0
  6
CONTINUOUS
 62
     7
 10
1318.0206428773
 20
676.5513842081
 30
0.0
 40
3.1
 50
270.0
 51
0.0
  0
LINE
  5
EC
  8
0
  6
CONTINUOUS
 62
     7
 10
1316.1082468773
 20
670.4513842081
 30
0.0
 11
1297.6330388773
 21
670.4513842081
 31
0.0
  0
LINE
  5
ED
  8
0
  6
CONTINUOUS
 62
     7
 10
1318.8206428773
 20
665.4513842081
 30
0.0
 11
1318.8206428773
 21
673.5563882081
 31
0.0
  0
LINE
  5
EE
  8
0
  6
CONTINUOUS
 62
     7
 10
1294.9206428773
 20
665.4513842081
 30
0.0
 11
1294.9206428773
 21
673.5563882081
 31
0.0
  0
ARC
  5
EF
  8
0
  6
CONTINUOUS
 62
     7
 10
1306.8706428773
 20
657.4513842081
 30
0.0
 40
12.0
 50
0.0
 51
39.664035
  0
LINE
  5
F0
  8
0
  6
CONTINUOUS
 62
     7
 10
1316.1082468773
 20
664.0513842081
 30
0.0
 11
1316.1082468773
 21
670.4513842081
 31
0.0
  0
LINE
  5
F1
  8
0
  6
CONTINUOUS
 62
     7
 10
1294.9206428773
 20
698.4513842081
 30
0.0
 11
1294.9206428773
 21
676.5513842081
 31
0.0
  0
ARC
  5
F2
  8
0
  6
CONTINUOUS
 62
     7
 10
1318.3206428773
 20
676.5513842081
 30
0.0
 40
0.5
 50
270.0
 51
0.0
  0
LINE
  5
F3
  8
0
  6
CONTINUOUS
 62
     7
 10
1302.2518408773
 20
664.0513842081
 30
0.0
 11
1302.2518408773
 21
670.4513842081
 31
0.0
  0
LINE
  5
F4
  8
0
  6
CONTINUOUS
 62
     7
 10
1306.8706428773
 20
649.9458312081
 30
0.0
 11
1313.3706428773
 21
653.6986072081
 31
0.0
  0
LINE
  5
F5
  8
0
  6
CONTINUOUS
 62
     7
 10
1292.6206428773
 20
665.4513842081
 30
0.0
 11
1294.9206428773
 21
665.4513842081
 31
0.0
  0
LINE
  5
F6
  8
0
  6
CONTINUOUS
 62
     7
 10
1313.3706428773
 20
661.2041612081
 30
0.0
 11
1308.4388818652
 21
664.0515141872
 31
0.0
  0
LINE
  5
F7
  8
0
  6
CONTINUOUS
 62
     7
 10
1318.8706428773
 20
657.4513842081
 30
0.0
 11
1318.8706428773
 21
629.4513842081
 31
0.0
  0
ARC
  5
F8
  8
0
  6
CONTINUOUS
 62
     7
 10
1306.8706428773
 20
657.4513842081
 30
0.0
 40
12.0
 50
140.335965
 51
180.0
  0
LINE
  5
F9
  8
0
  6
CONTINUOUS
 62
     7
 10
1318.3706428773
 20
673.4712062081
 30
0.0
 11
1318.3706428773
 21
660.8792122081
 31
0.0
  0
LINE
  5
FA
  8
0
  6
CONTINUOUS
 62
     7
 10
1300.3706428773
 20
653.6986072081
 30
0.0
 11
1306.8706428773
 21
649.9458312081
 31
0.0
  0
LINE
  5
FB
  8
0
  6
CONTINUOUS
 62
     7
 10
1315.1206428773
 20
670.4513842081
 30
0.0
 11
1315.1206428773
 21
673.4513842081
 31
0.0
  0
LINE
  5
FC
  8
0
  6
CONTINUOUS
 62
     7
 10
1294.8706428773
 20
629.4513842081
 30
0.0
 11
1294.8706428773
 21
657.4513842081
 31
0.0
  0
LINE
  5
FD
  8
0
  6
CONTINUOUS
 62
     7
 10
1300.3706428773
 20
661.2041612081
 30
0.0
 11
1300.3706428773
 21
653.6986072081
 31
0.0
  0
LINE
  5
FE
  8
0
  6
CONTINUOUS
 62
     7
 10
1292.6206428773
 20
665.4513842081
 30
0.0
 11
1292.6206428773
 21
698.4513842081
 31
0.0
  0
LINE
  5
FF
  8
0
  6
CONTINUOUS
 62
     7
 10
1295.3706428773
 20
673.4712062081
 30
0.0
 11
1295.3706428773
 21
660.8792122081
 31
0.0
  0
LINE
  5
100
  8
0
  6
CONTINUOUS
 62
     7
 10
1313.3706428773
 20
653.6986072081
 30
0.0
 11
1313.3706428773
 21
661.2041612081
 31
0.0
  0
LINE
  5
101
  8
0
  6
CONTINUOUS
 62
     7
 10
1297.6330388773
 20
664.0513842081
 30
0.0
 11
1316.1082468773
 21
664.0513842081
 31
0.0
  0
LINE
  5
102
  8
0
  6
CONTINUOUS
 62
     7
 10
1297.6330388773
 20
664.0513842081
 30
0.0
 11
1297.6330388773
 21
670.4513842081
 31
0.0
  0
LINE
  5
103
  8
0
  6
CONTINUOUS
 62
     7
 10
1311.4894448773
 20
664.0513842081
 30
0.0
 11
1311.4894448773
 21
670.4513842081
 31
0.0
  0
LINE
  5
104
  8
0
  6
CONTINUOUS
 62
     7
 10
1318.0206428773
 20
673.4513842081
 30
0.0
 11
1295.7206428773
 21
673.4513842081
 31
0.0
  0
LINE
  5
105
  8
0
  6
CONTINUOUS
 62
     7
 10
1305.3028178773
 20
664.0517532081
 30
0.0
 11
1300.3706428814
 21
661.204161201
 31
0.0
  0
LINE
  5
106
  8
0
  6
CONTINUOUS
 62
     7
 10
1290.1206428773
 20
682.9569382081
 30
0.0
 11
1290.1206428773
 21
667.9458312081
 31
0.0
  0
LINE
  5
107
  8
0
  6
CONTINUOUS
 62
     7
 10
1321.1206428773
 20
665.4513842081
 30
0.0
 11
1318.8206428773
 21
665.4513842081
 31
0.0
  0
LINE
  5
108
  8
0
  6
CONTINUOUS
 62
     7
 10
1184.8605408773
 20
676.5513842081
 30
0.0
 11
1184.8706428773
 21
676.4513842081
 31
0.0
  0
LINE
  5
109
  8
0
  6
CONTINUOUS
 62
     7
 10
1144.5706428773
 20
663.9513842081
 30
0.0
 11
1150.0706428773
 21
663.9513842081
 31
0.0
  0
LINE
  5
10A
  8
0
  6
CONTINUOUS
 62
     7
 10
1139.8706428773
 20
676.4513842081
 30
0.0
 11
1139.8706428773
 21
673.4513842081
 31
0.0
  0
LINE
  5
10B
  8
0
  6
CONTINUOUS
 62
     7
 10
1185.0706428773
 20
654.9513842081
 30
0.0
 11
1184.2206428773
 21
654.1013842081
 31
0.0
  0
LINE
  5
10C
  8
0
  6
CONTINUOUS
 62
     7
 10
1177.4206428773
 20
661.2041612081
 30
0.0
 11
1184.2206428773
 21
661.2041612081
 31
0.0
  0
LINE
  5
10D
  8
0
  6
CONTINUOUS
 62
     7
 10
1281.1206428773
 20
677.9513842081
 30
0.0
 11
1281.1206428773
 21
672.9513842081
 31
0.0
  0
LINE
  5
10E
  8
0
  6
CONTINUOUS
 62
     7
 10
1152.6206428773
 20
665.9431962081
 30
0.0
 11
1152.6206428773
 21
648.7513842081
 31
0.0
  0
LINE
  5
10F
  8
0
  6
CONTINUOUS
 62
     7
 10
1283.3206428773
 20
667.9458312081
 30
0.0
 11
1283.3206428773
 21
682.9569382081
 31
0.0
  0
LINE
  5
110
  8
0
  6
CONTINUOUS
 62
     7
 10
1326.6206428773
 20
675.4513842081
 30
0.0
 11
1321.1206428773
 21
675.4513842081
 31
0.0
  0
LINE
  5
111
  8
0
  6
CONTINUOUS
 62
     7
 10
1283.3206428773
 20
679.4513842081
 30
0.0
 11
1282.6206428773
 21
679.4513842081
 31
0.0
  0
ARC
  5
112
  8
0
  6
CONTINUOUS
 62
     7
 10
1186.8706428773
 20
684.8513842081
 30
0.0
 40
3.0
 50
270.0
 51
0.0
  0
LINE
  5
113
  8
0
  6
CONTINUOUS
 62
     7
 10
1282.6206428773
 20
679.4513842081
 30
0.0
 11
1281.1206428773
 21
677.9513842081
 31
0.0
  0
LINE
  5
114
  8
0
  6
CONTINUOUS
 62
     7
 10
1185.0706428773
 20
659.9513842081
 30
0.0
 11
1185.0706428773
 21
654.9513842081
 31
0.0
  0
LINE
  5
115
  8
0
  6
CONTINUOUS
 62
     7
 10
1177.4206428773
 20
664.9569382081
 30
0.0
 11
1177.4206428773
 21
649.9458312081
 31
0.0
  0
LINE
  5
116
  8
0
  6
CONTINUOUS
 62
     7
 10
1184.2206428773
 20
660.8013842081
 30
0.0
 11
1185.0706428773
 21
659.9513842081
 31
0.0
  0
LINE
  5
117
  8
0
  6
CONTINUOUS
 62
     7
 10
1290.1206428773
 20
667.9458312081
 30
0.0
 11
1283.3206428773
 21
667.9458312081
 31
0.0
  0
ARC
  5
118
  8
0
  6
CONTINUOUS
 62
     7
 10
1162.6206428773
 20
665.9431962081
 30
0.0
 40
10.0
 50
171.767363
 51
180.0
  0
ARC
  5
119
  8
0
  6
CONTINUOUS
 62
     7
 10
1162.6206428773
 20
665.9431962081
 30
0.0
 40
7.4
 50
179.197277
 51
180.0
  0
LINE
  5
11A
  8
0
  6
CONTINUOUS
 62
     7
 10
1184.8706428773
 20
673.4513842081
 30
0.0
 11
1184.8706428773
 21
676.4513842081
 31
0.0
  0
CIRCLE
  5
11B
  8
0
  6
CONTINUOUS
 62
     7
 10
1162.3706428773
 20
675.4513842081
 30
0.0
 40
4.0
  0
LINE
  5
11C
  8
0
  6
CONTINUOUS
 62
     7
 10
1139.8706428773
 20
676.4513842081
 30
0.0
 11
1139.8807448773
 21
676.5513842081
 31
0.0
  0
LINE
  5
11D
  8
0
  6
CONTINUOUS
 62
     7
 10
1174.9206428773
 20
664.1513842081
 30
0.0
 11
1174.9206428773
 21
650.7513842081
 31
0.0
  0
LINE
  5
11E
  8
0
  6
CONTINUOUS
 62
     7
 10
1168.8706428773
 20
679.2041612081
 30
0.0
 11
1162.3706424443
 21
682.9569374581
 31
0.0
  0
LINE
  5
11F
  8
0
  6
CONTINUOUS
 62
     7
 10
1168.8706428773
 20
671.6986072081
 30
0.0
 11
1168.8706428773
 21
679.2041612081
 31
0.0
  0
LINE
  5
120
  8
0
  6
CONTINUOUS
 62
     7
 10
1155.8706428773
 20
671.6986072081
 30
0.0
 11
1162.3706428773
 21
667.9458312081
 31
0.0
  0
LINE
  5
121
  8
0
  6
CONTINUOUS
 62
     7
 10
1177.4206428773
 20
649.9458312081
 30
0.0
 11
1184.2206428773
 21
649.9458312081
 31
0.0
  0
LINE
  5
122
  8
0
  6
CONTINUOUS
 62
     7
 10
1184.2206428773
 20
649.9458312081
 30
0.0
 11
1184.2206428773
 21
664.9569382081
 31
0.0
  0
LINE
  5
123
  8
0
  6
CONTINUOUS
 62
     7
 10
1144.5706428773
 20
657.4513842081
 30
0.0
 11
1150.0706428773
 21
657.4513842081
 31
0.0
  0
LINE
  5
124
  8
0
  6
CONTINUOUS
 62
     7
 10
1144.5706428773
 20
650.9513842081
 30
0.0
 11
1150.0706428773
 21
650.9513842081
 31
0.0
  0
LINE
  5
125
  8
0
  6
CONTINUOUS
 62
     7
 10
1326.6206428773
 20
668.9513842081
 30
0.0
 11
1326.6206428773
 21
681.9513842081
 31
0.0
  0
LINE
  5
126
  8
0
  6
CONTINUOUS
 62
     7
 10
1144.5706428773
 20
663.9513842081
 30
0.0
 11
1144.5706428773
 21
650.9513842081
 31
0.0
  0
LINE
  5
127
  8
0
  6
CONTINUOUS
 62
     7
 10
1134.8706428773
 20
684.8513842081
 30
0.0
 11
1134.8706428773
 21
689.9513842081
 31
0.0
  0
LINE
  5
128
  8
0
  6
CONTINUOUS
 62
     7
 10
1186.8706428773
 20
681.8513842081
 30
0.0
 11
1168.6983598773
 21
681.8513842081
 31
0.0
  0
LINE
  5
129
  8
0
  6
CONTINUOUS
 62
     7
 10
1326.6206428773
 20
681.9513842081
 30
0.0
 11
1321.1206428773
 21
681.9513842081
 31
0.0
  0
LINE
  5
12A
  8
0
  6
CONTINUOUS
 62
     7
 10
1177.4206428773
 20
664.9569382081
 30
0.0
 11
1184.2206428773
 21
664.9569382081
 31
0.0
  0
LINE
  5
12B
  8
0
  6
CONTINUOUS
 62
     7
 10
1290.1206428773
 20
682.9569382081
 30
0.0
 11
1283.3206428773
 21
682.9569382081
 31
0.0
  0
LINE
  5
12C
  8
0
  6
CONTINUOUS
 62
     7
 10
1290.1206428773
 20
679.2041612081
 30
0.0
 11
1283.3206428773
 21
679.2041612081
 31
0.0
  0
LINE
  5
12D
  8
0
  6
CONTINUOUS
 62
     7
 10
1281.1206428773
 20
672.9513842081
 30
0.0
 11
1282.6206428773
 21
671.4513842081
 31
0.0
  0
CIRCLE
  5
12E
  8
0
  6
CONTINUOUS
 62
     7
 10
1162.3706428773
 20
675.4513842081
 30
0.0
 40
7.5055536246
  0
LINE
  5
12F
  8
0
  6
CONTINUOUS
 62
     7
 10
1137.8706428773
 20
692.9513842081
 30
0.0
 11
1186.8706428773
 21
692.9513842081
 31
0.0
  0
LINE
  5
130
  8
0
  6
CONTINUOUS
 62
     7
 10
1321.1206428773
 20
668.9513842081
 30
0.0
 11
1326.6206428773
 21
668.9513842081
 31
0.0
  0
LINE
  5
131
  8
0
  6
CONTINUOUS
 62
     7
 10
1282.6206428773
 20
671.4513842081
 30
0.0
 11
1283.3206428773
 21
671.4513842081
 31
0.0
  0
LINE
  5
132
  8
0
  6
CONTINUOUS
 62
     7
 10
1092.3706428773
 20
673.4513842081
 30
0.0
 11
1139.8706428773
 21
673.4513842081
 31
0.0
  0
LINE
  5
133
  8
0
  6
CONTINUOUS
 62
     7
 10
1177.4206428773
 20
653.6986072081
 30
0.0
 11
1184.2206428773
 21
653.6986072081
 31
0.0
  0
LINE
  5
134
  8
0
  6
CONTINUOUS
 62
     7
 10
1155.2206428773
 20
649.0513842081
 30
0.0
 11
1155.2206428773
 21
665.9431962081
 31
0.0
  0
LINE
  5
135
  8
0
  6
CONTINUOUS
 62
     7
 10
1290.1206428773
 20
671.6986072081
 30
0.0
 11
1283.3206428773
 21
671.6986072081
 31
0.0
  0
LINE
  5
136
  8
0
  6
CONTINUOUS
 62
     7
 10
1189.8706428773
 20
689.9513842081
 30
0.0
 11
1189.8706428773
 21
684.8513842081
 31
0.0
  0
ARC
  5
137
  8
0
  6
CONTINUOUS
 62
     7
 10
1140.3706428773
 20
676.4513842081
 30
0.0
 40
0.5
 50
90.0
 51
168.463041
  0
LINE
  5
138
  8
0
  6
CONTINUOUS
 62
     7
 10
1176.6474138773
 20
698.4513842081
 30
0.0
 11
1230.3706428773
 21
698.4513842081
 31
0.0
  0
ARC
  5
139
  8
0
  6
CONTINUOUS
 62
     7
 10
1158.6206428773
 20
675.4513842081
 30
0.0
 40
10.0
 50
186.62581
 51
270.0
  0
LINE
  5
13A
  8
0
  6
CONTINUOUS
 62
     7
 10
1184.8706428773
 20
673.4513842081
 30
0.0
 11
1232.3706428773
 21
673.4513842081
 31
0.0
  0
LINE
  5
13B
  8
0
  6
CONTINUOUS
 62
     7
 10
1155.2206428773
 20
653.4513842081
 30
0.0
 11
1169.5206428773
 21
653.4513842081
 31
0.0
  0
LINE
  5
13C
  8
0
  6
CONTINUOUS
 62
     7
 10
1155.8706428773
 20
679.2041612081
 30
0.0
 11
1155.8706428773
 21
671.6986072081
 31
0.0
  0
ARC
  5
13D
  8
0
  6
CONTINUOUS
 62
     7
 10
1169.8206428773
 20
648.7513842081
 30
0.0
 40
2.3
 50
270.0
 51
0.0
  0
LINE
  5
13E
  8
0
  6
CONTINUOUS
 62
     7
 10
1154.9206428773
 20
646.4513842081
 30
0.0
 11
1162.1206428773
 21
646.4513842081
 31
0.0
  0
LINE
  5
13F
  8
0
  6
CONTINUOUS
 62
     7
 10
1172.3706428773
 20
667.6451372081
 30
0.0
 11
1172.3706428773
 21
640.8254348748
 31
0.0
  0
ARC
  5
140
  8
0
  6
CONTINUOUS
 62
     7
 10
1145.7074708773
 20
673.9513842081
 30
0.0
 40
3.0
 50
6.625810000000001
 51
90.0
  0
ARC
  5
141
  8
0
  6
CONTINUOUS
 62
     7
 10
1137.8706428773
 20
689.9513842081
 30
0.0
 40
3.0
 50
90.0
 51
180.0
  0
ARC
  5
142
  8
0
  6
CONTINUOUS
 62
     7
 10
1162.1206428773
 20
665.9431962081
 30
0.0
 40
7.4
 50
0.0
 51
0.8027229999999997
  0
LINE
  5
143
  8
0
  6
CONTINUOUS
 62
     7
 10
1169.8206428773
 20
646.4513842081
 30
0.0
 11
1162.6206428773
 21
646.4513842081
 31
0.0
  0
LINE
  5
144
  8
0
  6
CONTINUOUS
 62
     7
 10
1177.4206428773
 20
664.1513842081
 30
0.0
 11
1174.9206428773
 21
664.1513842081
 31
0.0
  0
LINE
  5
145
  8
0
  6
CONTINUOUS
 62
     7
 10
1174.9206428773
 20
650.7513842081
 30
0.0
 11
1177.4206428773
 21
650.7513842081
 31
0.0
  0
ARC
  5
146
  8
0
  6
CONTINUOUS
 62
     7
 10
1154.9206428773
 20
648.7513842081
 30
0.0
 40
2.3
 50
180.0
 51
270.0
  0
LINE
  5
147
  8
0
  6
CONTINUOUS
 62
     7
 10
1094.3706428773
 20
698.4513842081
 30
0.0
 11
1148.0938718773
 21
698.4513842081
 31
0.0
  0
ARC
  5
148
  8
0
  6
CONTINUOUS
 62
     7
 10
1179.0338148773
 20
673.9513842081
 30
0.0
 40
3.0
 50
90.0
 51
173.37419
  0
LINE
  5
149
  8
0
  6
CONTINUOUS
 62
     7
 10
1156.0429258773
 20
681.8513842081
 30
0.0
 11
1137.8706428773
 21
681.8513842081
 31
0.0
  0
ARC
  5
14A
  8
0
  6
CONTINUOUS
 62
     7
 10
1162.3706428773
 20
675.4513842081
 30
0.0
 40
9.0
 50
45.32539000000001
 51
134.67461
  0
LINE
  5
14B
  8
0
  6
CONTINUOUS
 62
     7
 10
1148.0938718773
 20
698.4513842081
 30
0.0
 11
1159.3706428773
 21
695.9513842081
 31
0.0
  0
ARC
  5
14C
  8
0
  6
CONTINUOUS
 62
     7
 10
1166.1206428773
 20
675.4513842081
 30
0.0
 40
10.0
 50
270.0
 51
353.3741900000001
  0
ARC
  5
14D
  8
0
  6
CONTINUOUS
 62
     7
 10
1162.1206428773
 20
665.9431962081
 30
0.0
 40
10.0
 50
0.0
 51
8.232636999999999
  0
LINE
  5
14E
  8
0
  6
CONTINUOUS
 62
     7
 10
1150.0706428773
 20
640.6242107071
 30
0.0
 11
1150.0706428773
 21
669.4513842081
 31
0.0
  0
LINE
  5
14F
  8
0
  6
CONTINUOUS
 62
     7
 10
1165.3706428773
 20
695.9513842081
 30
0.0
 11
1176.6474138773
 21
698.4513842081
 31
0.0
  0
LINE
  5
150
  8
0
  6
CONTINUOUS
 62
     7
 10
1174.6706428773
 20
640.6242107071
 30
0.0
 11
1174.6706428773
 21
669.4513842081
 31
0.0
  0
LINE
  5
151
  8
0
  6
CONTINUOUS
 62
     7
 10
1169.5206428773
 20
661.4513842081
 30
0.0
 11
1155.2206428773
 21
661.4513842081
 31
0.0
  0
LINE
  5
152
  8
0
  6
CONTINUOUS
 62
     7
 10
1318.8206428773
 20
698.4513842081
 30
0.0
 11
1321.1206428773
 21
698.4513842081
 31
0.0
  0
LINE
  5
153
  8
0
  6
CONTINUOUS
 62
     7
 10
1184.3706428773
 20
676.9513842081
 30
0.0
 11
1179.0338148773
 21
676.9513842081
 31
0.0
  0
LINE
  5
154
  8
0
  6
CONTINUOUS
 62
     7
 10
1162.3706428773
 20
682.9569382081
 30
0.0
 11
1155.8706433103
 21
679.2041604581
 31
0.0
  0
LINE
  5
155
  8
0
  6
CONTINUOUS
 62
     7
 10
1172.1206428773
 20
665.9431962081
 30
0.0
 11
1172.1206428773
 21
648.7513842081
 31
0.0
  0
LINE
  5
156
  8
0
  6
CONTINUOUS
 62
     7
 10
1162.1206428773
 20
649.0513842081
 30
0.0
 11
1152.6206428773
 21
649.0513842081
 31
0.0
  0
LINE
  5
157
  8
0
  6
CONTINUOUS
 62
     7
 10
1162.6206428773
 20
646.4513842081
 30
0.0
 11
1162.6206428773
 21
649.0513842081
 31
0.0
  0
LINE
  5
158
  8
0
  6
CONTINUOUS
 62
     7
 10
1162.6206428773
 20
649.0513842081
 30
0.0
 11
1172.1206428773
 21
649.0513842081
 31
0.0
  0
LINE
  5
159
  8
0
  6
CONTINUOUS
 62
     7
 10
1152.3706428773
 20
667.6451372081
 30
0.0
 11
1152.3706428773
 21
640.8254348748
 31
0.0
  0
LINE
  5
15A
  8
0
  6
CONTINUOUS
 62
     7
 10
1158.6206428773
 20
665.4513842081
 30
0.0
 11
1166.1206428773
 21
665.4513842081
 31
0.0
  0
LINE
  5
15B
  8
0
  6
CONTINUOUS
 62
     7
 10
1162.1206428773
 20
646.4513842081
 30
0.0
 11
1162.1206428773
 21
649.0513842081
 31
0.0
  0
ARC
  5
15C
  8
0
  6
CONTINUOUS
 62
     7
 10
1186.8706428773
 20
689.9513842081
 30
0.0
 40
3.0
 50
0.0
 51
90.0
  0
ARC
  5
15D
  8
0
  6
CONTINUOUS
 62
     7
 10
1137.8706428773
 20
684.8513842081
 30
0.0
 40
3.0
 50
180.0
 51
270.0
  0
LINE
  5
15E
  8
0
  6
CONTINUOUS
 62
     7
 10
1150.6206428773
 20
669.4513842081
 30
0.0
 11
1150.0706428773
 21
669.4513842081
 31
0.0
  0
LINE
  5
15F
  8
0
  6
CONTINUOUS
 62
     7
 10
1159.3706428773
 20
695.9513842081
 30
0.0
 11
1165.3706428773
 21
695.9513842081
 31
0.0
  0
LINE
  5
160
  8
0
  6
CONTINUOUS
 62
     7
 10
1174.1206428773
 20
669.4513842081
 30
0.0
 11
1174.6706428773
 21
669.4513842081
 31
0.0
  0
LINE
  5
161
  8
0
  6
CONTINUOUS
 62
     7
 10
1321.1206428773
 20
698.4513842081
 30
0.0
 11
1321.1206428773
 21
665.4513842081
 31
0.0
  0
LINE
  5
162
  8
0
  6
CONTINUOUS
 62
     7
 10
1162.3706428773
 20
667.9458312081
 30
0.0
 11
1168.8706428773
 21
671.6986072081
 31
0.0
  0
LINE
  5
163
  8
0
  6
CONTINUOUS
 62
     7
 10
1318.8206428773
 20
676.5513842081
 30
0.0
 11
1318.8206428773
 21
698.4513842081
 31
0.0
  0
LINE
  5
164
  8
0
  6
CONTINUOUS
 62
     7
 10
1169.5206428773
 20
649.0513842081
 30
0.0
 11
1169.5206428773
 21
665.9431962081
 31
0.0
  0
LINE
  5
165
  8
0
  6
CONTINUOUS
 62
     7
 10
1145.7074708773
 20
676.9513842081
 30
0.0
 11
1140.3706428773
 21
676.9513842081
 31
0.0
  0
ARC
  5
166
  8
0
  6
CONTINUOUS
 62
     7
 10
1184.3706428773
 20
676.4513842081
 30
0.0
 40
0.5
 50
11.536959
 51
90.0
  0
INSERT
  5
168
  8
0
 62
     7
  2
D_FRAME_DRAWING_21
 10
0.0
 20
0.0
 30
0.0
  0
TEXT
  5
1B2
  8
0
  6
CONTINUOUS
 62
     7
 10
1193.560878811992
 20
568.5880722727272
 30
0.0
 40
6.0
  1
ＳＧＰＡ－１０Ａ
 41
0.832611
  0
ENDSEC
  0
EOF
