  0
SECTION
  2
HEADER
  9
$ACADVER
  1
AC1006
  9
$DWGCODEPAGE
  3
ansi_932
  9
$INSBASE
 10
0.0
 20
0.0
 30
0.0
  9
$EXTMIN
 10
0.0
 20
-76.924153
  9
$EXTMAX
 10
943.5325376046
 20
258.0234784264
  9
$LIMMIN
 10
0.0
 20
0.0
  9
$LIMMAX
 10
12.0
 20
9.0
  9
$ORTHOMODE
 70
     0
  9
$REGENMODE
 70
     1
  9
$FILLMODE
 70
     1
  9
$QTEXTMODE
 70
     0
  9
$MIRRTEXT
 70
     1
  9
$DRAGMODE
 70
     2
  9
$LTSCALE
 40
1.0
  9
$OSMODE
 70
    37
  9
$ATTMODE
 70
     1
  9
$TEXTSIZE
 40
0.2
  9
$TRACEWID
 40
0.05
  9
$TEXTSTYLE
  7
STANDARD
  9
$CLAYER
  8
0
  9
$CELTYPE
  6
BYLAYER
  9
$CECOLOR
 62
   256
  9
$DIMSCALE
 40
1.0
  9
$DIMASZ
 40
2.4
  9
$DIMEXO
 40
0.0625
  9
$DIMDLI
 40
0.38
  9
$DIMRND
 40
0.0
  9
$DIMDLE
 40
0.0
  9
$DIMEXE
 40
1.2
  9
$DIMTP
 40
0.0
  9
$DIMTM
 40
0.0
  9
$DIMTXT
 40
8.0
  9
$DIMCEN
 40
0.09
  9
$DIMTSZ
 40
0.0
  9
$DIMTOL
 70
     0
  9
$DIMLIM
 70
     0
  9
$DIMTIH
 70
     1
  9
$DIMTOH
 70
     1
  9
$DIMSE1
 70
     0
  9
$DIMSE2
 70
     0
  9
$DIMTAD
 70
     1
  9
$DIMZIN
 70
     0
  9
$DIMBLK
  1

  9
$DIMASO
 70
     1
  9
$DIMSHO
 70
     1
  9
$DIMPOST
  1

  9
$DIMAPOST
  1

  9
$DIMALT
 70
     0
  9
$DIMALTD
 70
     2
  9
$DIMALTF
 40
25.4
  9
$DIMLFAC
 40
1.0
  9
$DIMTOFL
 70
     0
  9
$DIMTVP
 40
0.0
  9
$DIMTIX
 70
     0
  9
$DIMSOXD
 70
     0
  9
$DIMSAH
 70
     0
  9
$DIMBLK1
  1

  9
$DIMBLK2
  1

  9
$LUNITS
 70
     2
  9
$LUPREC
 70
     4
  9
$SKETCHINC
 40
0.1
  9
$FILLETRAD
 40
0.5
  9
$AUNITS
 70
     0
  9
$AUPREC
 70
     0
  9
$MENU
  1
.
  9
$ELEVATION
 40
0.0
  9
$THICKNESS
 40
0.0
  9
$LIMCHECK
 70
     0
  9
$CHAMFERA
 40
0.0
  9
$CHAMFERB
 40
0.0
  9
$SKPOLY
 70
     0
  9
$TDCREATE
 40
2460587.370999792
  9
$TDUPDATE
 40
2460587.371000151
  9
$TDINDWG
 40
0.0000000116
  9
$TDUSRTIMER
 40
0.0000000116
  9
$USRTIMER
 70
     1
  9
$ANGBASE
 50
0.0
  9
$ANGDIR
 70
     0
  9
$PDMODE
 70
     0
  9
$PDSIZE
 40
0.0
  9
$PLINEWID
 40
0.0
  9
$COORDS
 70
     1
  9
$SPLFRAME
 70
     0
  9
$SPLINETYPE
 70
     6
  9
$SPLINESEGS
 70
     8
  9
$ATTDIA
 70
     0
  9
$ATTREQ
 70
     1
  9
$HANDLING
 70
     1
  9
$HANDSEED
  5
20A
  9
$SURFTAB1
 70
     6
  9
$SURFTAB2
 70
     6
  9
$SURFTYPE
 70
     6
  9
$SURFU
 70
     6
  9
$SURFV
 70
     6
  9
$UCSNAME
  2

  9
$UCSORG
 10
0.0
 20
0.0
 30
0.0
  9
$UCSXDIR
 10
1.0
 20
0.0
 30
0.0
  9
$UCSYDIR
 10
0.0
 20
1.0
 30
0.0
  9
$USERI1
 70
     0
  9
$USERI2
 70
     0
  9
$USERI3
 70
     0
  9
$USERI4
 70
     0
  9
$USERI5
 70
     0
  9
$USERR1
 40
0.0
  9
$USERR2
 40
0.0
  9
$USERR3
 40
0.0
  9
$USERR4
 40
0.0
  9
$USERR5
 40
0.0
  9
$WORLDVIEW
 70
     1
  0
ENDSEC
  0
SECTION
  2
TABLES
  0
TABLE
  2
VPORT
 70
     1
  0
VPORT
  2
*ACTIVE
 70
     0
 10
0.0
 20
0.0
 11
1.0
 21
1.0
 12
471.7662688023
 22
90.54966271320001
 13
0.0
 23
0.0
 14
0.5
 24
0.5
 15
0.5
 25
0.5
 16
0.0
 26
0.0
 36
1.0
 17
0.0
 27
0.0
 37
0.0
 40
334.9476314264
 41
1.6
 42
50.0
 43
0.0
 44
0.0
 50
0.0
 51
0.0
 71
     0
 72
   100
 73
     1
 74
     3
 75
     0
 76
     0
 77
     0
 78
     0
  0
ENDTAB
  0
TABLE
  2
LTYPE
 70
     1
  0
LTYPE
  2
CONTINUOUS
 70
     0
  3
Solid line
 72
    65
 73
     0
 40
0.0
  0
ENDTAB
  0
TABLE
  2
LAYER
 70
     2
  0
LAYER
  2
0
 70
     0
 62
     7
  6
CONTINUOUS
  0
LAYER
  2
1
 70
     0
 62
     7
  6
CONTINUOUS
  0
ENDTAB
  0
TABLE
  2
STYLE
 70
     2
  0
STYLE
  2
STANDARD
 70
     0
 40
0.0
 41
1.0
 50
0.0
 71
     0
 42
0.2
  3
txt
  4

  0
STYLE
  2
ＭＳ_ゴシック
 70
     0
 40
0.0
 41
1.0
 50
0.0
 71
     0
 42
0.2
  3
ＭＳ ゴシック.shx
  4

  0
ENDTAB
  0
TABLE
  2
VIEW
 70
     0
  0
ENDTAB
  0
TABLE
  2
UCS
 70
     0
  0
ENDTAB
  0
ENDSEC
  0
SECTION
  2
BLOCKS
  0
BLOCK
  8
0
  2
D_FRAME_DRAWING_21
 70
     0
 10
0.0
 20
0.0
 30
0.0
  0
LINE
  5
75
  8
0
  6
CONTINUOUS
 62
     7
 10
0.0
 20
0.0
 30
0.0
 11
420.0
 21
0.0
 31
0.0
  0
LINE
  5
76
  8
0
  6
CONTINUOUS
 62
     7
 10
420.0
 20
0.0
 30
0.0
 11
420.0
 21
297.0
 31
0.0
  0
LINE
  5
77
  8
0
  6
CONTINUOUS
 62
     7
 10
420.0
 20
297.0
 30
0.0
 11
0.0
 21
297.0
 31
0.0
  0
LINE
  5
78
  8
0
  6
CONTINUOUS
 62
     7
 10
0.0
 20
297.0
 30
0.0
 11
0.0
 21
0.0
 31
0.0
  0
LINE
  5
79
  8
0
  6
CONTINUOUS
 62
     7
 10
10.0
 20
10.0
 30
0.0
 11
409.9999999999999
 21
10.0
 31
0.0
  0
LINE
  5
7A
  8
0
  6
CONTINUOUS
 62
     7
 10
409.9999999999999
 20
10.0
 30
0.0
 11
409.9999999999999
 21
286.9999999999999
 31
0.0
  0
LINE
  5
7B
  8
0
  6
CONTINUOUS
 62
     7
 10
409.9999999999999
 20
286.9999999999999
 30
0.0
 11
10.00000000000006
 21
286.9999999999999
 31
0.0
  0
LINE
  5
7C
  8
0
  6
CONTINUOUS
 62
     7
 10
10.0
 20
286.9999999999999
 30
0.0
 11
10.0
 21
10.00000000000001
 31
0.0
  0
LINE
  5
7D
  8
0
  6
CONTINUOUS
 62
     7
 10
210.0
 20
0.0
 30
0.0
 11
210.0
 21
10.0
 31
0.0
  0
LINE
  5
7E
  8
0
  6
CONTINUOUS
 62
     7
 10
420.0
 20
148.5
 30
0.0
 11
409.9999999999999
 21
148.5
 31
0.0
  0
LINE
  5
7F
  8
0
  6
CONTINUOUS
 62
     7
 10
210.0
 20
297.0
 30
0.0
 11
210.0
 21
286.9999999999999
 31
0.0
  0
LINE
  5
80
  8
0
  6
CONTINUOUS
 62
     7
 10
0.0
 20
148.5
 30
0.0
 11
10.0
 21
148.5
 31
0.0
  0
POLYLINE
  5
81
  8
0
  6
CONTINUOUS
 62
     7
 66
     1
 10
0.0
 20
0.0
 30
0.0
 70
     1
  0
VERTEX
  5
1DB
  8
0
  6
CONTINUOUS
 62
     7
 10
11.0
 20
152.5
 30
0.0
  0
VERTEX
  5
1DC
  8
0
  6
CONTINUOUS
 62
     7
 10
0.0
 20
148.5
 30
0.0
  0
VERTEX
  5
1DD
  8
0
  6
CONTINUOUS
 62
     7
 10
11.0
 20
144.5
 30
0.0
  0
VERTEX
  5
1DE
  8
0
  6
CONTINUOUS
 62
     7
 10
11.0
 20
152.5
 30
0.0
  0
SEQEND
  5
208
  8
0
  6
CONTINUOUS
 62
     7
  0
INSERT
  5
82
  8
0
 62
     7
  2
*U2
 10
0.0
 20
0.0
 30
0.0
  0
POLYLINE
  5
83
  8
0
  6
CONTINUOUS
 62
     7
 66
     1
 10
0.0
 20
0.0
 30
0.0
 70
     1
  0
VERTEX
  5
1E1
  8
0
  6
CONTINUOUS
 62
     7
 10
206.0
 20
11.0
 30
0.0
  0
VERTEX
  5
1E2
  8
0
  6
CONTINUOUS
 62
     7
 10
210.0
 20
0.0
 30
0.0
  0
VERTEX
  5
1E3
  8
0
  6
CONTINUOUS
 62
     7
 10
214.0
 20
11.0
 30
0.0
  0
VERTEX
  5
1E4
  8
0
  6
CONTINUOUS
 62
     7
 10
206.0
 20
11.0
 30
0.0
  0
SEQEND
  5
209
  8
0
  6
CONTINUOUS
 62
     7
  0
INSERT
  5
84
  8
0
 62
     7
  2
*U3
 10
0.0
 20
0.0
 30
0.0
  0
LINE
  5
85
  8
0
  6
CONTINUOUS
 62
     7
 10
367.5
 20
286.9999999999999
 30
0.0
 11
367.5
 21
292.0
 31
0.0
  0
TEXT
  5
86
  8
0
  6
CONTINUOUS
 62
     7
 10
391.6340909090909
 20
291.8324293485057
 30
0.0
 40
3.5
  1
A
 50
270.0
  0
LINE
  5
87
  8
0
  6
CONTINUOUS
 62
     7
 10
367.5
 20
10.0
 30
0.0
 11
367.5
 21
5.0
 31
0.0
  0
TEXT
  5
88
  8
0
  6
CONTINUOUS
 62
     7
 10
392.9868888333125
 20
4.602272727272727
 30
0.0
 40
3.5
  1
A
  0
LINE
  5
89
  8
0
  6
CONTINUOUS
 62
     7
 10
315.0
 20
286.9999999999999
 30
0.0
 11
315.0
 21
292.0
 31
0.0
  0
TEXT
  5
8A
  8
0
  6
CONTINUOUS
 62
     7
 10
339.1340909090909
 20
291.9745607727899
 30
0.0
 40
3.5
  1
B
 50
270.0
  0
LINE
  5
8B
  8
0
  6
CONTINUOUS
 62
     7
 10
315.0
 20
10.0
 30
0.0
 11
315.0
 21
5.0
 31
0.0
  0
TEXT
  5
8C
  8
0
  6
CONTINUOUS
 62
     7
 10
340.3447574090284
 20
4.602272727272727
 30
0.0
 40
3.5
  1
B
  0
LINE
  5
8D
  8
0
  6
CONTINUOUS
 62
     7
 10
262.5
 20
286.9999999999999
 30
0.0
 11
262.5
 21
292.0
 31
0.0
  0
TEXT
  5
8E
  8
0
  6
CONTINUOUS
 62
     7
 10
286.6327779167187
 20
291.9399305989747
 30
0.0
 40
3.5
  1
C
 50
270.0
  0
LINE
  5
8F
  8
0
  6
CONTINUOUS
 62
     7
 10
262.5
 20
10.0
 30
0.0
 11
262.5
 21
5.0
 31
0.0
  0
TEXT
  5
90
  8
0
  6
CONTINUOUS
 62
     7
 10
287.8793875828435
 20
4.600959734900587
 30
0.0
 40
3.5
  1
C
  0
LINE
  5
91
  8
0
  6
CONTINUOUS
 62
     7
 10
210.0
 20
286.9999999999999
 30
0.0
 11
210.0
 21
292.0
 31
0.0
  0
TEXT
  5
92
  8
0
  6
CONTINUOUS
 62
     7
 10
234.1340909090909
 20
291.9745607727898
 30
0.0
 40
3.5
  1
D
 50
270.0
  0
LINE
  5
93
  8
0
  6
CONTINUOUS
 62
     7
 10
157.5
 20
286.9999999999999
 30
0.0
 11
157.5
 21
292.0
 31
0.0
  0
TEXT
  5
94
  8
0
  6
CONTINUOUS
 62
     7
 10
181.6327779167188
 20
292.027463423784
 30
0.0
 40
3.5
  1
E
 50
270.0
  0
LINE
  5
95
  8
0
  6
CONTINUOUS
 62
     7
 10
157.5
 20
10.0
 30
0.0
 11
157.5
 21
5.0
 31
0.0
  0
LINE
  5
96
  8
0
  6
CONTINUOUS
 62
     7
 10
105.0
 20
286.9999999999999
 30
0.0
 11
105.0
 21
292.0
 31
0.0
  0
TEXT
  5
97
  8
0
  6
CONTINUOUS
 62
     7
 10
129.1327779167188
 20
291.9924502938602
 30
0.0
 40
3.5
  1
F
 50
270.0
  0
LINE
  5
98
  8
0
  6
CONTINUOUS
 62
     7
 10
105.0
 20
10.0
 30
0.0
 11
105.0
 21
5.0
 31
0.0
  0
TEXT
  5
99
  8
0
  6
CONTINUOUS
 62
     7
 10
130.326867887958
 20
4.600959734900587
 30
0.0
 40
3.5
  1
F
  0
LINE
  5
9A
  8
0
  6
CONTINUOUS
 62
     7
 10
52.50000000000004
 20
286.9999999999999
 30
0.0
 11
52.50000000000004
 21
292.0
 31
0.0
  0
TEXT
  5
9B
  8
0
  6
CONTINUOUS
 62
     7
 10
76.6327779167188
 20
291.9399305989746
 30
0.0
 40
3.5
  1
G
 50
270.0
  0
LINE
  5
9C
  8
0
  6
CONTINUOUS
 62
     7
 10
52.50000000000004
 20
10.0
 30
0.0
 11
52.50000000000004
 21
5.0
 31
0.0
  0
TEXT
  5
9D
  8
0
  6
CONTINUOUS
 62
     7
 10
77.8793875828436
 20
4.600959734900587
 30
0.0
 40
3.5
  1
G
  0
TEXT
  5
9E
  8
0
  6
CONTINUOUS
 62
     7
 10
24.13277791671879
 20
291.9749437288983
 30
0.0
 40
3.5
  1
H
 50
270.0
  0
TEXT
  5
9F
  8
0
  6
CONTINUOUS
 62
     7
 10
25.34437445291988
 20
4.600959734900587
 30
0.0
 40
3.5
  1
H
  0
LINE
  5
A0
  8
0
  6
CONTINUOUS
 62
     7
 10
409.9999999999999
 20
74.25
 30
0.0
 11
414.9999999999999
 21
74.25
 31
0.0
  0
TEXT
  5
A1
  8
0
  6
CONTINUOUS
 62
     7
 10
412.9326059772414
 20
35.00777791671877
 30
0.0
 40
3.5
  1
1
  0
LINE
  5
A2
  8
0
  6
CONTINUOUS
 62
     7
 10
10.0
 20
74.25
 30
0.0
 11
5.0
 21
74.25
 31
0.0
  0
TEXT
  5
A3
  8
0
  6
CONTINUOUS
 62
     7
 10
4.600959734900584
 20
38.26171220457671
 30
0.0
 40
3.5
  1
1
 50
270.0
  0
LINE
  5
A4
  8
0
  6
CONTINUOUS
 62
     7
 10
409.9999999999999
 20
148.5
 30
0.0
 11
414.9999999999999
 21
148.5
 31
0.0
  0
TEXT
  5
A5
  8
0
  6
CONTINUOUS
 62
     7
 10
413.163692634738
 20
109.2577779167188
 30
0.0
 40
3.5
  1
2
  0
LINE
  5
A6
  8
0
  6
CONTINUOUS
 62
     7
 10
10.0
 20
148.5
 30
0.0
 11
5.0
 21
148.5
 31
0.0
  0
TEXT
  5
A7
  8
0
  6
CONTINUOUS
 62
     7
 10
4.600959734900599
 20
112.2806255470802
 30
0.0
 40
3.5
  1
2
 50
270.0
  0
LINE
  5
A8
  8
0
  6
CONTINUOUS
 62
     7
 10
409.9999999999999
 20
222.75
 30
0.0
 11
414.9999999999999
 21
222.75
 31
0.0
  0
TEXT
  5
A9
  8
0
  6
CONTINUOUS
 62
     7
 10
413.1811991996998
 20
183.5077779167188
 30
0.0
 40
3.5
  1
3
  0
LINE
  5
AA
  8
0
  6
CONTINUOUS
 62
     7
 10
10.0
 20
222.75
 30
0.0
 11
5.0
 21
222.75
 31
0.0
  0
TEXT
  5
AB
  8
0
  6
CONTINUOUS
 62
     7
 10
4.600959734900584
 20
186.5131189821183
 30
0.0
 40
3.5
  1
3
 50
270.0
  0
TEXT
  5
AC
  8
0
  6
CONTINUOUS
 62
     7
 10
413.2351413029886
 20
257.7590909090909
 30
0.0
 40
3.5
  1
4
  0
TEXT
  5
AD
  8
0
  6
CONTINUOUS
 62
     7
 10
4.60227272727272
 20
260.7091768788295
 30
0.0
 40
3.5
  1
4
 50
270.0
  0
LINE
  5
AE
  8
0
  6
CONTINUOUS
 62
     7
 10
220.0
 20
10.0
 30
0.0
 11
220.0
 21
7.0
 31
0.0
  0
LINE
  5
AF
  8
0
  6
CONTINUOUS
 62
     7
 10
200.0
 20
10.0
 30
0.0
 11
200.0
 21
7.0
 31
0.0
  0
LINE
  5
B0
  8
0
  6
CONTINUOUS
 62
     7
 10
230.0
 20
10.0
 30
0.0
 11
230.0
 21
7.0
 31
0.0
  0
LINE
  5
B1
  8
0
  6
CONTINUOUS
 62
     7
 10
190.0
 20
10.0
 30
0.0
 11
190.0
 21
7.0
 31
0.0
  0
LINE
  5
B2
  8
0
  6
CONTINUOUS
 62
     7
 10
240.0
 20
10.0
 30
0.0
 11
240.0
 21
7.0
 31
0.0
  0
LINE
  5
B3
  8
0
  6
CONTINUOUS
 62
     7
 10
180.0
 20
10.0
 30
0.0
 11
180.0
 21
7.0
 31
0.0
  0
LINE
  5
B4
  8
0
  6
CONTINUOUS
 62
     7
 10
250.0
 20
10.0
 30
0.0
 11
250.0
 21
7.0
 31
0.0
  0
LINE
  5
B5
  8
0
  6
CONTINUOUS
 62
     7
 10
170.0
 20
10.0
 30
0.0
 11
170.0
 21
7.0
 31
0.0
  0
LINE
  5
B6
  8
0
  6
CONTINUOUS
 62
     7
 10
260.0
 20
10.0
 30
0.0
 11
260.0
 21
5.0
 31
0.0
  0
LINE
  5
B7
  8
0
  6
CONTINUOUS
 62
     7
 10
160.0
 20
10.0
 30
0.0
 11
160.0
 21
5.0
 31
0.0
  0
LINE
  5
B8
  8
0
  6
CONTINUOUS
 62
     7
 10
260.0
 20
10.0
 30
0.0
 11
160.0
 21
10.0
 31
0.0
  0
LINE
  5
B9
  8
0
  6
CONTINUOUS
 62
     7
 10
260.0
 20
7.0
 30
0.0
 11
160.0
 21
7.0
 31
0.0
  0
INSERT
  5
BA
  8
0
 62
     7
  2
*U4
 10
0.0
 20
0.0
 30
0.0
  0
INSERT
  5
BB
  8
0
 62
     7
  2
*U5
 10
0.0
 20
0.0
 30
0.0
  0
INSERT
  5
BC
  8
0
 62
     7
  2
*U6
 10
0.0
 20
0.0
 30
0.0
  0
INSERT
  5
BD
  8
0
 62
     7
  2
*U7
 10
0.0
 20
0.0
 30
0.0
  0
ENDBLK
  8
0
  0
BLOCK
  8
0
  2
*U2
 70
     1
 10
0.0
 20
0.0
 30
0.0
  0
SOLID
  5
1E0
  8
0
  6
CONTINUOUS
 62
     7
 10
11.0
 20
144.5
 30
0.0
 11
6.999999999999999
 21
148.5
 31
0.0
 12
11.0
 22
152.5
 32
0.0
 13
11.0
 23
152.5
 33
0.0
  0
ENDBLK
  8
0
  0
BLOCK
  8
0
  2
*U3
 70
     1
 10
0.0
 20
0.0
 30
0.0
  0
SOLID
  5
1E6
  8
0
  6
CONTINUOUS
 62
     7
 10
210.0
 20
6.999999999999999
 30
0.0
 11
206.0
 21
11.0
 31
0.0
 12
210.0
 22
11.0
 32
0.0
 13
210.0
 23
11.0
 33
0.0
  0
SOLID
  5
1E7
  8
0
  6
CONTINUOUS
 62
     7
 10
210.0
 20
6.999999999999999
 30
0.0
 11
210.0
 21
11.0
 31
0.0
 12
214.0
 22
11.0
 32
0.0
 13
214.0
 23
11.0
 33
0.0
  0
ENDBLK
  8
0
  0
BLOCK
  8
0
  2
*U4
 70
     1
 10
0.0
 20
0.0
 30
0.0
  0
SOLID
  5
1E9
  8
0
  6
CONTINUOUS
 62
     7
 10
0.0
 20
0.0
 30
0.0
 11
0.0
 21
10.0
 31
0.0
 12
2.0
 22
0.0
 32
0.0
 13
2.0
 23
0.0
 33
0.0
  0
SOLID
  5
1EA
  8
0
  6
CONTINUOUS
 62
     7
 10
2.0
 20
0.0
 30
0.0
 11
0.0
 21
10.0
 31
0.0
 12
2.0
 22
10.0
 32
0.0
 13
2.0
 23
10.0
 33
0.0
  0
SOLID
  5
1EB
  8
0
  6
CONTINUOUS
 62
     7
 10
2.0
 20
0.0
 30
0.0
 11
2.0
 21
2.0
 31
0.0
 12
10.0
 22
0.0
 32
0.0
 13
10.0
 23
0.0
 33
0.0
  0
SOLID
  5
1EC
  8
0
  6
CONTINUOUS
 62
     7
 10
10.0
 20
0.0
 30
0.0
 11
2.0
 21
2.0
 31
0.0
 12
10.0
 22
2.0
 32
0.0
 13
10.0
 23
2.0
 33
0.0
  0
ENDBLK
  8
0
  0
BLOCK
  8
0
  2
*U5
 70
     1
 10
0.0
 20
0.0
 30
0.0
  0
SOLID
  5
1EE
  8
0
  6
CONTINUOUS
 62
     7
 10
409.9999999999999
 20
0.0
 30
0.0
 11
409.9999999999999
 21
2.0
 31
0.0
 12
418.0
 22
0.0
 32
0.0
 13
418.0
 23
0.0
 33
0.0
  0
SOLID
  5
1EF
  8
0
  6
CONTINUOUS
 62
     7
 10
418.0
 20
0.0
 30
0.0
 11
409.9999999999999
 21
2.0
 31
0.0
 12
418.0
 22
2.0
 32
0.0
 13
418.0
 23
2.0
 33
0.0
  0
SOLID
  5
1F0
  8
0
  6
CONTINUOUS
 62
     7
 10
418.0
 20
0.0
 30
0.0
 11
418.0
 21
10.0
 31
0.0
 12
420.0
 22
0.0
 32
0.0
 13
420.0
 23
0.0
 33
0.0
  0
SOLID
  5
1F1
  8
0
  6
CONTINUOUS
 62
     7
 10
420.0
 20
0.0
 30
0.0
 11
418.0
 21
10.0
 31
0.0
 12
420.0
 22
10.0
 32
0.0
 13
420.0
 23
10.0
 33
0.0
  0
ENDBLK
  8
0
  0
BLOCK
  8
0
  2
*U6
 70
     1
 10
0.0
 20
0.0
 30
0.0
  0
SOLID
  5
1F3
  8
0
  6
CONTINUOUS
 62
     7
 10
409.9999999999999
 20
295.0
 30
0.0
 11
409.9999999999999
 21
297.0
 31
0.0
 12
418.0
 22
295.0
 32
0.0
 13
418.0
 23
295.0
 33
0.0
  0
SOLID
  5
1F4
  8
0
  6
CONTINUOUS
 62
     7
 10
418.0
 20
295.0
 30
0.0
 11
409.9999999999999
 21
297.0
 31
0.0
 12
418.0
 22
297.0
 32
0.0
 13
418.0
 23
297.0
 33
0.0
  0
SOLID
  5
1F5
  8
0
  6
CONTINUOUS
 62
     7
 10
418.0
 20
286.9999999999999
 30
0.0
 11
418.0
 21
297.0
 31
0.0
 12
420.0
 22
286.9999999999999
 32
0.0
 13
420.0
 23
286.9999999999999
 33
0.0
  0
SOLID
  5
1F6
  8
0
  6
CONTINUOUS
 62
     7
 10
420.0
 20
286.9999999999999
 30
0.0
 11
418.0
 21
297.0
 31
0.0
 12
420.0
 22
297.0
 32
0.0
 13
420.0
 23
297.0
 33
0.0
  0
ENDBLK
  8
0
  0
BLOCK
  8
0
  2
*U7
 70
     1
 10
0.0
 20
0.0
 30
0.0
  0
SOLID
  5
1F8
  8
0
  6
CONTINUOUS
 62
     7
 10
0.0
 20
286.9999999999999
 30
0.0
 11
0.0
 21
297.0
 31
0.0
 12
2.0
 22
286.9999999999999
 32
0.0
 13
2.0
 23
286.9999999999999
 33
0.0
  0
SOLID
  5
1F9
  8
0
  6
CONTINUOUS
 62
     7
 10
2.0
 20
286.9999999999999
 30
0.0
 11
0.0
 21
297.0
 31
0.0
 12
2.0
 22
297.0
 32
0.0
 13
2.0
 23
297.0
 33
0.0
  0
SOLID
  5
1FA
  8
0
  6
CONTINUOUS
 62
     7
 10
2.0
 20
295.0
 30
0.0
 11
2.0
 21
297.0
 31
0.0
 12
10.0
 22
295.0
 32
0.0
 13
10.0
 23
295.0
 33
0.0
  0
SOLID
  5
1FB
  8
0
  6
CONTINUOUS
 62
     7
 10
10.0
 20
295.0
 30
0.0
 11
2.0
 21
297.0
 31
0.0
 12
10.0
 22
297.0
 32
0.0
 13
10.0
 23
297.0
 33
0.0
  0
ENDBLK
  8
0
  0
ENDSEC
  0
SECTION
  2
ENTITIES
  0
LINE
  5
70
  8
1
  6
CONTINUOUS
 62
     7
 10
665.5325376046
 20
255.6234784264
 30
0.0
 11
682.5325376046
 21
255.6234784264
 31
0.0
  0
LINE
  5
71
  8
1
  6
CONTINUOUS
 62
     7
 10
665.5325376046
 20
255.6234784264
 30
0.0
 11
665.5325376046
 21
247.6234784264
 31
0.0
  0
LINE
  5
72
  8
1
  6
CONTINUOUS
 62
     7
 10
674.0325376046
 20
255.6234784264
 30
0.0
 11
674.0325376046
 21
247.6234784264
 31
0.0
  0
INSERT
  5
74
  8
0
 62
     7
  2
D_FRAME_DRAWING_21
 10
0.0
 20
0.0
 30
0.0
  0
LINE
  5
BE
  8
1
  6
CONTINUOUS
 62
     7
 10
825.5325376046
 20
247.6234784264
 30
0.0
 11
825.5325376046
 21
255.6234784264
 31
0.0
  0
LINE
  5
BF
  8
1
  6
CONTINUOUS
 62
     7
 10
918.6250606046
 20
255.6234784264
 30
0.0
 11
918.6250606046
 21
247.6234784264
 31
0.0
  0
LINE
  5
C0
  8
1
  6
CONTINUOUS
 62
     7
 10
928.4400146046
 20
255.6234784264
 30
0.0
 11
928.4400146046
 21
247.6234784264
 31
0.0
  0
LINE
  5
C1
  8
1
  6
CONTINUOUS
 62
     7
 10
842.5325376046
 20
255.6234784264
 30
0.0
 11
842.5325376046
 21
247.6234784264
 31
0.0
  0
LINE
  5
C2
  8
1
  6
CONTINUOUS
 62
     7
 10
834.0325376046
 20
255.6234784264
 30
0.0
 11
834.0325376046
 21
247.6234784264
 31
0.0
  0
LINE
  5
C3
  8
1
  6
CONTINUOUS
 62
     7
 10
913.7175826046
 20
255.6234784264
 30
0.0
 11
933.3474926046
 21
255.6234784264
 31
0.0
  0
LINE
  5
C4
  8
1
  6
CONTINUOUS
 62
     7
 10
933.3474926046
 20
255.6234784264
 30
0.0
 11
933.3474926046
 21
247.6234784264
 31
0.0
  0
LINE
  5
C5
  8
1
  6
CONTINUOUS
 62
     7
 10
913.7175826046
 20
255.6234784264
 30
0.0
 11
913.7175826046
 21
247.6234784264
 31
0.0
  0
LINE
  5
C6
  8
1
  6
CONTINUOUS
 62
     7
 10
825.5325376046
 20
255.6234784264
 30
0.0
 11
842.5325376046
 21
255.6234784264
 31
0.0
  0
LINE
  5
C7
  8
1
  6
CONTINUOUS
 62
     7
 10
682.5325376046
 20
255.6234784264
 30
0.0
 11
682.5325376046
 21
247.6234784264
 31
0.0
  0
TEXT
  5
C8
  8
1
  6
CONTINUOUS
 62
     7
 10
730.6714971211079
 20
-77.55142572727273
 30
0.0
 40
6.0
  1
ＳＧＰＡ－１５－４
 41
0.888341
  0
ARC
  5
C9
  8
1
  6
CONTINUOUS
 62
     7
 10
778.5325376046
 20
49.4234784264
 30
0.0
 40
3.0
 50
270.0
 51
0.0
  0
LINE
  5
CA
  8
1
  6
CONTINUOUS
 62
     7
 10
665.0325376046
 20
239.6234784264
 30
0.0
 11
665.0325376046
 21
238.0234784264
 31
0.0
  0
LINE
  5
CB
  8
1
  6
CONTINUOUS
 62
     7
 10
901.2825376046
 20
32.5179254264
 30
0.0
 11
901.2825376046
 21
47.5290324264
 31
0.0
  0
LINE
  5
CC
  8
1
  6
CONTINUOUS
 62
     7
 10
901.2825376046
 20
44.0234784264
 30
0.0
 11
899.2825376046
 21
44.0234784264
 31
0.0
  0
ARC
  5
CD
  8
1
  6
CONTINUOUS
 62
     7
 10
912.0825376046
 20
235.2234784264
 30
0.0
 40
2.8
 50
90.0
 51
180.0
  0
LINE
  5
CE
  8
1
  6
CONTINUOUS
 62
     7
 10
943.2825376046
 20
46.5234784264
 30
0.0
 11
937.7825376046
 21
46.5234784264
 31
0.0
  0
LINE
  5
CF
  8
1
  6
CONTINUOUS
 62
     7
 10
778.5325376046
 20
46.4234784264
 30
0.0
 11
760.3602546046
 21
46.4234784264
 31
0.0
  0
LINE
  5
D0
  8
1
  6
CONTINUOUS
 62
     7
 10
683.0325376046
 20
36.4234784264
 30
0.0
 11
683.0325376046
 21
38.0234784264
 31
0.0
  0
LINE
  5
D1
  8
1
  6
CONTINUOUS
 62
     7
 10
899.2825376046
 20
36.0234784264
 30
0.0
 11
901.2825376046
 21
36.0234784264
 31
0.0
  0
LINE
  5
D2
  8
1
  6
CONTINUOUS
 62
     7
 10
899.2825376046
 20
44.0234784264
 30
0.0
 11
897.7825376046
 21
42.5234784264
 31
0.0
  0
LINE
  5
D3
  8
1
  6
CONTINUOUS
 62
     7
 10
918.7825376046
 20
258.0234784264
 30
0.0
 11
928.2825376046
 21
258.0234784264
 31
0.0
  0
LINE
  5
D4
  8
1
  6
CONTINUOUS
 62
     7
 10
683.0325376046
 20
238.0234784264
 30
0.0
 11
683.0325376046
 21
239.6234784264
 31
0.0
  0
LINE
  5
D5
  8
1
  6
CONTINUOUS
 62
     7
 10
665.0325376046
 20
38.0234784264
 30
0.0
 11
665.0325376046
 21
36.4234784264
 31
0.0
  0
LINE
  5
D6
  8
1
  6
CONTINUOUS
 62
     7
 10
897.7825376046
 20
37.5234784264
 30
0.0
 11
899.2825376046
 21
36.0234784264
 31
0.0
  0
ARC
  5
D7
  8
1
  6
CONTINUOUS
 62
     7
 10
778.5325376046
 20
54.5234784264
 30
0.0
 40
3.0
 50
0.0
 51
90.0
  0
LINE
  5
D8
  8
1
  6
CONTINUOUS
 62
     7
 10
829.2825376046
 20
213.0234784264
 30
0.0
 11
829.2825376046
 21
63.02347842639999
 31
0.0
  0
LINE
  5
D9
  8
1
  6
CONTINUOUS
 62
     7
 10
678.7825376046
 20
18.0234784264
 30
0.0
 11
678.7825376046
 21
20.4234784264
 31
0.0
  0
LINE
  5
DA
  8
1
  6
CONTINUOUS
 62
     7
 10
678.7825376046
 20
63.02347842639999
 30
0.0
 11
678.7825376046
 21
213.0234784264
 31
0.0
  0
CIRCLE
  5
DB
  8
1
  6
CONTINUOUS
 62
     7
 10
754.0325376046
 20
40.0234784264
 30
0.0
 40
7.5055536246
  0
LINE
  5
DC
  8
1
  6
CONTINUOUS
 62
     7
 10
943.2825376046
 20
40.0234784264
 30
0.0
 11
937.7825376046
 21
40.0234784264
 31
0.0
  0
LINE
  5
DD
  8
1
  6
CONTINUOUS
 62
     7
 10
937.7825376046
 20
33.5234784264
 30
0.0
 11
943.2825376046
 21
33.5234784264
 31
0.0
  0
LINE
  5
DE
  8
1
  6
CONTINUOUS
 62
     7
 10
726.5325376046
 20
49.4234784264
 30
0.0
 11
726.5325376046
 21
54.5234784264
 31
0.0
  0
LINE
  5
DF
  8
1
  6
CONTINUOUS
 62
     7
 10
838.7825376046
 20
18.0234784264
 30
0.0
 11
838.7825376046
 21
20.4234784264
 31
0.0
  0
LINE
  5
E0
  8
1
  6
CONTINUOUS
 62
     7
 10
729.5325376046
 20
57.5234784264
 30
0.0
 11
778.5325376046
 21
57.5234784264
 31
0.0
  0
LINE
  5
E1
  8
1
  6
CONTINUOUS
 62
     7
 10
897.7825376046
 20
42.5234784264
 30
0.0
 11
897.7825376046
 21
37.5234784264
 31
0.0
  0
LINE
  5
E2
  8
1
  6
CONTINUOUS
 62
     7
 10
943.2825376046
 20
33.5234784264
 30
0.0
 11
943.2825376046
 21
46.5234784264
 31
0.0
  0
LINE
  5
E3
  8
1
  6
CONTINUOUS
 62
     7
 10
829.2825376046
 20
20.4234784264
 30
0.0
 11
829.2825376046
 21
18.0234784264
 31
0.0
  0
CIRCLE
  5
E4
  8
1
  6
CONTINUOUS
 62
     7
 10
754.0325376046
 20
40.0234784264
 30
0.0
 40
4.0
  0
LINE
  5
E5
  8
1
  6
CONTINUOUS
 62
     7
 10
933.3474926046
 20
239.6234784264
 30
0.0
 11
913.7175826046
 21
239.6234784264
 31
0.0
  0
LINE
  5
E6
  8
1
  6
CONTINUOUS
 62
     7
 10
909.2825376046
 20
213.0234784264
 30
0.0
 11
909.2825376046
 21
235.2234784264
 31
0.0
  0
LINE
  5
E7
  8
1
  6
CONTINUOUS
 62
     7
 10
937.7825376046
 20
213.0234784264
 30
0.0
 11
935.4825376046
 21
213.0234784264
 31
0.0
  0
LINE
  5
E8
  8
1
  6
CONTINUOUS
 62
     7
 10
913.7175826046
 20
247.6234784264
 30
0.0
 11
913.7175826046
 21
239.6234784264
 31
0.0
  0
LINE
  5
E9
  8
1
  6
CONTINUOUS
 62
     7
 10
933.3474926046
 20
247.6234784264
 30
0.0
 11
933.3474926046
 21
239.6234784264
 31
0.0
  0
LINE
  5
EA
  8
1
  6
CONTINUOUS
 62
     7
 10
928.4400146046
 20
247.6234784264
 30
0.0
 11
928.4400146046
 21
239.6234784264
 31
0.0
  0
ARC
  5
EB
  8
1
  6
CONTINUOUS
 62
     7
 10
934.9825376046
 20
235.2234784264
 30
0.0
 40
0.5
 50
0.0
 51
90.0
  0
LINE
  5
EC
  8
1
  6
CONTINUOUS
 62
     7
 10
843.0325376046
 20
36.4234784264
 30
0.0
 11
843.0325376046
 21
38.0234784264
 31
0.0
  0
LINE
  5
ED
  8
1
  6
CONTINUOUS
 62
     7
 10
838.7825376046
 20
18.0234784264
 30
0.0
 11
829.2825376046
 21
18.0234784264
 31
0.0
  0
LINE
  5
EE
  8
1
  6
CONTINUOUS
 62
     7
 10
913.7175826046
 20
247.6234784264
 30
0.0
 11
933.3474926046
 21
247.6234784264
 31
0.0
  0
LINE
  5
EF
  8
1
  6
CONTINUOUS
 62
     7
 10
918.6250606046
 20
247.6234784264
 30
0.0
 11
918.6250606046
 21
239.6234784264
 31
0.0
  0
LINE
  5
F0
  8
1
  6
CONTINUOUS
 62
     7
 10
669.2825376046
 20
213.0234784264
 30
0.0
 11
669.2825376046
 21
63.02347842639999
 31
0.0
  0
LINE
  5
F1
  8
1
  6
CONTINUOUS
 62
     7
 10
669.2825376046
 20
20.4234784264
 30
0.0
 11
669.2825376046
 21
18.0234784264
 31
0.0
  0
ARC
  5
F2
  8
1
  6
CONTINUOUS
 62
     7
 10
912.0825376046
 20
235.2234784264
 30
0.0
 40
0.5
 50
90.0
 51
180.0
  0
LINE
  5
F3
  8
1
  6
CONTINUOUS
 62
     7
 10
934.9825376046
 20
235.7234784264
 30
0.0
 11
912.0825376046
 21
235.7234784264
 31
0.0
  0
LINE
  5
F4
  8
1
  6
CONTINUOUS
 62
     7
 10
825.0325376046
 20
38.0234784264
 30
0.0
 11
825.0325376046
 21
36.4234784264
 31
0.0
  0
LINE
  5
F5
  8
1
  6
CONTINUOUS
 62
     7
 10
911.5825376046
 20
235.2234784264
 30
0.0
 11
911.5825376046
 21
213.0234784264
 31
0.0
  0
LINE
  5
F6
  8
1
  6
CONTINUOUS
 62
     7
 10
825.5325376046
 20
36.4234784264
 30
0.0
 11
825.5325376046
 21
20.4234784264
 31
0.0
  0
LINE
  5
F7
  8
1
  6
CONTINUOUS
 62
     7
 10
937.7825376046
 20
235.2234784264
 30
0.0
 11
937.7825376046
 21
213.0234784264
 31
0.0
  0
LINE
  5
F8
  8
1
  6
CONTINUOUS
 62
     7
 10
912.0825376046
 20
238.0234784264
 30
0.0
 11
934.9825376046
 21
238.0234784264
 31
0.0
  0
ARC
  5
F9
  8
1
  6
CONTINUOUS
 62
     7
 10
934.9825376046
 20
235.2234784264
 30
0.0
 40
2.8
 50
0.0
 51
90.0
  0
LINE
  5
FA
  8
1
  6
CONTINUOUS
 62
     7
 10
935.4825376046
 20
213.0234784264
 30
0.0
 11
935.4825376046
 21
235.2234784264
 31
0.0
  0
LINE
  5
FB
  8
1
  6
CONTINUOUS
 62
     7
 10
843.0325376046
 20
36.4234784264
 30
0.0
 11
825.0325376046
 21
36.4234784264
 31
0.0
  0
LINE
  5
FC
  8
1
  6
CONTINUOUS
 62
     7
 10
842.5325376046
 20
28.4234784264
 30
0.0
 11
825.5325376046
 21
28.4234784264
 31
0.0
  0
LINE
  5
FD
  8
1
  6
CONTINUOUS
 62
     7
 10
834.0325376046
 20
20.4234784264
 30
0.0
 11
834.0325376046
 21
36.4234784264
 31
0.0
  0
LINE
  5
FE
  8
1
  6
CONTINUOUS
 62
     7
 10
825.5325376046
 20
20.4234784264
 30
0.0
 11
842.5325376046
 21
20.4234784264
 31
0.0
  0
LINE
  5
FF
  8
1
  6
CONTINUOUS
 62
     7
 10
842.5325376046
 20
20.4234784264
 30
0.0
 11
842.5325376046
 21
36.4234784264
 31
0.0
  0
LINE
  5
100
  8
1
  6
CONTINUOUS
 62
     7
 10
911.5825376046
 20
213.0234784264
 30
0.0
 11
909.2825376046
 21
213.0234784264
 31
0.0
  0
LINE
  5
101
  8
1
  6
CONTINUOUS
 62
     7
 10
734.0325376046
 20
19.0234784264
 30
0.0
 11
735.0325376046
 21
18.0234784264
 31
0.0
  0
LINE
  5
102
  8
1
  6
CONTINUOUS
 62
     7
 10
935.4825376046
 20
41.1234784264
 30
0.0
 11
935.4825376046
 21
63.02347842639999
 31
0.0
  0
LINE
  5
103
  8
1
  6
CONTINUOUS
 62
     7
 10
937.7825376046
 20
63.02347842639999
 30
0.0
 11
937.7825376046
 21
30.0234784264
 31
0.0
  0
ARC
  5
104
  8
1
  6
CONTINUOUS
 62
     7
 10
909.9825376046
 20
55.1234784264
 30
0.0
 40
2.5
 50
106.260205
 51
180.0
  0
LINE
  5
105
  8
1
  6
CONTINUOUS
 62
     7
 10
911.5825376046
 20
30.0234784264
 30
0.0
 11
911.5825376046
 21
38.1284824264
 31
0.0
  0
ARC
  5
106
  8
1
  6
CONTINUOUS
 62
     7
 10
912.3825376046
 20
41.1234784264
 30
0.0
 40
3.1
 50
180.0
 51
270.0
  0
LINE
  5
107
  8
1
  6
CONTINUOUS
 62
     7
 10
741.7325376046
 20
26.0234784264
 30
0.0
 11
735.0325376046
 21
26.0234784264
 31
0.0
  0
ARC
  5
108
  8
1
  6
CONTINUOUS
 62
     7
 10
923.5325376046
 20
22.0234784264
 30
0.0
 40
12.0
 50
0.0
 51
39.664035
  0
LINE
  5
109
  8
1
  6
CONTINUOUS
 62
     7
 10
906.7825376046
 20
43.7762554264
 30
0.0
 11
901.2825376046
 21
43.7762554264
 31
0.0
  0
LINE
  5
10A
  8
1
  6
CONTINUOUS
 62
     7
 10
935.5325376046
 20
22.0234784264
 30
0.0
 11
935.5325376046
 21
14.9863904264
 31
0.0
  0
LINE
  5
10B
  8
1
  6
CONTINUOUS
 62
     7
 10
917.0325376046
 20
18.2707014264
 30
0.0
 11
923.5325376046
 21
14.5179254264
 31
0.0
  0
LINE
  5
10C
  8
1
  6
CONTINUOUS
 62
     7
 10
934.6825376046
 20
38.0234784264
 30
0.0
 11
912.3825376046
 21
38.0234784264
 31
0.0
  0
LINE
  5
10D
  8
1
  6
CONTINUOUS
 62
     7
 10
735.0325376046
 20
26.0234784264
 30
0.0
 11
734.0325376046
 21
25.0234784264
 31
0.0
  0
LINE
  5
10E
  8
1
  6
CONTINUOUS
 62
     7
 10
909.2825376046
 20
30.0234784264
 30
0.0
 11
911.5825376046
 21
30.0234784264
 31
0.0
  0
LINE
  5
10F
  8
1
  6
CONTINUOUS
 62
     7
 10
906.7825376046
 20
32.5179254264
 30
0.0
 11
901.2825376046
 21
32.5179254264
 31
0.0
  0
LINE
  5
110
  8
1
  6
CONTINUOUS
 62
     7
 10
843.0325376046
 20
238.0234784264
 30
0.0
 11
843.0325376046
 21
239.6234784264
 31
0.0
  0
LINE
  5
111
  8
1
  6
CONTINUOUS
 62
     7
 10
838.7825376046
 20
63.02347842639999
 30
0.0
 11
838.7825376046
 21
213.0234784264
 31
0.0
  0
LINE
  5
112
  8
1
  6
CONTINUOUS
 62
     7
 10
825.0325376046
 20
239.6234784264
 30
0.0
 11
825.0325376046
 21
238.0234784264
 31
0.0
  0
LINE
  5
113
  8
1
  6
CONTINUOUS
 62
     7
 10
932.5325376046
 20
238.0234784264
 30
0.0
 11
932.5325376046
 21
239.6234784264
 31
0.0
  0
LINE
  5
114
  8
1
  6
CONTINUOUS
 62
     7
 10
928.1513396046
 20
28.6234784264
 30
0.0
 11
928.1513396046
 21
35.0234784264
 31
0.0
  0
ARC
  5
115
  8
1
  6
CONTINUOUS
 62
     7
 10
940.5325376046
 20
14.9863904264
 30
0.0
 40
5.0
 50
180.0
 51
201.801409
  0
LINE
  5
116
  8
1
  6
CONTINUOUS
 62
     7
 10
914.2949336046
 20
28.6234784264
 30
0.0
 11
932.7701416046
 21
28.6234784264
 31
0.0
  0
LINE
  5
117
  8
1
  6
CONTINUOUS
 62
     7
 10
907.4825376046
 20
48.8234784264
 30
0.0
 11
907.4825376046
 21
55.1234784264
 31
0.0
  0
LINE
  5
118
  8
1
  6
CONTINUOUS
 62
     7
 10
906.7825376046
 20
47.5290324264
 30
0.0
 11
906.7825376046
 21
32.5179254264
 31
0.0
  0
LINE
  5
119
  8
1
  6
CONTINUOUS
 62
     7
 10
935.0325376046
 20
38.0433004264
 30
0.0
 11
935.0325376046
 21
25.4513064264
 31
0.0
  0
LINE
  5
11A
  8
1
  6
CONTINUOUS
 62
     7
 10
939.5825376046
 20
55.1234784264
 30
0.0
 11
939.5825376046
 21
48.8234784264
 31
0.0
  0
LINE
  5
11B
  8
1
  6
CONTINUOUS
 62
     7
 10
935.4825376046
 20
30.0234784264
 30
0.0
 11
935.4825376046
 21
38.1284824264
 31
0.0
  0
ARC
  5
11C
  8
1
  6
CONTINUOUS
 62
     7
 10
754.2825376046
 20
30.5152904264
 30
0.0
 40
7.4
 50
179.197277
 51
180.0
  0
LINE
  5
11D
  8
1
  6
CONTINUOUS
 62
     7
 10
918.9137356046
 20
28.6234784264
 30
0.0
 11
918.9137356046
 21
35.0234784264
 31
0.0
  0
ARC
  5
11E
  8
1
  6
CONTINUOUS
 62
     7
 10
912.0825376046
 20
41.1234784264
 30
0.0
 40
0.5
 50
180.0
 51
270.0
  0
LINE
  5
11F
  8
1
  6
CONTINUOUS
 62
     7
 10
930.0325376046
 20
18.2707014264
 30
0.0
 11
930.0325376046
 21
25.7762554264
 31
0.0
  0
LINE
  5
120
  8
1
  6
CONTINUOUS
 62
     7
 10
911.5825376046
 20
63.02347842639999
 30
0.0
 11
911.5825376046
 21
41.1234784264
 31
0.0
  0
LINE
  5
121
  8
1
  6
CONTINUOUS
 62
     7
 10
761.1825376046
 20
26.0234784264
 30
0.0
 11
746.8825376046
 21
26.0234784264
 31
0.0
  0
LINE
  5
122
  8
1
  6
CONTINUOUS
 62
     7
 10
746.8825376046
 20
18.0234784264
 30
0.0
 11
761.1825376046
 21
18.0234784264
 31
0.0
  0
LINE
  5
123
  8
1
  6
CONTINUOUS
 62
     7
 10
932.7701416046
 20
28.6234784264
 30
0.0
 11
932.7701416046
 21
35.0234784264
 31
0.0
  0
LINE
  5
124
  8
1
  6
CONTINUOUS
 62
     7
 10
906.7825376046
 20
47.5290324264
 30
0.0
 11
901.2825376046
 21
47.5290324264
 31
0.0
  0
LINE
  5
125
  8
1
  6
CONTINUOUS
 62
     7
 10
911.5325376046
 20
14.9863904264
 30
0.0
 11
911.5325376046
 21
22.0234784264
 31
0.0
  0
ARC
  5
126
  8
1
  6
CONTINUOUS
 62
     7
 10
909.9825376046
 20
48.8234784264
 30
0.0
 40
2.5
 50
180.0
 51
253.739795
  0
LINE
  5
127
  8
1
  6
CONTINUOUS
 62
     7
 10
914.2949336046
 20
28.6234784264
 30
0.0
 11
914.2949336046
 21
35.0234784264
 31
0.0
  0
ARC
  5
128
  8
1
  6
CONTINUOUS
 62
     7
 10
906.5325376046
 20
14.9863904264
 30
0.0
 40
5.0
 50
338.198591
 51
0.0
  0
LINE
  5
129
  8
1
  6
CONTINUOUS
 62
     7
 10
930.0325376046
 20
25.7762554264
 30
0.0
 11
925.1007765925
 21
28.6236084055
 31
0.0
  0
LINE
  5
12A
  8
1
  6
CONTINUOUS
 62
     7
 10
906.7825376046
 20
36.2707014264
 30
0.0
 11
901.2825376046
 21
36.2707014264
 31
0.0
  0
ARC
  5
12B
  8
1
  6
CONTINUOUS
 62
     7
 10
937.0825376046
 20
55.1234784264
 30
0.0
 40
2.5
 50
0.0
 51
73.739795
  0
LINE
  5
12C
  8
1
  6
CONTINUOUS
 62
     7
 10
923.5325376046
 20
14.5179254264
 30
0.0
 11
930.0325376046
 21
18.2707014264
 31
0.0
  0
LINE
  5
12D
  8
1
  6
CONTINUOUS
 62
     7
 10
937.7825376046
 20
30.0234784264
 30
0.0
 11
935.4825376046
 21
30.0234784264
 31
0.0
  0
LINE
  5
12E
  8
1
  6
CONTINUOUS
 62
     7
 10
912.0825376046
 20
40.6234784264
 30
0.0
 11
934.9825376046
 21
40.6234784264
 31
0.0
  0
ARC
  5
12F
  8
1
  6
CONTINUOUS
 62
     7
 10
934.6825376046
 20
41.1234784264
 30
0.0
 40
3.1
 50
270.0
 51
0.0
  0
ARC
  5
130
  8
1
  6
CONTINUOUS
 62
     7
 10
937.0825376046
 20
48.8234784264
 30
0.0
 40
2.5
 50
286.260205
 51
0.0
  0
LINE
  5
131
  8
1
  6
CONTINUOUS
 62
     7
 10
914.5325376046
 20
239.6234784264
 30
0.0
 11
914.5325376046
 21
238.0234784264
 31
0.0
  0
LINE
  5
132
  8
1
  6
CONTINUOUS
 62
     7
 10
921.9647126046
 20
28.6238474264
 30
0.0
 11
917.0325376087
 21
25.7762554192
 31
0.0
  0
LINE
  5
133
  8
1
  6
CONTINUOUS
 62
     7
 10
917.0325376046
 20
25.7762554264
 30
0.0
 11
917.0325376046
 21
18.2707014264
 31
0.0
  0
LINE
  5
134
  8
1
  6
CONTINUOUS
 62
     7
 10
912.0325376046
 20
38.0433004264
 30
0.0
 11
912.0325376046
 21
25.4513064264
 31
0.0
  0
LINE
  5
135
  8
1
  6
CONTINUOUS
 62
     7
 10
932.7701416046
 20
35.0234784264
 30
0.0
 11
914.2949336046
 21
35.0234784264
 31
0.0
  0
LINE
  5
136
  8
1
  6
CONTINUOUS
 62
     7
 10
909.2825376046
 20
63.02347842639999
 30
0.0
 11
911.5825376046
 21
63.02347842639999
 31
0.0
  0
ARC
  5
137
  8
1
  6
CONTINUOUS
 62
     7
 10
934.9825376046
 20
41.1234784264
 30
0.0
 40
0.5
 50
270.0
 51
0.0
  0
LINE
  5
138
  8
1
  6
CONTINUOUS
 62
     7
 10
909.2825376046
 20
30.0234784264
 30
0.0
 11
909.2825376046
 21
63.02347842639999
 31
0.0
  0
LINE
  5
139
  8
1
  6
CONTINUOUS
 62
     7
 10
935.4825376046
 20
63.02347842639999
 30
0.0
 11
937.7825376046
 21
63.02347842639999
 31
0.0
  0
ARC
  5
13A
  8
1
  6
CONTINUOUS
 62
     7
 10
923.5325376046
 20
22.0234784264
 30
0.0
 40
12.0
 50
140.335965
 51
180.0
  0
LINE
  5
13B
  8
1
  6
CONTINUOUS
 62
     7
 10
746.8825376046
 20
13.6234784264
 30
0.0
 11
746.8825376046
 21
30.5152904264
 31
0.0
  0
LINE
  5
13C
  8
1
  6
CONTINUOUS
 62
     7
 10
743.2367666046
 20
-30.8159405736
 30
0.0
 11
741.7367666046
 21
-6.115940573600001
 31
0.0
  0
LINE
  5
13D
  8
1
  6
CONTINUOUS
 62
     7
 10
765.7825376046
 20
34.0234784264
 30
0.0
 11
766.3325376046
 21
34.0234784264
 31
0.0
  0
ARC
  5
13E
  8
1
  6
CONTINUOUS
 62
     7
 10
764.0325376046
 20
-5.9765215736
 30
0.0
 40
2.3
 50
356.524767
 51
0.0
  0
LINE
  5
13F
  8
1
  6
CONTINUOUS
 62
     7
 10
762.5325376046
 20
-30.6765215736
 30
0.0
 11
745.5325376046
 21
-30.6765215736
 31
0.0
  0
LINE
  5
140
  8
1
  6
CONTINUOUS
 62
     7
 10
741.7325376046
 20
-5.9765215736
 30
0.0
 11
741.7325376046
 21
34.0234784264
 31
0.0
  0
LINE
  5
141
  8
1
  6
CONTINUOUS
 62
     7
 10
735.0325376046
 20
18.0234784264
 30
0.0
 11
741.7325376046
 21
18.0234784264
 31
0.0
  0
LINE
  5
142
  8
1
  6
CONTINUOUS
 62
     7
 10
744.0325376046
 20
32.2172314264
 30
0.0
 11
744.0325376046
 21
-5.976521573599999
 31
0.0
  0
LINE
  5
143
  8
1
  6
CONTINUOUS
 62
     7
 10
744.0325376046
 20
-5.9765215736
 30
0.0
 11
741.7325376046
 21
-5.9765215736
 31
0.0
  0
LINE
  5
144
  8
1
  6
CONTINUOUS
 62
     7
 10
746.5825376046
 20
11.0234784264
 30
0.0
 11
753.7825376046
 21
11.0234784264
 31
0.0
  0
LINE
  5
145
  8
1
  6
CONTINUOUS
 62
     7
 10
764.0325376046
 20
32.2172314264
 30
0.0
 11
764.0325376046
 21
-5.976521573599999
 31
0.0
  0
ARC
  5
146
  8
1
  6
CONTINUOUS
 62
     7
 10
746.5825376046
 20
13.3234784264
 30
0.0
 40
2.3
 50
180.0
 51
270.0
  0
ARC
  5
147
  8
1
  6
CONTINUOUS
 62
     7
 10
762.5325376046
 20
-30.6765215736
 30
0.0
 40
2.3
 50
270.0
 51
356.524767
  0
LINE
  5
148
  8
1
  6
CONTINUOUS
 62
     7
 10
766.3325376046
 20
-5.9765215736
 30
0.0
 11
766.3325376046
 21
34.0234784264
 31
0.0
  0
LINE
  5
149
  8
1
  6
CONTINUOUS
 62
     7
 10
753.7825376046
 20
13.6234784264
 30
0.0
 11
744.2825376046
 21
13.6234784264
 31
0.0
  0
ARC
  5
14A
  8
1
  6
CONTINUOUS
 62
     7
 10
761.4825376046
 20
13.3234784264
 30
0.0
 40
2.3
 50
270.0
 51
0.0
  0
LINE
  5
14B
  8
1
  6
CONTINUOUS
 62
     7
 10
766.5825376046
 20
15.3234784264
 30
0.0
 11
769.0825376046
 21
15.3234784264
 31
0.0
  0
LINE
  5
14C
  8
1
  6
CONTINUOUS
 62
     7
 10
764.8283086046
 20
-30.8159405736
 30
0.0
 11
766.3283086046
 21
-6.115940573600004
 31
0.0
  0
ARC
  5
14D
  8
1
  6
CONTINUOUS
 62
     7
 10
745.5325376046
 20
-30.6765215736
 30
0.0
 40
2.3
 50
183.475233
 51
270.0
  0
LINE
  5
14E
  8
1
  6
CONTINUOUS
 62
     7
 10
764.0325376046
 20
-5.9765215736
 30
0.0
 11
766.3325376046
 21
-5.9765215736
 31
0.0
  0
LINE
  5
14F
  8
1
  6
CONTINUOUS
 62
     7
 10
745.5325376046
 20
-32.9765215736
 30
0.0
 11
762.5325376046
 21
-32.9765215736
 31
0.0
  0
LINE
  5
150
  8
1
  6
CONTINUOUS
 62
     7
 10
754.2825376046
 20
13.6234784264
 30
0.0
 11
763.7825376046
 21
13.6234784264
 31
0.0
  0
LINE
  5
151
  8
1
  6
CONTINUOUS
 62
     7
 10
744.0325376046
 20
-5.9765215736
 30
0.0
 11
745.5325376046
 21
-30.6765215736
 31
0.0
  0
LINE
  5
152
  8
1
  6
CONTINUOUS
 62
     7
 10
763.7825376046
 20
30.5152904264
 30
0.0
 11
763.7825376046
 21
13.3234784264
 31
0.0
  0
LINE
  5
153
  8
1
  6
CONTINUOUS
 62
     7
 10
761.1825376046
 20
13.6234784264
 30
0.0
 11
761.1825376046
 21
30.5152904264
 31
0.0
  0
ARC
  5
154
  8
1
  6
CONTINUOUS
 62
     7
 10
753.7825376046
 20
30.5152904264
 30
0.0
 40
7.4
 50
0.0
 51
0.8027229999999997
  0
LINE
  5
155
  8
1
  6
CONTINUOUS
 62
     7
 10
753.7825376046
 20
11.0234784264
 30
0.0
 11
753.7825376046
 21
13.6234784264
 31
0.0
  0
ARC
  5
156
  8
1
  6
CONTINUOUS
 62
     7
 10
753.7825376046
 20
30.5152904264
 30
0.0
 40
10.0
 50
0.0
 51
8.232636999999999
  0
ARC
  5
157
  8
1
  6
CONTINUOUS
 62
     7
 10
754.2825376046
 20
30.5152904264
 30
0.0
 40
10.0
 50
171.767363
 51
180.0
  0
LINE
  5
158
  8
1
  6
CONTINUOUS
 62
     7
 10
744.2825376046
 20
30.5152904264
 30
0.0
 11
744.2825376046
 21
13.3234784264
 31
0.0
  0
LINE
  5
159
  8
1
  6
CONTINUOUS
 62
     7
 10
742.2825376046
 20
34.0234784264
 30
0.0
 11
741.7325376046
 21
34.0234784264
 31
0.0
  0
LINE
  5
15A
  8
1
  6
CONTINUOUS
 62
     7
 10
764.0325376046
 20
-5.9765215736
 30
0.0
 11
762.5325376046
 21
-30.6765215736
 31
0.0
  0
LINE
  5
15B
  8
1
  6
CONTINUOUS
 62
     7
 10
754.2825376046
 20
11.0234784264
 30
0.0
 11
754.2825376046
 21
13.6234784264
 31
0.0
  0
LINE
  5
15C
  8
1
  6
CONTINUOUS
 62
     7
 10
761.4825376046
 20
11.0234784264
 30
0.0
 11
754.2825376046
 21
11.0234784264
 31
0.0
  0
ARC
  5
15D
  8
1
  6
CONTINUOUS
 62
     7
 10
744.0325376046
 20
-5.9765215736
 30
0.0
 40
2.3
 50
180.0
 51
183.475233
  0
LINE
  5
15E
  8
1
  6
CONTINUOUS
 62
     7
 10
769.0825376046
 20
28.7234784264
 30
0.0
 11
766.5825376046
 21
28.7234784264
 31
0.0
  0
LINE
  5
15F
  8
1
  6
CONTINUOUS
 62
     7
 10
928.2825376046
 20
40.3234784264
 30
0.0
 11
928.2825376046
 21
235.7234784264
 31
0.0
  0
LINE
  5
160
  8
1
  6
CONTINUOUS
 62
     7
 10
928.2825376046
 20
255.6234784264
 30
0.0
 11
928.2825376046
 21
258.0234784264
 31
0.0
  0
LINE
  5
161
  8
1
  6
CONTINUOUS
 62
     7
 10
918.7825376046
 20
258.0234784264
 30
0.0
 11
918.7825376046
 21
255.6234784264
 31
0.0
  0
LINE
  5
162
  8
1
  6
CONTINUOUS
 62
     7
 10
669.2825376046
 20
258.0234784264
 30
0.0
 11
669.2825376046
 21
255.6234784264
 31
0.0
  0
LINE
  5
163
  8
1
  6
CONTINUOUS
 62
     7
 10
678.7825376046
 20
255.6234784264
 30
0.0
 11
678.7825376046
 21
258.0234784264
 31
0.0
  0
LINE
  5
164
  8
1
  6
CONTINUOUS
 62
     7
 10
829.2825376046
 20
258.0234784264
 30
0.0
 11
829.2825376046
 21
255.6234784264
 31
0.0
  0
LINE
  5
165
  8
1
  6
CONTINUOUS
 62
     7
 10
838.7825376046
 20
255.6234784264
 30
0.0
 11
838.7825376046
 21
258.0234784264
 31
0.0
  0
LINE
  5
166
  8
1
  6
CONTINUOUS
 62
     7
 10
918.7825376046
 20
235.7234784264
 30
0.0
 11
918.7825376046
 21
40.32347842640002
 31
0.0
  0
LINE
  5
167
  8
1
  6
CONTINUOUS
 62
     7
 10
906.7825376046
 20
33.3234784264
 30
0.0
 11
909.2825376046
 21
33.3234784264
 31
0.0
  0
LINE
  5
168
  8
1
  6
CONTINUOUS
 62
     7
 10
849.0325376046
 20
215.0234784264
 30
0.0
 11
849.0325376046
 21
238.0234784264
 31
0.0
  0
LINE
  5
169
  8
1
  6
CONTINUOUS
 62
     7
 10
734.0325376046
 20
19.0234784264
 30
0.0
 11
734.0325376046
 21
25.0234784264
 31
0.0
  0
LINE
  5
16A
  8
1
  6
CONTINUOUS
 62
     7
 10
843.0325376046
 20
239.6234784264
 30
0.0
 11
825.0325376046
 21
239.6234784264
 31
0.0
  0
LINE
  5
16B
  8
1
  6
CONTINUOUS
 62
     7
 10
757.0325376046
 20
215.5234784264
 30
0.0
 11
751.0325376046
 21
215.5234784264
 31
0.0
  0
LINE
  5
16C
  8
1
  6
CONTINUOUS
 62
     7
 10
659.0325376046
 20
38.0234784264
 30
0.0
 11
659.0325376046
 21
61.0234784264
 31
0.0
  0
LINE
  5
16D
  8
1
  6
CONTINUOUS
 62
     7
 10
665.5325376046
 20
36.4234784264
 30
0.0
 11
665.5325376046
 21
20.4234784264
 31
0.0
  0
LINE
  5
16E
  8
1
  6
CONTINUOUS
 62
     7
 10
661.0325376046
 20
213.0234784264
 30
0.0
 11
739.7557666046
 21
213.0234784264
 31
0.0
  0
LINE
  5
16F
  8
1
  6
CONTINUOUS
 62
     7
 10
674.0325376046
 20
20.4234784264
 30
0.0
 11
674.0325376046
 21
36.4234784264
 31
0.0
  0
LINE
  5
170
  8
1
  6
CONTINUOUS
 62
     7
 10
849.0325376046
 20
38.0234784264
 30
0.0
 11
849.0325376046
 21
61.0234784264
 31
0.0
  0
LINE
  5
171
  8
1
  6
CONTINUOUS
 62
     7
 10
825.5325376046
 20
239.6234784264
 30
0.0
 11
825.5325376046
 21
247.6234784264
 31
0.0
  0
LINE
  5
172
  8
1
  6
CONTINUOUS
 62
     7
 10
834.0325376046
 20
247.6234784264
 30
0.0
 11
834.0325376046
 21
239.6234784264
 31
0.0
  0
LINE
  5
173
  8
1
  6
CONTINUOUS
 62
     7
 10
665.5325376046
 20
20.4234784264
 30
0.0
 11
682.5325376046
 21
20.4234784264
 31
0.0
  0
LINE
  5
174
  8
1
  6
CONTINUOUS
 62
     7
 10
659.0325376046
 20
238.0234784264
 30
0.0
 11
849.0325376046
 21
238.0234784264
 31
0.0
  0
LINE
  5
175
  8
1
  6
CONTINUOUS
 62
     7
 10
935.0325376046
 20
36.0234784264
 30
0.0
 11
935.4825376046
 21
36.0234784264
 31
0.0
  0
ARC
  5
176
  8
1
  6
CONTINUOUS
 62
     7
 10
661.0325376046
 20
215.0234784264
 30
0.0
 40
2.0
 50
180.0
 51
270.0
  0
LINE
  5
177
  8
1
  6
CONTINUOUS
 62
     7
 10
751.0325376046
 20
215.5234784264
 30
0.0
 11
739.7557666046
 21
213.0234784264
 31
0.0
  0
LINE
  5
178
  8
1
  6
CONTINUOUS
 62
     7
 10
911.5825376046
 20
36.0234784264
 30
0.0
 11
912.0325376046
 21
36.0234784264
 31
0.0
  0
LINE
  5
179
  8
1
  6
CONTINUOUS
 62
     7
 10
659.0325376046
 20
215.0234784264
 30
0.0
 11
659.0325376046
 21
238.0234784264
 31
0.0
  0
LINE
  5
17A
  8
1
  6
CONTINUOUS
 62
     7
 10
915.2825376046
 20
38.0234784264
 30
0.0
 11
915.2825376046
 21
35.0234784264
 31
0.0
  0
LINE
  5
17B
  8
1
  6
CONTINUOUS
 62
     7
 10
682.5325376046
 20
20.4234784264
 30
0.0
 11
682.5325376046
 21
36.4234784264
 31
0.0
  0
LINE
  5
17C
  8
1
  6
CONTINUOUS
 62
     7
 10
842.5325376046
 20
247.6234784264
 30
0.0
 11
842.5325376046
 21
239.6234784264
 31
0.0
  0
ARC
  5
17D
  8
1
  6
CONTINUOUS
 62
     7
 10
661.0325376046
 20
61.0234784264
 30
0.0
 40
2.0
 50
90.0
 51
180.0
  0
ARC
  5
17E
  8
1
  6
CONTINUOUS
 62
     7
 10
847.0325376046
 20
215.0234784264
 30
0.0
 40
2.0
 50
270.0
 51
0.0
  0
LINE
  5
17F
  8
1
  6
CONTINUOUS
 62
     7
 10
918.5325376046
 20
-5.9765215736
 30
0.0
 11
928.5325376046
 21
-5.9765215736
 31
0.0
  0
LINE
  5
180
  8
1
  6
CONTINUOUS
 62
     7
 10
935.8901546046
 20
13.1294374264
 30
0.0
 11
943.5325376046
 21
-5.976521573600001
 31
0.0
  0
LINE
  5
181
  8
1
  6
CONTINUOUS
 62
     7
 10
908.6260716046
 20
46.7234784264
 30
0.0
 11
906.7825376046
 21
46.7234784264
 31
0.0
  0
LINE
  5
182
  8
1
  6
CONTINUOUS
 62
     7
 10
682.5325376046
 20
28.4234784264
 30
0.0
 11
665.5325376046
 21
28.4234784264
 31
0.0
  0
ARC
  5
183
  8
1
  6
CONTINUOUS
 62
     7
 10
847.0325376046
 20
61.0234784264
 30
0.0
 40
2.0
 50
0.0
 51
90.0
  0
LINE
  5
184
  8
1
  6
CONTINUOUS
 62
     7
 10
768.3093086046
 20
213.0234784264
 30
0.0
 11
757.0325376046
 21
215.5234784264
 31
0.0
  0
LINE
  5
185
  8
1
  6
CONTINUOUS
 62
     7
 10
768.3093086046
 20
213.0234784264
 30
0.0
 11
847.0325376046
 21
213.0234784264
 31
0.0
  0
LINE
  5
186
  8
1
  6
CONTINUOUS
 62
     7
 10
825.5325376046
 20
247.6234784264
 30
0.0
 11
842.5325376046
 21
247.6234784264
 31
0.0
  0
ARC
  5
187
  8
1
  6
CONTINUOUS
 62
     7
 10
737.3693656046
 20
38.5234784264
 30
0.0
 40
3.0
 50
6.625810000000001
 51
90.0
  0
ARC
  5
188
  8
1
  6
CONTINUOUS
 62
     7
 10
928.5325376046
 20
-7.4765215736
 30
0.0
 40
1.5
 50
0.0
 51
65.101335
  0
LINE
  5
189
  8
1
  6
CONTINUOUS
 62
     7
 10
930.0325376046
 20
-32.9765215736
 30
0.0
 11
930.0325376046
 21
-24.4765215736
 31
0.0
  0
LINE
  5
18A
  8
1
  6
CONTINUOUS
 62
     7
 10
913.5325376046
 20
-22.9765215736
 30
0.0
 11
915.5325376046
 21
-22.9765215736
 31
0.0
  0
ARC
  5
18B
  8
1
  6
CONTINUOUS
 62
     7
 10
913.5325376046
 20
-14.4765215736
 30
0.0
 40
1.5
 50
90.0
 51
180.0
  0
ARC
  5
18C
  8
1
  6
CONTINUOUS
 62
     7
 10
931.5325376046
 20
-24.4765215736
 30
0.0
 40
1.5
 50
90.0
 51
180.0
  0
LINE
  5
18D
  8
1
  6
CONTINUOUS
 62
     7
 10
917.9010156046
 20
-6.1159405736
 30
0.0
 11
918.5325376046
 21
-5.9765215736
 31
0.0
  0
LINE
  5
18E
  8
1
  6
CONTINUOUS
 62
     7
 10
943.5325376046
 20
-5.9765215736
 30
0.0
 11
943.5325376046
 21
-32.9765215736
 31
0.0
  0
LINE
  5
18F
  8
1
  6
CONTINUOUS
 62
     7
 10
928.5325376046
 20
-5.9765215736
 30
0.0
 11
929.1640596046
 21
-6.1159405736
 31
0.0
  0
LINE
  5
190
  8
1
  6
CONTINUOUS
 62
     7
 10
930.0325376046
 20
-11.4765215736
 30
0.0
 11
930.0325376046
 21
-7.4765215736
 31
0.0
  0
LINE
  5
191
  8
1
  6
CONTINUOUS
 62
     7
 10
931.7825376046
 20
35.0234784264
 30
0.0
 11
931.7825376046
 21
38.0234784264
 31
0.0
  0
ARC
  5
192
  8
1
  6
CONTINUOUS
 62
     7
 10
918.5325376046
 20
-7.4765215736
 30
0.0
 40
1.5
 50
114.898665
 51
180.0
  0
LINE
  5
193
  8
1
  6
CONTINUOUS
 62
     7
 10
917.0325376046
 20
-24.4765215736
 30
0.0
 11
917.0325376046
 21
-32.9765215736
 31
0.0
  0
LINE
  5
194
  8
1
  6
CONTINUOUS
 62
     7
 10
943.5325376046
 20
-32.9765215736
 30
0.0
 11
903.5325376046
 21
-32.9765215736
 31
0.0
  0
LINE
  5
195
  8
1
  6
CONTINUOUS
 62
     7
 10
903.5325376046
 20
-32.9765215736
 30
0.0
 11
903.5325376046
 21
-5.976521573599999
 31
0.0
  0
ARC
  5
196
  8
1
  6
CONTINUOUS
 62
     7
 10
915.5325376046
 20
-24.4765215736
 30
0.0
 40
1.5
 50
0.0
 51
90.0
  0
LINE
  5
197
  8
1
  6
CONTINUOUS
 62
     7
 10
903.5325376046
 20
-5.9765215736
 30
0.0
 11
911.1749206046
 21
13.1294374264
 31
0.0
  0
LINE
  5
198
  8
1
  6
CONTINUOUS
 62
     7
 10
917.0325376046
 20
-7.4765215736
 30
0.0
 11
917.0325376046
 21
-11.4765215736
 31
0.0
  0
ARC
  5
199
  8
1
  6
CONTINUOUS
 62
     7
 10
931.5325376046
 20
-11.4765215736
 30
0.0
 40
1.5
 50
180.0
 51
270.0
  0
LINE
  5
19A
  8
1
  6
CONTINUOUS
 62
     7
 10
933.5325376046
 20
-12.9765215736
 30
0.0
 11
931.5325376046
 21
-12.9765215736
 31
0.0
  0
ARC
  5
19B
  8
1
  6
CONTINUOUS
 62
     7
 10
933.5325376046
 20
-21.4765215736
 30
0.0
 40
1.5
 50
270.0
 51
0.0
  0
LINE
  5
19C
  8
1
  6
CONTINUOUS
 62
     7
 10
674.0325376046
 20
247.6234784264
 30
0.0
 11
674.0325376046
 21
239.6234784264
 31
0.0
  0
LINE
  5
19D
  8
1
  6
CONTINUOUS
 62
     7
 10
683.0325376046
 20
239.6234784264
 30
0.0
 11
665.0325376046
 21
239.6234784264
 31
0.0
  0
ARC
  5
19E
  8
1
  6
CONTINUOUS
 62
     7
 10
913.5325376046
 20
-21.4765215736
 30
0.0
 40
1.5
 50
180.0
 51
270.0
  0
LINE
  5
19F
  8
1
  6
CONTINUOUS
 62
     7
 10
678.7825376046
 20
18.0234784264
 30
0.0
 11
669.2825376046
 21
18.0234784264
 31
0.0
  0
ARC
  5
1A0
  8
1
  6
CONTINUOUS
 62
     7
 10
933.5325376046
 20
-14.4765215736
 30
0.0
 40
1.5
 50
0.0
 51
90.0
  0
LINE
  5
1A1
  8
1
  6
CONTINUOUS
 62
     7
 10
682.5325376046
 20
247.6234784264
 30
0.0
 11
682.5325376046
 21
239.6234784264
 31
0.0
  0
ARC
  5
1A2
  8
1
  6
CONTINUOUS
 62
     7
 10
915.5325376046
 20
-11.4765215736
 30
0.0
 40
1.5
 50
270.0
 51
0.0
  0
LINE
  5
1A3
  8
1
  6
CONTINUOUS
 62
     7
 10
665.5325376046
 20
247.6234784264
 30
0.0
 11
665.5325376046
 21
239.6234784264
 31
0.0
  0
LINE
  5
1A4
  8
1
  6
CONTINUOUS
 62
     7
 10
829.2825376046
 20
258.0234784264
 30
0.0
 11
838.7825376046
 21
258.0234784264
 31
0.0
  0
LINE
  5
1A5
  8
1
  6
CONTINUOUS
 62
     7
 10
683.0325376046
 20
36.4234784264
 30
0.0
 11
665.0325376046
 21
36.4234784264
 31
0.0
  0
LINE
  5
1A6
  8
1
  6
CONTINUOUS
 62
     7
 10
912.0325376046
 20
-14.4765215736
 30
0.0
 11
912.0325376046
 21
-21.4765215736
 31
0.0
  0
LINE
  5
1A7
  8
1
  6
CONTINUOUS
 62
     7
 10
669.2825376046
 20
258.0234784264
 30
0.0
 11
678.7825376046
 21
258.0234784264
 31
0.0
  0
LINE
  5
1A8
  8
1
  6
CONTINUOUS
 62
     7
 10
915.5325376046
 20
-12.9765215736
 30
0.0
 11
913.5325376046
 21
-12.9765215736
 31
0.0
  0
LINE
  5
1A9
  8
1
  6
CONTINUOUS
 62
     7
 10
930.0325376046
 20
-30.6765215736
 30
0.0
 11
917.0325376046
 21
-30.6765215736
 31
0.0
  0
LINE
  5
1AA
  8
1
  6
CONTINUOUS
 62
     7
 10
935.0325376046
 20
-21.4765215736
 30
0.0
 11
935.0325376046
 21
-14.4765215736
 31
0.0
  0
LINE
  5
1AB
  8
1
  6
CONTINUOUS
 62
     7
 10
665.5325376046
 20
247.6234784264
 30
0.0
 11
682.5325376046
 21
247.6234784264
 31
0.0
  0
LINE
  5
1AC
  8
1
  6
CONTINUOUS
 62
     7
 10
931.5325376046
 20
-22.9765215736
 30
0.0
 11
933.5325376046
 21
-22.9765215736
 31
0.0
  0
ARC
  5
1AD
  8
1
  6
CONTINUOUS
 62
     7
 10
729.5325376046
 20
54.5234784264
 30
0.0
 40
3.0
 50
90.0
 51
180.0
  0
LINE
  5
1AE
  8
1
  6
CONTINUOUS
 62
     7
 10
750.2825376046
 20
30.0234784264
 30
0.0
 11
757.7825376046
 21
30.0234784264
 31
0.0
  0
LINE
  5
1AF
  8
1
  6
CONTINUOUS
 62
     7
 10
776.5325376046
 20
38.0234784264
 30
0.0
 11
776.5325376046
 21
41.0234784264
 31
0.0
  0
LINE
  5
1B0
  8
1
  6
CONTINUOUS
 62
     7
 10
731.5325376046
 20
41.0234784264
 30
0.0
 11
731.5426396046
 21
41.1234784264
 31
0.0
  0
LINE
  5
1B1
  8
1
  6
CONTINUOUS
 62
     7
 10
747.5325376046
 20
43.7762554264
 30
0.0
 11
747.5325376046
 21
36.2707014264
 31
0.0
  0
LINE
  5
1B2
  8
1
  6
CONTINUOUS
 62
     7
 10
661.0325376046
 20
63.02347842639999
 30
0.0
 11
739.7557666046
 21
63.02347842639999
 31
0.0
  0
LINE
  5
1B3
  8
1
  6
CONTINUOUS
 62
     7
 10
659.0325376046
 20
38.0234784264
 30
0.0
 11
731.5325376046
 21
38.0234784264
 31
0.0
  0
LINE
  5
1B4
  8
1
  6
CONTINUOUS
 62
     7
 10
747.5325376046
 20
36.2707014264
 30
0.0
 11
754.0325376046
 21
32.5179254264
 31
0.0
  0
LINE
  5
1B5
  8
1
  6
CONTINUOUS
 62
     7
 10
769.0825376046
 20
18.2707014264
 30
0.0
 11
774.5825376046
 21
18.2707014264
 31
0.0
  0
ARC
  5
1B6
  8
1
  6
CONTINUOUS
 62
     7
 10
754.0325376046
 20
40.0234784264
 30
0.0
 40
9.0
 50
45.32539000000001
 51
134.67461
  0
LINE
  5
1B7
  8
1
  6
CONTINUOUS
 62
     7
 10
757.0325376046
 20
60.5234784264
 30
0.0
 11
768.3093086046
 21
63.02347842639999
 31
0.0
  0
ARC
  5
1B8
  8
1
  6
CONTINUOUS
 62
     7
 10
729.5325376046
 20
49.4234784264
 30
0.0
 40
3.0
 50
180.0
 51
270.0
  0
LINE
  5
1B9
  8
1
  6
CONTINUOUS
 62
     7
 10
768.3093086046
 20
63.02347842639999
 30
0.0
 11
847.0325376046
 21
63.02347842639999
 31
0.0
  0
ARC
  5
1BA
  8
1
  6
CONTINUOUS
 62
     7
 10
770.6957096046
 20
38.5234784264
 30
0.0
 40
3.0
 50
90.0
 51
173.37419
  0
LINE
  5
1BB
  8
1
  6
CONTINUOUS
 62
     7
 10
754.0325376046
 20
32.5179254264
 30
0.0
 11
760.5325376046
 21
36.2707014264
 31
0.0
  0
LINE
  5
1BC
  8
1
  6
CONTINUOUS
 62
     7
 10
760.5325376046
 20
43.7762554264
 30
0.0
 11
754.0325371716
 21
47.5290316764
 31
0.0
  0
LINE
  5
1BD
  8
1
  6
CONTINUOUS
 62
     7
 10
766.5825376046
 20
28.7234784264
 30
0.0
 11
766.5825376046
 21
15.3234784264
 31
0.0
  0
ARC
  5
1BE
  8
1
  6
CONTINUOUS
 62
     7
 10
732.0325376046
 20
41.0234784264
 30
0.0
 40
0.5
 50
90.0
 51
168.463041
  0
LINE
  5
1BF
  8
1
  6
CONTINUOUS
 62
     7
 10
774.5825376046
 20
14.5179254264
 30
0.0
 11
774.5825376046
 21
29.5290324264
 31
0.0
  0
LINE
  5
1C0
  8
1
  6
CONTINUOUS
 62
     7
 10
731.5325376046
 20
41.0234784264
 30
0.0
 11
731.5325376046
 21
38.0234784264
 31
0.0
  0
LINE
  5
1C1
  8
1
  6
CONTINUOUS
 62
     7
 10
739.7557666046
 20
63.02347842639999
 30
0.0
 11
751.0325376046
 21
60.5234784264
 31
0.0
  0
LINE
  5
1C2
  8
1
  6
CONTINUOUS
 62
     7
 10
769.0825376046
 20
14.5179254264
 30
0.0
 11
774.5825376046
 21
14.5179254264
 31
0.0
  0
LINE
  5
1C3
  8
1
  6
CONTINUOUS
 62
     7
 10
747.7048206046
 20
46.4234784264
 30
0.0
 11
729.5325376046
 21
46.4234784264
 31
0.0
  0
LINE
  5
1C4
  8
1
  6
CONTINUOUS
 62
     7
 10
769.0825376046
 20
29.5290324264
 30
0.0
 11
769.0825376046
 21
14.5179254264
 31
0.0
  0
LINE
  5
1C5
  8
1
  6
CONTINUOUS
 62
     7
 10
737.3693656046
 20
41.5234784264
 30
0.0
 11
732.0325376046
 21
41.5234784264
 31
0.0
  0
ARC
  5
1C6
  8
1
  6
CONTINUOUS
 62
     7
 10
776.0325376046
 20
41.0234784264
 30
0.0
 40
0.5
 50
11.536959
 51
90.0
  0
ARC
  5
1C7
  8
1
  6
CONTINUOUS
 62
     7
 10
757.7825376046
 20
40.0234784264
 30
0.0
 40
10.0
 50
270.0
 51
353.3741900000001
  0
LINE
  5
1C8
  8
1
  6
CONTINUOUS
 62
     7
 10
776.5224356046
 20
41.1234784264
 30
0.0
 11
776.5325376046
 21
41.0234784264
 31
0.0
  0
ARC
  5
1C9
  8
1
  6
CONTINUOUS
 62
     7
 10
750.2825376046
 20
40.0234784264
 30
0.0
 40
10.0
 50
186.62581
 51
270.0
  0
LINE
  5
1CA
  8
1
  6
CONTINUOUS
 62
     7
 10
751.0325376046
 20
60.5234784264
 30
0.0
 11
757.0325376046
 21
60.5234784264
 31
0.0
  0
LINE
  5
1CB
  8
1
  6
CONTINUOUS
 62
     7
 10
754.0325376046
 20
47.5290324264
 30
0.0
 11
747.5325380376
 21
43.7762546764
 31
0.0
  0
LINE
  5
1CC
  8
1
  6
CONTINUOUS
 62
     7
 10
769.0825376046
 20
25.7762554264
 30
0.0
 11
774.5825376046
 21
25.7762554264
 31
0.0
  0
LINE
  5
1CD
  8
1
  6
CONTINUOUS
 62
     7
 10
781.5325376046
 20
54.5234784264
 30
0.0
 11
781.5325376046
 21
49.4234784264
 31
0.0
  0
LINE
  5
1CE
  8
1
  6
CONTINUOUS
 62
     7
 10
760.5325376046
 20
36.2707014264
 30
0.0
 11
760.5325376046
 21
43.7762554264
 31
0.0
  0
LINE
  5
1CF
  8
1
  6
CONTINUOUS
 62
     7
 10
769.0825376046
 20
29.5290324264
 30
0.0
 11
774.5825376046
 21
29.5290324264
 31
0.0
  0
LINE
  5
1D0
  8
1
  6
CONTINUOUS
 62
     7
 10
776.5325376046
 20
38.0234784264
 30
0.0
 11
849.0325376046
 21
38.0234784264
 31
0.0
  0
LINE
  5
1D1
  8
1
  6
CONTINUOUS
 62
     7
 10
776.0325376046
 20
41.5234784264
 30
0.0
 11
770.6957096046
 21
41.5234784264
 31
0.0
  0
ENDSEC
  0
EOF
