  0
SECTION
  2
HEADER
  9
$ACADVER
  1
AC1006
  9
$DWGCODEPAGE
  3
ansi_932
  9
$INSBASE
 10
0.0
 20
0.0
 30
0.0
  9
$EXTMIN
 10
-295.0
 20
-6.495554
  9
$EXTMAX
 10
521.2424141757
 20
324.2462039651
  9
$LIMMIN
 10
0.0
 20
0.0
  9
$LIMMAX
 10
12.0
 20
9.0
  9
$ORTHOMODE
 70
     0
  9
$REGENMODE
 70
     1
  9
$FILLMODE
 70
     1
  9
$QTEXTMODE
 70
     0
  9
$MIRRTEXT
 70
     1
  9
$DRAGMODE
 70
     2
  9
$LTSCALE
 40
1.0
  9
$OSMODE
 70
    37
  9
$ATTMODE
 70
     1
  9
$TEXTSIZE
 40
0.2
  9
$TRACEWID
 40
0.05
  9
$TEXTSTYLE
  7
STANDARD
  9
$CLAYER
  8
0
  9
$CELTYPE
  6
BYLAYER
  9
$CECOLOR
 62
   256
  9
$DIMSCALE
 40
1.0
  9
$DIMASZ
 40
2.4
  9
$DIMEXO
 40
0.0625
  9
$DIMDLI
 40
0.38
  9
$DIMRND
 40
0.0
  9
$DIMDLE
 40
0.0
  9
$DIMEXE
 40
1.2
  9
$DIMTP
 40
0.0
  9
$DIMTM
 40
0.0
  9
$DIMTXT
 40
8.0
  9
$DIMCEN
 40
0.09
  9
$DIMTSZ
 40
0.0
  9
$DIMTOL
 70
     0
  9
$DIMLIM
 70
     0
  9
$DIMTIH
 70
     1
  9
$DIMTOH
 70
     1
  9
$DIMSE1
 70
     0
  9
$DIMSE2
 70
     0
  9
$DIMTAD
 70
     1
  9
$DIMZIN
 70
     0
  9
$DIMBLK
  1

  9
$DIMASO
 70
     1
  9
$DIMSHO
 70
     1
  9
$DIMPOST
  1

  9
$DIMAPOST
  1

  9
$DIMALT
 70
     0
  9
$DIMALTD
 70
     2
  9
$DIMALTF
 40
25.4
  9
$DIMLFAC
 40
1.0
  9
$DIMTOFL
 70
     0
  9
$DIMTVP
 40
0.0
  9
$DIMTIX
 70
     0
  9
$DIMSOXD
 70
     0
  9
$DIMSAH
 70
     0
  9
$DIMBLK1
  1

  9
$DIMBLK2
  1

  9
$LUNITS
 70
     2
  9
$LUPREC
 70
     4
  9
$SKETCHINC
 40
0.1
  9
$FILLETRAD
 40
0.5
  9
$AUNITS
 70
     0
  9
$AUPREC
 70
     0
  9
$MENU
  1
.
  9
$ELEVATION
 40
0.0
  9
$THICKNESS
 40
0.0
  9
$LIMCHECK
 70
     0
  9
$CHAMFERA
 40
0.0
  9
$CHAMFERB
 40
0.0
  9
$SKPOLY
 70
     0
  9
$TDCREATE
 40
2460587.36824618
  9
$TDUPDATE
 40
2460587.368246528
  9
$TDINDWG
 40
0.0000000116
  9
$TDUSRTIMER
 40
0.0000000116
  9
$USRTIMER
 70
     1
  9
$ANGBASE
 50
0.0
  9
$ANGDIR
 70
     0
  9
$PDMODE
 70
     0
  9
$PDSIZE
 40
0.0
  9
$PLINEWID
 40
0.0
  9
$COORDS
 70
     1
  9
$SPLFRAME
 70
     0
  9
$SPLINETYPE
 70
     6
  9
$SPLINESEGS
 70
     8
  9
$ATTDIA
 70
     0
  9
$ATTREQ
 70
     1
  9
$HANDLING
 70
     1
  9
$HANDSEED
  5
197
  9
$SURFTAB1
 70
     6
  9
$SURFTAB2
 70
     6
  9
$SURFTYPE
 70
     6
  9
$SURFU
 70
     6
  9
$SURFV
 70
     6
  9
$UCSNAME
  2

  9
$UCSORG
 10
0.0
 20
0.0
 30
0.0
  9
$UCSXDIR
 10
1.0
 20
0.0
 30
0.0
  9
$UCSYDIR
 10
0.0
 20
1.0
 30
0.0
  9
$USERI1
 70
     0
  9
$USERI2
 70
     0
  9
$USERI3
 70
     0
  9
$USERI4
 70
     0
  9
$USERI5
 70
     0
  9
$USERR1
 40
0.0
  9
$USERR2
 40
0.0
  9
$USERR3
 40
0.0
  9
$USERR4
 40
0.0
  9
$USERR5
 40
0.0
  9
$WORLDVIEW
 70
     1
  0
ENDSEC
  0
SECTION
  2
TABLES
  0
TABLE
  2
VPORT
 70
     1
  0
VPORT
  2
*ACTIVE
 70
     0
 10
0.0
 20
0.0
 11
1.0
 21
1.0
 12
113.12120708785
 22
158.87532498255
 13
0.0
 23
0.0
 14
0.5
 24
0.5
 15
0.5
 25
0.5
 16
0.0
 26
0.0
 36
1.0
 17
0.0
 27
0.0
 37
0.0
 40
330.7417579651
 41
1.6
 42
50.0
 43
0.0
 44
0.0
 50
0.0
 51
0.0
 71
     0
 72
   100
 73
     1
 74
     3
 75
     0
 76
     0
 77
     0
 78
     0
  0
ENDTAB
  0
TABLE
  2
LTYPE
 70
     1
  0
LTYPE
  2
CONTINUOUS
 70
     0
  3
Solid line
 72
    65
 73
     0
 40
0.0
  0
ENDTAB
  0
TABLE
  2
LAYER
 70
     2
  0
LAYER
  2
0
 70
     0
 62
     7
  6
CONTINUOUS
  0
LAYER
  2
1
 70
     0
 62
     7
  6
CONTINUOUS
  0
ENDTAB
  0
TABLE
  2
STYLE
 70
     2
  0
STYLE
  2
STANDARD
 70
     0
 40
0.0
 41
1.0
 50
0.0
 71
     0
 42
0.2
  3
txt
  4

  0
STYLE
  2
ＭＳ_ゴシック
 70
     0
 40
0.0
 41
1.0
 50
0.0
 71
     0
 42
0.2
  3
ＭＳ ゴシック.shx
  4

  0
ENDTAB
  0
TABLE
  2
VIEW
 70
     0
  0
ENDTAB
  0
TABLE
  2
UCS
 70
     0
  0
ENDTAB
  0
ENDSEC
  0
SECTION
  2
BLOCKS
  0
BLOCK
  8
0
  2
D_FRAME_DRAWING_21
 70
     0
 10
0.0
 20
0.0
 30
0.0
  0
LINE
  5
FB
  8
0
  6
CONTINUOUS
 62
     7
 10
-295.0
 20
5.0
 30
0.0
 11
125.0
 21
5.0
 31
0.0
  0
LINE
  5
FC
  8
0
  6
CONTINUOUS
 62
     7
 10
125.0
 20
5.0
 30
0.0
 11
125.0
 21
302.0
 31
0.0
  0
LINE
  5
FD
  8
0
  6
CONTINUOUS
 62
     7
 10
125.0
 20
302.0
 30
0.0
 11
-295.0
 21
302.0
 31
0.0
  0
LINE
  5
FE
  8
0
  6
CONTINUOUS
 62
     7
 10
-295.0
 20
302.0
 30
0.0
 11
-295.0
 21
5.000000000000004
 31
0.0
  0
LINE
  5
FF
  8
0
  6
CONTINUOUS
 62
     7
 10
-284.9999999999999
 20
15.0
 30
0.0
 11
114.9999999999999
 21
15.0
 31
0.0
  0
LINE
  5
100
  8
0
  6
CONTINUOUS
 62
     7
 10
115.0
 20
15.0
 30
0.0
 11
115.0
 21
292.0
 31
0.0
  0
LINE
  5
101
  8
0
  6
CONTINUOUS
 62
     7
 10
115.0
 20
292.0
 30
0.0
 11
-284.9999999999999
 21
292.0
 31
0.0
  0
LINE
  5
102
  8
0
  6
CONTINUOUS
 62
     7
 10
-284.9999999999999
 20
292.0
 30
0.0
 11
-284.9999999999999
 21
15.00000000000001
 31
0.0
  0
LINE
  5
103
  8
0
  6
CONTINUOUS
 62
     7
 10
-84.99999999999999
 20
5.0
 30
0.0
 11
-84.99999999999999
 21
15.0
 31
0.0
  0
LINE
  5
104
  8
0
  6
CONTINUOUS
 62
     7
 10
125.0
 20
153.5
 30
0.0
 11
115.0
 21
153.5
 31
0.0
  0
LINE
  5
105
  8
0
  6
CONTINUOUS
 62
     7
 10
-84.99999999999999
 20
302.0
 30
0.0
 11
-84.99999999999999
 21
292.0
 31
0.0
  0
LINE
  5
106
  8
0
  6
CONTINUOUS
 62
     7
 10
-295.0
 20
153.5
 30
0.0
 11
-284.9999999999999
 21
153.5
 31
0.0
  0
POLYLINE
  5
107
  8
0
  6
CONTINUOUS
 62
     7
 66
     1
 10
0.0
 20
0.0
 30
0.0
 70
     1
  0
VERTEX
  5
168
  8
0
  6
CONTINUOUS
 62
     7
 10
-283.9999999999999
 20
157.5
 30
0.0
  0
VERTEX
  5
169
  8
0
  6
CONTINUOUS
 62
     7
 10
-295.0
 20
153.5
 30
0.0
  0
VERTEX
  5
16A
  8
0
  6
CONTINUOUS
 62
     7
 10
-283.9999999999999
 20
149.5
 30
0.0
  0
VERTEX
  5
16B
  8
0
  6
CONTINUOUS
 62
     7
 10
-283.9999999999999
 20
157.5
 30
0.0
  0
SEQEND
  5
195
  8
0
  6
CONTINUOUS
 62
     7
  0
INSERT
  5
108
  8
0
 62
     7
  2
*U2
 10
0.0
 20
0.0
 30
0.0
  0
POLYLINE
  5
109
  8
0
  6
CONTINUOUS
 62
     7
 66
     1
 10
0.0
 20
0.0
 30
0.0
 70
     1
  0
VERTEX
  5
16E
  8
0
  6
CONTINUOUS
 62
     7
 10
-89.0
 20
16.0
 30
0.0
  0
VERTEX
  5
16F
  8
0
  6
CONTINUOUS
 62
     7
 10
-84.99999999999999
 20
5.000000000000001
 30
0.0
  0
VERTEX
  5
170
  8
0
  6
CONTINUOUS
 62
     7
 10
-80.99999999999999
 20
16.0
 30
0.0
  0
VERTEX
  5
171
  8
0
  6
CONTINUOUS
 62
     7
 10
-89.0
 20
16.0
 30
0.0
  0
SEQEND
  5
196
  8
0
  6
CONTINUOUS
 62
     7
  0
INSERT
  5
10A
  8
0
 62
     7
  2
*U3
 10
0.0
 20
0.0
 30
0.0
  0
LINE
  5
10B
  8
0
  6
CONTINUOUS
 62
     7
 10
72.50000000000001
 20
292.0
 30
0.0
 11
72.50000000000001
 21
297.0
 31
0.0
  0
TEXT
  5
10C
  8
0
  6
CONTINUOUS
 62
     7
 10
96.6340909090909
 20
296.8324293485057
 30
0.0
 40
3.5
  1
A
 50
270.0
  0
LINE
  5
10D
  8
0
  6
CONTINUOUS
 62
     7
 10
72.50000000000001
 20
15.0
 30
0.0
 11
72.50000000000001
 21
9.999999999999998
 31
0.0
  0
TEXT
  5
10E
  8
0
  6
CONTINUOUS
 62
     7
 10
97.98688883331249
 20
9.602272727272727
 30
0.0
 40
3.5
  1
A
  0
LINE
  5
10F
  8
0
  6
CONTINUOUS
 62
     7
 10
20.00000000000001
 20
292.0
 30
0.0
 11
20.00000000000001
 21
297.0
 31
0.0
  0
TEXT
  5
110
  8
0
  6
CONTINUOUS
 62
     7
 10
44.13409090909093
 20
296.9745607727897
 30
0.0
 40
3.5
  1
B
 50
270.0
  0
LINE
  5
111
  8
0
  6
CONTINUOUS
 62
     7
 10
20.00000000000001
 20
15.0
 30
0.0
 11
20.00000000000001
 21
9.999999999999998
 31
0.0
  0
TEXT
  5
112
  8
0
  6
CONTINUOUS
 62
     7
 10
45.3447574090284
 20
9.602272727272727
 30
0.0
 40
3.5
  1
B
  0
LINE
  5
113
  8
0
  6
CONTINUOUS
 62
     7
 10
-32.49999999999999
 20
292.0
 30
0.0
 11
-32.49999999999999
 21
297.0
 31
0.0
  0
TEXT
  5
114
  8
0
  6
CONTINUOUS
 62
     7
 10
-8.367222083281263
 20
296.9399305989746
 30
0.0
 40
3.5
  1
C
 50
270.0
  0
LINE
  5
115
  8
0
  6
CONTINUOUS
 62
     7
 10
-32.49999999999999
 20
15.0
 30
0.0
 11
-32.49999999999999
 21
9.999999999999998
 31
0.0
  0
TEXT
  5
116
  8
0
  6
CONTINUOUS
 62
     7
 10
-7.120612417156422
 20
9.600959734900588
 30
0.0
 40
3.5
  1
C
  0
LINE
  5
117
  8
0
  6
CONTINUOUS
 62
     7
 10
-84.99999999999999
 20
292.0
 30
0.0
 11
-84.99999999999999
 21
297.0
 31
0.0
  0
TEXT
  5
118
  8
0
  6
CONTINUOUS
 62
     7
 10
-60.8659090909091
 20
296.9745607727898
 30
0.0
 40
3.5
  1
D
 50
270.0
  0
LINE
  5
119
  8
0
  6
CONTINUOUS
 62
     7
 10
-137.5
 20
292.0
 30
0.0
 11
-137.5
 21
297.0
 31
0.0
  0
TEXT
  5
11A
  8
0
  6
CONTINUOUS
 62
     7
 10
-113.3672220832813
 20
297.0274634237839
 30
0.0
 40
3.5
  1
E
 50
270.0
  0
LINE
  5
11B
  8
0
  6
CONTINUOUS
 62
     7
 10
-137.5
 20
15.0
 30
0.0
 11
-137.5
 21
9.999999999999998
 31
0.0
  0
LINE
  5
11C
  8
0
  6
CONTINUOUS
 62
     7
 10
-190.0
 20
292.0
 30
0.0
 11
-190.0
 21
297.0
 31
0.0
  0
TEXT
  5
11D
  8
0
  6
CONTINUOUS
 62
     7
 10
-165.8672220832812
 20
296.9924502938602
 30
0.0
 40
3.5
  1
F
 50
270.0
  0
LINE
  5
11E
  8
0
  6
CONTINUOUS
 62
     7
 10
-190.0
 20
15.0
 30
0.0
 11
-190.0
 21
9.999999999999998
 31
0.0
  0
TEXT
  5
11F
  8
0
  6
CONTINUOUS
 62
     7
 10
-164.673132112042
 20
9.600959734900588
 30
0.0
 40
3.5
  1
F
  0
LINE
  5
120
  8
0
  6
CONTINUOUS
 62
     7
 10
-242.5
 20
292.0
 30
0.0
 11
-242.5
 21
297.0
 31
0.0
  0
TEXT
  5
121
  8
0
  6
CONTINUOUS
 62
     7
 10
-218.3672220832812
 20
296.9399305989746
 30
0.0
 40
3.5
  1
G
 50
270.0
  0
LINE
  5
122
  8
0
  6
CONTINUOUS
 62
     7
 10
-242.5
 20
15.0
 30
0.0
 11
-242.5
 21
9.999999999999998
 31
0.0
  0
TEXT
  5
123
  8
0
  6
CONTINUOUS
 62
     7
 10
-217.1206124171564
 20
9.600959734900588
 30
0.0
 40
3.5
  1
G
  0
TEXT
  5
124
  8
0
  6
CONTINUOUS
 62
     7
 10
-270.8672220832812
 20
296.9749437288983
 30
0.0
 40
3.5
  1
H
 50
270.0
  0
TEXT
  5
125
  8
0
  6
CONTINUOUS
 62
     7
 10
-269.6556255470801
 20
9.600959734900588
 30
0.0
 40
3.5
  1
H
  0
LINE
  5
126
  8
0
  6
CONTINUOUS
 62
     7
 10
115.0
 20
79.25
 30
0.0
 11
120.0
 21
79.25
 31
0.0
  0
TEXT
  5
127
  8
0
  6
CONTINUOUS
 62
     7
 10
117.9326059772415
 20
40.00777791671877
 30
0.0
 40
3.5
  1
1
  0
LINE
  5
128
  8
0
  6
CONTINUOUS
 62
     7
 10
-284.9999999999999
 20
79.25
 30
0.0
 11
-290.0
 21
79.25
 31
0.0
  0
TEXT
  5
129
  8
0
  6
CONTINUOUS
 62
     7
 10
-290.3990402650994
 20
43.26171220457672
 30
0.0
 40
3.5
  1
1
 50
270.0
  0
LINE
  5
12A
  8
0
  6
CONTINUOUS
 62
     7
 10
115.0
 20
153.5
 30
0.0
 11
120.0
 21
153.5
 31
0.0
  0
TEXT
  5
12B
  8
0
  6
CONTINUOUS
 62
     7
 10
118.163692634738
 20
114.2577779167188
 30
0.0
 40
3.5
  1
2
  0
LINE
  5
12C
  8
0
  6
CONTINUOUS
 62
     7
 10
-284.9999999999999
 20
153.5
 30
0.0
 11
-290.0
 21
153.5
 31
0.0
  0
TEXT
  5
12D
  8
0
  6
CONTINUOUS
 62
     7
 10
-290.3990402650994
 20
117.2806255470801
 30
0.0
 40
3.5
  1
2
 50
270.0
  0
LINE
  5
12E
  8
0
  6
CONTINUOUS
 62
     7
 10
115.0
 20
227.75
 30
0.0
 11
120.0
 21
227.75
 31
0.0
  0
TEXT
  5
12F
  8
0
  6
CONTINUOUS
 62
     7
 10
118.1811991996999
 20
188.5077779167188
 30
0.0
 40
3.5
  1
3
  0
LINE
  5
130
  8
0
  6
CONTINUOUS
 62
     7
 10
-284.9999999999999
 20
227.75
 30
0.0
 11
-290.0
 21
227.75
 31
0.0
  0
TEXT
  5
131
  8
0
  6
CONTINUOUS
 62
     7
 10
-290.3990402650994
 20
191.5131189821183
 30
0.0
 40
3.5
  1
3
 50
270.0
  0
TEXT
  5
132
  8
0
  6
CONTINUOUS
 62
     7
 10
118.2351413029886
 20
262.7590909090909
 30
0.0
 40
3.5
  1
4
  0
TEXT
  5
133
  8
0
  6
CONTINUOUS
 62
     7
 10
-290.3977272727273
 20
265.7091768788295
 30
0.0
 40
3.5
  1
4
 50
270.0
  0
LINE
  5
134
  8
0
  6
CONTINUOUS
 62
     7
 10
-75.0
 20
15.0
 30
0.0
 11
-75.0
 21
12.0
 31
0.0
  0
LINE
  5
135
  8
0
  6
CONTINUOUS
 62
     7
 10
-94.99999999999999
 20
15.0
 30
0.0
 11
-94.99999999999999
 21
12.0
 31
0.0
  0
LINE
  5
136
  8
0
  6
CONTINUOUS
 62
     7
 10
-64.99999999999999
 20
15.0
 30
0.0
 11
-64.99999999999999
 21
12.0
 31
0.0
  0
LINE
  5
137
  8
0
  6
CONTINUOUS
 62
     7
 10
-105.0
 20
15.0
 30
0.0
 11
-105.0
 21
12.0
 31
0.0
  0
LINE
  5
138
  8
0
  6
CONTINUOUS
 62
     7
 10
-54.99999999999999
 20
15.0
 30
0.0
 11
-54.99999999999999
 21
12.0
 31
0.0
  0
LINE
  5
139
  8
0
  6
CONTINUOUS
 62
     7
 10
-115.0
 20
15.0
 30
0.0
 11
-115.0
 21
12.0
 31
0.0
  0
LINE
  5
13A
  8
0
  6
CONTINUOUS
 62
     7
 10
-44.99999999999999
 20
15.0
 30
0.0
 11
-44.99999999999999
 21
12.0
 31
0.0
  0
LINE
  5
13B
  8
0
  6
CONTINUOUS
 62
     7
 10
-125.0
 20
15.0
 30
0.0
 11
-125.0
 21
12.0
 31
0.0
  0
LINE
  5
13C
  8
0
  6
CONTINUOUS
 62
     7
 10
-34.99999999999999
 20
15.0
 30
0.0
 11
-34.99999999999999
 21
9.999999999999998
 31
0.0
  0
LINE
  5
13D
  8
0
  6
CONTINUOUS
 62
     7
 10
-135.0
 20
15.0
 30
0.0
 11
-135.0
 21
9.999999999999998
 31
0.0
  0
LINE
  5
13E
  8
0
  6
CONTINUOUS
 62
     7
 10
-34.99999999999999
 20
15.0
 30
0.0
 11
-135.0
 21
15.0
 31
0.0
  0
LINE
  5
13F
  8
0
  6
CONTINUOUS
 62
     7
 10
-34.99999999999999
 20
12.0
 30
0.0
 11
-135.0
 21
12.0
 31
0.0
  0
INSERT
  5
140
  8
0
 62
     7
  2
*U4
 10
0.0
 20
0.0
 30
0.0
  0
INSERT
  5
141
  8
0
 62
     7
  2
*U5
 10
0.0
 20
0.0
 30
0.0
  0
INSERT
  5
142
  8
0
 62
     7
  2
*U6
 10
0.0
 20
0.0
 30
0.0
  0
INSERT
  5
143
  8
0
 62
     7
  2
*U7
 10
0.0
 20
0.0
 30
0.0
  0
ENDBLK
  8
0
  0
BLOCK
  8
0
  2
*U2
 70
     1
 10
0.0
 20
0.0
 30
0.0
  0
SOLID
  5
16D
  8
0
  6
CONTINUOUS
 62
     7
 10
-283.9999999999999
 20
149.5
 30
0.0
 11
-288.0
 21
153.5
 31
0.0
 12
-283.9999999999999
 22
157.5
 32
0.0
 13
-283.9999999999999
 23
157.5
 33
0.0
  0
ENDBLK
  8
0
  0
BLOCK
  8
0
  2
*U3
 70
     1
 10
0.0
 20
0.0
 30
0.0
  0
SOLID
  5
173
  8
0
  6
CONTINUOUS
 62
     7
 10
-84.99999999999999
 20
12.0
 30
0.0
 11
-89.0
 21
16.0
 31
0.0
 12
-84.99999999999999
 22
16.0
 32
0.0
 13
-84.99999999999999
 23
16.0
 33
0.0
  0
SOLID
  5
174
  8
0
  6
CONTINUOUS
 62
     7
 10
-84.99999999999999
 20
12.0
 30
0.0
 11
-84.99999999999999
 21
16.0
 31
0.0
 12
-80.99999999999999
 22
16.0
 32
0.0
 13
-80.99999999999999
 23
16.0
 33
0.0
  0
ENDBLK
  8
0
  0
BLOCK
  8
0
  2
*U4
 70
     1
 10
0.0
 20
0.0
 30
0.0
  0
SOLID
  5
176
  8
0
  6
CONTINUOUS
 62
     7
 10
-295.0
 20
5.0
 30
0.0
 11
-295.0
 21
15.0
 31
0.0
 12
-293.0
 22
5.0
 32
0.0
 13
-293.0
 23
5.0
 33
0.0
  0
SOLID
  5
177
  8
0
  6
CONTINUOUS
 62
     7
 10
-293.0
 20
5.0
 30
0.0
 11
-295.0
 21
15.0
 31
0.0
 12
-293.0
 22
15.0
 32
0.0
 13
-293.0
 23
15.0
 33
0.0
  0
SOLID
  5
178
  8
0
  6
CONTINUOUS
 62
     7
 10
-293.0
 20
5.0
 30
0.0
 11
-293.0
 21
7.0
 31
0.0
 12
-284.9999999999999
 22
5.0
 32
0.0
 13
-284.9999999999999
 23
5.0
 33
0.0
  0
SOLID
  5
179
  8
0
  6
CONTINUOUS
 62
     7
 10
-284.9999999999999
 20
5.0
 30
0.0
 11
-293.0
 21
7.0
 31
0.0
 12
-284.9999999999999
 22
7.0
 32
0.0
 13
-284.9999999999999
 23
7.0
 33
0.0
  0
ENDBLK
  8
0
  0
BLOCK
  8
0
  2
*U5
 70
     1
 10
0.0
 20
0.0
 30
0.0
  0
SOLID
  5
17B
  8
0
  6
CONTINUOUS
 62
     7
 10
115.0
 20
5.0
 30
0.0
 11
115.0
 21
7.0
 31
0.0
 12
123.0
 22
5.0
 32
0.0
 13
123.0
 23
5.0
 33
0.0
  0
SOLID
  5
17C
  8
0
  6
CONTINUOUS
 62
     7
 10
123.0
 20
5.0
 30
0.0
 11
115.0
 21
7.0
 31
0.0
 12
123.0
 22
7.0
 32
0.0
 13
123.0
 23
7.0
 33
0.0
  0
SOLID
  5
17D
  8
0
  6
CONTINUOUS
 62
     7
 10
123.0
 20
5.0
 30
0.0
 11
123.0
 21
15.0
 31
0.0
 12
125.0
 22
5.0
 32
0.0
 13
125.0
 23
5.0
 33
0.0
  0
SOLID
  5
17E
  8
0
  6
CONTINUOUS
 62
     7
 10
125.0
 20
5.0
 30
0.0
 11
123.0
 21
15.0
 31
0.0
 12
125.0
 22
15.0
 32
0.0
 13
125.0
 23
15.0
 33
0.0
  0
ENDBLK
  8
0
  0
BLOCK
  8
0
  2
*U6
 70
     1
 10
0.0
 20
0.0
 30
0.0
  0
SOLID
  5
180
  8
0
  6
CONTINUOUS
 62
     7
 10
115.0
 20
300.0
 30
0.0
 11
115.0
 21
302.0
 31
0.0
 12
123.0
 22
300.0
 32
0.0
 13
123.0
 23
300.0
 33
0.0
  0
SOLID
  5
181
  8
0
  6
CONTINUOUS
 62
     7
 10
123.0
 20
300.0
 30
0.0
 11
115.0
 21
302.0
 31
0.0
 12
123.0
 22
302.0
 32
0.0
 13
123.0
 23
302.0
 33
0.0
  0
SOLID
  5
182
  8
0
  6
CONTINUOUS
 62
     7
 10
123.0
 20
292.0
 30
0.0
 11
123.0
 21
302.0
 31
0.0
 12
125.0
 22
292.0
 32
0.0
 13
125.0
 23
292.0
 33
0.0
  0
SOLID
  5
183
  8
0
  6
CONTINUOUS
 62
     7
 10
125.0
 20
292.0
 30
0.0
 11
123.0
 21
302.0
 31
0.0
 12
125.0
 22
302.0
 32
0.0
 13
125.0
 23
302.0
 33
0.0
  0
ENDBLK
  8
0
  0
BLOCK
  8
0
  2
*U7
 70
     1
 10
0.0
 20
0.0
 30
0.0
  0
SOLID
  5
185
  8
0
  6
CONTINUOUS
 62
     7
 10
-295.0
 20
292.0
 30
0.0
 11
-295.0
 21
302.0
 31
0.0
 12
-293.0
 22
292.0
 32
0.0
 13
-293.0
 23
292.0
 33
0.0
  0
SOLID
  5
186
  8
0
  6
CONTINUOUS
 62
     7
 10
-293.0
 20
292.0
 30
0.0
 11
-295.0
 21
302.0
 31
0.0
 12
-293.0
 22
302.0
 32
0.0
 13
-293.0
 23
302.0
 33
0.0
  0
SOLID
  5
187
  8
0
  6
CONTINUOUS
 62
     7
 10
-293.0
 20
300.0
 30
0.0
 11
-293.0
 21
302.0
 31
0.0
 12
-284.9999999999999
 22
300.0
 32
0.0
 13
-284.9999999999999
 23
300.0
 33
0.0
  0
SOLID
  5
188
  8
0
  6
CONTINUOUS
 62
     7
 10
-284.9999999999999
 20
300.0
 30
0.0
 11
-293.0
 21
302.0
 31
0.0
 12
-284.9999999999999
 22
302.0
 32
0.0
 13
-284.9999999999999
 23
302.0
 33
0.0
  0
ENDBLK
  8
0
  0
ENDSEC
  0
SECTION
  2
ENTITIES
  0
LINE
  5
70
  8
1
  6
CONTINUOUS
 62
     7
 10
516.8073691757
 20
265.0962039651
 30
0.0
 11
516.8073691757
 21
257.0962039651
 31
0.0
  0
LINE
  5
71
  8
1
  6
CONTINUOUS
 62
     7
 10
511.8998911757
 20
265.0962039651
 30
0.0
 11
511.8998911757
 21
257.0962039651
 31
0.0
  0
LINE
  5
72
  8
1
  6
CONTINUOUS
 62
     7
 10
497.1774591757
 20
265.0962039651
 30
0.0
 11
516.8073691757
 21
265.0962039651
 31
0.0
  0
LINE
  5
73
  8
1
  6
CONTINUOUS
 62
     7
 10
268.4924141757
 20
265.0962039651
 30
0.0
 11
285.4924141757
 21
265.0962039651
 31
0.0
  0
LINE
  5
74
  8
1
  6
CONTINUOUS
 62
     7
 10
276.9924141757
 20
265.0962039651
 30
0.0
 11
276.9924141757
 21
257.0962039651
 31
0.0
  0
LINE
  5
75
  8
1
  6
CONTINUOUS
 62
     7
 10
285.4924141757
 20
265.0962039651
 30
0.0
 11
285.4924141757
 21
257.0962039651
 31
0.0
  0
LINE
  5
76
  8
1
  6
CONTINUOUS
 62
     7
 10
268.4924141757
 20
265.0962039651
 30
0.0
 11
268.4924141757
 21
257.0962039651
 31
0.0
  0
LINE
  5
77
  8
1
  6
CONTINUOUS
 62
     7
 10
428.4924141757
 20
265.0962039651
 30
0.0
 11
445.4924141757
 21
265.0962039651
 31
0.0
  0
LINE
  5
78
  8
1
  6
CONTINUOUS
 62
     7
 10
436.9924141757
 20
265.0962039651
 30
0.0
 11
436.9924141757
 21
257.0962039651
 31
0.0
  0
LINE
  5
79
  8
1
  6
CONTINUOUS
 62
     7
 10
445.4924141757
 20
265.0962039651
 30
0.0
 11
445.4924141757
 21
257.0962039651
 31
0.0
  0
LINE
  5
7A
  8
1
  6
CONTINUOUS
 62
     7
 10
497.1774591757
 20
265.0962039651
 30
0.0
 11
497.1774591757
 21
257.0962039651
 31
0.0
  0
LINE
  5
7B
  8
1
  6
CONTINUOUS
 62
     7
 10
502.0849371757
 20
265.0962039651
 30
0.0
 11
502.0849371757
 21
257.0962039651
 31
0.0
  0
LINE
  5
7C
  8
1
  6
CONTINUOUS
 62
     7
 10
428.4924141757
 20
257.0962039651
 30
0.0
 11
428.4924141757
 21
265.0962039651
 31
0.0
  0
LINE
  5
7D
  8
1
  6
CONTINUOUS
 62
     7
 10
511.7424141757
 20
265.0962039651
 30
0.0
 11
511.7424141757
 21
267.4962039651
 31
0.0
  0
LINE
  5
7E
  8
1
  6
CONTINUOUS
 62
     7
 10
502.2424141757
 20
245.1962039651
 30
0.0
 11
502.2424141757
 21
49.79620396510004
 31
0.0
  0
LINE
  5
7F
  8
1
  6
CONTINUOUS
 62
     7
 10
511.7424141757
 20
49.7962039651
 30
0.0
 11
511.7424141757
 21
245.1962039651
 31
0.0
  0
LINE
  5
80
  8
1
  6
CONTINUOUS
 62
     7
 10
272.2424141757
 20
267.4962039651
 30
0.0
 11
272.2424141757
 21
265.0962039651
 31
0.0
  0
LINE
  5
81
  8
1
  6
CONTINUOUS
 62
     7
 10
281.7424141757
 20
265.0962039651
 30
0.0
 11
281.7424141757
 21
267.4962039651
 31
0.0
  0
LINE
  5
82
  8
1
  6
CONTINUOUS
 62
     7
 10
502.2424141757
 20
267.4962039651
 30
0.0
 11
502.2424141757
 21
265.0962039651
 31
0.0
  0
LINE
  5
83
  8
1
  6
CONTINUOUS
 62
     7
 10
432.2424141757
 20
267.4962039651
 30
0.0
 11
432.2424141757
 21
265.0962039651
 31
0.0
  0
LINE
  5
84
  8
1
  6
CONTINUOUS
 62
     7
 10
441.7424141757
 20
265.0962039651
 30
0.0
 11
441.7424141757
 21
267.4962039651
 31
0.0
  0
LINE
  5
85
  8
1
  6
CONTINUOUS
 62
     7
 10
492.7424141757
 20
222.4962039651
 30
0.0
 11
492.7424141757
 21
244.6962039651
 31
0.0
  0
LINE
  5
86
  8
1
  6
CONTINUOUS
 62
     7
 10
497.1774591757
 20
29.8962039651
 30
0.0
 11
516.8073691757
 21
29.8962039651
 31
0.0
  0
LINE
  5
87
  8
1
  6
CONTINUOUS
 62
     7
 10
497.1774591757
 20
257.0962039651
 30
0.0
 11
516.8073691757
 21
257.0962039651
 31
0.0
  0
LINE
  5
88
  8
1
  6
CONTINUOUS
 62
     7
 10
502.2424141757
 20
267.4962039651
 30
0.0
 11
511.7424141757
 21
267.4962039651
 31
0.0
  0
LINE
  5
89
  8
1
  6
CONTINUOUS
 62
     7
 10
511.7424141757
 20
27.4962039651
 30
0.0
 11
502.2424141757
 21
27.4962039651
 31
0.0
  0
ARC
  5
8A
  8
1
  6
CONTINUOUS
 62
     7
 10
514.2424141757
 20
50.2962039651
 30
0.0
 40
0.5
 50
180.0
 51
270.0
  0
LINE
  5
8B
  8
1
  6
CONTINUOUS
 62
     7
 10
502.0849371757
 20
257.0962039651
 30
0.0
 11
502.0849371757
 21
249.0962039651
 31
0.0
  0
LINE
  5
8C
  8
1
  6
CONTINUOUS
 62
     7
 10
502.0849371757
 20
29.8962039651
 30
0.0
 11
502.0849371757
 21
45.8962039651
 31
0.0
  0
ARC
  5
8D
  8
1
  6
CONTINUOUS
 62
     7
 10
518.4424141757
 20
244.6962039651
 30
0.0
 40
0.5
 50
0.0
 51
90.0
  0
LINE
  5
8E
  8
1
  6
CONTINUOUS
 62
     7
 10
495.0424141757
 20
222.4962039651
 30
0.0
 11
492.7424141757
 21
222.4962039651
 31
0.0
  0
LINE
  5
8F
  8
1
  6
CONTINUOUS
 62
     7
 10
521.2424141757
 20
222.4962039651
 30
0.0
 11
518.9424141757
 21
222.4962039651
 31
0.0
  0
LINE
  5
90
  8
1
  6
CONTINUOUS
 62
     7
 10
495.0424141757
 20
244.6962039651
 30
0.0
 11
495.0424141757
 21
222.4962039651
 31
0.0
  0
LINE
  5
91
  8
1
  6
CONTINUOUS
 62
     7
 10
497.1774591757
 20
29.8962039651
 30
0.0
 11
497.1774591757
 21
45.8962039651
 31
0.0
  0
LINE
  5
92
  8
1
  6
CONTINUOUS
 62
     7
 10
516.8073691757
 20
45.8962039651
 30
0.0
 11
497.1774591757
 21
45.8962039651
 31
0.0
  0
LINE
  5
93
  8
1
  6
CONTINUOUS
 62
     7
 10
511.8998911757
 20
257.0962039651
 30
0.0
 11
511.8998911757
 21
249.0962039651
 31
0.0
  0
LINE
  5
94
  8
1
  6
CONTINUOUS
 62
     7
 10
521.2424141757
 20
244.6962039651
 30
0.0
 11
521.2424141757
 21
222.4962039651
 31
0.0
  0
ARC
  5
95
  8
1
  6
CONTINUOUS
 62
     7
 10
495.5424141757
 20
244.6962039651
 30
0.0
 40
2.8
 50
90.0
 51
180.0
  0
LINE
  5
96
  8
1
  6
CONTINUOUS
 62
     7
 10
518.9424141757
 20
222.4962039651
 30
0.0
 11
518.9424141757
 21
244.6962039651
 31
0.0
  0
LINE
  5
97
  8
1
  6
CONTINUOUS
 62
     7
 10
518.4424141757
 20
245.1962039651
 30
0.0
 11
495.5424141757
 21
245.1962039651
 31
0.0
  0
LINE
  5
98
  8
1
  6
CONTINUOUS
 62
     7
 10
495.5424141757
 20
247.4962039651
 30
0.0
 11
518.4424141757
 21
247.4962039651
 31
0.0
  0
LINE
  5
99
  8
1
  6
CONTINUOUS
 62
     7
 10
516.8073691757
 20
29.8962039651
 30
0.0
 11
516.8073691757
 21
45.8962039651
 31
0.0
  0
LINE
  5
9A
  8
1
  6
CONTINUOUS
 62
     7
 10
511.8998911757
 20
29.8962039651
 30
0.0
 11
511.8998911757
 21
45.8962039651
 31
0.0
  0
LINE
  5
9B
  8
1
  6
CONTINUOUS
 62
     7
 10
497.1774591757
 20
257.0962039651
 30
0.0
 11
497.1774591757
 21
249.0962039651
 31
0.0
  0
LINE
  5
9C
  8
1
  6
CONTINUOUS
 62
     7
 10
516.8073691757
 20
249.0962039651
 30
0.0
 11
497.1774591757
 21
249.0962039651
 31
0.0
  0
LINE
  5
9D
  8
1
  6
CONTINUOUS
 62
     7
 10
516.8073691757
 20
37.8962039651
 30
0.0
 11
497.1774591757
 21
37.8962039651
 31
0.0
  0
ARC
  5
9E
  8
1
  6
CONTINUOUS
 62
     7
 10
518.4424141757
 20
244.6962039651
 30
0.0
 40
2.8
 50
0.0
 51
90.0
  0
LINE
  5
9F
  8
1
  6
CONTINUOUS
 62
     7
 10
516.8073691757
 20
257.0962039651
 30
0.0
 11
516.8073691757
 21
249.0962039651
 31
0.0
  0
LINE
  5
A0
  8
1
  6
CONTINUOUS
 62
     7
 10
513.7424141757
 20
50.2962039651
 30
0.0
 11
513.7424141757
 21
51.7962039651
 31
0.0
  0
LINE
  5
A1
  8
1
  6
CONTINUOUS
 62
     7
 10
441.7424141757
 20
27.4962039651
 30
0.0
 11
432.2424141757
 21
27.4962039651
 31
0.0
  0
LINE
  5
A2
  8
1
  6
CONTINUOUS
 62
     7
 10
445.4924141757
 20
37.8962039651
 30
0.0
 11
428.4924141757
 21
37.8962039651
 31
0.0
  0
LINE
  5
A3
  8
1
  6
CONTINUOUS
 62
     7
 10
428.4924141757
 20
45.8962039651
 30
0.0
 11
428.4924141757
 21
29.8962039651
 31
0.0
  0
LINE
  5
A4
  8
1
  6
CONTINUOUS
 62
     7
 10
500.2424141757
 20
51.7962039651
 30
0.0
 11
500.2424141757
 21
50.2962039651
 31
0.0
  0
LINE
  5
A5
  8
1
  6
CONTINUOUS
 62
     7
 10
515.9924141757
 20
247.4962039651
 30
0.0
 11
515.9924141757
 21
249.0962039651
 31
0.0
  0
LINE
  5
A6
  8
1
  6
CONTINUOUS
 62
     7
 10
497.9924141757
 20
249.0962039651
 30
0.0
 11
497.9924141757
 21
247.4962039651
 31
0.0
  0
LINE
  5
A7
  8
1
  6
CONTINUOUS
 62
     7
 10
445.9924141757
 20
45.8962039651
 30
0.0
 11
445.9924141757
 21
47.4962039651
 31
0.0
  0
LINE
  5
A8
  8
1
  6
CONTINUOUS
 62
     7
 10
441.7424141757
 20
27.4962039651
 30
0.0
 11
441.7424141757
 21
29.8962039651
 31
0.0
  0
LINE
  5
A9
  8
1
  6
CONTINUOUS
 62
     7
 10
497.9924141757
 20
47.4962039651
 30
0.0
 11
497.9924141757
 21
45.8962039651
 31
0.0
  0
LINE
  5
AA
  8
1
  6
CONTINUOUS
 62
     7
 10
445.9924141757
 20
45.8962039651
 30
0.0
 11
427.9924141757
 21
45.8962039651
 31
0.0
  0
LINE
  5
AB
  8
1
  6
CONTINUOUS
 62
     7
 10
511.7424141757
 20
27.4962039651
 30
0.0
 11
511.7424141757
 21
29.8962039651
 31
0.0
  0
LINE
  5
AC
  8
1
  6
CONTINUOUS
 62
     7
 10
428.4924141757
 20
29.8962039651
 30
0.0
 11
445.4924141757
 21
29.8962039651
 31
0.0
  0
LINE
  5
AD
  8
1
  6
CONTINUOUS
 62
     7
 10
427.9924141757
 20
47.4962039651
 30
0.0
 11
427.9924141757
 21
45.8962039651
 31
0.0
  0
LINE
  5
AE
  8
1
  6
CONTINUOUS
 62
     7
 10
432.2424141757
 20
29.8962039651
 30
0.0
 11
432.2424141757
 21
27.4962039651
 31
0.0
  0
LINE
  5
AF
  8
1
  6
CONTINUOUS
 62
     7
 10
515.9924141757
 20
45.8962039651
 30
0.0
 11
515.9924141757
 21
47.4962039651
 31
0.0
  0
LINE
  5
B0
  8
1
  6
CONTINUOUS
 62
     7
 10
445.4924141757
 20
29.8962039651
 30
0.0
 11
445.4924141757
 21
45.8962039651
 31
0.0
  0
ARC
  5
B1
  8
1
  6
CONTINUOUS
 62
     7
 10
499.7424141757
 20
50.2962039651
 30
0.0
 40
0.5
 50
270.0
 51
0.0
  0
LINE
  5
B2
  8
1
  6
CONTINUOUS
 62
     7
 10
502.2424141757
 20
29.8962039651
 30
0.0
 11
502.2424141757
 21
27.4962039651
 31
0.0
  0
LINE
  5
B3
  8
1
  6
CONTINUOUS
 62
     7
 10
436.9924141757
 20
29.8962039651
 30
0.0
 11
436.9924141757
 21
45.8962039651
 31
0.0
  0
LINE
  5
B4
  8
1
  6
CONTINUOUS
 62
     7
 10
272.2424141757
 20
222.4962039651
 30
0.0
 11
272.2424141757
 21
72.49620396509998
 31
0.0
  0
ARC
  5
B5
  8
1
  6
CONTINUOUS
 62
     7
 10
416.9924141757
 20
309.9962039651
 30
0.0
 40
5.1
 50
90.0
 51
270.0
  0
LINE
  5
B6
  8
1
  6
CONTINUOUS
 62
     7
 10
432.2424141757
 20
267.4962039651
 30
0.0
 11
441.7424141757
 21
267.4962039651
 31
0.0
  0
LINE
  5
B7
  8
1
  6
CONTINUOUS
 62
     7
 10
428.4924141757
 20
257.0962039651
 30
0.0
 11
445.4924141757
 21
257.0962039651
 31
0.0
  0
LINE
  5
B8
  8
1
  6
CONTINUOUS
 62
     7
 10
281.7424141757
 20
27.4962039651
 30
0.0
 11
272.2424141757
 21
27.4962039651
 31
0.0
  0
LINE
  5
B9
  8
1
  6
CONTINUOUS
 62
     7
 10
436.9924141757
 20
257.0962039651
 30
0.0
 11
436.9924141757
 21
249.0962039651
 31
0.0
  0
LINE
  5
BA
  8
1
  6
CONTINUOUS
 62
     7
 10
268.4924141757
 20
257.0962039651
 30
0.0
 11
285.4924141757
 21
257.0962039651
 31
0.0
  0
LINE
  5
BB
  8
1
  6
CONTINUOUS
 62
     7
 10
281.7424141757
 20
27.4962039651
 30
0.0
 11
281.7424141757
 21
29.8962039651
 31
0.0
  0
LINE
  5
BC
  8
1
  6
CONTINUOUS
 62
     7
 10
272.2424141757
 20
29.8962039651
 30
0.0
 11
272.2424141757
 21
27.4962039651
 31
0.0
  0
CIRCLE
  5
BD
  8
1
  6
CONTINUOUS
 62
     7
 10
436.9924141757
 20
309.9962039651
 30
0.0
 40
3.96875
  0
LINE
  5
BE
  8
1
  6
CONTINUOUS
 62
     7
 10
445.9924141757
 20
247.4962039651
 30
0.0
 11
445.9924141757
 21
249.0962039651
 31
0.0
  0
LINE
  5
BF
  8
1
  6
CONTINUOUS
 62
     7
 10
276.9924141757
 20
257.0962039651
 30
0.0
 11
276.9924141757
 21
249.0962039651
 31
0.0
  0
CIRCLE
  5
C0
  8
1
  6
CONTINUOUS
 62
     7
 10
436.9924141757
 20
309.9962039651
 30
0.0
 40
4.7625
  0
LINE
  5
C1
  8
1
  6
CONTINUOUS
 62
     7
 10
451.9924141757
 20
295.7462039651
 30
0.0
 11
451.9924141757
 21
324.2462039651
 31
0.0
  0
LINE
  5
C2
  8
1
  6
CONTINUOUS
 62
     7
 10
261.9924141757
 20
295.7462039651
 30
0.0
 11
261.9924141757
 21
324.2462039651
 31
0.0
  0
LINE
  5
C3
  8
1
  6
CONTINUOUS
 62
     7
 10
428.8258731757
 20
315.0962039651
 30
0.0
 11
416.9924141757
 21
315.0962039651
 31
0.0
  0
LINE
  5
C4
  8
1
  6
CONTINUOUS
 62
     7
 10
281.7424141757
 20
72.4962039651
 30
0.0
 11
281.7424141757
 21
222.4962039651
 31
0.0
  0
LINE
  5
C5
  8
1
  6
CONTINUOUS
 62
     7
 10
285.1589551757
 20
315.0962039651
 30
0.0
 11
296.9924141757
 21
315.0962039651
 31
0.0
  0
LINE
  5
C6
  8
1
  6
CONTINUOUS
 62
     7
 10
296.9924141757
 20
304.8962039651
 30
0.0
 11
285.1589551757
 21
304.8962039651
 31
0.0
  0
LINE
  5
C7
  8
1
  6
CONTINUOUS
 62
     7
 10
432.2424141757
 20
222.4962039651
 30
0.0
 11
432.2424141757
 21
72.49620396509998
 31
0.0
  0
LINE
  5
C8
  8
1
  6
CONTINUOUS
 62
     7
 10
285.9924141757
 20
247.4962039651
 30
0.0
 11
285.9924141757
 21
249.0962039651
 31
0.0
  0
LINE
  5
C9
  8
1
  6
CONTINUOUS
 62
     7
 10
267.9924141757
 20
47.4962039651
 30
0.0
 11
267.9924141757
 21
45.8962039651
 31
0.0
  0
ARC
  5
CA
  8
1
  6
CONTINUOUS
 62
     7
 10
296.9924141757
 20
309.9962039651
 30
0.0
 40
5.1
 50
270.0
 51
90.0
  0
CIRCLE
  5
CB
  8
1
  6
CONTINUOUS
 62
     7
 10
276.9924141757
 20
309.9962039651
 30
0.0
 40
4.7625
  0
LINE
  5
CC
  8
1
  6
CONTINUOUS
 62
     7
 10
416.9924141757
 20
304.8962039651
 30
0.0
 11
428.8258731757
 21
304.8962039651
 31
0.0
  0
LINE
  5
CD
  8
1
  6
CONTINUOUS
 62
     7
 10
285.4924141757
 20
257.0962039651
 30
0.0
 11
285.4924141757
 21
249.0962039651
 31
0.0
  0
LINE
  5
CE
  8
1
  6
CONTINUOUS
 62
     7
 10
285.9924141757
 20
249.0962039651
 30
0.0
 11
267.9924141757
 21
249.0962039651
 31
0.0
  0
LINE
  5
CF
  8
1
  6
CONTINUOUS
 62
     7
 10
268.4924141757
 20
257.0962039651
 30
0.0
 11
268.4924141757
 21
249.0962039651
 31
0.0
  0
LINE
  5
D0
  8
1
  6
CONTINUOUS
 62
     7
 10
285.9924141757
 20
45.8962039651
 30
0.0
 11
267.9924141757
 21
45.8962039651
 31
0.0
  0
LINE
  5
D1
  8
1
  6
CONTINUOUS
 62
     7
 10
272.2424141757
 20
267.4962039651
 30
0.0
 11
281.7424141757
 21
267.4962039651
 31
0.0
  0
LINE
  5
D2
  8
1
  6
CONTINUOUS
 62
     7
 10
427.9924141757
 20
249.0962039651
 30
0.0
 11
427.9924141757
 21
247.4962039651
 31
0.0
  0
LINE
  5
D3
  8
1
  6
CONTINUOUS
 62
     7
 10
441.7424141757
 20
72.4962039651
 30
0.0
 11
441.7424141757
 21
222.4962039651
 31
0.0
  0
LINE
  5
D4
  8
1
  6
CONTINUOUS
 62
     7
 10
445.9924141757
 20
249.0962039651
 30
0.0
 11
427.9924141757
 21
249.0962039651
 31
0.0
  0
LINE
  5
D5
  8
1
  6
CONTINUOUS
 62
     7
 10
428.4924141757
 20
249.0962039651
 30
0.0
 11
428.4924141757
 21
257.0962039651
 31
0.0
  0
LINE
  5
D6
  8
1
  6
CONTINUOUS
 62
     7
 10
267.9924141757
 20
249.0962039651
 30
0.0
 11
267.9924141757
 21
247.4962039651
 31
0.0
  0
LINE
  5
D7
  8
1
  6
CONTINUOUS
 62
     7
 10
285.9924141757
 20
45.8962039651
 30
0.0
 11
285.9924141757
 21
47.4962039651
 31
0.0
  0
CIRCLE
  5
D8
  8
1
  6
CONTINUOUS
 62
     7
 10
276.9924141757
 20
309.9962039651
 30
0.0
 40
3.96875
  0
LINE
  5
D9
  8
1
  6
CONTINUOUS
 62
     7
 10
261.9924141757
 20
295.7462039651
 30
0.0
 11
451.9924141757
 21
295.7462039651
 31
0.0
  0
ARC
  5
DA
  8
1
  6
CONTINUOUS
 62
     7
 10
495.5424141757
 20
50.2962039651
 30
0.0
 40
0.5
 50
180.0
 51
270.0
  0
LINE
  5
DB
  8
1
  6
CONTINUOUS
 62
     7
 10
521.2424141757
 20
72.4962039651
 30
0.0
 11
521.2424141757
 21
50.2962039651
 31
0.0
  0
LINE
  5
DC
  8
1
  6
CONTINUOUS
 62
     7
 10
285.4924141757
 20
314.9036809651
 30
0.0
 11
285.4924141757
 21
305.0887269651
 31
0.0
  0
LINE
  5
DD
  8
1
  6
CONTINUOUS
 62
     7
 10
285.4924141757
 20
305.0887269651
 30
0.0
 11
276.9924141757
 21
300.1812489651
 31
0.0
  0
LINE
  5
DE
  8
1
  6
CONTINUOUS
 62
     7
 10
276.9924141757
 20
319.8111589651
 30
0.0
 11
285.4924141757
 21
314.9036809651
 31
0.0
  0
LINE
  5
DF
  8
1
  6
CONTINUOUS
 62
     7
 10
495.0424141757
 20
72.4962039651
 30
0.0
 11
495.0424141757
 21
50.2962039651
 31
0.0
  0
LINE
  5
E0
  8
1
  6
CONTINUOUS
 62
     7
 10
495.5424141757
 20
49.7962039651
 30
0.0
 11
518.4424141757
 21
49.7962039651
 31
0.0
  0
ARC
  5
E1
  8
1
  6
CONTINUOUS
 62
     7
 10
495.5424141757
 20
50.2962039651
 30
0.0
 40
2.8
 50
180.0
 51
270.0
  0
LINE
  5
E2
  8
1
  6
CONTINUOUS
 62
     7
 10
518.9424141757
 20
72.4962039651
 30
0.0
 11
521.2424141757
 21
72.4962039651
 31
0.0
  0
CIRCLE
  5
E3
  8
1
  6
CONTINUOUS
 62
     7
 10
356.9924141757
 20
309.9962039651
 30
0.0
 40
4.75
  0
LINE
  5
E4
  8
1
  6
CONTINUOUS
 62
     7
 10
502.2424141757
 20
51.7962039651
 30
0.0
 11
500.2424141757
 21
51.7962039651
 31
0.0
  0
LINE
  5
E5
  8
1
  6
CONTINUOUS
 62
     7
 10
518.4424141757
 20
47.4962039651
 30
0.0
 11
495.5424141757
 21
47.4962039651
 31
0.0
  0
ARC
  5
E6
  8
1
  6
CONTINUOUS
 62
     7
 10
495.5424141757
 20
244.6962039651
 30
0.0
 40
0.5
 50
90.0
 51
180.0
  0
LINE
  5
E7
  8
1
  6
CONTINUOUS
 62
     7
 10
428.4924141757
 20
314.9036809651
 30
0.0
 11
436.9924141757
 21
319.8111589651
 31
0.0
  0
LINE
  5
E8
  8
1
  6
CONTINUOUS
 62
     7
 10
513.7424141757
 20
51.7962039651
 30
0.0
 11
511.7424141757
 21
51.7962039651
 31
0.0
  0
CIRCLE
  5
E9
  8
1
  6
CONTINUOUS
 62
     7
 10
276.9924141757
 20
309.9962039651
 30
0.0
 40
7.65
  0
ARC
  5
EA
  8
1
  6
CONTINUOUS
 62
     7
 10
518.4424141757
 20
50.2962039651
 30
0.0
 40
2.8
 50
270.0
 51
0.0
  0
LINE
  5
EB
  8
1
  6
CONTINUOUS
 62
     7
 10
268.4924141757
 20
305.0887269651
 30
0.0
 11
268.4924141757
 21
314.9036809651
 31
0.0
  0
LINE
  5
EC
  8
1
  6
CONTINUOUS
 62
     7
 10
492.7424141757
 20
72.4962039651
 30
0.0
 11
495.0424141757
 21
72.4962039651
 31
0.0
  0
LINE
  5
ED
  8
1
  6
CONTINUOUS
 62
     7
 10
436.9924141757
 20
319.8111589651
 30
0.0
 11
445.4924141757
 21
314.9036809651
 31
0.0
  0
LINE
  5
EE
  8
1
  6
CONTINUOUS
 62
     7
 10
276.9924141757
 20
300.1812489651
 30
0.0
 11
268.4924141757
 21
305.0887269651
 31
0.0
  0
LINE
  5
EF
  8
1
  6
CONTINUOUS
 62
     7
 10
518.9424141757
 20
50.2962039651
 30
0.0
 11
518.9424141757
 21
72.4962039651
 31
0.0
  0
CIRCLE
  5
F0
  8
1
  6
CONTINUOUS
 62
     7
 10
436.9924141757
 20
309.9962039651
 30
0.0
 40
7.65
  0
LINE
  5
F1
  8
1
  6
CONTINUOUS
 62
     7
 10
445.4924141757
 20
314.9036809651
 30
0.0
 11
445.4924141757
 21
305.0887269651
 31
0.0
  0
LINE
  5
F2
  8
1
  6
CONTINUOUS
 62
     7
 10
436.9924141757
 20
300.1812489651
 30
0.0
 11
428.4924141757
 21
305.0887269651
 31
0.0
  0
LINE
  5
F3
  8
1
  6
CONTINUOUS
 62
     7
 10
492.7424141757
 20
50.2962039651
 30
0.0
 11
492.7424141757
 21
72.4962039651
 31
0.0
  0
ARC
  5
F4
  8
1
  6
CONTINUOUS
 62
     7
 10
518.4424141757
 20
50.2962039651
 30
0.0
 40
0.5
 50
270.0
 51
0.0
  0
LINE
  5
F5
  8
1
  6
CONTINUOUS
 62
     7
 10
261.9924141757
 20
324.2462039651
 30
0.0
 11
451.9924141757
 21
324.2462039651
 31
0.0
  0
LINE
  5
F6
  8
1
  6
CONTINUOUS
 62
     7
 10
428.4924141757
 20
305.0887269651
 30
0.0
 11
428.4924141757
 21
314.9036809651
 31
0.0
  0
LINE
  5
F7
  8
1
  6
CONTINUOUS
 62
     7
 10
445.4924141757
 20
305.0887269651
 30
0.0
 11
436.9924141757
 21
300.1812489651
 31
0.0
  0
LINE
  5
F8
  8
1
  6
CONTINUOUS
 62
     7
 10
268.4924141757
 20
314.9036809651
 30
0.0
 11
276.9924141757
 21
319.8111589651
 31
0.0
  0
INSERT
  5
FA
  8
0
 62
     7
  2
D_FRAME_DRAWING_21
 10
0.0
 20
0.0
 30
0.0
  0
LINE
  5
144
  8
1
  6
CONTINUOUS
 62
     7
 10
445.4924141757
 20
257.0962039651
 30
0.0
 11
445.4924141757
 21
249.0962039651
 31
0.0
  0
LINE
  5
145
  8
1
  6
CONTINUOUS
 62
     7
 10
276.9924141757
 20
29.8962039651
 30
0.0
 11
276.9924141757
 21
45.8962039651
 31
0.0
  0
LINE
  5
146
  8
1
  6
CONTINUOUS
 62
     7
 10
268.4924141757
 20
45.8962039651
 30
0.0
 11
268.4924141757
 21
29.8962039651
 31
0.0
  0
LINE
  5
147
  8
1
  6
CONTINUOUS
 62
     7
 10
285.4924141757
 20
37.8962039651
 30
0.0
 11
268.4924141757
 21
37.8962039651
 31
0.0
  0
LINE
  5
148
  8
1
  6
CONTINUOUS
 62
     7
 10
268.4924141757
 20
29.8962039651
 30
0.0
 11
285.4924141757
 21
29.8962039651
 31
0.0
  0
ARC
  5
149
  8
1
  6
CONTINUOUS
 62
     7
 10
263.9924141757
 20
224.4962039651
 30
0.0
 40
2.0
 50
180.0
 51
270.0
  0
LINE
  5
14A
  8
1
  6
CONTINUOUS
 62
     7
 10
261.9924141757
 20
224.4962039651
 30
0.0
 11
261.9924141757
 21
247.4962039651
 31
0.0
  0
LINE
  5
14B
  8
1
  6
CONTINUOUS
 62
     7
 10
263.9924141757
 20
222.4962039651
 30
0.0
 11
342.7156431757
 21
222.4962039651
 31
0.0
  0
LINE
  5
14C
  8
1
  6
CONTINUOUS
 62
     7
 10
371.2691851757
 20
72.4962039651
 30
0.0
 11
449.9924141757
 21
72.4962039651
 31
0.0
  0
LINE
  5
14D
  8
1
  6
CONTINUOUS
 62
     7
 10
451.9924141757
 20
224.4962039651
 30
0.0
 11
451.9924141757
 21
247.4962039651
 31
0.0
  0
LINE
  5
14E
  8
1
  6
CONTINUOUS
 62
     7
 10
451.9924141757
 20
47.4962039651
 30
0.0
 11
451.9924141757
 21
70.4962039651
 31
0.0
  0
ARC
  5
14F
  8
1
  6
CONTINUOUS
 62
     7
 10
449.9924141757
 20
224.4962039651
 30
0.0
 40
2.0
 50
270.0
 51
0.0
  0
LINE
  5
150
  8
1
  6
CONTINUOUS
 62
     7
 10
263.9924141757
 20
72.4962039651
 30
0.0
 11
342.7156431757
 21
72.4962039651
 31
0.0
  0
LINE
  5
151
  8
1
  6
CONTINUOUS
 62
     7
 10
359.9924141757
 20
69.9962039651
 30
0.0
 11
371.2691851757
 21
72.4962039651
 31
0.0
  0
ARC
  5
152
  8
1
  6
CONTINUOUS
 62
     7
 10
263.9924141757
 20
70.4962039651
 30
0.0
 40
2.0
 50
90.0
 51
180.0
  0
LINE
  5
153
  8
1
  6
CONTINUOUS
 62
     7
 10
261.9924141757
 20
47.4962039651
 30
0.0
 11
261.9924141757
 21
70.4962039651
 31
0.0
  0
ARC
  5
154
  8
1
  6
CONTINUOUS
 62
     7
 10
449.9924141757
 20
70.4962039651
 30
0.0
 40
2.0
 50
0.0
 51
90.0
  0
LINE
  5
155
  8
1
  6
CONTINUOUS
 62
     7
 10
261.9924141757
 20
47.4962039651
 30
0.0
 11
451.9924141757
 21
47.4962039651
 31
0.0
  0
LINE
  5
156
  8
1
  6
CONTINUOUS
 62
     7
 10
371.2691851757
 20
222.4962039651
 30
0.0
 11
359.9924141757
 21
224.9962039651
 31
0.0
  0
LINE
  5
157
  8
1
  6
CONTINUOUS
 62
     7
 10
359.9924141757
 20
224.9962039651
 30
0.0
 11
353.9924141757
 21
224.9962039651
 31
0.0
  0
LINE
  5
158
  8
1
  6
CONTINUOUS
 62
     7
 10
353.9924141757
 20
224.9962039651
 30
0.0
 11
342.7156431757
 21
222.4962039651
 31
0.0
  0
LINE
  5
159
  8
1
  6
CONTINUOUS
 62
     7
 10
261.9924141757
 20
247.4962039651
 30
0.0
 11
451.9924141757
 21
247.4962039651
 31
0.0
  0
LINE
  5
15A
  8
1
  6
CONTINUOUS
 62
     7
 10
285.4924141757
 20
29.8962039651
 30
0.0
 11
285.4924141757
 21
45.8962039651
 31
0.0
  0
LINE
  5
15B
  8
1
  6
CONTINUOUS
 62
     7
 10
342.7156431757
 20
72.4962039651
 30
0.0
 11
353.9924141757
 21
69.9962039651
 31
0.0
  0
LINE
  5
15C
  8
1
  6
CONTINUOUS
 62
     7
 10
353.9924141757
 20
69.9962039651
 30
0.0
 11
359.9924141757
 21
69.9962039651
 31
0.0
  0
LINE
  5
15D
  8
1
  6
CONTINUOUS
 62
     7
 10
371.2691851757
 20
222.4962039651
 30
0.0
 11
449.9924141757
 21
222.4962039651
 31
0.0
  0
TEXT
  5
15E
  8
1
  6
CONTINUOUS
 62
     7
 10
341.3545893341253
 20
-7.122826727272727
 30
0.0
 40
6.0
  1
ＳＧＰＡ－１５
 41
0.873966
  0
ENDSEC
  0
EOF
