  0
SECTION
  2
HEADER
  9
$ACADVER
  1
AC1006
  9
$DWGCODEPAGE
  3
ansi_932
  9
$INSBASE
 10
0.0
 20
0.0
 30
0.0
  9
$EXTMIN
 10
0.0
 20
-29.102712
  9
$EXTMAX
 10
1413.3134858451
 20
269.6730537554
  9
$LIMMIN
 10
0.0
 20
0.0
  9
$LIMMAX
 10
12.0
 20
9.0
  9
$ORTHOMODE
 70
     0
  9
$REGENMODE
 70
     1
  9
$FILLMODE
 70
     1
  9
$QTEXTMODE
 70
     0
  9
$MIRRTEXT
 70
     1
  9
$DRAGMODE
 70
     2
  9
$LTSCALE
 40
1.0
  9
$OSMODE
 70
    37
  9
$ATTMODE
 70
     1
  9
$TEXTSIZE
 40
0.2
  9
$TRACEWID
 40
0.05
  9
$TEXTSTYLE
  7
STANDARD
  9
$CLAYER
  8
0
  9
$CELTYPE
  6
BYLAYER
  9
$CECOLOR
 62
   256
  9
$DIMSCALE
 40
1.0
  9
$DIMASZ
 40
2.4
  9
$DIMEXO
 40
0.0625
  9
$DIMDLI
 40
0.38
  9
$DIMRND
 40
0.0
  9
$DIMDLE
 40
0.0
  9
$DIMEXE
 40
1.2
  9
$DIMTP
 40
0.0
  9
$DIMTM
 40
0.0
  9
$DIMTXT
 40
8.0
  9
$DIMCEN
 40
0.09
  9
$DIMTSZ
 40
0.0
  9
$DIMTOL
 70
     0
  9
$DIMLIM
 70
     0
  9
$DIMTIH
 70
     1
  9
$DIMTOH
 70
     1
  9
$DIMSE1
 70
     0
  9
$DIMSE2
 70
     0
  9
$DIMTAD
 70
     1
  9
$DIMZIN
 70
     0
  9
$DIMBLK
  1

  9
$DIMASO
 70
     1
  9
$DIMSHO
 70
     1
  9
$DIMPOST
  1

  9
$DIMAPOST
  1

  9
$DIMALT
 70
     0
  9
$DIMALTD
 70
     2
  9
$DIMALTF
 40
25.4
  9
$DIMLFAC
 40
1.0
  9
$DIMTOFL
 70
     0
  9
$DIMTVP
 40
0.0
  9
$DIMTIX
 70
     0
  9
$DIMSOXD
 70
     0
  9
$DIMSAH
 70
     0
  9
$DIMBLK1
  1

  9
$DIMBLK2
  1

  9
$LUNITS
 70
     2
  9
$LUPREC
 70
     4
  9
$SKETCHINC
 40
0.1
  9
$FILLETRAD
 40
0.5
  9
$AUNITS
 70
     0
  9
$AUPREC
 70
     0
  9
$MENU
  1
.
  9
$ELEVATION
 40
0.0
  9
$THICKNESS
 40
0.0
  9
$LIMCHECK
 70
     0
  9
$CHAMFERA
 40
0.0
  9
$CHAMFERB
 40
0.0
  9
$SKPOLY
 70
     0
  9
$TDCREATE
 40
2460587.372248322
  9
$TDUPDATE
 40
2460587.37224868
  9
$TDINDWG
 40
0.0000000116
  9
$TDUSRTIMER
 40
0.0000000116
  9
$USRTIMER
 70
     1
  9
$ANGBASE
 50
0.0
  9
$ANGDIR
 70
     0
  9
$PDMODE
 70
     0
  9
$PDSIZE
 40
0.0
  9
$PLINEWID
 40
0.0
  9
$COORDS
 70
     1
  9
$SPLFRAME
 70
     0
  9
$SPLINETYPE
 70
     6
  9
$SPLINESEGS
 70
     8
  9
$ATTDIA
 70
     0
  9
$ATTREQ
 70
     1
  9
$HANDLING
 70
     1
  9
$HANDSEED
  5
1EE
  9
$SURFTAB1
 70
     6
  9
$SURFTAB2
 70
     6
  9
$SURFTYPE
 70
     6
  9
$SURFU
 70
     6
  9
$SURFV
 70
     6
  9
$UCSNAME
  2

  9
$UCSORG
 10
0.0
 20
0.0
 30
0.0
  9
$UCSXDIR
 10
1.0
 20
0.0
 30
0.0
  9
$UCSYDIR
 10
0.0
 20
1.0
 30
0.0
  9
$USERI1
 70
     0
  9
$USERI2
 70
     0
  9
$USERI3
 70
     0
  9
$USERI4
 70
     0
  9
$USERI5
 70
     0
  9
$USERR1
 40
0.0
  9
$USERR2
 40
0.0
  9
$USERR3
 40
0.0
  9
$USERR4
 40
0.0
  9
$USERR5
 40
0.0
  9
$WORLDVIEW
 70
     1
  0
ENDSEC
  0
SECTION
  2
TABLES
  0
TABLE
  2
VPORT
 70
     1
  0
VPORT
  2
*ACTIVE
 70
     0
 10
0.0
 20
0.0
 11
1.0
 21
1.0
 12
706.65674292255
 22
120.2851708777
 13
0.0
 23
0.0
 14
0.5
 24
0.5
 15
0.5
 25
0.5
 16
0.0
 26
0.0
 36
1.0
 17
0.0
 27
0.0
 37
0.0
 40
298.7757657554
 41
1.6
 42
50.0
 43
0.0
 44
0.0
 50
0.0
 51
0.0
 71
     0
 72
   100
 73
     1
 74
     3
 75
     0
 76
     0
 77
     0
 78
     0
  0
ENDTAB
  0
TABLE
  2
LTYPE
 70
     1
  0
LTYPE
  2
CONTINUOUS
 70
     0
  3
Solid line
 72
    65
 73
     0
 40
0.0
  0
ENDTAB
  0
TABLE
  2
LAYER
 70
     1
  0
LAYER
  2
0
 70
     0
 62
     7
  6
CONTINUOUS
  0
ENDTAB
  0
TABLE
  2
STYLE
 70
     2
  0
STYLE
  2
STANDARD
 70
     0
 40
0.0
 41
1.0
 50
0.0
 71
     0
 42
0.2
  3
txt
  4

  0
STYLE
  2
ＭＳ_ゴシック
 70
     0
 40
0.0
 41
1.0
 50
0.0
 71
     0
 42
0.2
  3
ＭＳ ゴシック.shx
  4

  0
ENDTAB
  0
TABLE
  2
VIEW
 70
     0
  0
ENDTAB
  0
TABLE
  2
UCS
 70
     0
  0
ENDTAB
  0
ENDSEC
  0
SECTION
  2
BLOCKS
  0
BLOCK
  8
0
  2
D_FRAME_DRAWING_21
 70
     0
 10
0.0
 20
0.0
 30
0.0
  0
LINE
  5
16D
  8
0
  6
CONTINUOUS
 62
     7
 10
0.0
 20
0.0
 30
0.0
 11
420.0
 21
0.0
 31
0.0
  0
LINE
  5
16E
  8
0
  6
CONTINUOUS
 62
     7
 10
420.0
 20
0.0
 30
0.0
 11
420.0
 21
297.0
 31
0.0
  0
LINE
  5
16F
  8
0
  6
CONTINUOUS
 62
     7
 10
420.0
 20
297.0
 30
0.0
 11
0.0
 21
297.0
 31
0.0
  0
LINE
  5
170
  8
0
  6
CONTINUOUS
 62
     7
 10
0.0
 20
297.0
 30
0.0
 11
0.0
 21
0.0
 31
0.0
  0
LINE
  5
171
  8
0
  6
CONTINUOUS
 62
     7
 10
10.0
 20
10.0
 30
0.0
 11
409.9999999999999
 21
10.0
 31
0.0
  0
LINE
  5
172
  8
0
  6
CONTINUOUS
 62
     7
 10
409.9999999999999
 20
10.0
 30
0.0
 11
409.9999999999999
 21
286.9999999999999
 31
0.0
  0
LINE
  5
173
  8
0
  6
CONTINUOUS
 62
     7
 10
409.9999999999999
 20
286.9999999999999
 30
0.0
 11
10.00000000000006
 21
286.9999999999999
 31
0.0
  0
LINE
  5
174
  8
0
  6
CONTINUOUS
 62
     7
 10
10.0
 20
286.9999999999999
 30
0.0
 11
10.0
 21
10.00000000000001
 31
0.0
  0
LINE
  5
175
  8
0
  6
CONTINUOUS
 62
     7
 10
210.0
 20
0.0
 30
0.0
 11
210.0
 21
10.0
 31
0.0
  0
LINE
  5
176
  8
0
  6
CONTINUOUS
 62
     7
 10
420.0
 20
148.5
 30
0.0
 11
409.9999999999999
 21
148.5
 31
0.0
  0
LINE
  5
177
  8
0
  6
CONTINUOUS
 62
     7
 10
210.0
 20
297.0
 30
0.0
 11
210.0
 21
286.9999999999999
 31
0.0
  0
LINE
  5
178
  8
0
  6
CONTINUOUS
 62
     7
 10
0.0
 20
148.5
 30
0.0
 11
10.0
 21
148.5
 31
0.0
  0
POLYLINE
  5
179
  8
0
  6
CONTINUOUS
 62
     7
 66
     1
 10
0.0
 20
0.0
 30
0.0
 70
     1
  0
VERTEX
  5
1BF
  8
0
  6
CONTINUOUS
 62
     7
 10
11.0
 20
152.5
 30
0.0
  0
VERTEX
  5
1C0
  8
0
  6
CONTINUOUS
 62
     7
 10
0.0
 20
148.5
 30
0.0
  0
VERTEX
  5
1C1
  8
0
  6
CONTINUOUS
 62
     7
 10
11.0
 20
144.5
 30
0.0
  0
VERTEX
  5
1C2
  8
0
  6
CONTINUOUS
 62
     7
 10
11.0
 20
152.5
 30
0.0
  0
SEQEND
  5
1EC
  8
0
  6
CONTINUOUS
 62
     7
  0
INSERT
  5
17A
  8
0
 62
     7
  2
*U2
 10
0.0
 20
0.0
 30
0.0
  0
POLYLINE
  5
17B
  8
0
  6
CONTINUOUS
 62
     7
 66
     1
 10
0.0
 20
0.0
 30
0.0
 70
     1
  0
VERTEX
  5
1C5
  8
0
  6
CONTINUOUS
 62
     7
 10
206.0
 20
11.0
 30
0.0
  0
VERTEX
  5
1C6
  8
0
  6
CONTINUOUS
 62
     7
 10
210.0
 20
0.0
 30
0.0
  0
VERTEX
  5
1C7
  8
0
  6
CONTINUOUS
 62
     7
 10
214.0
 20
11.0
 30
0.0
  0
VERTEX
  5
1C8
  8
0
  6
CONTINUOUS
 62
     7
 10
206.0
 20
11.0
 30
0.0
  0
SEQEND
  5
1ED
  8
0
  6
CONTINUOUS
 62
     7
  0
INSERT
  5
17C
  8
0
 62
     7
  2
*U3
 10
0.0
 20
0.0
 30
0.0
  0
LINE
  5
17D
  8
0
  6
CONTINUOUS
 62
     7
 10
367.5
 20
286.9999999999999
 30
0.0
 11
367.5
 21
292.0
 31
0.0
  0
TEXT
  5
17E
  8
0
  6
CONTINUOUS
 62
     7
 10
391.6340909090909
 20
291.8324293485057
 30
0.0
 40
3.5
  1
A
 50
270.0
  0
LINE
  5
17F
  8
0
  6
CONTINUOUS
 62
     7
 10
367.5
 20
10.0
 30
0.0
 11
367.5
 21
5.0
 31
0.0
  0
TEXT
  5
180
  8
0
  6
CONTINUOUS
 62
     7
 10
392.9868888333125
 20
4.602272727272727
 30
0.0
 40
3.5
  1
A
  0
LINE
  5
181
  8
0
  6
CONTINUOUS
 62
     7
 10
315.0
 20
286.9999999999999
 30
0.0
 11
315.0
 21
292.0
 31
0.0
  0
TEXT
  5
182
  8
0
  6
CONTINUOUS
 62
     7
 10
339.1340909090909
 20
291.9745607727899
 30
0.0
 40
3.5
  1
B
 50
270.0
  0
LINE
  5
183
  8
0
  6
CONTINUOUS
 62
     7
 10
315.0
 20
10.0
 30
0.0
 11
315.0
 21
5.0
 31
0.0
  0
TEXT
  5
184
  8
0
  6
CONTINUOUS
 62
     7
 10
340.3447574090284
 20
4.602272727272727
 30
0.0
 40
3.5
  1
B
  0
LINE
  5
185
  8
0
  6
CONTINUOUS
 62
     7
 10
262.5
 20
286.9999999999999
 30
0.0
 11
262.5
 21
292.0
 31
0.0
  0
TEXT
  5
186
  8
0
  6
CONTINUOUS
 62
     7
 10
286.6327779167187
 20
291.9399305989747
 30
0.0
 40
3.5
  1
C
 50
270.0
  0
LINE
  5
187
  8
0
  6
CONTINUOUS
 62
     7
 10
262.5
 20
10.0
 30
0.0
 11
262.5
 21
5.0
 31
0.0
  0
TEXT
  5
188
  8
0
  6
CONTINUOUS
 62
     7
 10
287.8793875828435
 20
4.600959734900587
 30
0.0
 40
3.5
  1
C
  0
LINE
  5
189
  8
0
  6
CONTINUOUS
 62
     7
 10
210.0
 20
286.9999999999999
 30
0.0
 11
210.0
 21
292.0
 31
0.0
  0
TEXT
  5
18A
  8
0
  6
CONTINUOUS
 62
     7
 10
234.1340909090909
 20
291.9745607727898
 30
0.0
 40
3.5
  1
D
 50
270.0
  0
LINE
  5
18B
  8
0
  6
CONTINUOUS
 62
     7
 10
157.5
 20
286.9999999999999
 30
0.0
 11
157.5
 21
292.0
 31
0.0
  0
TEXT
  5
18C
  8
0
  6
CONTINUOUS
 62
     7
 10
181.6327779167188
 20
292.027463423784
 30
0.0
 40
3.5
  1
E
 50
270.0
  0
LINE
  5
18D
  8
0
  6
CONTINUOUS
 62
     7
 10
157.5
 20
10.0
 30
0.0
 11
157.5
 21
5.0
 31
0.0
  0
LINE
  5
18E
  8
0
  6
CONTINUOUS
 62
     7
 10
105.0
 20
286.9999999999999
 30
0.0
 11
105.0
 21
292.0
 31
0.0
  0
TEXT
  5
18F
  8
0
  6
CONTINUOUS
 62
     7
 10
129.1327779167188
 20
291.9924502938602
 30
0.0
 40
3.5
  1
F
 50
270.0
  0
LINE
  5
190
  8
0
  6
CONTINUOUS
 62
     7
 10
105.0
 20
10.0
 30
0.0
 11
105.0
 21
5.0
 31
0.0
  0
TEXT
  5
191
  8
0
  6
CONTINUOUS
 62
     7
 10
130.326867887958
 20
4.600959734900587
 30
0.0
 40
3.5
  1
F
  0
LINE
  5
192
  8
0
  6
CONTINUOUS
 62
     7
 10
52.50000000000004
 20
286.9999999999999
 30
0.0
 11
52.50000000000004
 21
292.0
 31
0.0
  0
TEXT
  5
193
  8
0
  6
CONTINUOUS
 62
     7
 10
76.6327779167188
 20
291.9399305989746
 30
0.0
 40
3.5
  1
G
 50
270.0
  0
LINE
  5
194
  8
0
  6
CONTINUOUS
 62
     7
 10
52.50000000000004
 20
10.0
 30
0.0
 11
52.50000000000004
 21
5.0
 31
0.0
  0
TEXT
  5
195
  8
0
  6
CONTINUOUS
 62
     7
 10
77.8793875828436
 20
4.600959734900587
 30
0.0
 40
3.5
  1
G
  0
TEXT
  5
196
  8
0
  6
CONTINUOUS
 62
     7
 10
24.13277791671879
 20
291.9749437288983
 30
0.0
 40
3.5
  1
H
 50
270.0
  0
TEXT
  5
197
  8
0
  6
CONTINUOUS
 62
     7
 10
25.34437445291988
 20
4.600959734900587
 30
0.0
 40
3.5
  1
H
  0
LINE
  5
198
  8
0
  6
CONTINUOUS
 62
     7
 10
409.9999999999999
 20
74.25
 30
0.0
 11
414.9999999999999
 21
74.25
 31
0.0
  0
TEXT
  5
199
  8
0
  6
CONTINUOUS
 62
     7
 10
412.9326059772414
 20
35.00777791671877
 30
0.0
 40
3.5
  1
1
  0
LINE
  5
19A
  8
0
  6
CONTINUOUS
 62
     7
 10
10.0
 20
74.25
 30
0.0
 11
5.0
 21
74.25
 31
0.0
  0
TEXT
  5
19B
  8
0
  6
CONTINUOUS
 62
     7
 10
4.600959734900584
 20
38.26171220457671
 30
0.0
 40
3.5
  1
1
 50
270.0
  0
LINE
  5
19C
  8
0
  6
CONTINUOUS
 62
     7
 10
409.9999999999999
 20
148.5
 30
0.0
 11
414.9999999999999
 21
148.5
 31
0.0
  0
TEXT
  5
19D
  8
0
  6
CONTINUOUS
 62
     7
 10
413.163692634738
 20
109.2577779167188
 30
0.0
 40
3.5
  1
2
  0
LINE
  5
19E
  8
0
  6
CONTINUOUS
 62
     7
 10
10.0
 20
148.5
 30
0.0
 11
5.0
 21
148.5
 31
0.0
  0
TEXT
  5
19F
  8
0
  6
CONTINUOUS
 62
     7
 10
4.600959734900599
 20
112.2806255470802
 30
0.0
 40
3.5
  1
2
 50
270.0
  0
LINE
  5
1A0
  8
0
  6
CONTINUOUS
 62
     7
 10
409.9999999999999
 20
222.75
 30
0.0
 11
414.9999999999999
 21
222.75
 31
0.0
  0
TEXT
  5
1A1
  8
0
  6
CONTINUOUS
 62
     7
 10
413.1811991996998
 20
183.5077779167188
 30
0.0
 40
3.5
  1
3
  0
LINE
  5
1A2
  8
0
  6
CONTINUOUS
 62
     7
 10
10.0
 20
222.75
 30
0.0
 11
5.0
 21
222.75
 31
0.0
  0
TEXT
  5
1A3
  8
0
  6
CONTINUOUS
 62
     7
 10
4.600959734900584
 20
186.5131189821183
 30
0.0
 40
3.5
  1
3
 50
270.0
  0
TEXT
  5
1A4
  8
0
  6
CONTINUOUS
 62
     7
 10
413.2351413029886
 20
257.7590909090909
 30
0.0
 40
3.5
  1
4
  0
TEXT
  5
1A5
  8
0
  6
CONTINUOUS
 62
     7
 10
4.60227272727272
 20
260.7091768788295
 30
0.0
 40
3.5
  1
4
 50
270.0
  0
LINE
  5
1A6
  8
0
  6
CONTINUOUS
 62
     7
 10
220.0
 20
10.0
 30
0.0
 11
220.0
 21
7.0
 31
0.0
  0
LINE
  5
1A7
  8
0
  6
CONTINUOUS
 62
     7
 10
200.0
 20
10.0
 30
0.0
 11
200.0
 21
7.0
 31
0.0
  0
LINE
  5
1A8
  8
0
  6
CONTINUOUS
 62
     7
 10
230.0
 20
10.0
 30
0.0
 11
230.0
 21
7.0
 31
0.0
  0
LINE
  5
1A9
  8
0
  6
CONTINUOUS
 62
     7
 10
190.0
 20
10.0
 30
0.0
 11
190.0
 21
7.0
 31
0.0
  0
LINE
  5
1AA
  8
0
  6
CONTINUOUS
 62
     7
 10
240.0
 20
10.0
 30
0.0
 11
240.0
 21
7.0
 31
0.0
  0
LINE
  5
1AB
  8
0
  6
CONTINUOUS
 62
     7
 10
180.0
 20
10.0
 30
0.0
 11
180.0
 21
7.0
 31
0.0
  0
LINE
  5
1AC
  8
0
  6
CONTINUOUS
 62
     7
 10
250.0
 20
10.0
 30
0.0
 11
250.0
 21
7.0
 31
0.0
  0
LINE
  5
1AD
  8
0
  6
CONTINUOUS
 62
     7
 10
170.0
 20
10.0
 30
0.0
 11
170.0
 21
7.0
 31
0.0
  0
LINE
  5
1AE
  8
0
  6
CONTINUOUS
 62
     7
 10
260.0
 20
10.0
 30
0.0
 11
260.0
 21
5.0
 31
0.0
  0
LINE
  5
1AF
  8
0
  6
CONTINUOUS
 62
     7
 10
160.0
 20
10.0
 30
0.0
 11
160.0
 21
5.0
 31
0.0
  0
LINE
  5
1B0
  8
0
  6
CONTINUOUS
 62
     7
 10
260.0
 20
10.0
 30
0.0
 11
160.0
 21
10.0
 31
0.0
  0
LINE
  5
1B1
  8
0
  6
CONTINUOUS
 62
     7
 10
260.0
 20
7.0
 30
0.0
 11
160.0
 21
7.0
 31
0.0
  0
INSERT
  5
1B2
  8
0
 62
     7
  2
*U4
 10
0.0
 20
0.0
 30
0.0
  0
INSERT
  5
1B3
  8
0
 62
     7
  2
*U5
 10
0.0
 20
0.0
 30
0.0
  0
INSERT
  5
1B4
  8
0
 62
     7
  2
*U6
 10
0.0
 20
0.0
 30
0.0
  0
INSERT
  5
1B5
  8
0
 62
     7
  2
*U7
 10
0.0
 20
0.0
 30
0.0
  0
ENDBLK
  8
0
  0
BLOCK
  8
0
  2
*U2
 70
     1
 10
0.0
 20
0.0
 30
0.0
  0
SOLID
  5
1C4
  8
0
  6
CONTINUOUS
 62
     7
 10
11.0
 20
144.5
 30
0.0
 11
6.999999999999999
 21
148.5
 31
0.0
 12
11.0
 22
152.5
 32
0.0
 13
11.0
 23
152.5
 33
0.0
  0
ENDBLK
  8
0
  0
BLOCK
  8
0
  2
*U3
 70
     1
 10
0.0
 20
0.0
 30
0.0
  0
SOLID
  5
1CA
  8
0
  6
CONTINUOUS
 62
     7
 10
210.0
 20
6.999999999999999
 30
0.0
 11
206.0
 21
11.0
 31
0.0
 12
210.0
 22
11.0
 32
0.0
 13
210.0
 23
11.0
 33
0.0
  0
SOLID
  5
1CB
  8
0
  6
CONTINUOUS
 62
     7
 10
210.0
 20
6.999999999999999
 30
0.0
 11
210.0
 21
11.0
 31
0.0
 12
214.0
 22
11.0
 32
0.0
 13
214.0
 23
11.0
 33
0.0
  0
ENDBLK
  8
0
  0
BLOCK
  8
0
  2
*U4
 70
     1
 10
0.0
 20
0.0
 30
0.0
  0
SOLID
  5
1CD
  8
0
  6
CONTINUOUS
 62
     7
 10
0.0
 20
0.0
 30
0.0
 11
0.0
 21
10.0
 31
0.0
 12
2.0
 22
0.0
 32
0.0
 13
2.0
 23
0.0
 33
0.0
  0
SOLID
  5
1CE
  8
0
  6
CONTINUOUS
 62
     7
 10
2.0
 20
0.0
 30
0.0
 11
0.0
 21
10.0
 31
0.0
 12
2.0
 22
10.0
 32
0.0
 13
2.0
 23
10.0
 33
0.0
  0
SOLID
  5
1CF
  8
0
  6
CONTINUOUS
 62
     7
 10
2.0
 20
0.0
 30
0.0
 11
2.0
 21
2.0
 31
0.0
 12
10.0
 22
0.0
 32
0.0
 13
10.0
 23
0.0
 33
0.0
  0
SOLID
  5
1D0
  8
0
  6
CONTINUOUS
 62
     7
 10
10.0
 20
0.0
 30
0.0
 11
2.0
 21
2.0
 31
0.0
 12
10.0
 22
2.0
 32
0.0
 13
10.0
 23
2.0
 33
0.0
  0
ENDBLK
  8
0
  0
BLOCK
  8
0
  2
*U5
 70
     1
 10
0.0
 20
0.0
 30
0.0
  0
SOLID
  5
1D2
  8
0
  6
CONTINUOUS
 62
     7
 10
409.9999999999999
 20
0.0
 30
0.0
 11
409.9999999999999
 21
2.0
 31
0.0
 12
418.0
 22
0.0
 32
0.0
 13
418.0
 23
0.0
 33
0.0
  0
SOLID
  5
1D3
  8
0
  6
CONTINUOUS
 62
     7
 10
418.0
 20
0.0
 30
0.0
 11
409.9999999999999
 21
2.0
 31
0.0
 12
418.0
 22
2.0
 32
0.0
 13
418.0
 23
2.0
 33
0.0
  0
SOLID
  5
1D4
  8
0
  6
CONTINUOUS
 62
     7
 10
418.0
 20
0.0
 30
0.0
 11
418.0
 21
10.0
 31
0.0
 12
420.0
 22
0.0
 32
0.0
 13
420.0
 23
0.0
 33
0.0
  0
SOLID
  5
1D5
  8
0
  6
CONTINUOUS
 62
     7
 10
420.0
 20
0.0
 30
0.0
 11
418.0
 21
10.0
 31
0.0
 12
420.0
 22
10.0
 32
0.0
 13
420.0
 23
10.0
 33
0.0
  0
ENDBLK
  8
0
  0
BLOCK
  8
0
  2
*U6
 70
     1
 10
0.0
 20
0.0
 30
0.0
  0
SOLID
  5
1D7
  8
0
  6
CONTINUOUS
 62
     7
 10
409.9999999999999
 20
295.0
 30
0.0
 11
409.9999999999999
 21
297.0
 31
0.0
 12
418.0
 22
295.0
 32
0.0
 13
418.0
 23
295.0
 33
0.0
  0
SOLID
  5
1D8
  8
0
  6
CONTINUOUS
 62
     7
 10
418.0
 20
295.0
 30
0.0
 11
409.9999999999999
 21
297.0
 31
0.0
 12
418.0
 22
297.0
 32
0.0
 13
418.0
 23
297.0
 33
0.0
  0
SOLID
  5
1D9
  8
0
  6
CONTINUOUS
 62
     7
 10
418.0
 20
286.9999999999999
 30
0.0
 11
418.0
 21
297.0
 31
0.0
 12
420.0
 22
286.9999999999999
 32
0.0
 13
420.0
 23
286.9999999999999
 33
0.0
  0
SOLID
  5
1DA
  8
0
  6
CONTINUOUS
 62
     7
 10
420.0
 20
286.9999999999999
 30
0.0
 11
418.0
 21
297.0
 31
0.0
 12
420.0
 22
297.0
 32
0.0
 13
420.0
 23
297.0
 33
0.0
  0
ENDBLK
  8
0
  0
BLOCK
  8
0
  2
*U7
 70
     1
 10
0.0
 20
0.0
 30
0.0
  0
SOLID
  5
1DC
  8
0
  6
CONTINUOUS
 62
     7
 10
0.0
 20
286.9999999999999
 30
0.0
 11
0.0
 21
297.0
 31
0.0
 12
2.0
 22
286.9999999999999
 32
0.0
 13
2.0
 23
286.9999999999999
 33
0.0
  0
SOLID
  5
1DD
  8
0
  6
CONTINUOUS
 62
     7
 10
2.0
 20
286.9999999999999
 30
0.0
 11
0.0
 21
297.0
 31
0.0
 12
2.0
 22
297.0
 32
0.0
 13
2.0
 23
297.0
 33
0.0
  0
SOLID
  5
1DE
  8
0
  6
CONTINUOUS
 62
     7
 10
2.0
 20
295.0
 30
0.0
 11
2.0
 21
297.0
 31
0.0
 12
10.0
 22
295.0
 32
0.0
 13
10.0
 23
295.0
 33
0.0
  0
SOLID
  5
1DF
  8
0
  6
CONTINUOUS
 62
     7
 10
10.0
 20
295.0
 30
0.0
 11
2.0
 21
297.0
 31
0.0
 12
10.0
 22
297.0
 32
0.0
 13
10.0
 23
297.0
 33
0.0
  0
ENDBLK
  8
0
  0
ENDSEC
  0
SECTION
  2
ENTITIES
  0
LINE
  5
6F
  8
0
  6
CONTINUOUS
 62
     7
 10
1304.0634858451
 20
267.2730537554
 30
0.0
 11
1304.0634858451
 21
259.2730537554
 31
0.0
  0
LINE
  5
70
  8
0
  6
CONTINUOUS
 62
     7
 10
1135.5634858451
 20
267.2730537554
 30
0.0
 11
1152.5634858451
 21
267.2730537554
 31
0.0
  0
LINE
  5
71
  8
0
  6
CONTINUOUS
 62
     7
 10
1152.5634858451
 20
267.2730537554
 30
0.0
 11
1152.5634858451
 21
259.2730537554
 31
0.0
  0
LINE
  5
72
  8
0
  6
CONTINUOUS
 62
     7
 10
1383.7485308451
 20
267.2730537554
 30
0.0
 11
1403.3784408451
 21
267.2730537554
 31
0.0
  0
LINE
  5
73
  8
0
  6
CONTINUOUS
 62
     7
 10
1295.5634858451
 20
267.2730537554
 30
0.0
 11
1312.5634858451
 21
267.2730537554
 31
0.0
  0
LINE
  5
74
  8
0
  6
CONTINUOUS
 62
     7
 10
1383.7485308451
 20
267.2730537554
 30
0.0
 11
1383.7485308451
 21
259.2730537554
 31
0.0
  0
LINE
  5
75
  8
0
  6
CONTINUOUS
 62
     7
 10
1144.0634858451
 20
267.2730537554
 30
0.0
 11
1144.0634858451
 21
259.2730537554
 31
0.0
  0
LINE
  5
76
  8
0
  6
CONTINUOUS
 62
     7
 10
1388.6560088451
 20
267.2730537554
 30
0.0
 11
1388.6560088451
 21
259.2730537554
 31
0.0
  0
LINE
  5
77
  8
0
  6
CONTINUOUS
 62
     7
 10
1398.4709628451
 20
267.2730537554
 30
0.0
 11
1398.4709628451
 21
259.2730537554
 31
0.0
  0
LINE
  5
78
  8
0
  6
CONTINUOUS
 62
     7
 10
1135.5634858451
 20
267.2730537554
 30
0.0
 11
1135.5634858451
 21
259.2730537554
 31
0.0
  0
LINE
  5
79
  8
0
  6
CONTINUOUS
 62
     7
 10
1295.5634858451
 20
259.2730537554
 30
0.0
 11
1295.5634858451
 21
267.2730537554
 31
0.0
  0
LINE
  5
7A
  8
0
  6
CONTINUOUS
 62
     7
 10
1312.5634858451
 20
267.2730537554
 30
0.0
 11
1312.5634858451
 21
259.2730537554
 31
0.0
  0
LINE
  5
7B
  8
0
  6
CONTINUOUS
 62
     7
 10
1403.3784408451
 20
267.2730537554
 30
0.0
 11
1403.3784408451
 21
259.2730537554
 31
0.0
  0
POINT
  5
7C
  8
0
 62
     7
 10
1230.5634858451
 20
55.4258307554
 30
0.0
  0
TEXT
  5
7D
  8
0
  6
CONTINUOUS
 62
     7
 10
1208.388228811992
 20
-29.72998472727273
 30
0.0
 40
6.0
  1
ＳＧＰＡ－１５Ａ
 41
0.832611
  0
CIRCLE
  5
7E
  8
0
  6
CONTINUOUS
 62
     7
 10
1224.0634858451
 20
51.6730537554
 30
0.0
 40
4.0
  0
LINE
  5
7F
  8
0
  6
CONTINUOUS
 62
     7
 10
1239.1134858451
 20
41.1786077554
 30
0.0
 11
1245.9134858451
 21
41.1786077554
 31
0.0
  0
LINE
  5
80
  8
0
  6
CONTINUOUS
 62
     7
 10
1367.8134858451
 20
54.1730537554
 30
0.0
 11
1367.8134858451
 21
49.1730537554
 31
0.0
  0
LINE
  5
81
  8
0
  6
CONTINUOUS
 62
     7
 10
1369.3134858451
 20
47.6730537554
 30
0.0
 11
1370.3134858451
 21
47.6730537554
 31
0.0
  0
LINE
  5
82
  8
0
  6
CONTINUOUS
 62
     7
 10
1370.3134858451
 20
44.1675007554
 30
0.0
 11
1370.3134858451
 21
59.1786077554
 31
0.0
  0
LINE
  5
83
  8
0
  6
CONTINUOUS
 62
     7
 10
1413.3134858451
 20
58.1730537554
 30
0.0
 11
1407.8134858451
 21
58.1730537554
 31
0.0
  0
LINE
  5
84
  8
0
  6
CONTINUOUS
 62
     7
 10
1206.2634858451
 20
27.1730537554
 30
0.0
 11
1211.7634858451
 21
27.1730537554
 31
0.0
  0
LINE
  5
85
  8
0
  6
CONTINUOUS
 62
     7
 10
1206.2634858451
 20
40.1730537554
 30
0.0
 11
1206.2634858451
 21
27.1730537554
 31
0.0
  0
LINE
  5
86
  8
0
  6
CONTINUOUS
 62
     7
 10
1367.8134858451
 20
49.1730537554
 30
0.0
 11
1369.3134858451
 21
47.6730537554
 31
0.0
  0
LINE
  5
87
  8
0
  6
CONTINUOUS
 62
     7
 10
1370.3134858451
 20
55.6730537554
 30
0.0
 11
1369.3134858451
 21
55.6730537554
 31
0.0
  0
LINE
  5
88
  8
0
  6
CONTINUOUS
 62
     7
 10
1239.1134858451
 20
29.9202767554
 30
0.0
 11
1245.9134858451
 21
29.9202767554
 31
0.0
  0
LINE
  5
89
  8
0
  6
CONTINUOUS
 62
     7
 10
1376.8134858451
 20
59.1786077554
 30
0.0
 11
1370.3134858451
 21
59.1786077554
 31
0.0
  0
LINE
  5
8A
  8
0
  6
CONTINUOUS
 62
     7
 10
1376.8134858451
 20
47.9202767554
 30
0.0
 11
1370.3134858451
 21
47.9202767554
 31
0.0
  0
LINE
  5
8B
  8
0
  6
CONTINUOUS
 62
     7
 10
1245.9134858451
 20
26.1675007554
 30
0.0
 11
1245.9134858451
 21
41.1786077554
 31
0.0
  0
LINE
  5
8C
  8
0
  6
CONTINUOUS
 62
     7
 10
1239.1134858451
 20
26.1675007554
 30
0.0
 11
1245.9134858451
 21
26.1675007554
 31
0.0
  0
LINE
  5
8D
  8
0
  6
CONTINUOUS
 62
     7
 10
1376.8134858451
 20
55.4258307554
 30
0.0
 11
1370.3134858451
 21
55.4258307554
 31
0.0
  0
ARC
  5
8E
  8
0
  6
CONTINUOUS
 62
     7
 10
1248.5634858451
 20
61.0730537554
 30
0.0
 40
3.0
 50
270.0
 51
0.0
  0
LINE
  5
8F
  8
0
  6
CONTINUOUS
 62
     7
 10
1248.5634858451
 20
58.0730537554
 30
0.0
 11
1230.3912028451
 21
58.0730537554
 31
0.0
  0
LINE
  5
90
  8
0
  6
CONTINUOUS
 62
     7
 10
1239.1134858451
 20
37.4258307554
 30
0.0
 11
1245.9134858451
 21
37.4258307554
 31
0.0
  0
LINE
  5
91
  8
0
  6
CONTINUOUS
 62
     7
 10
1206.2634858451
 20
33.6730537554
 30
0.0
 11
1211.7634858451
 21
33.6730537554
 31
0.0
  0
LINE
  5
92
  8
0
  6
CONTINUOUS
 62
     7
 10
1413.3134858451
 20
45.1730537554
 30
0.0
 11
1413.3134858451
 21
58.1730537554
 31
0.0
  0
LINE
  5
93
  8
0
  6
CONTINUOUS
 62
     7
 10
1196.5634858451
 20
61.0730537554
 30
0.0
 11
1196.5634858451
 21
66.1730537554
 31
0.0
  0
CIRCLE
  5
94
  8
0
  6
CONTINUOUS
 62
     7
 10
1224.0634858451
 20
51.6730537554
 30
0.0
 40
7.5055536246
  0
LINE
  5
95
  8
0
  6
CONTINUOUS
 62
     7
 10
1369.3134858451
 20
55.6730537554
 30
0.0
 11
1367.8134858451
 21
54.1730537554
 31
0.0
  0
LINE
  5
96
  8
0
  6
CONTINUOUS
 62
     7
 10
1304.0634858451
 20
259.2730537554
 30
0.0
 11
1304.0634858451
 21
251.2730537554
 31
0.0
  0
LINE
  5
97
  8
0
  6
CONTINUOUS
 62
     7
 10
1135.5634858451
 20
48.0730537554
 30
0.0
 11
1135.5634858451
 21
32.0730537554
 31
0.0
  0
LINE
  5
98
  8
0
  6
CONTINUOUS
 62
     7
 10
1152.5634858451
 20
40.0730537554
 30
0.0
 11
1135.5634858451
 21
40.0730537554
 31
0.0
  0
LINE
  5
99
  8
0
  6
CONTINUOUS
 62
     7
 10
1131.0634858451
 20
224.6730537554
 30
0.0
 11
1209.7867148451
 21
224.6730537554
 31
0.0
  0
LINE
  5
9A
  8
0
  6
CONTINUOUS
 62
     7
 10
1139.3134858451
 20
32.0730537554
 30
0.0
 11
1139.3134858451
 21
29.6730537554
 31
0.0
  0
LINE
  5
9B
  8
0
  6
CONTINUOUS
 62
     7
 10
1144.0634858451
 20
32.0730537554
 30
0.0
 11
1144.0634858451
 21
48.0730537554
 31
0.0
  0
ARC
  5
9C
  8
0
  6
CONTINUOUS
 62
     7
 10
1393.5634858451
 20
33.6730537554
 30
0.0
 40
12.0
 50
0.0
 51
39.664035
  0
ARC
  5
9D
  8
0
  6
CONTINUOUS
 62
     7
 10
1393.5634858451
 20
33.6730537554
 30
0.0
 40
12.0
 50
140.335965
 51
180.0
  0
LINE
  5
9E
  8
0
  6
CONTINUOUS
 62
     7
 10
1407.8134858451
 20
224.6730537554
 30
0.0
 11
1405.5134858451
 21
224.6730537554
 31
0.0
  0
LINE
  5
9F
  8
0
  6
CONTINUOUS
 62
     7
 10
1144.0634858451
 20
259.2730537554
 30
0.0
 11
1144.0634858451
 21
251.2730537554
 31
0.0
  0
LINE
  5
A0
  8
0
  6
CONTINUOUS
 62
     7
 10
1383.7485308451
 20
259.2730537554
 30
0.0
 11
1383.7485308451
 21
251.2730537554
 31
0.0
  0
LINE
  5
A1
  8
0
  6
CONTINUOUS
 62
     7
 10
1381.5634858451
 20
5.6730537554
 30
0.0
 11
1381.5634858451
 21
33.6730537554
 31
0.0
  0
LINE
  5
A2
  8
0
  6
CONTINUOUS
 62
     7
 10
1135.5634858451
 20
259.2730537554
 30
0.0
 11
1135.5634858451
 21
251.2730537554
 31
0.0
  0
LINE
  5
A3
  8
0
  6
CONTINUOUS
 62
     7
 10
1153.0634858451
 20
251.2730537554
 30
0.0
 11
1135.0634858451
 21
251.2730537554
 31
0.0
  0
ARC
  5
A4
  8
0
  6
CONTINUOUS
 62
     7
 10
1131.0634858451
 20
226.6730537554
 30
0.0
 40
2.0
 50
180.0
 51
270.0
  0
ARC
  5
A5
  8
0
  6
CONTINUOUS
 62
     7
 10
1405.0134858451
 20
246.8730537554
 30
0.0
 40
0.5
 50
0.0
 51
90.0
  0
LINE
  5
A6
  8
0
  6
CONTINUOUS
 62
     7
 10
1405.0634858451
 20
49.6928757554
 30
0.0
 11
1405.0634858451
 21
37.1008817554
 31
0.0
  0
LINE
  5
A7
  8
0
  6
CONTINUOUS
 62
     7
 10
1221.0634858451
 20
227.1730537554
 30
0.0
 11
1209.7867148451
 21
224.6730537554
 31
0.0
  0
LINE
  5
A8
  8
0
  6
CONTINUOUS
 62
     7
 10
1135.5634858451
 20
32.0730537554
 30
0.0
 11
1152.5634858451
 21
32.0730537554
 31
0.0
  0
LINE
  5
A9
  8
0
  6
CONTINUOUS
 62
     7
 10
1238.3402568451
 20
224.6730537554
 30
0.0
 11
1317.0634858451
 21
224.6730537554
 31
0.0
  0
ARC
  5
AA
  8
0
  6
CONTINUOUS
 62
     7
 10
1382.1134858451
 20
246.8730537554
 30
0.0
 40
0.5
 50
90.0
 51
180.0
  0
ARC
  5
AB
  8
0
  6
CONTINUOUS
 62
     7
 10
1317.0634858451
 20
226.6730537554
 30
0.0
 40
2.0
 50
270.0
 51
0.0
  0
LINE
  5
AC
  8
0
  6
CONTINUOUS
 62
     7
 10
1139.3134858451
 20
224.6730537554
 30
0.0
 11
1139.3134858451
 21
74.6730537554
 31
0.0
  0
LINE
  5
AD
  8
0
  6
CONTINUOUS
 62
     7
 10
1152.5634858451
 20
259.2730537554
 30
0.0
 11
1152.5634858451
 21
251.2730537554
 31
0.0
  0
LINE
  5
AE
  8
0
  6
CONTINUOUS
 62
     7
 10
1295.5634858451
 20
251.2730537554
 30
0.0
 11
1295.5634858451
 21
259.2730537554
 31
0.0
  0
LINE
  5
AF
  8
0
  6
CONTINUOUS
 62
     7
 10
1129.0634858451
 20
249.6730537554
 30
0.0
 11
1319.0634858451
 21
249.6730537554
 31
0.0
  0
LINE
  5
B0
  8
0
  6
CONTINUOUS
 62
     7
 10
1129.0634858451
 20
226.6730537554
 30
0.0
 11
1129.0634858451
 21
249.6730537554
 31
0.0
  0
LINE
  5
B1
  8
0
  6
CONTINUOUS
 62
     7
 10
1238.3402568451
 20
224.6730537554
 30
0.0
 11
1227.0634858451
 21
227.1730537554
 31
0.0
  0
LINE
  5
B2
  8
0
  6
CONTINUOUS
 62
     7
 10
1148.8134858451
 20
74.6730537554
 30
0.0
 11
1148.8134858451
 21
224.6730537554
 31
0.0
  0
LINE
  5
B3
  8
0
  6
CONTINUOUS
 62
     7
 10
1295.5634858451
 20
259.2730537554
 30
0.0
 11
1312.5634858451
 21
259.2730537554
 31
0.0
  0
LINE
  5
B4
  8
0
  6
CONTINUOUS
 62
     7
 10
1313.0634858451
 20
251.2730537554
 30
0.0
 11
1295.0634858451
 21
251.2730537554
 31
0.0
  0
LINE
  5
B5
  8
0
  6
CONTINUOUS
 62
     7
 10
1152.5634858451
 20
32.0730537554
 30
0.0
 11
1152.5634858451
 21
48.0730537554
 31
0.0
  0
LINE
  5
B6
  8
0
  6
CONTINUOUS
 62
     7
 10
1312.5634858451
 20
259.2730537554
 30
0.0
 11
1312.5634858451
 21
251.2730537554
 31
0.0
  0
LINE
  5
B7
  8
0
  6
CONTINUOUS
 62
     7
 10
1227.0634858451
 20
227.1730537554
 30
0.0
 11
1221.0634858451
 21
227.1730537554
 31
0.0
  0
LINE
  5
B8
  8
0
  6
CONTINUOUS
 62
     7
 10
1403.3784408451
 20
251.2730537554
 30
0.0
 11
1383.7485308451
 21
251.2730537554
 31
0.0
  0
LINE
  5
B9
  8
0
  6
CONTINUOUS
 62
     7
 10
1207.4003138451
 20
53.1730537554
 30
0.0
 11
1202.0634858451
 21
53.1730537554
 31
0.0
  0
ARC
  5
BA
  8
0
  6
CONTINUOUS
 62
     7
 10
1220.3134858451
 20
51.6730537554
 30
0.0
 40
10.0
 50
186.62581
 51
270.0
  0
LINE
  5
BB
  8
0
  6
CONTINUOUS
 62
     7
 10
1227.0634858451
 20
72.1730537554
 30
0.0
 11
1238.3402568451
 21
74.6730537554
 31
0.0
  0
LINE
  5
BC
  8
0
  6
CONTINUOUS
 62
     7
 10
1400.0634858451
 20
29.9202767554
 30
0.0
 11
1400.0634858451
 21
37.4258307554
 31
0.0
  0
ARC
  5
BD
  8
0
  6
CONTINUOUS
 62
     7
 10
1248.5634858451
 20
66.1730537554
 30
0.0
 40
3.0
 50
0.0
 51
90.0
  0
ARC
  5
BE
  8
0
  6
CONTINUOUS
 62
     7
 10
1207.4003138451
 20
50.1730537554
 30
0.0
 40
3.0
 50
6.625810000000001
 51
90.0
  0
LINE
  5
BF
  8
0
  6
CONTINUOUS
 62
     7
 10
1391.9956608451
 20
40.2734227554
 30
0.0
 11
1387.0634858492
 21
37.4258307482
 31
0.0
  0
LINE
  5
C0
  8
0
  6
CONTINUOUS
 62
     7
 10
1383.7485308451
 20
259.2730537554
 30
0.0
 11
1403.3784408451
 21
259.2730537554
 31
0.0
  0
LINE
  5
C1
  8
0
  6
CONTINUOUS
 62
     7
 10
1387.0634858451
 20
29.9202767554
 30
0.0
 11
1393.5634858451
 21
26.1675007554
 31
0.0
  0
ARC
  5
C2
  8
0
  6
CONTINUOUS
 62
     7
 10
1224.0634858451
 20
51.6730537554
 30
0.0
 40
9.0
 50
45.32539000000001
 51
134.67461
  0
LINE
  5
C3
  8
0
  6
CONTINUOUS
 62
     7
 10
1217.7357688451
 20
58.0730537554
 30
0.0
 11
1199.5634858451
 21
58.0730537554
 31
0.0
  0
LINE
  5
C4
  8
0
  6
CONTINUOUS
 62
     7
 10
1131.0634858451
 20
74.6730537554
 30
0.0
 11
1209.7867148451
 21
74.6730537554
 31
0.0
  0
LINE
  5
C5
  8
0
  6
CONTINUOUS
 62
     7
 10
1220.3134858451
 20
41.6730537554
 30
0.0
 11
1227.8134858451
 21
41.6730537554
 31
0.0
  0
LINE
  5
C6
  8
0
  6
CONTINUOUS
 62
     7
 10
1209.7867148451
 20
74.6730537554
 30
0.0
 11
1221.0634858451
 21
72.1730537554
 31
0.0
  0
ARC
  5
C7
  8
0
  6
CONTINUOUS
 62
     7
 10
1202.0634858451
 20
52.6730537554
 30
0.0
 40
0.5
 50
90.0
 51
168.463041
  0
LINE
  5
C8
  8
0
  6
CONTINUOUS
 62
     7
 10
1221.0634858451
 20
72.1730537554
 30
0.0
 11
1227.0634858451
 21
72.1730537554
 31
0.0
  0
LINE
  5
C9
  8
0
  6
CONTINUOUS
 62
     7
 10
1238.3402568451
 20
74.6730537554
 30
0.0
 11
1317.0634858451
 21
74.6730537554
 31
0.0
  0
LINE
  5
CA
  8
0
  6
CONTINUOUS
 62
     7
 10
1246.5634858451
 20
49.6730537554
 30
0.0
 11
1319.0634858451
 21
49.6730537554
 31
0.0
  0
LINE
  5
CB
  8
0
  6
CONTINUOUS
 62
     7
 10
1246.5634858451
 20
49.6730537554
 30
0.0
 11
1246.5634858451
 21
52.6730537554
 31
0.0
  0
LINE
  5
CC
  8
0
  6
CONTINUOUS
 62
     7
 10
1246.5533838451
 20
52.7730537554
 30
0.0
 11
1246.5634858451
 21
52.6730537554
 31
0.0
  0
ARC
  5
CD
  8
0
  6
CONTINUOUS
 62
     7
 10
1199.5634858451
 20
61.0730537554
 30
0.0
 40
3.0
 50
180.0
 51
270.0
  0
ARC
  5
CE
  8
0
  6
CONTINUOUS
 62
     7
 10
1227.8134858451
 20
51.6730537554
 30
0.0
 40
10.0
 50
270.0
 51
353.3741900000001
  0
LINE
  5
CF
  8
0
  6
CONTINUOUS
 62
     7
 10
1382.0634858451
 20
49.6928757554
 30
0.0
 11
1382.0634858451
 21
37.1008817554
 31
0.0
  0
LINE
  5
D0
  8
0
  6
CONTINUOUS
 62
     7
 10
1393.5634858451
 20
26.1675007554
 30
0.0
 11
1400.0634858451
 21
29.9202767554
 31
0.0
  0
LINE
  5
D1
  8
0
  6
CONTINUOUS
 62
     7
 10
1400.0634858451
 20
37.4258307554
 30
0.0
 11
1395.131724833
 21
40.2731837344
 31
0.0
  0
LINE
  5
D2
  8
0
  6
CONTINUOUS
 62
     7
 10
1388.6560088451
 20
259.2730537554
 30
0.0
 11
1388.6560088451
 21
251.2730537554
 31
0.0
  0
LINE
  5
D3
  8
0
  6
CONTINUOUS
 62
     7
 10
1199.5634858451
 20
69.1730537554
 30
0.0
 11
1248.5634858451
 21
69.1730537554
 31
0.0
  0
LINE
  5
D4
  8
0
  6
CONTINUOUS
 62
     7
 10
1251.5634858451
 20
66.1730537554
 30
0.0
 11
1251.5634858451
 21
61.0730537554
 31
0.0
  0
ARC
  5
D5
  8
0
  6
CONTINUOUS
 62
     7
 10
1246.0634858451
 20
52.6730537554
 30
0.0
 40
0.5
 50
11.536959
 51
90.0
  0
LINE
  5
D6
  8
0
  6
CONTINUOUS
 62
     7
 10
1246.0634858451
 20
53.1730537554
 30
0.0
 11
1240.7266578451
 21
53.1730537554
 31
0.0
  0
ARC
  5
D7
  8
0
  6
CONTINUOUS
 62
     7
 10
1199.5634858451
 20
66.1730537554
 30
0.0
 40
3.0
 50
90.0
 51
180.0
  0
ARC
  5
D8
  8
0
  6
CONTINUOUS
 62
     7
 10
1240.7266578451
 20
50.1730537554
 30
0.0
 40
3.0
 50
90.0
 51
173.37419
  0
LINE
  5
D9
  8
0
  6
CONTINUOUS
 62
     7
 10
1212.3134858451
 20
45.6730537554
 30
0.0
 11
1211.7634858451
 21
45.6730537554
 31
0.0
  0
LINE
  5
DA
  8
0
  6
CONTINUOUS
 62
     7
 10
1224.0634858451
 20
59.1786077554
 30
0.0
 11
1217.5634862781
 21
55.4258300054
 31
0.0
  0
LINE
  5
DB
  8
0
  6
CONTINUOUS
 62
     7
 10
1231.5134858451
 20
22.6730537554
 30
0.0
 11
1224.3134858451
 21
22.6730537554
 31
0.0
  0
LINE
  5
DC
  8
0
  6
CONTINUOUS
 62
     7
 10
1239.1134858451
 20
40.3730537554
 30
0.0
 11
1236.6134858451
 21
40.3730537554
 31
0.0
  0
LINE
  5
DD
  8
0
  6
CONTINUOUS
 62
     7
 10
1236.6134858451
 20
26.9730537554
 30
0.0
 11
1239.1134858451
 21
26.9730537554
 31
0.0
  0
LINE
  5
DE
  8
0
  6
CONTINUOUS
 62
     7
 10
1379.3134858451
 20
41.6730537554
 30
0.0
 11
1379.3134858451
 21
74.6730537554
 31
0.0
  0
LINE
  5
DF
  8
0
  6
CONTINUOUS
 62
     7
 10
1224.3134858451
 20
22.6730537554
 30
0.0
 11
1224.3134858451
 21
25.2730537554
 31
0.0
  0
LINE
  5
E0
  8
0
  6
CONTINUOUS
 62
     7
 10
1405.5134858451
 20
74.6730537554
 30
0.0
 11
1407.8134858451
 21
74.6730537554
 31
0.0
  0
LINE
  5
E1
  8
0
  6
CONTINUOUS
 62
     7
 10
1381.6134858451
 20
74.6730537554
 30
0.0
 11
1381.6134858451
 21
52.7730537554
 31
0.0
  0
LINE
  5
E2
  8
0
  6
CONTINUOUS
 62
     7
 10
1382.1134858451
 20
52.2730537554
 30
0.0
 11
1405.0134858451
 21
52.2730537554
 31
0.0
  0
ARC
  5
E3
  8
0
  6
CONTINUOUS
 62
     7
 10
1407.1134858451
 20
66.7730537554
 30
0.0
 40
2.5
 50
0.0
 51
73.739795
  0
LINE
  5
E4
  8
0
  6
CONTINUOUS
 62
     7
 10
1201.5634858451
 20
52.6730537554
 30
0.0
 11
1201.5735878451
 21
52.7730537554
 31
0.0
  0
LINE
  5
E5
  8
0
  6
CONTINUOUS
 62
     7
 10
1233.8134858451
 20
42.1648657554
 30
0.0
 11
1233.8134858451
 21
24.9730537554
 31
0.0
  0
ARC
  5
E6
  8
0
  6
CONTINUOUS
 62
     7
 10
1407.1134858451
 20
60.4730537554
 30
0.0
 40
2.5
 50
286.260205
 51
0.0
  0
ARC
  5
E7
  8
0
  6
CONTINUOUS
 62
     7
 10
1380.0134858451
 20
60.4730537554
 30
0.0
 40
2.5
 50
180.0
 51
253.739795
  0
LINE
  5
E8
  8
0
  6
CONTINUOUS
 62
     7
 10
1234.0634858451
 20
43.8668067554
 30
0.0
 11
1234.0634858451
 21
17.047104422
 31
0.0
  0
LINE
  5
E9
  8
0
  6
CONTINUOUS
 62
     7
 10
1405.5134858451
 20
41.6730537554
 30
0.0
 11
1405.5134858451
 21
49.7780577554
 31
0.0
  0
LINE
  5
EA
  8
0
  6
CONTINUOUS
 62
     7
 10
1216.9134858451
 20
25.2730537554
 30
0.0
 11
1216.9134858451
 21
42.1648657554
 31
0.0
  0
LINE
  5
EB
  8
0
  6
CONTINUOUS
 62
     7
 10
1216.9134858451
 20
29.6730537554
 30
0.0
 11
1231.2134858451
 21
29.6730537554
 31
0.0
  0
LINE
  5
EC
  8
0
  6
CONTINUOUS
 62
     7
 10
1402.8010898451
 20
46.6730537554
 30
0.0
 11
1384.3258818451
 21
46.6730537554
 31
0.0
  0
ARC
  5
ED
  8
0
  6
CONTINUOUS
 62
     7
 10
1380.0134858451
 20
66.7730537554
 30
0.0
 40
2.5
 50
106.260205
 51
180.0
  0
LINE
  5
EE
  8
0
  6
CONTINUOUS
 62
     7
 10
1211.7634858451
 20
16.8458802543
 30
0.0
 11
1211.7634858451
 21
45.6730537554
 31
0.0
  0
LINE
  5
EF
  8
0
  6
CONTINUOUS
 62
     7
 10
1129.0634858451
 20
49.6730537554
 30
0.0
 11
1201.5634858451
 21
49.6730537554
 31
0.0
  0
LINE
  5
F0
  8
0
  6
CONTINUOUS
 62
     7
 10
1231.2134858451
 20
25.2730537554
 30
0.0
 11
1231.2134858451
 21
42.1648657554
 31
0.0
  0
LINE
  5
F1
  8
0
  6
CONTINUOUS
 62
     7
 10
1384.3258818451
 20
40.2730537554
 30
0.0
 11
1402.8010898451
 21
40.2730537554
 31
0.0
  0
ARC
  5
F2
  8
0
  6
CONTINUOUS
 62
     7
 10
1382.1134858451
 20
52.7730537554
 30
0.0
 40
0.5
 50
180.0
 51
270.0
  0
LINE
  5
F3
  8
0
  6
CONTINUOUS
 62
     7
 10
1377.5134858451
 20
60.4730537554
 30
0.0
 11
1377.5134858451
 21
66.7730537554
 31
0.0
  0
LINE
  5
F4
  8
0
  6
CONTINUOUS
 62
     7
 10
1404.7134858451
 20
49.6730537554
 30
0.0
 11
1382.4134858451
 21
49.6730537554
 31
0.0
  0
LINE
  5
F5
  8
0
  6
CONTINUOUS
 62
     7
 10
1405.5134858451
 20
52.7730537554
 30
0.0
 11
1405.5134858451
 21
74.6730537554
 31
0.0
  0
LINE
  5
F6
  8
0
  6
CONTINUOUS
 62
     7
 10
1409.6134858451
 20
66.7730537554
 30
0.0
 11
1409.6134858451
 21
60.4730537554
 31
0.0
  0
LINE
  5
F7
  8
0
  6
CONTINUOUS
 62
     7
 10
1223.8134858451
 20
22.6730537554
 30
0.0
 11
1223.8134858451
 21
25.2730537554
 31
0.0
  0
LINE
  5
F8
  8
0
  6
CONTINUOUS
 62
     7
 10
1381.6134858451
 20
41.6730537554
 30
0.0
 11
1381.6134858451
 21
49.7780577554
 31
0.0
  0
LINE
  5
F9
  8
0
  6
CONTINUOUS
 62
     7
 10
1223.8134858451
 20
25.2730537554
 30
0.0
 11
1214.3134858451
 21
25.2730537554
 31
0.0
  0
ARC
  5
FA
  8
0
  6
CONTINUOUS
 62
     7
 10
1404.7134858451
 20
52.7730537554
 30
0.0
 40
3.1
 50
270.0
 51
0.0
  0
LINE
  5
FB
  8
0
  6
CONTINUOUS
 62
     7
 10
1407.8134858451
 20
41.6730537554
 30
0.0
 11
1405.5134858451
 21
41.6730537554
 31
0.0
  0
LINE
  5
FC
  8
0
  6
CONTINUOUS
 62
     7
 10
1239.1134858451
 20
41.1786077554
 30
0.0
 11
1239.1134858451
 21
26.1675007554
 31
0.0
  0
ARC
  5
FD
  8
0
  6
CONTINUOUS
 62
     7
 10
1405.0134858451
 20
52.7730537554
 30
0.0
 40
0.5
 50
270.0
 51
0.0
  0
LINE
  5
FE
  8
0
  6
CONTINUOUS
 62
     7
 10
1407.8134858451
 20
74.6730537554
 30
0.0
 11
1407.8134858451
 21
41.6730537554
 31
0.0
  0
LINE
  5
FF
  8
0
  6
CONTINUOUS
 62
     7
 10
1217.5634858451
 20
47.9202767554
 30
0.0
 11
1224.0634858451
 21
44.1675007554
 31
0.0
  0
LINE
  5
100
  8
0
  6
CONTINUOUS
 62
     7
 10
1217.5634858451
 20
55.4258307554
 30
0.0
 11
1217.5634858451
 21
47.9202767554
 31
0.0
  0
ARC
  5
101
  8
0
  6
CONTINUOUS
 62
     7
 10
1224.3134858451
 20
42.1648657554
 30
0.0
 40
10.0
 50
171.767363
 51
180.0
  0
LINE
  5
102
  8
0
  6
CONTINUOUS
 62
     7
 10
1236.3634858451
 20
16.8458802543
 30
0.0
 11
1236.3634858451
 21
45.6730537554
 31
0.0
  0
LINE
  5
103
  8
0
  6
CONTINUOUS
 62
     7
 10
1379.3134858451
 20
74.6730537554
 30
0.0
 11
1381.6134858451
 21
74.6730537554
 31
0.0
  0
LINE
  5
104
  8
0
  6
CONTINUOUS
 62
     7
 10
1379.3134858451
 20
41.6730537554
 30
0.0
 11
1381.6134858451
 21
41.6730537554
 31
0.0
  0
LINE
  5
105
  8
0
  6
CONTINUOUS
 62
     7
 10
1398.1822878451
 20
40.2730537554
 30
0.0
 11
1398.1822878451
 21
46.6730537554
 31
0.0
  0
LINE
  5
106
  8
0
  6
CONTINUOUS
 62
     7
 10
1388.9446838451
 20
40.2730537554
 30
0.0
 11
1388.9446838451
 21
46.6730537554
 31
0.0
  0
LINE
  5
107
  8
0
  6
CONTINUOUS
 62
     7
 10
1214.3134858451
 20
42.1648657554
 30
0.0
 11
1214.3134858451
 21
24.9730537554
 31
0.0
  0
LINE
  5
108
  8
0
  6
CONTINUOUS
 62
     7
 10
1231.2134858451
 20
37.6730537554
 30
0.0
 11
1216.9134858451
 21
37.6730537554
 31
0.0
  0
LINE
  5
109
  8
0
  6
CONTINUOUS
 62
     7
 10
1384.3258818451
 20
40.2730537554
 30
0.0
 11
1384.3258818451
 21
46.6730537554
 31
0.0
  0
ARC
  5
10A
  8
0
  6
CONTINUOUS
 62
     7
 10
1382.4134858451
 20
52.7730537554
 30
0.0
 40
3.1
 50
180.0
 51
270.0
  0
LINE
  5
10B
  8
0
  6
CONTINUOUS
 62
     7
 10
1236.6134858451
 20
40.3730537554
 30
0.0
 11
1236.6134858451
 21
26.9730537554
 31
0.0
  0
ARC
  5
10C
  8
0
  6
CONTINUOUS
 62
     7
 10
1216.6134858451
 20
24.9730537554
 30
0.0
 40
2.3
 50
180.0
 51
270.0
  0
LINE
  5
10D
  8
0
  6
CONTINUOUS
 62
     7
 10
1224.0634858451
 20
44.1675007554
 30
0.0
 11
1230.5634858451
 21
47.9202767554
 31
0.0
  0
LINE
  5
10E
  8
0
  6
CONTINUOUS
 62
     7
 10
1230.5634858451
 20
55.4258307554
 30
0.0
 11
1224.0634854121
 21
59.1786070054
 31
0.0
  0
ARC
  5
10F
  8
0
  6
CONTINUOUS
 62
     7
 10
1223.8134858451
 20
42.1648657554
 30
0.0
 40
7.4
 50
0.0
 51
0.8027229999999997
  0
ARC
  5
110
  8
0
  6
CONTINUOUS
 62
     7
 10
1224.3134858451
 20
42.1648657554
 30
0.0
 40
7.4
 50
179.197277
 51
180.0
  0
ARC
  5
111
  8
0
  6
CONTINUOUS
 62
     7
 10
1223.8134858451
 20
42.1648657554
 30
0.0
 40
10.0
 50
0.0
 51
8.232636999999999
  0
LINE
  5
112
  8
0
  6
CONTINUOUS
 62
     7
 10
1214.0634858451
 20
43.8668067554
 30
0.0
 11
1214.0634858451
 21
17.047104422
 31
0.0
  0
LINE
  5
113
  8
0
  6
CONTINUOUS
 62
     7
 10
1224.3134858451
 20
25.2730537554
 30
0.0
 11
1233.8134858451
 21
25.2730537554
 31
0.0
  0
LINE
  5
114
  8
0
  6
CONTINUOUS
 62
     7
 10
1201.5634858451
 20
52.6730537554
 30
0.0
 11
1201.5634858451
 21
49.6730537554
 31
0.0
  0
LINE
  5
115
  8
0
  6
CONTINUOUS
 62
     7
 10
1230.5634858451
 20
47.9202767554
 30
0.0
 11
1230.5634858451
 21
55.4258307554
 31
0.0
  0
ARC
  5
116
  8
0
  6
CONTINUOUS
 62
     7
 10
1231.5134858451
 20
24.9730537554
 30
0.0
 40
2.3
 50
270.0
 51
0.0
  0
LINE
  5
117
  8
0
  6
CONTINUOUS
 62
     7
 10
1216.6134858451
 20
22.6730537554
 30
0.0
 11
1223.8134858451
 21
22.6730537554
 31
0.0
  0
LINE
  5
118
  8
0
  6
CONTINUOUS
 62
     7
 10
1235.8134858451
 20
45.6730537554
 30
0.0
 11
1236.3634858451
 21
45.6730537554
 31
0.0
  0
LINE
  5
119
  8
0
  6
CONTINUOUS
 62
     7
 10
1312.5634858451
 20
32.0730537554
 30
0.0
 11
1312.5634858451
 21
48.0730537554
 31
0.0
  0
LINE
  5
11A
  8
0
  6
CONTINUOUS
 62
     7
 10
1413.3134858451
 20
51.6730537554
 30
0.0
 11
1407.8134858451
 21
51.6730537554
 31
0.0
  0
LINE
  5
11B
  8
0
  6
CONTINUOUS
 62
     7
 10
1304.0634858451
 20
32.0730537554
 30
0.0
 11
1304.0634858451
 21
48.0730537554
 31
0.0
  0
LINE
  5
11C
  8
0
  6
CONTINUOUS
 62
     7
 10
1384.5634858451
 20
251.2730537554
 30
0.0
 11
1384.5634858451
 21
249.6730537554
 31
0.0
  0
LINE
  5
11D
  8
0
  6
CONTINUOUS
 62
     7
 10
1402.5634858451
 20
249.6730537554
 30
0.0
 11
1402.5634858451
 21
251.2730537554
 31
0.0
  0
LINE
  5
11E
  8
0
  6
CONTINUOUS
 62
     7
 10
1376.8134858451
 20
44.1675007554
 30
0.0
 11
1370.3134858451
 21
44.1675007554
 31
0.0
  0
LINE
  5
11F
  8
0
  6
CONTINUOUS
 62
     7
 10
1407.8134858451
 20
45.1730537554
 30
0.0
 11
1413.3134858451
 21
45.1730537554
 31
0.0
  0
LINE
  5
120
  8
0
  6
CONTINUOUS
 62
     7
 10
1376.8134858451
 20
59.1786077554
 30
0.0
 11
1376.8134858451
 21
44.1675007554
 31
0.0
  0
LINE
  5
121
  8
0
  6
CONTINUOUS
 62
     7
 10
1295.0634858451
 20
49.6730537554
 30
0.0
 11
1295.0634858451
 21
48.0730537554
 31
0.0
  0
LINE
  5
122
  8
0
  6
CONTINUOUS
 62
     7
 10
1312.5634858451
 20
40.0730537554
 30
0.0
 11
1295.5634858451
 21
40.0730537554
 31
0.0
  0
LINE
  5
123
  8
0
  6
CONTINUOUS
 62
     7
 10
1313.0634858451
 20
48.0730537554
 30
0.0
 11
1313.0634858451
 21
49.6730537554
 31
0.0
  0
LINE
  5
124
  8
0
  6
CONTINUOUS
 62
     7
 10
1251.7634858451
 20
36.1730537554
 30
0.0
 11
1251.7634858451
 21
31.1730537554
 31
0.0
  0
LINE
  5
125
  8
0
  6
CONTINUOUS
 62
     7
 10
1388.8134858451
 20
269.6730537554
 30
0.0
 11
1398.3134858451
 21
269.6730537554
 31
0.0
  0
LINE
  5
126
  8
0
  6
CONTINUOUS
 62
     7
 10
1251.7634858451
 20
31.1730537554
 30
0.0
 11
1250.2634858451
 21
29.6730537554
 31
0.0
  0
LINE
  5
127
  8
0
  6
CONTINUOUS
 62
     7
 10
1403.3784408451
 20
259.2730537554
 30
0.0
 11
1403.3784408451
 21
251.2730537554
 31
0.0
  0
LINE
  5
128
  8
0
  6
CONTINUOUS
 62
     7
 10
1398.4709628451
 20
259.2730537554
 30
0.0
 11
1398.4709628451
 21
251.2730537554
 31
0.0
  0
LINE
  5
129
  8
0
  6
CONTINUOUS
 62
     7
 10
1313.0634858451
 20
48.0730537554
 30
0.0
 11
1295.0634858451
 21
48.0730537554
 31
0.0
  0
LINE
  5
12A
  8
0
  6
CONTINUOUS
 62
     7
 10
1295.5634858451
 20
32.0730537554
 30
0.0
 11
1312.5634858451
 21
32.0730537554
 31
0.0
  0
LINE
  5
12B
  8
0
  6
CONTINUOUS
 62
     7
 10
1206.2634858451
 20
40.1730537554
 30
0.0
 11
1211.7634858451
 21
40.1730537554
 31
0.0
  0
LINE
  5
12C
  8
0
  6
CONTINUOUS
 62
     7
 10
1295.5634858451
 20
48.0730537554
 30
0.0
 11
1295.5634858451
 21
32.0730537554
 31
0.0
  0
LINE
  5
12D
  8
0
  6
CONTINUOUS
 62
     7
 10
1308.8134858451
 20
29.6730537554
 30
0.0
 11
1299.3134858451
 21
29.6730537554
 31
0.0
  0
LINE
  5
12E
  8
0
  6
CONTINUOUS
 62
     7
 10
1245.9134858451
 20
37.6730537554
 30
0.0
 11
1250.2634858451
 21
37.6730537554
 31
0.0
  0
LINE
  5
12F
  8
0
  6
CONTINUOUS
 62
     7
 10
1250.2634858451
 20
29.6730537554
 30
0.0
 11
1245.9134858451
 21
29.6730537554
 31
0.0
  0
LINE
  5
130
  8
0
  6
CONTINUOUS
 62
     7
 10
1308.8134858451
 20
29.6730537554
 30
0.0
 11
1308.8134858451
 21
32.0730537554
 31
0.0
  0
LINE
  5
131
  8
0
  6
CONTINUOUS
 62
     7
 10
1250.2634858451
 20
37.6730537554
 30
0.0
 11
1251.7634858451
 21
36.1730537554
 31
0.0
  0
LINE
  5
132
  8
0
  6
CONTINUOUS
 62
     7
 10
1299.3134858451
 20
32.0730537554
 30
0.0
 11
1299.3134858451
 21
29.6730537554
 31
0.0
  0
LINE
  5
133
  8
0
  6
CONTINUOUS
 62
     7
 10
1398.3134858451
 20
52.2730537554
 30
0.0
 11
1398.3134858451
 21
247.3730537554
 31
0.0
  0
LINE
  5
134
  8
0
  6
CONTINUOUS
 62
     7
 10
1388.8134858451
 20
247.3730537554
 30
0.0
 11
1388.8134858451
 21
52.27305375540001
 31
0.0
  0
LINE
  5
135
  8
0
  6
CONTINUOUS
 62
     7
 10
1308.8134858451
 20
267.2730537554
 30
0.0
 11
1308.8134858451
 21
269.6730537554
 31
0.0
  0
LINE
  5
136
  8
0
  6
CONTINUOUS
 62
     7
 10
1139.3134858451
 20
269.6730537554
 30
0.0
 11
1139.3134858451
 21
267.2730537554
 31
0.0
  0
LINE
  5
137
  8
0
  6
CONTINUOUS
 62
     7
 10
1299.3134858451
 20
269.6730537554
 30
0.0
 11
1299.3134858451
 21
267.2730537554
 31
0.0
  0
LINE
  5
138
  8
0
  6
CONTINUOUS
 62
     7
 10
1388.8134858451
 20
269.6730537554
 30
0.0
 11
1388.8134858451
 21
267.2730537554
 31
0.0
  0
LINE
  5
139
  8
0
  6
CONTINUOUS
 62
     7
 10
1398.3134858451
 20
267.2730537554
 30
0.0
 11
1398.3134858451
 21
269.6730537554
 31
0.0
  0
LINE
  5
13A
  8
0
  6
CONTINUOUS
 62
     7
 10
1148.8134858451
 20
267.2730537554
 30
0.0
 11
1148.8134858451
 21
269.6730537554
 31
0.0
  0
LINE
  5
13B
  8
0
  6
CONTINUOUS
 62
     7
 10
1153.0634858451
 20
48.0730537554
 30
0.0
 11
1153.0634858451
 21
49.6730537554
 31
0.0
  0
LINE
  5
13C
  8
0
  6
CONTINUOUS
 62
     7
 10
1405.0634858451
 20
47.6730537554
 30
0.0
 11
1405.5134858451
 21
47.6730537554
 31
0.0
  0
LINE
  5
13D
  8
0
  6
CONTINUOUS
 62
     7
 10
1129.0634858451
 20
49.6730537554
 30
0.0
 11
1129.0634858451
 21
72.6730537554
 31
0.0
  0
LINE
  5
13E
  8
0
  6
CONTINUOUS
 62
     7
 10
1405.5634858451
 20
33.6730537554
 30
0.0
 11
1405.5634858451
 21
5.6730537554
 31
0.0
  0
LINE
  5
13F
  8
0
  6
CONTINUOUS
 62
     7
 10
1230.1101788451
 20
7.9730537554
 30
0.0
 11
1230.1101788451
 21
5.6730537554
 31
0.0
  0
LINE
  5
140
  8
0
  6
CONTINUOUS
 62
     7
 10
1135.0634858451
 20
251.2730537554
 30
0.0
 11
1135.0634858451
 21
249.6730537554
 31
0.0
  0
LINE
  5
141
  8
0
  6
CONTINUOUS
 62
     7
 10
1299.3134858451
 20
224.6730537554
 30
0.0
 11
1299.3134858451
 21
74.6730537554
 31
0.0
  0
LINE
  5
142
  8
0
  6
CONTINUOUS
 62
     7
 10
1213.3984278451
 20
7.5736627554
 30
0.0
 11
1211.7634858451
 21
16.8458802543
 31
0.0
  0
ARC
  5
143
  8
0
  6
CONTINUOUS
 62
     7
 10
1131.0634858451
 20
72.6730537554
 30
0.0
 40
2.0
 50
90.0
 51
180.0
  0
LINE
  5
144
  8
0
  6
CONTINUOUS
 62
     7
 10
1308.8134858451
 20
74.6730537554
 30
0.0
 11
1308.8134858451
 21
224.6730537554
 31
0.0
  0
LINE
  5
145
  8
0
  6
CONTINUOUS
 62
     7
 10
1378.6570198451
 20
58.3730537554
 30
0.0
 11
1376.8134858451
 21
58.3730537554
 31
0.0
  0
LINE
  5
146
  8
0
  6
CONTINUOUS
 62
     7
 10
1313.0634858451
 20
249.6730537554
 30
0.0
 11
1313.0634858451
 21
251.2730537554
 31
0.0
  0
LINE
  5
147
  8
0
  6
CONTINUOUS
 62
     7
 10
1319.0634858451
 20
49.6730537554
 30
0.0
 11
1319.0634858451
 21
72.6730537554
 31
0.0
  0
LINE
  5
148
  8
0
  6
CONTINUOUS
 62
     7
 10
1135.0634858451
 20
49.6730537554
 30
0.0
 11
1135.0634858451
 21
48.0730537554
 31
0.0
  0
LINE
  5
149
  8
0
  6
CONTINUOUS
 62
     7
 10
1148.8134858451
 20
29.6730537554
 30
0.0
 11
1139.3134858451
 21
29.6730537554
 31
0.0
  0
LINE
  5
14A
  8
0
  6
CONTINUOUS
 62
     7
 10
1139.3134858451
 20
269.6730537554
 30
0.0
 11
1148.8134858451
 21
269.6730537554
 31
0.0
  0
LINE
  5
14B
  8
0
  6
CONTINUOUS
 62
     7
 10
1153.0634858451
 20
48.0730537554
 30
0.0
 11
1135.0634858451
 21
48.0730537554
 31
0.0
  0
LINE
  5
14C
  8
0
  6
CONTINUOUS
 62
     7
 10
1385.3134858451
 20
49.6730537554
 30
0.0
 11
1385.3134858451
 21
46.6730537554
 31
0.0
  0
LINE
  5
14D
  8
0
  6
CONTINUOUS
 62
     7
 10
1295.0634858451
 20
251.2730537554
 30
0.0
 11
1295.0634858451
 21
249.6730537554
 31
0.0
  0
LINE
  5
14E
  8
0
  6
CONTINUOUS
 62
     7
 10
1135.5634858451
 20
259.2730537554
 30
0.0
 11
1152.5634858451
 21
259.2730537554
 31
0.0
  0
LINE
  5
14F
  8
0
  6
CONTINUOUS
 62
     7
 10
1215.6634858451
 20
5.6730537554
 30
0.0
 11
1232.4634858451
 21
5.6730537554
 31
0.0
  0
LINE
  5
150
  8
0
  6
CONTINUOUS
 62
     7
 10
1381.6134858451
 20
224.6730537554
 30
0.0
 11
1379.3134858451
 21
224.6730537554
 31
0.0
  0
LINE
  5
151
  8
0
  6
CONTINUOUS
 62
     7
 10
1376.8134858451
 20
44.9730537554
 30
0.0
 11
1379.3134858451
 21
44.9730537554
 31
0.0
  0
LINE
  5
152
  8
0
  6
CONTINUOUS
 62
     7
 10
1319.0634858451
 20
226.6730537554
 30
0.0
 11
1319.0634858451
 21
249.6730537554
 31
0.0
  0
LINE
  5
153
  8
0
  6
CONTINUOUS
 62
     7
 10
1405.5134858451
 20
224.6730537554
 30
0.0
 11
1405.5134858451
 21
246.8730537554
 31
0.0
  0
LINE
  5
154
  8
0
  6
CONTINUOUS
 62
     7
 10
1214.0634858451
 20
17.047104422
 30
0.0
 11
1215.6634858451
 21
7.9730537554
 31
0.0
  0
LINE
  5
155
  8
0
  6
CONTINUOUS
 62
     7
 10
1402.8010898451
 20
40.2730537554
 30
0.0
 11
1402.8010898451
 21
46.6730537554
 31
0.0
  0
LINE
  5
156
  8
0
  6
CONTINUOUS
 62
     7
 10
1387.0634858451
 20
37.4258307554
 30
0.0
 11
1387.0634858451
 21
29.9202767554
 31
0.0
  0
LINE
  5
157
  8
0
  6
CONTINUOUS
 62
     7
 10
1401.8134858451
 20
46.6730537554
 30
0.0
 11
1401.8134858451
 21
49.6730537554
 31
0.0
  0
LINE
  5
158
  8
0
  6
CONTINUOUS
 62
     7
 10
1234.7285438451
 20
7.5736627554
 30
0.0
 11
1236.3634858451
 21
16.8458802543
 31
0.0
  0
LINE
  5
159
  8
0
  6
CONTINUOUS
 62
     7
 10
1381.5634858451
 20
5.6730537554
 30
0.0
 11
1405.5634858451
 21
5.6730537554
 31
0.0
  0
ARC
  5
15A
  8
0
  6
CONTINUOUS
 62
     7
 10
1232.4634858451
 20
7.9730537554
 30
0.0
 40
2.3
 50
270.0
 51
349.9999999999999
  0
LINE
  5
15B
  8
0
  6
CONTINUOUS
 62
     7
 10
1232.4634858451
 20
7.9730537554
 30
0.0
 11
1215.6634858451
 21
7.9730537554
 31
0.0
  0
LINE
  5
15C
  8
0
  6
CONTINUOUS
 62
     7
 10
1218.0167928451
 20
5.6730537554
 30
0.0
 11
1218.0167928451
 21
7.9730537554
 31
0.0
  0
LINE
  5
15D
  8
0
  6
CONTINUOUS
 62
     7
 10
1234.0634858451
 20
17.047104422
 30
0.0
 11
1232.4634858451
 21
7.9730537554
 31
0.0
  0
ARC
  5
15E
  8
0
  6
CONTINUOUS
 62
     7
 10
1215.6634858451
 20
7.9730537554
 30
0.0
 40
2.3
 50
190.0
 51
270.0
  0
LINE
  5
15F
  8
0
  6
CONTINUOUS
 62
     7
 10
1381.6134858451
 20
47.6730537554
 30
0.0
 11
1382.0634858451
 21
47.6730537554
 31
0.0
  0
ARC
  5
160
  8
0
  6
CONTINUOUS
 62
     7
 10
1317.0634858451
 20
72.6730537554
 30
0.0
 40
2.0
 50
0.0
 51
90.0
  0
LINE
  5
161
  8
0
  6
CONTINUOUS
 62
     7
 10
1148.8134858451
 20
29.6730537554
 30
0.0
 11
1148.8134858451
 21
32.0730537554
 31
0.0
  0
LINE
  5
162
  8
0
  6
CONTINUOUS
 62
     7
 10
1153.0634858451
 20
249.6730537554
 30
0.0
 11
1153.0634858451
 21
251.2730537554
 31
0.0
  0
LINE
  5
163
  8
0
  6
CONTINUOUS
 62
     7
 10
1299.3134858451
 20
269.6730537554
 30
0.0
 11
1308.8134858451
 21
269.6730537554
 31
0.0
  0
ARC
  5
164
  8
0
  6
CONTINUOUS
 62
     7
 10
1405.0134858451
 20
246.8730537554
 30
0.0
 40
2.8
 50
0.0
 51
90.0
  0
LINE
  5
165
  8
0
  6
CONTINUOUS
 62
     7
 10
1382.1134858451
 20
249.6730537554
 30
0.0
 11
1405.0134858451
 21
249.6730537554
 31
0.0
  0
LINE
  5
166
  8
0
  6
CONTINUOUS
 62
     7
 10
1407.8134858451
 20
246.8730537554
 30
0.0
 11
1407.8134858451
 21
224.6730537554
 31
0.0
  0
ARC
  5
167
  8
0
  6
CONTINUOUS
 62
     7
 10
1382.1134858451
 20
246.8730537554
 30
0.0
 40
2.8
 50
90.0
 51
180.0
  0
LINE
  5
168
  8
0
  6
CONTINUOUS
 62
     7
 10
1381.6134858451
 20
246.8730537554
 30
0.0
 11
1381.6134858451
 21
224.6730537554
 31
0.0
  0
LINE
  5
169
  8
0
  6
CONTINUOUS
 62
     7
 10
1405.0134858451
 20
247.3730537554
 30
0.0
 11
1382.1134858451
 21
247.3730537554
 31
0.0
  0
LINE
  5
16A
  8
0
  6
CONTINUOUS
 62
     7
 10
1379.3134858451
 20
224.6730537554
 30
0.0
 11
1379.3134858451
 21
246.8730537554
 31
0.0
  0
INSERT
  5
16C
  8
0
 62
     7
  2
D_FRAME_DRAWING_21
 10
0.0
 20
0.0
 30
0.0
  0
ENDSEC
  0
EOF
