  0
SECTION
  2
HEADER
  9
$ACADVER
  1
AC1006
  9
$DWGCODEPAGE
  3
ansi_932
  9
$INSBASE
 10
0.0
 20
0.0
 30
0.0
  9
$EXTMIN
 10
0.0
 20
-798.454101
  9
$EXTMAX
 10
1059.5796549466
 20
5.686136363636363
  9
$LIMMIN
 10
0.0
 20
0.0
  9
$LIMMAX
 10
12.0
 20
9.0
  9
$ORTHOMODE
 70
     0
  9
$REGENMODE
 70
     1
  9
$FILLMODE
 70
     1
  9
$QTEXTMODE
 70
     0
  9
$MIRRTEXT
 70
     1
  9
$DRAGMODE
 70
     2
  9
$LTSCALE
 40
1.0
  9
$OSMODE
 70
    37
  9
$ATTMODE
 70
     1
  9
$TEXTSIZE
 40
0.2
  9
$TRACEWID
 40
0.05
  9
$TEXTSTYLE
  7
STANDARD
  9
$CLAYER
  8
0
  9
$CELTYPE
  6
BYLAYER
  9
$CECOLOR
 62
   256
  9
$DIMSCALE
 40
1.0
  9
$DIMASZ
 40
2.4
  9
$DIMEXO
 40
0.0625
  9
$DIMDLI
 40
0.38
  9
$DIMRND
 40
0.0
  9
$DIMDLE
 40
0.0
  9
$DIMEXE
 40
1.2
  9
$DIMTP
 40
0.0
  9
$DIMTM
 40
0.0
  9
$DIMTXT
 40
8.0
  9
$DIMCEN
 40
0.09
  9
$DIMTSZ
 40
0.0
  9
$DIMTOL
 70
     0
  9
$DIMLIM
 70
     0
  9
$DIMTIH
 70
     1
  9
$DIMTOH
 70
     1
  9
$DIMSE1
 70
     0
  9
$DIMSE2
 70
     0
  9
$DIMTAD
 70
     1
  9
$DIMZIN
 70
     0
  9
$DIMBLK
  1

  9
$DIMASO
 70
     1
  9
$DIMSHO
 70
     1
  9
$DIMPOST
  1

  9
$DIMAPOST
  1

  9
$DIMALT
 70
     0
  9
$DIMALTD
 70
     2
  9
$DIMALTF
 40
25.4
  9
$DIMLFAC
 40
1.0
  9
$DIMTOFL
 70
     0
  9
$DIMTVP
 40
0.0
  9
$DIMTIX
 70
     0
  9
$DIMSOXD
 70
     0
  9
$DIMSAH
 70
     0
  9
$DIMBLK1
  1

  9
$DIMBLK2
  1

  9
$LUNITS
 70
     2
  9
$LUPREC
 70
     4
  9
$SKETCHINC
 40
0.1
  9
$FILLETRAD
 40
0.5
  9
$AUNITS
 70
     0
  9
$AUPREC
 70
     0
  9
$MENU
  1
.
  9
$ELEVATION
 40
0.0
  9
$THICKNESS
 40
0.0
  9
$LIMCHECK
 70
     0
  9
$CHAMFERA
 40
0.0
  9
$CHAMFERB
 40
0.0
  9
$SKPOLY
 70
     0
  9
$TDCREATE
 40
2460587.377085602
  9
$TDUPDATE
 40
2460587.377085972
  9
$TDINDWG
 40
0.0000000116
  9
$TDUSRTIMER
 40
0.0000000116
  9
$USRTIMER
 70
     1
  9
$ANGBASE
 50
0.0
  9
$ANGDIR
 70
     0
  9
$PDMODE
 70
     0
  9
$PDSIZE
 40
0.0
  9
$PLINEWID
 40
0.0
  9
$COORDS
 70
     1
  9
$SPLFRAME
 70
     0
  9
$SPLINETYPE
 70
     6
  9
$SPLINESEGS
 70
     8
  9
$ATTDIA
 70
     0
  9
$ATTREQ
 70
     1
  9
$HANDLING
 70
     1
  9
$HANDSEED
  5
20C
  9
$SURFTAB1
 70
     6
  9
$SURFTAB2
 70
     6
  9
$SURFTYPE
 70
     6
  9
$SURFU
 70
     6
  9
$SURFV
 70
     6
  9
$UCSNAME
  2

  9
$UCSORG
 10
0.0
 20
0.0
 30
0.0
  9
$UCSXDIR
 10
1.0
 20
0.0
 30
0.0
  9
$UCSYDIR
 10
0.0
 20
1.0
 30
0.0
  9
$USERI1
 70
     0
  9
$USERI2
 70
     0
  9
$USERI3
 70
     0
  9
$USERI4
 70
     0
  9
$USERI5
 70
     0
  9
$USERR1
 40
0.0
  9
$USERR2
 40
0.0
  9
$USERR3
 40
0.0
  9
$USERR4
 40
0.0
  9
$USERR5
 40
0.0
  9
$WORLDVIEW
 70
     1
  0
ENDSEC
  0
SECTION
  2
TABLES
  0
TABLE
  2
VPORT
 70
     1
  0
VPORT
  2
*ACTIVE
 70
     0
 10
0.0
 20
0.0
 11
1.0
 21
1.0
 12
529.7898274733
 22
-396.3839823181818
 13
0.0
 23
0.0
 14
0.5
 24
0.5
 15
0.5
 25
0.5
 16
0.0
 26
0.0
 36
1.0
 17
0.0
 27
0.0
 37
0.0
 40
804.1402373636364
 41
1.6
 42
50.0
 43
0.0
 44
0.0
 50
0.0
 51
0.0
 71
     0
 72
   100
 73
     1
 74
     3
 75
     0
 76
     0
 77
     0
 78
     0
  0
ENDTAB
  0
TABLE
  2
LTYPE
 70
     1
  0
LTYPE
  2
CONTINUOUS
 70
     0
  3
Solid line
 72
    65
 73
     0
 40
0.0
  0
ENDTAB
  0
TABLE
  2
LAYER
 70
     3
  0
LAYER
  2
0
 70
     0
 62
     7
  6
CONTINUOUS
  0
LAYER
  2
1
 70
     0
 62
     7
  6
CONTINUOUS
  0
LAYER
  2
2
 70
     0
 62
     7
  6
CONTINUOUS
  0
ENDTAB
  0
TABLE
  2
STYLE
 70
     2
  0
STYLE
  2
STANDARD
 70
     0
 40
0.0
 41
1.0
 50
0.0
 71
     0
 42
0.2
  3
txt
  4

  0
STYLE
  2
ＭＳ_ゴシック
 70
     0
 40
0.0
 41
1.0
 50
0.0
 71
     0
 42
0.2
  3
ＭＳ ゴシック.shx
  4

  0
ENDTAB
  0
TABLE
  2
VIEW
 70
     0
  0
ENDTAB
  0
TABLE
  2
UCS
 70
     0
  0
ENDTAB
  0
ENDSEC
  0
SECTION
  2
BLOCKS
  0
BLOCK
  8
0
  2
D_FRAME_DRAWING_21
 70
     0
 10
0.0
 20
0.0
 30
0.0
  0
LINE
  5
18A
  8
0
  6
CONTINUOUS
 62
     7
 10
0.0
 20
0.0
 30
0.0
 11
420.0
 21
0.0
 31
0.0
  0
LINE
  5
18B
  8
0
  6
CONTINUOUS
 62
     7
 10
420.0
 20
0.0
 30
0.0
 11
420.0
 21
297.0
 31
0.0
  0
LINE
  5
18C
  8
0
  6
CONTINUOUS
 62
     7
 10
420.0
 20
297.0
 30
0.0
 11
0.0
 21
297.0
 31
0.0
  0
LINE
  5
18D
  8
0
  6
CONTINUOUS
 62
     7
 10
0.0
 20
297.0
 30
0.0
 11
0.0
 21
0.0
 31
0.0
  0
LINE
  5
18E
  8
0
  6
CONTINUOUS
 62
     7
 10
10.0
 20
10.0
 30
0.0
 11
409.9999999999999
 21
10.0
 31
0.0
  0
LINE
  5
18F
  8
0
  6
CONTINUOUS
 62
     7
 10
409.9999999999999
 20
10.0
 30
0.0
 11
409.9999999999999
 21
286.9999999999999
 31
0.0
  0
LINE
  5
190
  8
0
  6
CONTINUOUS
 62
     7
 10
409.9999999999999
 20
286.9999999999999
 30
0.0
 11
10.00000000000006
 21
286.9999999999999
 31
0.0
  0
LINE
  5
191
  8
0
  6
CONTINUOUS
 62
     7
 10
10.0
 20
286.9999999999999
 30
0.0
 11
10.0
 21
10.00000000000001
 31
0.0
  0
LINE
  5
192
  8
0
  6
CONTINUOUS
 62
     7
 10
210.0
 20
0.0
 30
0.0
 11
210.0
 21
10.0
 31
0.0
  0
LINE
  5
193
  8
0
  6
CONTINUOUS
 62
     7
 10
420.0
 20
148.5
 30
0.0
 11
409.9999999999999
 21
148.5
 31
0.0
  0
LINE
  5
194
  8
0
  6
CONTINUOUS
 62
     7
 10
210.0
 20
297.0
 30
0.0
 11
210.0
 21
286.9999999999999
 31
0.0
  0
LINE
  5
195
  8
0
  6
CONTINUOUS
 62
     7
 10
0.0
 20
148.5
 30
0.0
 11
10.0
 21
148.5
 31
0.0
  0
POLYLINE
  5
196
  8
0
  6
CONTINUOUS
 62
     7
 66
     1
 10
0.0
 20
0.0
 30
0.0
 70
     1
  0
VERTEX
  5
1DD
  8
0
  6
CONTINUOUS
 62
     7
 10
11.0
 20
152.5
 30
0.0
  0
VERTEX
  5
1DE
  8
0
  6
CONTINUOUS
 62
     7
 10
0.0
 20
148.5
 30
0.0
  0
VERTEX
  5
1DF
  8
0
  6
CONTINUOUS
 62
     7
 10
11.0
 20
144.5
 30
0.0
  0
VERTEX
  5
1E0
  8
0
  6
CONTINUOUS
 62
     7
 10
11.0
 20
152.5
 30
0.0
  0
SEQEND
  5
20A
  8
0
  6
CONTINUOUS
 62
     7
  0
INSERT
  5
197
  8
0
 62
     7
  2
*U2
 10
0.0
 20
0.0
 30
0.0
  0
POLYLINE
  5
198
  8
0
  6
CONTINUOUS
 62
     7
 66
     1
 10
0.0
 20
0.0
 30
0.0
 70
     1
  0
VERTEX
  5
1E3
  8
0
  6
CONTINUOUS
 62
     7
 10
206.0
 20
11.0
 30
0.0
  0
VERTEX
  5
1E4
  8
0
  6
CONTINUOUS
 62
     7
 10
210.0
 20
0.0
 30
0.0
  0
VERTEX
  5
1E5
  8
0
  6
CONTINUOUS
 62
     7
 10
214.0
 20
11.0
 30
0.0
  0
VERTEX
  5
1E6
  8
0
  6
CONTINUOUS
 62
     7
 10
206.0
 20
11.0
 30
0.0
  0
SEQEND
  5
20B
  8
0
  6
CONTINUOUS
 62
     7
  0
INSERT
  5
199
  8
0
 62
     7
  2
*U3
 10
0.0
 20
0.0
 30
0.0
  0
LINE
  5
19A
  8
0
  6
CONTINUOUS
 62
     7
 10
367.5
 20
286.9999999999999
 30
0.0
 11
367.5
 21
292.0
 31
0.0
  0
TEXT
  5
19B
  8
0
  6
CONTINUOUS
 62
     7
 10
391.6340909090909
 20
291.8324293485057
 30
0.0
 40
3.5
  1
A
 50
270.0
  0
LINE
  5
19C
  8
0
  6
CONTINUOUS
 62
     7
 10
367.5
 20
10.0
 30
0.0
 11
367.5
 21
5.0
 31
0.0
  0
TEXT
  5
19D
  8
0
  6
CONTINUOUS
 62
     7
 10
392.9868888333125
 20
4.602272727272727
 30
0.0
 40
3.5
  1
A
  0
LINE
  5
19E
  8
0
  6
CONTINUOUS
 62
     7
 10
315.0
 20
286.9999999999999
 30
0.0
 11
315.0
 21
292.0
 31
0.0
  0
TEXT
  5
19F
  8
0
  6
CONTINUOUS
 62
     7
 10
339.1340909090909
 20
291.9745607727899
 30
0.0
 40
3.5
  1
B
 50
270.0
  0
LINE
  5
1A0
  8
0
  6
CONTINUOUS
 62
     7
 10
315.0
 20
10.0
 30
0.0
 11
315.0
 21
5.0
 31
0.0
  0
TEXT
  5
1A1
  8
0
  6
CONTINUOUS
 62
     7
 10
340.3447574090284
 20
4.602272727272727
 30
0.0
 40
3.5
  1
B
  0
LINE
  5
1A2
  8
0
  6
CONTINUOUS
 62
     7
 10
262.5
 20
286.9999999999999
 30
0.0
 11
262.5
 21
292.0
 31
0.0
  0
TEXT
  5
1A3
  8
0
  6
CONTINUOUS
 62
     7
 10
286.6327779167187
 20
291.9399305989747
 30
0.0
 40
3.5
  1
C
 50
270.0
  0
LINE
  5
1A4
  8
0
  6
CONTINUOUS
 62
     7
 10
262.5
 20
10.0
 30
0.0
 11
262.5
 21
5.0
 31
0.0
  0
TEXT
  5
1A5
  8
0
  6
CONTINUOUS
 62
     7
 10
287.8793875828435
 20
4.600959734900587
 30
0.0
 40
3.5
  1
C
  0
LINE
  5
1A6
  8
0
  6
CONTINUOUS
 62
     7
 10
210.0
 20
286.9999999999999
 30
0.0
 11
210.0
 21
292.0
 31
0.0
  0
TEXT
  5
1A7
  8
0
  6
CONTINUOUS
 62
     7
 10
234.1340909090909
 20
291.9745607727898
 30
0.0
 40
3.5
  1
D
 50
270.0
  0
LINE
  5
1A8
  8
0
  6
CONTINUOUS
 62
     7
 10
157.5
 20
286.9999999999999
 30
0.0
 11
157.5
 21
292.0
 31
0.0
  0
TEXT
  5
1A9
  8
0
  6
CONTINUOUS
 62
     7
 10
181.6327779167188
 20
292.027463423784
 30
0.0
 40
3.5
  1
E
 50
270.0
  0
LINE
  5
1AA
  8
0
  6
CONTINUOUS
 62
     7
 10
157.5
 20
10.0
 30
0.0
 11
157.5
 21
5.0
 31
0.0
  0
LINE
  5
1AB
  8
0
  6
CONTINUOUS
 62
     7
 10
105.0
 20
286.9999999999999
 30
0.0
 11
105.0
 21
292.0
 31
0.0
  0
TEXT
  5
1AC
  8
0
  6
CONTINUOUS
 62
     7
 10
129.1327779167188
 20
291.9924502938602
 30
0.0
 40
3.5
  1
F
 50
270.0
  0
LINE
  5
1AD
  8
0
  6
CONTINUOUS
 62
     7
 10
105.0
 20
10.0
 30
0.0
 11
105.0
 21
5.0
 31
0.0
  0
TEXT
  5
1AE
  8
0
  6
CONTINUOUS
 62
     7
 10
130.326867887958
 20
4.600959734900587
 30
0.0
 40
3.5
  1
F
  0
LINE
  5
1AF
  8
0
  6
CONTINUOUS
 62
     7
 10
52.50000000000004
 20
286.9999999999999
 30
0.0
 11
52.50000000000004
 21
292.0
 31
0.0
  0
TEXT
  5
1B0
  8
0
  6
CONTINUOUS
 62
     7
 10
76.6327779167188
 20
291.9399305989746
 30
0.0
 40
3.5
  1
G
 50
270.0
  0
LINE
  5
1B1
  8
0
  6
CONTINUOUS
 62
     7
 10
52.50000000000004
 20
10.0
 30
0.0
 11
52.50000000000004
 21
5.0
 31
0.0
  0
TEXT
  5
1B2
  8
0
  6
CONTINUOUS
 62
     7
 10
77.8793875828436
 20
4.600959734900587
 30
0.0
 40
3.5
  1
G
  0
TEXT
  5
1B3
  8
0
  6
CONTINUOUS
 62
     7
 10
24.13277791671879
 20
291.9749437288983
 30
0.0
 40
3.5
  1
H
 50
270.0
  0
TEXT
  5
1B4
  8
0
  6
CONTINUOUS
 62
     7
 10
25.34437445291988
 20
4.600959734900587
 30
0.0
 40
3.5
  1
H
  0
LINE
  5
1B5
  8
0
  6
CONTINUOUS
 62
     7
 10
409.9999999999999
 20
74.25
 30
0.0
 11
414.9999999999999
 21
74.25
 31
0.0
  0
TEXT
  5
1B6
  8
0
  6
CONTINUOUS
 62
     7
 10
412.9326059772414
 20
35.00777791671877
 30
0.0
 40
3.5
  1
1
  0
LINE
  5
1B7
  8
0
  6
CONTINUOUS
 62
     7
 10
10.0
 20
74.25
 30
0.0
 11
5.0
 21
74.25
 31
0.0
  0
TEXT
  5
1B8
  8
0
  6
CONTINUOUS
 62
     7
 10
4.600959734900584
 20
38.26171220457671
 30
0.0
 40
3.5
  1
1
 50
270.0
  0
LINE
  5
1B9
  8
0
  6
CONTINUOUS
 62
     7
 10
409.9999999999999
 20
148.5
 30
0.0
 11
414.9999999999999
 21
148.5
 31
0.0
  0
TEXT
  5
1BA
  8
0
  6
CONTINUOUS
 62
     7
 10
413.163692634738
 20
109.2577779167188
 30
0.0
 40
3.5
  1
2
  0
LINE
  5
1BB
  8
0
  6
CONTINUOUS
 62
     7
 10
10.0
 20
148.5
 30
0.0
 11
5.0
 21
148.5
 31
0.0
  0
TEXT
  5
1BC
  8
0
  6
CONTINUOUS
 62
     7
 10
4.600959734900599
 20
112.2806255470802
 30
0.0
 40
3.5
  1
2
 50
270.0
  0
LINE
  5
1BD
  8
0
  6
CONTINUOUS
 62
     7
 10
409.9999999999999
 20
222.75
 30
0.0
 11
414.9999999999999
 21
222.75
 31
0.0
  0
TEXT
  5
1BE
  8
0
  6
CONTINUOUS
 62
     7
 10
413.1811991996998
 20
183.5077779167188
 30
0.0
 40
3.5
  1
3
  0
LINE
  5
1BF
  8
0
  6
CONTINUOUS
 62
     7
 10
10.0
 20
222.75
 30
0.0
 11
5.0
 21
222.75
 31
0.0
  0
TEXT
  5
1C0
  8
0
  6
CONTINUOUS
 62
     7
 10
4.600959734900584
 20
186.5131189821183
 30
0.0
 40
3.5
  1
3
 50
270.0
  0
TEXT
  5
1C1
  8
0
  6
CONTINUOUS
 62
     7
 10
413.2351413029886
 20
257.7590909090909
 30
0.0
 40
3.5
  1
4
  0
TEXT
  5
1C2
  8
0
  6
CONTINUOUS
 62
     7
 10
4.60227272727272
 20
260.7091768788295
 30
0.0
 40
3.5
  1
4
 50
270.0
  0
LINE
  5
1C3
  8
0
  6
CONTINUOUS
 62
     7
 10
220.0
 20
10.0
 30
0.0
 11
220.0
 21
7.0
 31
0.0
  0
LINE
  5
1C4
  8
0
  6
CONTINUOUS
 62
     7
 10
200.0
 20
10.0
 30
0.0
 11
200.0
 21
7.0
 31
0.0
  0
LINE
  5
1C5
  8
0
  6
CONTINUOUS
 62
     7
 10
230.0
 20
10.0
 30
0.0
 11
230.0
 21
7.0
 31
0.0
  0
LINE
  5
1C6
  8
0
  6
CONTINUOUS
 62
     7
 10
190.0
 20
10.0
 30
0.0
 11
190.0
 21
7.0
 31
0.0
  0
LINE
  5
1C7
  8
0
  6
CONTINUOUS
 62
     7
 10
240.0
 20
10.0
 30
0.0
 11
240.0
 21
7.0
 31
0.0
  0
LINE
  5
1C8
  8
0
  6
CONTINUOUS
 62
     7
 10
180.0
 20
10.0
 30
0.0
 11
180.0
 21
7.0
 31
0.0
  0
LINE
  5
1C9
  8
0
  6
CONTINUOUS
 62
     7
 10
250.0
 20
10.0
 30
0.0
 11
250.0
 21
7.0
 31
0.0
  0
LINE
  5
1CA
  8
0
  6
CONTINUOUS
 62
     7
 10
170.0
 20
10.0
 30
0.0
 11
170.0
 21
7.0
 31
0.0
  0
LINE
  5
1CB
  8
0
  6
CONTINUOUS
 62
     7
 10
260.0
 20
10.0
 30
0.0
 11
260.0
 21
5.0
 31
0.0
  0
LINE
  5
1CC
  8
0
  6
CONTINUOUS
 62
     7
 10
160.0
 20
10.0
 30
0.0
 11
160.0
 21
5.0
 31
0.0
  0
LINE
  5
1CD
  8
0
  6
CONTINUOUS
 62
     7
 10
260.0
 20
10.0
 30
0.0
 11
160.0
 21
10.0
 31
0.0
  0
LINE
  5
1CE
  8
0
  6
CONTINUOUS
 62
     7
 10
260.0
 20
7.0
 30
0.0
 11
160.0
 21
7.0
 31
0.0
  0
INSERT
  5
1CF
  8
0
 62
     7
  2
*U4
 10
0.0
 20
0.0
 30
0.0
  0
INSERT
  5
1D0
  8
0
 62
     7
  2
*U5
 10
0.0
 20
0.0
 30
0.0
  0
INSERT
  5
1D1
  8
0
 62
     7
  2
*U6
 10
0.0
 20
0.0
 30
0.0
  0
INSERT
  5
1D2
  8
0
 62
     7
  2
*U7
 10
0.0
 20
0.0
 30
0.0
  0
ENDBLK
  8
0
  0
BLOCK
  8
0
  2
*U2
 70
     1
 10
0.0
 20
0.0
 30
0.0
  0
SOLID
  5
1E2
  8
0
  6
CONTINUOUS
 62
     7
 10
11.0
 20
144.5
 30
0.0
 11
6.999999999999999
 21
148.5
 31
0.0
 12
11.0
 22
152.5
 32
0.0
 13
11.0
 23
152.5
 33
0.0
  0
ENDBLK
  8
0
  0
BLOCK
  8
0
  2
*U3
 70
     1
 10
0.0
 20
0.0
 30
0.0
  0
SOLID
  5
1E8
  8
0
  6
CONTINUOUS
 62
     7
 10
210.0
 20
6.999999999999999
 30
0.0
 11
206.0
 21
11.0
 31
0.0
 12
210.0
 22
11.0
 32
0.0
 13
210.0
 23
11.0
 33
0.0
  0
SOLID
  5
1E9
  8
0
  6
CONTINUOUS
 62
     7
 10
210.0
 20
6.999999999999999
 30
0.0
 11
210.0
 21
11.0
 31
0.0
 12
214.0
 22
11.0
 32
0.0
 13
214.0
 23
11.0
 33
0.0
  0
ENDBLK
  8
0
  0
BLOCK
  8
0
  2
*U4
 70
     1
 10
0.0
 20
0.0
 30
0.0
  0
SOLID
  5
1EB
  8
0
  6
CONTINUOUS
 62
     7
 10
0.0
 20
0.0
 30
0.0
 11
0.0
 21
10.0
 31
0.0
 12
2.0
 22
0.0
 32
0.0
 13
2.0
 23
0.0
 33
0.0
  0
SOLID
  5
1EC
  8
0
  6
CONTINUOUS
 62
     7
 10
2.0
 20
0.0
 30
0.0
 11
0.0
 21
10.0
 31
0.0
 12
2.0
 22
10.0
 32
0.0
 13
2.0
 23
10.0
 33
0.0
  0
SOLID
  5
1ED
  8
0
  6
CONTINUOUS
 62
     7
 10
2.0
 20
0.0
 30
0.0
 11
2.0
 21
2.0
 31
0.0
 12
10.0
 22
0.0
 32
0.0
 13
10.0
 23
0.0
 33
0.0
  0
SOLID
  5
1EE
  8
0
  6
CONTINUOUS
 62
     7
 10
10.0
 20
0.0
 30
0.0
 11
2.0
 21
2.0
 31
0.0
 12
10.0
 22
2.0
 32
0.0
 13
10.0
 23
2.0
 33
0.0
  0
ENDBLK
  8
0
  0
BLOCK
  8
0
  2
*U5
 70
     1
 10
0.0
 20
0.0
 30
0.0
  0
SOLID
  5
1F0
  8
0
  6
CONTINUOUS
 62
     7
 10
409.9999999999999
 20
0.0
 30
0.0
 11
409.9999999999999
 21
2.0
 31
0.0
 12
418.0
 22
0.0
 32
0.0
 13
418.0
 23
0.0
 33
0.0
  0
SOLID
  5
1F1
  8
0
  6
CONTINUOUS
 62
     7
 10
418.0
 20
0.0
 30
0.0
 11
409.9999999999999
 21
2.0
 31
0.0
 12
418.0
 22
2.0
 32
0.0
 13
418.0
 23
2.0
 33
0.0
  0
SOLID
  5
1F2
  8
0
  6
CONTINUOUS
 62
     7
 10
418.0
 20
0.0
 30
0.0
 11
418.0
 21
10.0
 31
0.0
 12
420.0
 22
0.0
 32
0.0
 13
420.0
 23
0.0
 33
0.0
  0
SOLID
  5
1F3
  8
0
  6
CONTINUOUS
 62
     7
 10
420.0
 20
0.0
 30
0.0
 11
418.0
 21
10.0
 31
0.0
 12
420.0
 22
10.0
 32
0.0
 13
420.0
 23
10.0
 33
0.0
  0
ENDBLK
  8
0
  0
BLOCK
  8
0
  2
*U6
 70
     1
 10
0.0
 20
0.0
 30
0.0
  0
SOLID
  5
1F5
  8
0
  6
CONTINUOUS
 62
     7
 10
409.9999999999999
 20
295.0
 30
0.0
 11
409.9999999999999
 21
297.0
 31
0.0
 12
418.0
 22
295.0
 32
0.0
 13
418.0
 23
295.0
 33
0.0
  0
SOLID
  5
1F6
  8
0
  6
CONTINUOUS
 62
     7
 10
418.0
 20
295.0
 30
0.0
 11
409.9999999999999
 21
297.0
 31
0.0
 12
418.0
 22
297.0
 32
0.0
 13
418.0
 23
297.0
 33
0.0
  0
SOLID
  5
1F7
  8
0
  6
CONTINUOUS
 62
     7
 10
418.0
 20
286.9999999999999
 30
0.0
 11
418.0
 21
297.0
 31
0.0
 12
420.0
 22
286.9999999999999
 32
0.0
 13
420.0
 23
286.9999999999999
 33
0.0
  0
SOLID
  5
1F8
  8
0
  6
CONTINUOUS
 62
     7
 10
420.0
 20
286.9999999999999
 30
0.0
 11
418.0
 21
297.0
 31
0.0
 12
420.0
 22
297.0
 32
0.0
 13
420.0
 23
297.0
 33
0.0
  0
ENDBLK
  8
0
  0
BLOCK
  8
0
  2
*U7
 70
     1
 10
0.0
 20
0.0
 30
0.0
  0
SOLID
  5
1FA
  8
0
  6
CONTINUOUS
 62
     7
 10
0.0
 20
286.9999999999999
 30
0.0
 11
0.0
 21
297.0
 31
0.0
 12
2.0
 22
286.9999999999999
 32
0.0
 13
2.0
 23
286.9999999999999
 33
0.0
  0
SOLID
  5
1FB
  8
0
  6
CONTINUOUS
 62
     7
 10
2.0
 20
286.9999999999999
 30
0.0
 11
0.0
 21
297.0
 31
0.0
 12
2.0
 22
297.0
 32
0.0
 13
2.0
 23
297.0
 33
0.0
  0
SOLID
  5
1FC
  8
0
  6
CONTINUOUS
 62
     7
 10
2.0
 20
295.0
 30
0.0
 11
2.0
 21
297.0
 31
0.0
 12
10.0
 22
295.0
 32
0.0
 13
10.0
 23
295.0
 33
0.0
  0
SOLID
  5
1FD
  8
0
  6
CONTINUOUS
 62
     7
 10
10.0
 20
295.0
 30
0.0
 11
2.0
 21
297.0
 31
0.0
 12
10.0
 22
297.0
 32
0.0
 13
10.0
 23
297.0
 33
0.0
  0
ENDBLK
  8
0
  0
ENDSEC
  0
SECTION
  2
ENTITIES
  0
LINE
  5
71
  8
2
  6
CONTINUOUS
 62
     7
 10
860.1296549466
 20
-685.9814054458
 30
0.0
 11
865.6296549466
 21
-685.9814054458
 31
0.0
  0
LINE
  5
72
  8
2
  6
CONTINUOUS
 62
     7
 10
941.0796549466
 20
-677.4869594458
 30
0.0
 11
941.0796549466
 21
-679.0869594458
 31
0.0
  0
LINE
  5
73
  8
2
  6
CONTINUOUS
 62
     7
 10
869.5796549466
 20
-669.0869594458
 30
0.0
 11
851.4073719466
 21
-669.0869594458
 31
0.0
  0
ARC
  5
74
  8
2
  6
CONTINUOUS
 62
     7
 10
823.0796549466
 20
-674.4869594458
 30
0.0
 40
0.5
 50
90.0
 51
168.463041
  0
LINE
  5
75
  8
2
  6
CONTINUOUS
 62
     7
 10
826.0796549466
 20
-689.4869594458
 30
0.0
 11
825.0796549466
 21
-690.4869594458
 31
0.0
  0
LINE
  5
76
  8
2
  6
CONTINUOUS
 62
     7
 10
1028.1296549466
 20
-674.8869594458
 30
0.0
 11
1051.0296549466
 21
-674.8869594458
 31
0.0
  0
LINE
  5
77
  8
2
  6
CONTINUOUS
 62
     7
 10
837.9296549466
 20
-701.8869594458
 30
0.0
 11
837.9296549466
 21
-684.9951474458
 31
0.0
  0
LINE
  5
78
  8
2
  6
CONTINUOUS
 62
     7
 10
1044.4871319466
 20
-417.8869594458
 30
0.0
 11
1044.4871319466
 21
-425.8869594458
 31
0.0
  0
ARC
  5
79
  8
2
  6
CONTINUOUS
 62
     7
 10
1050.7296549466
 20
-674.3869594458
 30
0.0
 40
3.1
 50
270.0
 51
0.0
  0
LINE
  5
7A
  8
2
  6
CONTINUOUS
 62
     7
 10
820.5796549466
 20
-657.9869594458
 30
0.0
 11
869.5796549466
 21
-657.9869594458
 31
0.0
  0
LINE
  5
7B
  8
2
  6
CONTINUOUS
 62
     7
 10
1028.1296549466
 20
-427.4869594458
 30
0.0
 11
1051.0296549466
 21
-427.4869594458
 31
0.0
  0
LINE
  5
7C
  8
2
  6
CONTINUOUS
 62
     7
 10
835.3296549466
 20
-684.9951474458
 30
0.0
 11
835.3296549466
 21
-702.1869594458
 31
0.0
  0
ARC
  5
7D
  8
2
  6
CONTINUOUS
 62
     7
 10
855.0796549466
 20
-721.4869594458
 30
0.0
 40
2.3
 50
356.524767
 51
0.0
  0
ARC
  5
7E
  8
2
  6
CONTINUOUS
 62
     7
 10
1051.0296549466
 20
-674.3869594458
 30
0.0
 40
0.5
 50
270.0
 51
0.0
  0
ARC
  5
7F
  8
2
  6
CONTINUOUS
 62
     7
 10
845.3296549466
 20
-684.9951474458
 30
0.0
 40
7.4
 50
179.197277
 51
180.0
  0
ARC
  5
80
  8
2
  6
CONTINUOUS
 62
     7
 10
1028.1296549466
 20
-674.3869594458
 30
0.0
 40
0.5
 50
180.0
 51
270.0
  0
ARC
  5
81
  8
2
  6
CONTINUOUS
 62
     7
 10
869.5796549466
 20
-660.9869594458
 30
0.0
 40
3.0
 50
0.0
 51
90.0
  0
LINE
  5
82
  8
2
  6
CONTINUOUS
 62
     7
 10
828.4164829466
 20
-673.9869594458
 30
0.0
 11
823.0796549466
 21
-673.9869594458
 31
0.0
  0
LINE
  5
83
  8
2
  6
CONTINUOUS
 62
     7
 10
1025.3296549466
 20
-685.4869594458
 30
0.0
 11
1025.3296549466
 21
-652.4869594458
 31
0.0
  0
ARC
  5
84
  8
2
  6
CONTINUOUS
 62
     7
 10
867.0796549466
 20
-674.4869594458
 30
0.0
 40
0.5
 50
11.536959
 51
90.0
  0
LINE
  5
85
  8
2
  6
CONTINUOUS
 62
     7
 10
857.3796549466
 20
-721.4869594458
 30
0.0
 11
857.3796549466
 21
-681.4869594458
 31
0.0
  0
LINE
  5
86
  8
2
  6
CONTINUOUS
 62
     7
 10
855.0796549466
 20
-721.4869594458
 30
0.0
 11
857.3796549466
 21
-721.4869594458
 31
0.0
  0
LINE
  5
87
  8
2
  6
CONTINUOUS
 62
     7
 10
825.0796549466
 20
-696.4869594458
 30
0.0
 11
826.0796549466
 21
-697.4869594458
 31
0.0
  0
LINE
  5
88
  8
2
  6
CONTINUOUS
 62
     7
 10
1053.8296549466
 20
-652.4869594458
 30
0.0
 11
1053.8296549466
 21
-685.4869594458
 31
0.0
  0
LINE
  5
89
  8
2
  6
CONTINUOUS
 62
     7
 10
855.0796549466
 20
-721.4869594458
 30
0.0
 11
853.5796549466
 21
-746.1869594458
 31
0.0
  0
LINE
  5
8A
  8
2
  6
CONTINUOUS
 62
     7
 10
860.1296549466
 20
-689.7341824458
 30
0.0
 11
865.6296549466
 21
-689.7341824458
 31
0.0
  0
ARC
  5
8B
  8
2
  6
CONTINUOUS
 62
     7
 10
869.5796549466
 20
-666.0869594458
 30
0.0
 40
3.0
 50
270.0
 51
0.0
  0
ARC
  5
8C
  8
2
  6
CONTINUOUS
 62
     7
 10
820.5796549466
 20
-660.9869594458
 30
0.0
 40
3.0
 50
90.0
 51
180.0
  0
LINE
  5
8D
  8
2
  6
CONTINUOUS
 62
     7
 10
848.0796549466
 20
-654.9869594458
 30
0.0
 11
859.3564259466
 21
-652.4869594458
 31
0.0
  0
ARC
  5
8E
  8
2
  6
CONTINUOUS
 62
     7
 10
845.3296549466
 20
-684.9951474458
 30
0.0
 40
10.0
 50
171.767363
 51
180.0
  0
LINE
  5
8F
  8
2
  6
CONTINUOUS
 62
     7
 10
834.2838839466
 20
-746.3263784458
 30
0.0
 11
832.7838839466
 21
-721.6263784458
 31
0.0
  0
LINE
  5
90
  8
2
  6
CONTINUOUS
 62
     7
 10
1050.7296549466
 20
-677.4869594458
 30
0.0
 11
1028.4296549466
 21
-677.4869594458
 31
0.0
  0
LINE
  5
91
  8
2
  6
CONTINUOUS
 62
     7
 10
852.2296549466
 20
-689.4869594458
 30
0.0
 11
837.9296549466
 21
-689.4869594458
 31
0.0
  0
ARC
  5
92
  8
2
  6
CONTINUOUS
 62
     7
 10
828.4164829466
 20
-676.9869594458
 30
0.0
 40
3.0
 50
6.625810000000001
 51
90.0
  0
LINE
  5
93
  8
2
  6
CONTINUOUS
 62
     7
 10
825.0796549466
 20
-696.4869594458
 30
0.0
 11
825.0796549466
 21
-690.4869594458
 31
0.0
  0
LINE
  5
94
  8
2
  6
CONTINUOUS
 62
     7
 10
841.3296549466
 20
-685.4869594458
 30
0.0
 11
848.8296549466
 21
-685.4869594458
 31
0.0
  0
ARC
  5
95
  8
2
  6
CONTINUOUS
 62
     7
 10
844.8296549466
 20
-684.9951474458
 30
0.0
 40
10.0
 50
0.0
 51
8.232636999999999
  0
LINE
  5
96
  8
2
  6
CONTINUOUS
 62
     7
 10
1059.3296549466
 20
-668.9869594458
 30
0.0
 11
1053.8296549466
 21
-668.9869594458
 31
0.0
  0
LINE
  5
97
  8
2
  6
CONTINUOUS
 62
     7
 10
945.3296549466
 20
-695.0869594458
 30
0.0
 11
945.3296549466
 21
-697.4869594458
 31
0.0
  0
LINE
  5
98
  8
2
  6
CONTINUOUS
 62
     7
 10
852.2296549466
 20
-701.8869594458
 30
0.0
 11
852.2296549466
 21
-684.9951474458
 31
0.0
  0
LINE
  5
99
  8
2
  6
CONTINUOUS
 62
     7
 10
867.0796549466
 20
-673.9869594458
 30
0.0
 11
861.7428269466
 21
-673.9869594458
 31
0.0
  0
LINE
  5
9A
  8
2
  6
CONTINUOUS
 62
     7
 10
817.5796549466
 20
-666.0869594458
 30
0.0
 11
817.5796549466
 21
-660.9869594458
 31
0.0
  0
LINE
  5
9B
  8
2
  6
CONTINUOUS
 62
     7
 10
1051.5296549466
 20
-652.4869594458
 30
0.0
 11
1053.8296549466
 21
-652.4869594458
 31
0.0
  0
ARC
  5
9C
  8
2
  6
CONTINUOUS
 62
     7
 10
853.5796549466
 20
-746.1869594458
 30
0.0
 40
2.3
 50
270.0
 51
356.524767
  0
LINE
  5
9D
  8
2
  6
CONTINUOUS
 62
     7
 10
860.1296549466
 20
-697.2397364458
 30
0.0
 11
865.6296549466
 21
-697.2397364458
 31
0.0
  0
LINE
  5
9E
  8
2
  6
CONTINUOUS
 62
     7
 10
1053.8296549466
 20
-681.9869594458
 30
0.0
 11
1059.3296549466
 21
-681.9869594458
 31
0.0
  0
ARC
  5
9F
  8
2
  6
CONTINUOUS
 62
     7
 10
844.8296549466
 20
-684.9951474458
 30
0.0
 40
7.4
 50
0.0
 51
0.8027229999999997
  0
ARC
  5
A0
  8
2
  6
CONTINUOUS
 62
     7
 10
848.8296549466
 20
-675.4869594458
 30
0.0
 40
10.0
 50
270.0
 51
353.3741900000001
  0
LINE
  5
A1
  8
2
  6
CONTINUOUS
 62
     7
 10
727.0796549466
 20
-652.4869594458
 30
0.0
 11
830.8028839466
 21
-652.4869594458
 31
0.0
  0
LINE
  5
A2
  8
2
  6
CONTINUOUS
 62
     7
 10
954.8296549466
 20
-697.4869594458
 30
0.0
 11
954.8296549466
 21
-695.0869594458
 31
0.0
  0
LINE
  5
A3
  8
2
  6
CONTINUOUS
 62
     7
 10
832.7796549466
 20
-689.4869594458
 30
0.0
 11
826.0796549466
 21
-689.4869594458
 31
0.0
  0
ARC
  5
A4
  8
2
  6
CONTINUOUS
 62
     7
 10
836.5796549466
 20
-746.1869594458
 30
0.0
 40
2.3
 50
183.475233
 51
270.0
  0
LINE
  5
A5
  8
2
  6
CONTINUOUS
 62
     7
 10
1059.3296549466
 20
-675.4869594458
 30
0.0
 11
1053.8296549466
 21
-675.4869594458
 31
0.0
  0
LINE
  5
A6
  8
2
  6
CONTINUOUS
 62
     7
 10
872.5796549466
 20
-660.9869594458
 30
0.0
 11
872.5796549466
 21
-666.0869594458
 31
0.0
  0
LINE
  5
A7
  8
2
  6
CONTINUOUS
 62
     7
 10
837.9296549466
 20
-697.4869594458
 30
0.0
 11
852.2296549466
 21
-697.4869594458
 31
0.0
  0
ARC
  5
A8
  8
2
  6
CONTINUOUS
 62
     7
 10
841.3296549466
 20
-675.4869594458
 30
0.0
 40
10.0
 50
186.62581
 51
270.0
  0
LINE
  5
A9
  8
2
  6
CONTINUOUS
 62
     7
 10
833.3296549466
 20
-681.4869594458
 30
0.0
 11
832.7796549466
 21
-681.4869594458
 31
0.0
  0
LINE
  5
AA
  8
2
  6
CONTINUOUS
 62
     7
 10
1027.6296549466
 20
-652.4869594458
 30
0.0
 11
1027.6296549466
 21
-674.3869594458
 31
0.0
  0
LINE
  5
AB
  8
2
  6
CONTINUOUS
 62
     7
 10
854.8296549466
 20
-684.9951474458
 30
0.0
 11
854.8296549466
 21
-702.1869594458
 31
0.0
  0
ARC
  5
AC
  8
2
  6
CONTINUOUS
 62
     7
 10
820.5796549466
 20
-666.0869594458
 30
0.0
 40
3.0
 50
180.0
 51
270.0
  0
LINE
  5
AD
  8
1
  6
CONTINUOUS
 62
     7
 10
1059.3296549466
 20
-681.9869594458
 30
0.0
 11
1059.3296549466
 21
-668.9869594458
 31
0.0
  0
LINE
  5
AE
  8
2
  6
CONTINUOUS
 62
     7
 10
838.7519379466
 20
-669.0869594458
 30
0.0
 11
820.5796549466
 21
-669.0869594458
 31
0.0
  0
ARC
  5
AF
  8
2
  6
CONTINUOUS
 62
     7
 10
845.0796549466
 20
-675.4869594458
 30
0.0
 40
9.0
 50
45.32539000000001
 51
134.67461
  0
ARC
  5
B0
  8
2
  6
CONTINUOUS
 62
     7
 10
861.7428269466
 20
-676.9869594458
 30
0.0
 40
3.0
 50
90.0
 51
173.37419
  0
LINE
  5
B1
  8
2
  6
CONTINUOUS
 62
     7
 10
945.3296549466
 20
-452.4869594458
 30
0.0
 11
945.3296549466
 21
-652.4869594458
 31
0.0
  0
LINE
  5
B2
  8
2
  6
CONTINUOUS
 62
     7
 10
822.5796549466
 20
-674.4869594458
 30
0.0
 11
822.5796549466
 21
-677.4869594458
 31
0.0
  0
LINE
  5
B3
  8
1
  6
CONTINUOUS
 62
     7
 10
1015.3296549466
 20
-679.4869594458
 30
0.0
 11
1017.3296549466
 21
-679.4869594458
 31
0.0
  0
CIRCLE
  5
B4
  8
1
  6
CONTINUOUS
 62
     7
 10
845.0796549466
 20
-675.4869594458
 30
0.0
 40
7.5055536246
  0
LINE
  5
B5
  8
2
  6
CONTINUOUS
 62
     7
 10
838.5796549466
 20
-671.7341824458
 30
0.0
 11
838.5796549466
 21
-679.2397364458
 31
0.0
  0
LINE
  5
B6
  8
2
  6
CONTINUOUS
 62
     7
 10
744.8296549466
 20
-697.4869594458
 30
0.0
 11
744.8296549466
 21
-695.0869594458
 31
0.0
  0
ARC
  5
B7
  8
2
  6
CONTINUOUS
 62
     7
 10
1028.1296549466
 20
-430.2869594458
 30
0.0
 40
0.5
 50
90.0
 51
180.0
  0
LINE
  5
B8
  8
2
  6
CONTINUOUS
 62
     7
 10
1033.0796549466
 20
-739.9869594458
 30
0.0
 11
1033.0796549466
 21
-748.4869594458
 31
0.0
  0
CIRCLE
  5
B9
  8
1
  6
CONTINUOUS
 62
     7
 10
845.0796549466
 20
-675.4869594458
 30
0.0
 40
4.0
  0
LINE
  5
BA
  8
2
  6
CONTINUOUS
 62
     7
 10
867.5695529466
 20
-674.3869594458
 30
0.0
 11
867.5796549466
 21
-674.4869594458
 31
0.0
  0
LINE
  5
BB
  8
1
  6
CONTINUOUS
 62
     7
 10
1015.3296549466
 20
-671.4869594458
 30
0.0
 11
1013.8296549466
 21
-672.9869594458
 31
0.0
  0
LINE
  5
BC
  8
2
  6
CONTINUOUS
 62
     7
 10
1033.0796549466
 20
-722.9869594458
 30
0.0
 11
1033.0796549466
 21
-726.9869594458
 31
0.0
  0
ARC
  5
BD
  8
2
  6
CONTINUOUS
 62
     7
 10
1031.5796549466
 20
-739.9869594458
 30
0.0
 40
1.5
 50
0.0
 51
90.0
  0
LINE
  5
BE
  8
2
  6
CONTINUOUS
 62
     7
 10
1028.0796549466
 20
-729.9869594458
 30
0.0
 11
1028.0796549466
 21
-736.9869594458
 31
0.0
  0
LINE
  5
BF
  8
2
  6
CONTINUOUS
 62
     7
 10
941.0796549466
 20
-425.8869594458
 30
0.0
 11
941.0796549466
 21
-427.4869594458
 31
0.0
  0
LINE
  5
C0
  8
2
  6
CONTINUOUS
 62
     7
 10
830.8028839466
 20
-652.4869594458
 30
0.0
 11
842.0796549466
 21
-654.9869594458
 31
0.0
  0
LINE
  5
C1
  8
2
  6
CONTINUOUS
 62
     7
 10
822.5796549466
 20
-674.4869594458
 30
0.0
 11
822.5897569466
 21
-674.3869594458
 31
0.0
  0
ARC
  5
C2
  8
2
  6
CONTINUOUS
 62
     7
 10
1029.5796549466
 20
-736.9869594458
 30
0.0
 40
1.5
 50
180.0
 51
270.0
  0
LINE
  5
C3
  8
2
  6
CONTINUOUS
 62
     7
 10
1029.5796549466
 20
-738.4869594458
 30
0.0
 11
1031.5796549466
 21
-738.4869594458
 31
0.0
  0
ARC
  5
C4
  8
2
  6
CONTINUOUS
 62
     7
 10
1051.0296549466
 20
-430.2869594458
 30
0.0
 40
0.5
 50
0.0
 51
90.0
  0
LINE
  5
C5
  8
2
  6
CONTINUOUS
 62
     7
 10
941.5796549466
 20
-417.8869594458
 30
0.0
 11
958.5796549466
 21
-417.8869594458
 31
0.0
  0
LINE
  5
C6
  8
2
  6
CONTINUOUS
 62
     7
 10
749.0796549466
 20
-427.4869594458
 30
0.0
 11
749.0796549466
 21
-425.8869594458
 31
0.0
  0
LINE
  5
C7
  8
2
  6
CONTINUOUS
 62
     7
 10
740.0796549466
 20
-417.8869594458
 30
0.0
 11
740.0796549466
 21
-425.8869594458
 31
0.0
  0
LINE
  5
C8
  8
2
  6
CONTINUOUS
 62
     7
 10
735.3296549466
 20
-695.0869594458
 30
0.0
 11
735.3296549466
 21
-697.4869594458
 31
0.0
  0
LINE
  5
C9
  8
2
  6
CONTINUOUS
 62
     7
 10
945.3296549466
 20
-407.4869594458
 30
0.0
 11
954.8296549466
 21
-407.4869594458
 31
0.0
  0
LINE
  5
CA
  8
2
  6
CONTINUOUS
 62
     7
 10
749.0796549466
 20
-425.8869594458
 30
0.0
 11
731.0796549466
 21
-425.8869594458
 31
0.0
  0
LINE
  5
CB
  8
1
  6
CONTINUOUS
 62
     7
 10
1013.8296549466
 20
-672.9869594458
 30
0.0
 11
1013.8296549466
 21
-677.9869594458
 31
0.0
  0
LINE
  5
CC
  8
2
  6
CONTINUOUS
 62
     7
 10
867.5796549466
 20
-677.4869594458
 30
0.0
 11
867.5796549466
 21
-674.4869594458
 31
0.0
  0
LINE
  5
CD
  8
2
  6
CONTINUOUS
 62
     7
 10
725.0796549466
 20
-677.4869594458
 30
0.0
 11
822.5796549466
 21
-677.4869594458
 31
0.0
  0
LINE
  5
CE
  8
2
  6
CONTINUOUS
 62
     7
 10
735.3296549466
 20
-452.4869594458
 30
0.0
 11
735.3296549466
 21
-652.4869594458
 31
0.0
  0
LINE
  5
CF
  8
2
  6
CONTINUOUS
 62
     7
 10
744.8296549466
 20
-652.4869594458
 30
0.0
 11
744.8296549466
 21
-452.4869594458
 31
0.0
  0
ARC
  5
D0
  8
2
  6
CONTINUOUS
 62
     7
 10
1034.5796549466
 20
-722.9869594458
 30
0.0
 40
1.5
 50
114.898665
 51
180.0
  0
LINE
  5
D1
  8
2
  6
CONTINUOUS
 62
     7
 10
859.3564259466
 20
-652.4869594458
 30
0.0
 11
963.0796549466
 21
-652.4869594458
 31
0.0
  0
LINE
  5
D2
  8
1
  6
CONTINUOUS
 62
     7
 10
1017.3296549466
 20
-679.4869594458
 30
0.0
 11
1017.3296549466
 21
-671.4869594458
 31
0.0
  0
LINE
  5
D3
  8
2
  6
CONTINUOUS
 62
     7
 10
1031.5796549466
 20
-728.4869594458
 30
0.0
 11
1029.5796549466
 21
-728.4869594458
 31
0.0
  0
LINE
  5
D4
  8
2
  6
CONTINUOUS
 62
     7
 10
842.0796549466
 20
-654.9869594458
 30
0.0
 11
848.0796549466
 21
-654.9869594458
 31
0.0
  0
LINE
  5
D5
  8
1
  6
CONTINUOUS
 62
     7
 10
1013.8296549466
 20
-677.9869594458
 30
0.0
 11
1015.3296549466
 21
-679.4869594458
 31
0.0
  0
LINE
  5
D6
  8
1
  6
CONTINUOUS
 62
     7
 10
1017.3296549466
 20
-671.4869594458
 30
0.0
 11
1015.3296549466
 21
-671.4869594458
 31
0.0
  0
ARC
  5
D7
  8
2
  6
CONTINUOUS
 62
     7
 10
1031.5796549466
 20
-726.9869594458
 30
0.0
 40
1.5
 50
270.0
 51
0.0
  0
LINE
  5
D8
  8
2
  6
CONTINUOUS
 62
     7
 10
844.8296549466
 20
-701.8869594458
 30
0.0
 11
835.3296549466
 21
-701.8869594458
 31
0.0
  0
LINE
  5
D9
  8
2
  6
CONTINUOUS
 62
     7
 10
748.5796549466
 20
-417.8869594458
 30
0.0
 11
748.5796549466
 21
-425.8869594458
 31
0.0
  0
LINE
  5
DA
  8
2
  6
CONTINUOUS
 62
     7
 10
731.0796549466
 20
-677.4869594458
 30
0.0
 11
731.0796549466
 21
-679.0869594458
 31
0.0
  0
ARC
  5
DB
  8
2
  6
CONTINUOUS
 62
     7
 10
1029.5796549466
 20
-729.9869594458
 30
0.0
 40
1.5
 50
90.0
 51
180.0
  0
LINE
  5
DC
  8
2
  6
CONTINUOUS
 62
     7
 10
731.5796549466
 20
-695.0869594458
 30
0.0
 11
748.5796549466
 21
-695.0869594458
 31
0.0
  0
LINE
  5
DD
  8
2
  6
CONTINUOUS
 62
     7
 10
749.0796549466
 20
-679.0869594458
 30
0.0
 11
749.0796549466
 21
-677.4869594458
 31
0.0
  0
LINE
  5
DE
  8
2
  6
CONTINUOUS
 62
     7
 10
731.0796549466
 20
-425.8869594458
 30
0.0
 11
731.0796549466
 21
-427.4869594458
 31
0.0
  0
LINE
  5
DF
  8
2
  6
CONTINUOUS
 62
     7
 10
1039.5796549466
 20
-700.9925124458
 30
0.0
 11
1046.0796549466
 21
-697.2397364458
 31
0.0
  0
LINE
  5
E0
  8
2
  6
CONTINUOUS
 62
     7
 10
959.0796549466
 20
-425.8869594458
 30
0.0
 11
941.0796549466
 21
-425.8869594458
 31
0.0
  0
ARC
  5
E1
  8
2
  6
CONTINUOUS
 62
     7
 10
727.0796549466
 20
-654.4869594458
 30
0.0
 40
2.0
 50
90.0
 51
180.0
  0
LINE
  5
E2
  8
2
  6
CONTINUOUS
 62
     7
 10
731.5796549466
 20
-417.8869594458
 30
0.0
 11
731.5796549466
 21
-425.8869594458
 31
0.0
  0
LINE
  5
E3
  8
2
  6
CONTINUOUS
 62
     7
 10
1031.3296549466
 20
-677.4869594458
 30
0.0
 11
1031.3296549466
 21
-680.4869594458
 31
0.0
  0
LINE
  5
E4
  8
2
  6
CONTINUOUS
 62
     7
 10
749.0796549466
 20
-679.0869594458
 30
0.0
 11
731.0796549466
 21
-679.0869594458
 31
0.0
  0
LINE
  5
E5
  8
2
  6
CONTINUOUS
 62
     7
 10
965.0796549466
 20
-450.4869594458
 30
0.0
 11
965.0796549466
 21
-427.4869594458
 31
0.0
  0
LINE
  5
E6
  8
2
  6
CONTINUOUS
 62
     7
 10
731.5796549466
 20
-679.0869594458
 30
0.0
 11
731.5796549466
 21
-695.0869594458
 31
0.0
  0
LINE
  5
E7
  8
2
  6
CONTINUOUS
 62
     7
 10
1046.0796549466
 20
-746.1869594458
 30
0.0
 11
1033.0796549466
 21
-746.1869594458
 31
0.0
  0
LINE
  5
E8
  8
2
  6
CONTINUOUS
 62
     7
 10
1027.6296549466
 20
-679.4869594458
 30
0.0
 11
1028.0796549466
 21
-679.4869594458
 31
0.0
  0
LINE
  5
E9
  8
2
  6
CONTINUOUS
 62
     7
 10
744.8296549466
 20
-697.4869594458
 30
0.0
 11
735.3296549466
 21
-697.4869594458
 31
0.0
  0
ARC
  5
EA
  8
2
  6
CONTINUOUS
 62
     7
 10
852.5296549466
 20
-702.1869594458
 30
0.0
 40
2.3
 50
270.0
 51
0.0
  0
LINE
  5
EB
  8
2
  6
CONTINUOUS
 62
     7
 10
845.3296549466
 20
-704.4869594458
 30
0.0
 11
845.3296549466
 21
-701.8869594458
 31
0.0
  0
LINE
  5
EC
  8
2
  6
CONTINUOUS
 62
     7
 10
941.5796549466
 20
-425.8869594458
 30
0.0
 11
941.5796549466
 21
-417.8869594458
 31
0.0
  0
LINE
  5
ED
  8
2
  6
CONTINUOUS
 62
     7
 10
1046.0796549466
 20
-689.7341824458
 30
0.0
 11
1041.1478939345
 21
-686.8868294668
 31
0.0
  0
LINE
  5
EE
  8
2
  6
CONTINUOUS
 62
     7
 10
1053.8296549466
 20
-452.4869594458
 30
0.0
 11
1051.5296549466
 21
-452.4869594458
 31
0.0
  0
LINE
  5
EF
  8
2
  6
CONTINUOUS
 62
     7
 10
954.8296549466
 20
-652.4869594458
 30
0.0
 11
954.8296549466
 21
-452.4869594458
 31
0.0
  0
LINE
  5
F0
  8
2
  6
CONTINUOUS
 62
     7
 10
735.3296549466
 20
-407.4869594458
 30
0.0
 11
744.8296549466
 21
-407.4869594458
 31
0.0
  0
ARC
  5
F1
  8
2
  6
CONTINUOUS
 62
     7
 10
963.0796549466
 20
-654.4869594458
 30
0.0
 40
2.0
 50
0.0
 51
90.0
  0
ARC
  5
F2
  8
2
  6
CONTINUOUS
 62
     7
 10
727.0796549466
 20
-450.4869594458
 30
0.0
 40
2.0
 50
180.0
 51
270.0
  0
LINE
  5
F3
  8
2
  6
CONTINUOUS
 62
     7
 10
1029.7646999466
 20
-417.8869594458
 30
0.0
 11
1049.3946099466
 21
-417.8869594458
 31
0.0
  0
LINE
  5
F4
  8
2
  6
CONTINUOUS
 62
     7
 10
965.0796549466
 20
-677.4869594458
 30
0.0
 11
965.0796549466
 21
-654.4869594458
 31
0.0
  0
LINE
  5
F5
  8
2
  6
CONTINUOUS
 62
     7
 10
950.0796549466
 20
-417.8869594458
 30
0.0
 11
950.0796549466
 21
-425.8869594458
 31
0.0
  0
LINE
  5
F6
  8
2
  6
CONTINUOUS
 62
     7
 10
1034.6721779466
 20
-417.8869594458
 30
0.0
 11
1034.6721779466
 21
-425.8869594458
 31
0.0
  0
LINE
  5
F7
  8
2
  6
CONTINUOUS
 62
     7
 10
1029.7646999466
 20
-417.8869594458
 30
0.0
 11
1029.7646999466
 21
-425.8869594458
 31
0.0
  0
LINE
  5
F8
  8
2
  6
CONTINUOUS
 62
     7
 10
842.0796549466
 20
-449.9869594458
 30
0.0
 11
830.8028839466
 21
-452.4869594458
 31
0.0
  0
LINE
  5
F9
  8
2
  6
CONTINUOUS
 62
     7
 10
1049.3946099466
 20
-425.8869594458
 30
0.0
 11
1029.7646999466
 21
-425.8869594458
 31
0.0
  0
LINE
  5
FA
  8
2
  6
CONTINUOUS
 62
     7
 10
748.5796549466
 20
-695.0869594458
 30
0.0
 11
748.5796549466
 21
-679.0869594458
 31
0.0
  0
LINE
  5
FB
  8
2
  6
CONTINUOUS
 62
     7
 10
848.0796549466
 20
-449.9869594458
 30
0.0
 11
842.0796549466
 21
-449.9869594458
 31
0.0
  0
LINE
  5
FC
  8
2
  6
CONTINUOUS
 62
     7
 10
740.0796549466
 20
-695.0869594458
 30
0.0
 11
740.0796549466
 21
-679.0869594458
 31
0.0
  0
LINE
  5
FD
  8
2
  6
CONTINUOUS
 62
     7
 10
727.0796549466
 20
-452.4869594458
 30
0.0
 11
830.8028839466
 21
-452.4869594458
 31
0.0
  0
LINE
  5
FE
  8
2
  6
CONTINUOUS
 62
     7
 10
725.0796549466
 20
-677.4869594458
 30
0.0
 11
725.0796549466
 21
-654.4869594458
 31
0.0
  0
LINE
  5
FF
  8
2
  6
CONTINUOUS
 62
     7
 10
748.5796549466
 20
-687.0869594458
 30
0.0
 11
731.5796549466
 21
-687.0869594458
 31
0.0
  0
LINE
  5
100
  8
2
  6
CONTINUOUS
 62
     7
 10
959.0796549466
 20
-427.4869594458
 30
0.0
 11
959.0796549466
 21
-425.8869594458
 31
0.0
  0
LINE
  5
101
  8
2
  6
CONTINUOUS
 62
     7
 10
859.3564259466
 20
-452.4869594458
 30
0.0
 11
848.0796549466
 21
-449.9869594458
 31
0.0
  0
ARC
  5
102
  8
2
  6
CONTINUOUS
 62
     7
 10
963.0796549466
 20
-450.4869594458
 30
0.0
 40
2.0
 50
270.0
 51
0.0
  0
LINE
  5
103
  8
2
  6
CONTINUOUS
 62
     7
 10
1059.5796549466
 20
-748.4869594458
 30
0.0
 11
1019.5796549466
 21
-748.4869594458
 31
0.0
  0
LINE
  5
104
  8
2
  6
CONTINUOUS
 62
     7
 10
852.5296549466
 20
-704.4869594458
 30
0.0
 11
845.3296549466
 21
-704.4869594458
 31
0.0
  0
LINE
  5
105
  8
2
  6
CONTINUOUS
 62
     7
 10
1028.0796549466
 20
-677.4671374458
 30
0.0
 11
1028.0796549466
 21
-690.0591314458
 31
0.0
  0
LINE
  5
106
  8
2
  6
CONTINUOUS
 62
     7
 10
1033.0796549466
 20
-697.2397364458
 30
0.0
 11
1039.5796549466
 21
-700.9925124458
 31
0.0
  0
LINE
  5
107
  8
2
  6
CONTINUOUS
 62
     7
 10
1049.3946099466
 20
-417.8869594458
 30
0.0
 11
1049.3946099466
 21
-425.8869594458
 31
0.0
  0
LINE
  5
108
  8
2
  6
CONTINUOUS
 62
     7
 10
865.6296549466
 20
-700.9925124458
 30
0.0
 11
865.6296549466
 21
-685.9814054458
 31
0.0
  0
LINE
  5
109
  8
2
  6
CONTINUOUS
 62
     7
 10
1034.8296549466
 20
-407.4869594458
 30
0.0
 11
1044.3296549466
 21
-407.4869594458
 31
0.0
  0
LINE
  5
10A
  8
2
  6
CONTINUOUS
 62
     7
 10
725.0796549466
 20
-450.4869594458
 30
0.0
 11
725.0796549466
 21
-427.4869594458
 31
0.0
  0
LINE
  5
10B
  8
2
  6
CONTINUOUS
 62
     7
 10
1030.5796549466
 20
-425.8869594458
 30
0.0
 11
1030.5796549466
 21
-427.4869594458
 31
0.0
  0
LINE
  5
10C
  8
2
  6
CONTINUOUS
 62
     7
 10
1048.5796549466
 20
-427.4869594458
 30
0.0
 11
1048.5796549466
 21
-425.8869594458
 31
0.0
  0
LINE
  5
10D
  8
2
  6
CONTINUOUS
 62
     7
 10
731.5796549466
 20
-417.8869594458
 30
0.0
 11
748.5796549466
 21
-417.8869594458
 31
0.0
  0
LINE
  5
10E
  8
2
  6
CONTINUOUS
 62
     7
 10
958.5796549466
 20
-417.8869594458
 30
0.0
 11
958.5796549466
 21
-425.8869594458
 31
0.0
  0
LINE
  5
10F
  8
2
  6
CONTINUOUS
 62
     7
 10
859.3564259466
 20
-452.4869594458
 30
0.0
 11
963.0796549466
 21
-452.4869594458
 31
0.0
  0
LINE
  5
110
  8
2
  6
CONTINUOUS
 62
     7
 10
725.0796549466
 20
-427.4869594458
 30
0.0
 11
965.0796549466
 21
-427.4869594458
 31
0.0
  0
LINE
  5
111
  8
2
  6
CONTINUOUS
 62
     7
 10
1051.0796549466
 20
-679.4869594458
 30
0.0
 11
1051.5296549466
 21
-679.4869594458
 31
0.0
  0
LINE
  5
112
  8
2
  6
CONTINUOUS
 62
     7
 10
1022.8296549466
 20
-682.1869594458
 30
0.0
 11
1025.3296549466
 21
-682.1869594458
 31
0.0
  0
LINE
  5
113
  8
2
  6
CONTINUOUS
 62
     7
 10
1047.8296549466
 20
-680.4869594458
 30
0.0
 11
1047.8296549466
 21
-677.4869594458
 31
0.0
  0
LINE
  5
114
  8
2
  6
CONTINUOUS
 62
     7
 10
1024.6731889466
 20
-668.7869594458
 30
0.0
 11
1022.8296549466
 21
-668.7869594458
 31
0.0
  0
LINE
  5
115
  8
2
  6
CONTINUOUS
 62
     7
 10
1038.0118299466
 20
-686.8865904458
 30
0.0
 11
1033.0796549508
 21
-689.734182453
 31
0.0
  0
ARC
  5
116
  8
2
  6
CONTINUOUS
 62
     7
 10
1051.0296549466
 20
-430.2869594458
 30
0.0
 40
2.8
 50
0.0
 51
90.0
  0
LINE
  5
117
  8
2
  6
CONTINUOUS
 62
     7
 10
941.5796549466
 20
-679.0869594458
 30
0.0
 11
941.5796549466
 21
-695.0869594458
 31
0.0
  0
ARC
  5
118
  8
2
  6
CONTINUOUS
 62
     7
 10
1049.5796549466
 20
-729.9869594458
 30
0.0
 40
1.5
 50
0.0
 51
90.0
  0
LINE
  5
119
  8
2
  6
CONTINUOUS
 62
     7
 10
941.5796549466
 20
-695.0869594458
 30
0.0
 11
958.5796549466
 21
-695.0869594458
 31
0.0
  0
LINE
  5
11A
  8
2
  6
CONTINUOUS
 62
     7
 10
1049.5796549466
 20
-728.4869594458
 30
0.0
 11
1047.5796549466
 21
-728.4869594458
 31
0.0
  0
LINE
  5
11B
  8
2
  6
CONTINUOUS
 62
     7
 10
1022.8296549466
 20
-667.9814054458
 30
0.0
 11
1017.3296549466
 21
-667.9814054458
 31
0.0
  0
LINE
  5
11C
  8
2
  6
CONTINUOUS
 62
     7
 10
950.0796549466
 20
-695.0869594458
 30
0.0
 11
950.0796549466
 21
-679.0869594458
 31
0.0
  0
ARC
  5
11D
  8
2
  6
CONTINUOUS
 62
     7
 10
1044.5796549466
 20
-722.9869594458
 30
0.0
 40
1.5
 50
0.0
 51
65.101335
  0
LINE
  5
11E
  8
2
  6
CONTINUOUS
 62
     7
 10
1025.3296549466
 20
-452.4869594458
 30
0.0
 11
1025.3296549466
 21
-430.2869594458
 31
0.0
  0
LINE
  5
11F
  8
2
  6
CONTINUOUS
 62
     7
 10
959.0796549466
 20
-679.0869594458
 30
0.0
 11
941.0796549466
 21
-679.0869594458
 31
0.0
  0
LINE
  5
120
  8
2
  6
CONTINUOUS
 62
     7
 10
1030.3420509466
 20
-686.8869594458
 30
0.0
 11
1030.3420509466
 21
-680.4869594458
 31
0.0
  0
LINE
  5
121
  8
2
  6
CONTINUOUS
 62
     7
 10
860.1296549466
 20
-700.9925124458
 30
0.0
 11
865.6296549466
 21
-700.9925124458
 31
0.0
  0
LINE
  5
122
  8
2
  6
CONTINUOUS
 62
     7
 10
1027.6296549466
 20
-430.2869594458
 30
0.0
 11
1027.6296549466
 21
-452.4869594458
 31
0.0
  0
LINE
  5
123
  8
2
  6
CONTINUOUS
 62
     7
 10
1034.9608529466
 20
-686.8869594458
 30
0.0
 11
1034.9608529466
 21
-680.4869594458
 31
0.0
  0
ARC
  5
124
  8
2
  6
CONTINUOUS
 62
     7
 10
1028.1296549466
 20
-430.2869594458
 30
0.0
 40
2.8
 50
90.0
 51
180.0
  0
LINE
  5
125
  8
2
  6
CONTINUOUS
 62
     7
 10
954.8296549466
 20
-697.4869594458
 30
0.0
 11
945.3296549466
 21
-697.4869594458
 31
0.0
  0
LINE
  5
126
  8
2
  6
CONTINUOUS
 62
     7
 10
958.5796549466
 20
-687.0869594458
 30
0.0
 11
941.5796549466
 21
-687.0869594458
 31
0.0
  0
LINE
  5
127
  8
2
  6
CONTINUOUS
 62
     7
 10
959.0796549466
 20
-679.0869594458
 30
0.0
 11
959.0796549466
 21
-677.4869594458
 31
0.0
  0
LINE
  5
128
  8
2
  6
CONTINUOUS
 62
     7
 10
1048.8172589466
 20
-686.8869594458
 30
0.0
 11
1048.8172589466
 21
-680.4869594458
 31
0.0
  0
LINE
  5
129
  8
2
  6
CONTINUOUS
 62
     7
 10
1046.0796549466
 20
-697.2397364458
 30
0.0
 11
1046.0796549466
 21
-689.7341824458
 31
0.0
  0
ARC
  5
12A
  8
2
  6
CONTINUOUS
 62
     7
 10
1047.5796549466
 20
-726.9869594458
 30
0.0
 40
1.5
 50
180.0
 51
270.0
  0
LINE
  5
12B
  8
2
  6
CONTINUOUS
 62
     7
 10
1030.3420509466
 20
-686.8869594458
 30
0.0
 11
1048.8172589466
 21
-686.8869594458
 31
0.0
  0
LINE
  5
12C
  8
2
  6
CONTINUOUS
 62
     7
 10
1022.8296549466
 20
-671.7341824458
 30
0.0
 11
1017.3296549466
 21
-671.7341824458
 31
0.0
  0
LINE
  5
12D
  8
2
  6
CONTINUOUS
 62
     7
 10
1033.0796549466
 20
-689.7341824458
 30
0.0
 11
1033.0796549466
 21
-697.2397364458
 31
0.0
  0
LINE
  5
12E
  8
2
  6
CONTINUOUS
 62
     7
 10
958.5796549466
 20
-695.0869594458
 30
0.0
 11
958.5796549466
 21
-679.0869594458
 31
0.0
  0
LINE
  5
12F
  8
2
  6
CONTINUOUS
 62
     7
 10
1027.6296549466
 20
-452.4869594458
 30
0.0
 11
1025.3296549466
 21
-452.4869594458
 31
0.0
  0
LINE
  5
130
  8
2
  6
CONTINUOUS
 62
     7
 10
1051.5296549466
 20
-452.4869594458
 30
0.0
 11
1051.5296549466
 21
-430.2869594458
 31
0.0
  0
LINE
  5
131
  8
2
  6
CONTINUOUS
 62
     7
 10
1053.8296549466
 20
-430.2869594458
 30
0.0
 11
1053.8296549466
 21
-452.4869594458
 31
0.0
  0
LINE
  5
132
  8
2
  6
CONTINUOUS
 62
     7
 10
1051.0296549466
 20
-429.7869594458
 30
0.0
 11
1028.1296549466
 21
-429.7869594458
 31
0.0
  0
LINE
  5
133
  8
2
  6
CONTINUOUS
 62
     7
 10
1046.0796549466
 20
-726.9869594458
 30
0.0
 11
1046.0796549466
 21
-722.9869594458
 31
0.0
  0
LINE
  5
134
  8
2
  6
CONTINUOUS
 62
     7
 10
1017.3296549466
 20
-667.9814054458
 30
0.0
 11
1017.3296549466
 21
-682.9925124458
 31
0.0
  0
LINE
  5
135
  8
2
  6
CONTINUOUS
 62
     7
 10
1022.8296549466
 20
-679.2397364458
 30
0.0
 11
1017.3296549466
 21
-679.2397364458
 31
0.0
  0
LINE
  5
136
  8
2
  6
CONTINUOUS
 62
     7
 10
1022.8296549466
 20
-667.9814054458
 30
0.0
 11
1022.8296549466
 21
-682.9925124458
 31
0.0
  0
LINE
  5
137
  8
2
  6
CONTINUOUS
 62
     7
 10
1022.8296549466
 20
-682.9925124458
 30
0.0
 11
1017.3296549466
 21
-682.9925124458
 31
0.0
  0
ARC
  5
138
  8
2
  6
CONTINUOUS
 62
     7
 10
1039.5796549466
 20
-693.4869594458
 30
0.0
 40
12.0
 50
140.335965
 51
180.0
  0
LINE
  5
139
  8
2
  6
CONTINUOUS
 62
     7
 10
835.0796549466
 20
-683.2932064458
 30
0.0
 11
835.0796549466
 21
-721.4869594458
 31
0.0
  0
LINE
  5
13A
  8
2
  6
CONTINUOUS
 62
     7
 10
845.0796549466
 20
-682.9925124458
 30
0.0
 11
851.5796549466
 21
-679.2397364458
 31
0.0
  0
LINE
  5
13B
  8
2
  6
CONTINUOUS
 62
     7
 10
867.5796549466
 20
-677.4869594458
 30
0.0
 11
965.0796549466
 21
-677.4869594458
 31
0.0
  0
LINE
  5
13C
  8
2
  6
CONTINUOUS
 62
     7
 10
1051.5796549466
 20
-693.4869594458
 30
0.0
 11
1051.5796549466
 21
-700.5240474458
 31
0.0
  0
LINE
  5
13D
  8
2
  6
CONTINUOUS
 62
     7
 10
1034.5796549466
 20
-721.4869594458
 30
0.0
 11
1044.5796549466
 21
-721.4869594458
 31
0.0
  0
LINE
  5
13E
  8
2
  6
CONTINUOUS
 62
     7
 10
835.0796549466
 20
-721.4869594458
 30
0.0
 11
836.5796549466
 21
-746.1869594458
 31
0.0
  0
LINE
  5
13F
  8
2
  6
CONTINUOUS
 62
     7
 10
836.5796549466
 20
-748.4869594458
 30
0.0
 11
853.5796549466
 21
-748.4869594458
 31
0.0
  0
LINE
  5
140
  8
2
  6
CONTINUOUS
 62
     7
 10
851.5796549466
 20
-671.7341824458
 30
0.0
 11
845.0796545136
 21
-667.9814061959
 31
0.0
  0
ARC
  5
141
  8
2
  6
CONTINUOUS
 62
     7
 10
1056.5796549466
 20
-700.5240474458
 30
0.0
 40
5.0
 50
180.0
 51
201.801409
  0
LINE
  5
142
  8
2
  6
CONTINUOUS
 62
     7
 10
838.5796549466
 20
-679.2397364458
 30
0.0
 11
845.0796549466
 21
-682.9925124458
 31
0.0
  0
LINE
  5
143
  8
2
  6
CONTINUOUS
 62
     7
 10
860.1296549466
 20
-685.9814054458
 30
0.0
 11
860.1296549466
 21
-700.9925124458
 31
0.0
  0
LINE
  5
144
  8
2
  6
CONTINUOUS
 62
     7
 10
837.6296549466
 20
-704.4869594458
 30
0.0
 11
844.8296549466
 21
-704.4869594458
 31
0.0
  0
LINE
  5
145
  8
2
  6
CONTINUOUS
 62
     7
 10
1051.9372719466
 20
-702.3810004458
 30
0.0
 11
1059.5796549466
 21
-721.4869594458
 31
0.0
  0
ARC
  5
146
  8
2
  6
CONTINUOUS
 62
     7
 10
1039.5796549466
 20
-693.4869594458
 30
0.0
 40
12.0
 50
0.0
 51
39.664035
  0
LINE
  5
147
  8
2
  6
CONTINUOUS
 62
     7
 10
835.0796549466
 20
-721.4869594458
 30
0.0
 11
832.7796549466
 21
-721.4869594458
 31
0.0
  0
ARC
  5
148
  8
2
  6
CONTINUOUS
 62
     7
 10
837.6296549466
 20
-702.1869594458
 30
0.0
 40
2.3
 50
180.0
 51
270.0
  0
LINE
  5
149
  8
2
  6
CONTINUOUS
 62
     7
 10
832.7796549466
 20
-721.4869594458
 30
0.0
 11
832.7796549466
 21
-681.4869594458
 31
0.0
  0
LINE
  5
14A
  8
2
  6
CONTINUOUS
 62
     7
 10
853.5796549466
 20
-746.1869594458
 30
0.0
 11
836.5796549466
 21
-746.1869594458
 31
0.0
  0
LINE
  5
14B
  8
2
  6
CONTINUOUS
 62
     7
 10
851.5796549466
 20
-679.2397364458
 30
0.0
 11
851.5796549466
 21
-671.7341824458
 31
0.0
  0
LINE
  5
14C
  8
2
  6
CONTINUOUS
 62
     7
 10
1059.5796549466
 20
-721.4869594458
 30
0.0
 11
1059.5796549466
 21
-748.4869594458
 31
0.0
  0
LINE
  5
14D
  8
2
  6
CONTINUOUS
 62
     7
 10
845.0796549466
 20
-667.9814054458
 30
0.0
 11
838.5796553797
 21
-671.7341831958
 31
0.0
  0
LINE
  5
14E
  8
2
  6
CONTINUOUS
 62
     7
 10
857.6296549466
 20
-686.7869594458
 30
0.0
 11
857.6296549466
 21
-700.1869594458
 31
0.0
  0
LINE
  5
14F
  8
2
  6
CONTINUOUS
 62
     7
 10
1019.5796549466
 20
-721.4869594458
 30
0.0
 11
1027.2220379466
 21
-702.3810004458
 31
0.0
  0
LINE
  5
150
  8
2
  6
CONTINUOUS
 62
     7
 10
1055.6296549466
 20
-660.3869594458
 30
0.0
 11
1055.6296549466
 21
-666.6869594458
 31
0.0
  0
ARC
  5
151
  8
2
  6
CONTINUOUS
 62
     7
 10
1053.1296549466
 20
-666.6869594458
 30
0.0
 40
2.5
 50
286.260205
 51
0.0
  0
LINE
  5
152
  8
2
  6
CONTINUOUS
 62
     7
 10
1053.8296549466
 20
-685.4869594458
 30
0.0
 11
1051.5296549466
 21
-685.4869594458
 31
0.0
  0
LINE
  5
153
  8
2
  6
CONTINUOUS
 62
     7
 10
826.0796549466
 20
-697.4869594458
 30
0.0
 11
832.7796549466
 21
-697.4869594458
 31
0.0
  0
LINE
  5
154
  8
2
  6
CONTINUOUS
 62
     7
 10
1033.9481329466
 20
-721.6263784458
 30
0.0
 11
1034.5796549466
 21
-721.4869594458
 31
0.0
  0
ARC
  5
155
  8
2
  6
CONTINUOUS
 62
     7
 10
835.0796549466
 20
-721.4869594458
 30
0.0
 40
2.3
 50
180.0
 51
183.475233
  0
ARC
  5
156
  8
2
  6
CONTINUOUS
 62
     7
 10
1026.0296549466
 20
-666.6869594458
 30
0.0
 40
2.5
 50
180.0
 51
253.739795
  0
LINE
  5
157
  8
2
  6
CONTINUOUS
 62
     7
 10
1047.5796549466
 20
-738.4869594458
 30
0.0
 11
1049.5796549466
 21
-738.4869594458
 31
0.0
  0
LINE
  5
158
  8
2
  6
CONTINUOUS
 62
     7
 10
1048.8172589466
 20
-680.4869594458
 30
0.0
 11
1030.3420509466
 21
-680.4869594458
 31
0.0
  0
ARC
  5
159
  8
2
  6
CONTINUOUS
 62
     7
 10
1028.4296549466
 20
-674.3869594458
 30
0.0
 40
3.1
 50
180.0
 51
270.0
  0
LINE
  5
15A
  8
2
  6
CONTINUOUS
 62
     7
 10
1051.0796549466
 20
-736.9869594458
 30
0.0
 11
1051.0796549466
 21
-729.9869594458
 31
0.0
  0
LINE
  5
15B
  8
2
  6
CONTINUOUS
 62
     7
 10
857.6296549466
 20
-700.1869594458
 30
0.0
 11
860.1296549466
 21
-700.1869594458
 31
0.0
  0
ARC
  5
15C
  8
2
  6
CONTINUOUS
 62
     7
 10
1049.5796549466
 20
-736.9869594458
 30
0.0
 40
1.5
 50
270.0
 51
0.0
  0
LINE
  5
15D
  8
2
  6
CONTINUOUS
 62
     7
 10
856.8296549466
 20
-681.4869594458
 30
0.0
 11
857.3796549466
 21
-681.4869594458
 31
0.0
  0
ARC
  5
15E
  8
2
  6
CONTINUOUS
 62
     7
 10
1053.1296549466
 20
-660.3869594458
 30
0.0
 40
2.5
 50
0.0
 51
73.739795
  0
LINE
  5
15F
  8
2
  6
CONTINUOUS
 62
     7
 10
1027.6296549466
 20
-685.4869594458
 30
0.0
 11
1027.6296549466
 21
-677.3819554458
 31
0.0
  0
LINE
  5
160
  8
2
  6
CONTINUOUS
 62
     7
 10
1051.5296549466
 20
-685.4869594458
 30
0.0
 11
1051.5296549466
 21
-677.3819554458
 31
0.0
  0
LINE
  5
161
  8
2
  6
CONTINUOUS
 62
     7
 10
1027.5796549466
 20
-700.5240474458
 30
0.0
 11
1027.5796549466
 21
-693.4869594458
 31
0.0
  0
LINE
  5
162
  8
2
  6
CONTINUOUS
 62
     7
 10
1044.1984569466
 20
-686.8869594458
 30
0.0
 11
1044.1984569466
 21
-680.4869594458
 31
0.0
  0
LINE
  5
163
  8
2
  6
CONTINUOUS
 62
     7
 10
1051.0796549466
 20
-677.4671374458
 30
0.0
 11
1051.0796549466
 21
-690.0591314458
 31
0.0
  0
LINE
  5
164
  8
2
  6
CONTINUOUS
 62
     7
 10
860.1296549466
 20
-686.7869594458
 30
0.0
 11
857.6296549466
 21
-686.7869594458
 31
0.0
  0
LINE
  5
165
  8
2
  6
CONTINUOUS
 62
     7
 10
1051.5296549466
 20
-674.3869594458
 30
0.0
 11
1051.5296549466
 21
-652.4869594458
 31
0.0
  0
LINE
  5
166
  8
2
  6
CONTINUOUS
 62
     7
 10
1025.3296549466
 20
-652.4869594458
 30
0.0
 11
1027.6296549466
 21
-652.4869594458
 31
0.0
  0
LINE
  5
167
  8
2
  6
CONTINUOUS
 62
     7
 10
844.8296549466
 20
-704.4869594458
 30
0.0
 11
844.8296549466
 21
-701.8869594458
 31
0.0
  0
ARC
  5
168
  8
2
  6
CONTINUOUS
 62
     7
 10
1047.5796549466
 20
-739.9869594458
 30
0.0
 40
1.5
 50
90.0
 51
180.0
  0
LINE
  5
169
  8
2
  6
CONTINUOUS
 62
     7
 10
845.3296549466
 20
-701.8869594458
 30
0.0
 11
854.8296549466
 21
-701.8869594458
 31
0.0
  0
LINE
  5
16A
  8
2
  6
CONTINUOUS
 62
     7
 10
855.8754259466
 20
-746.3263784458
 30
0.0
 11
857.3754259466
 21
-721.6263784458
 31
0.0
  0
LINE
  5
16B
  8
2
  6
CONTINUOUS
 62
     7
 10
1025.3296549466
 20
-685.4869594458
 30
0.0
 11
1027.6296549466
 21
-685.4869594458
 31
0.0
  0
ARC
  5
16C
  8
2
  6
CONTINUOUS
 62
     7
 10
1022.5796549466
 20
-700.5240474458
 30
0.0
 40
5.0
 50
338.198591
 51
0.0
  0
LINE
  5
16D
  8
2
  6
CONTINUOUS
 62
     7
 10
1046.0796549466
 20
-748.4869594458
 30
0.0
 11
1046.0796549466
 21
-739.9869594458
 31
0.0
  0
LINE
  5
16E
  8
2
  6
CONTINUOUS
 62
     7
 10
855.0796549466
 20
-683.2932064458
 30
0.0
 11
855.0796549466
 21
-721.4869594458
 31
0.0
  0
LINE
  5
16F
  8
2
  6
CONTINUOUS
 62
     7
 10
1019.5796549466
 20
-748.4869594458
 30
0.0
 11
1019.5796549466
 21
-721.4869594458
 31
0.0
  0
LINE
  5
170
  8
2
  6
CONTINUOUS
 62
     7
 10
1023.5296549466
 20
-666.6869594458
 30
0.0
 11
1023.5296549466
 21
-660.3869594458
 31
0.0
  0
LINE
  5
171
  8
2
  6
CONTINUOUS
 62
     7
 10
1044.5796549466
 20
-721.4869594458
 30
0.0
 11
1045.2111769466
 21
-721.6263784458
 31
0.0
  0
ARC
  5
172
  8
2
  6
CONTINUOUS
 62
     7
 10
1026.0296549466
 20
-660.3869594458
 30
0.0
 40
2.5
 50
106.260205
 51
180.0
  0
LINE
  5
173
  8
2
  6
CONTINUOUS
 62
     7
 10
945.3296549466
 20
-407.4869594458
 30
0.0
 11
945.3296549466
 21
-409.8869594458
 31
0.0
  0
LINE
  5
174
  8
2
  6
CONTINUOUS
 62
     7
 10
954.8296549466
 20
-409.8869594458
 30
0.0
 11
954.8296549466
 21
-407.4869594458
 31
0.0
  0
LINE
  5
175
  8
2
  6
CONTINUOUS
 62
     7
 10
1044.3296549466
 20
-409.8869594458
 30
0.0
 11
1044.3296549466
 21
-407.4869594458
 31
0.0
  0
LINE
  5
176
  8
2
  6
CONTINUOUS
 62
     7
 10
735.3296549466
 20
-407.4869594458
 30
0.0
 11
735.3296549466
 21
-409.8869594458
 31
0.0
  0
LINE
  5
177
  8
2
  6
CONTINUOUS
 62
     7
 10
744.8296549466
 20
-409.8869594458
 30
0.0
 11
744.8296549466
 21
-407.4869594458
 31
0.0
  0
LINE
  5
178
  8
2
  6
CONTINUOUS
 62
     7
 10
1034.8296549466
 20
-429.7869594458
 30
0.0
 11
1034.8296549466
 21
-675.1869594458
 31
0.0
  0
LINE
  5
179
  8
2
  6
CONTINUOUS
 62
     7
 10
1044.3296549466
 20
-675.1869594458
 30
0.0
 11
1044.3296549466
 21
-429.7869594457999
 31
0.0
  0
LINE
  5
17A
  8
2
  6
CONTINUOUS
 62
     7
 10
1034.8296549466
 20
-407.4869594458
 30
0.0
 11
1034.8296549466
 21
-409.8869594458
 31
0.0
  0
LINE
  5
17B
  8
2
  6
CONTINUOUS
 62
     7
 10
740.0796549466
 20
-409.8869594458
 30
0.0
 11
740.0796549466
 21
-417.8869594458
 31
0.0
  0
LINE
  5
17C
  8
2
  6
CONTINUOUS
 62
     7
 10
748.5796549466
 20
-409.8869594458
 30
0.0
 11
748.5796549466
 21
-417.8869594458
 31
0.0
  0
LINE
  5
17D
  8
2
  6
CONTINUOUS
 62
     7
 10
1034.6721779466
 20
-409.8869594458
 30
0.0
 11
1034.6721779466
 21
-417.8869594458
 31
0.0
  0
LINE
  5
17E
  8
2
  6
CONTINUOUS
 62
     7
 10
731.5796549466
 20
-409.8869594458
 30
0.0
 11
748.5796549466
 21
-409.8869594458
 31
0.0
  0
LINE
  5
17F
  8
2
  6
CONTINUOUS
 62
     7
 10
731.5796549466
 20
-409.8869594458
 30
0.0
 11
731.5796549466
 21
-417.8869594458
 31
0.0
  0
LINE
  5
180
  8
2
  6
CONTINUOUS
 62
     7
 10
950.0796549466
 20
-409.8869594458
 30
0.0
 11
950.0796549466
 21
-417.8869594458
 31
0.0
  0
LINE
  5
181
  8
2
  6
CONTINUOUS
 62
     7
 10
958.5796549466
 20
-409.8869594458
 30
0.0
 11
958.5796549466
 21
-417.8869594458
 31
0.0
  0
LINE
  5
182
  8
2
  6
CONTINUOUS
 62
     7
 10
1029.7646999466
 20
-409.8869594458
 30
0.0
 11
1049.3946099466
 21
-409.8869594458
 31
0.0
  0
LINE
  5
183
  8
2
  6
CONTINUOUS
 62
     7
 10
941.5796549466
 20
-409.8869594458
 30
0.0
 11
958.5796549466
 21
-409.8869594458
 31
0.0
  0
LINE
  5
184
  8
2
  6
CONTINUOUS
 62
     7
 10
1029.7646999466
 20
-409.8869594458
 30
0.0
 11
1029.7646999466
 21
-417.8869594458
 31
0.0
  0
LINE
  5
185
  8
2
  6
CONTINUOUS
 62
     7
 10
1044.4871319466
 20
-409.8869594458
 30
0.0
 11
1044.4871319466
 21
-417.8869594458
 31
0.0
  0
LINE
  5
186
  8
2
  6
CONTINUOUS
 62
     7
 10
1049.3946099466
 20
-409.8869594458
 30
0.0
 11
1049.3946099466
 21
-417.8869594458
 31
0.0
  0
LINE
  5
187
  8
2
  6
CONTINUOUS
 62
     7
 10
941.5796549466
 20
-417.8869594458
 30
0.0
 11
941.5796549466
 21
-409.8869594458
 31
0.0
  0
INSERT
  5
189
  8
0
 62
     7
  2
D_FRAME_DRAWING_21
 10
0.0
 20
0.0
 30
0.0
  0
TEXT
  5
1D3
  8
2
  6
CONTINUOUS
 62
     7
 10
823.4348271211079
 20
-799.0813737272726
 30
0.0
 40
6.0
  1
ＳＧＰＡ－２０－４
 41
0.888341
  0
ENDSEC
  0
EOF
