  0
SECTION
  2
HEADER
  9
$ACADVER
  1
AC1006
  9
$DWGCODEPAGE
  3
ansi_932
  9
$INSBASE
 10
0.0
 20
0.0
 30
0.0
  9
$EXTMIN
 10
0.0
 20
-164.03059
  9
$EXTMAX
 10
2011.2775814441
 20
269.8788626864
  9
$LIMMIN
 10
0.0
 20
0.0
  9
$LIMMAX
 10
12.0
 20
9.0
  9
$ORTHOMODE
 70
     0
  9
$REGENMODE
 70
     1
  9
$FILLMODE
 70
     1
  9
$QTEXTMODE
 70
     0
  9
$MIRRTEXT
 70
     1
  9
$DRAGMODE
 70
     2
  9
$LTSCALE
 40
1.0
  9
$OSMODE
 70
    37
  9
$ATTMODE
 70
     1
  9
$TEXTSIZE
 40
0.2
  9
$TRACEWID
 40
0.05
  9
$TEXTSTYLE
  7
STANDARD
  9
$CLAYER
  8
0
  9
$CELTYPE
  6
BYLAYER
  9
$CECOLOR
 62
   256
  9
$DIMSCALE
 40
1.0
  9
$DIMASZ
 40
2.4
  9
$DIMEXO
 40
0.0625
  9
$DIMDLI
 40
0.38
  9
$DIMRND
 40
0.0
  9
$DIMDLE
 40
0.0
  9
$DIMEXE
 40
1.2
  9
$DIMTP
 40
0.0
  9
$DIMTM
 40
0.0
  9
$DIMTXT
 40
8.0
  9
$DIMCEN
 40
0.09
  9
$DIMTSZ
 40
0.0
  9
$DIMTOL
 70
     0
  9
$DIMLIM
 70
     0
  9
$DIMTIH
 70
     1
  9
$DIMTOH
 70
     1
  9
$DIMSE1
 70
     0
  9
$DIMSE2
 70
     0
  9
$DIMTAD
 70
     1
  9
$DIMZIN
 70
     0
  9
$DIMBLK
  1

  9
$DIMASO
 70
     1
  9
$DIMSHO
 70
     1
  9
$DIMPOST
  1

  9
$DIMAPOST
  1

  9
$DIMALT
 70
     0
  9
$DIMALTD
 70
     2
  9
$DIMALTF
 40
25.4
  9
$DIMLFAC
 40
1.0
  9
$DIMTOFL
 70
     0
  9
$DIMTVP
 40
0.0
  9
$DIMTIX
 70
     0
  9
$DIMSOXD
 70
     0
  9
$DIMSAH
 70
     0
  9
$DIMBLK1
  1

  9
$DIMBLK2
  1

  9
$LUNITS
 70
     2
  9
$LUPREC
 70
     4
  9
$SKETCHINC
 40
0.1
  9
$FILLETRAD
 40
0.5
  9
$AUNITS
 70
     0
  9
$AUPREC
 70
     0
  9
$MENU
  1
.
  9
$ELEVATION
 40
0.0
  9
$THICKNESS
 40
0.0
  9
$LIMCHECK
 70
     0
  9
$CHAMFERA
 40
0.0
  9
$CHAMFERB
 40
0.0
  9
$SKPOLY
 70
     0
  9
$TDCREATE
 40
2460587.380519699
  9
$TDUPDATE
 40
2460587.38052007
  9
$TDINDWG
 40
0.0000000116
  9
$TDUSRTIMER
 40
0.0000000116
  9
$USRTIMER
 70
     1
  9
$ANGBASE
 50
0.0
  9
$ANGDIR
 70
     0
  9
$PDMODE
 70
     0
  9
$PDSIZE
 40
0.0
  9
$PLINEWID
 40
0.0
  9
$COORDS
 70
     1
  9
$SPLFRAME
 70
     0
  9
$SPLINETYPE
 70
     6
  9
$SPLINESEGS
 70
     8
  9
$ATTDIA
 70
     0
  9
$ATTREQ
 70
     1
  9
$HANDLING
 70
     1
  9
$HANDSEED
  5
1E6
  9
$SURFTAB1
 70
     6
  9
$SURFTAB2
 70
     6
  9
$SURFTYPE
 70
     6
  9
$SURFU
 70
     6
  9
$SURFV
 70
     6
  9
$UCSNAME
  2

  9
$UCSORG
 10
0.0
 20
0.0
 30
0.0
  9
$UCSXDIR
 10
1.0
 20
0.0
 30
0.0
  9
$UCSYDIR
 10
0.0
 20
1.0
 30
0.0
  9
$USERI1
 70
     0
  9
$USERI2
 70
     0
  9
$USERI3
 70
     0
  9
$USERI4
 70
     0
  9
$USERI5
 70
     0
  9
$USERR1
 40
0.0
  9
$USERR2
 40
0.0
  9
$USERR3
 40
0.0
  9
$USERR4
 40
0.0
  9
$USERR5
 40
0.0
  9
$WORLDVIEW
 70
     1
  0
ENDSEC
  0
SECTION
  2
TABLES
  0
TABLE
  2
VPORT
 70
     1
  0
VPORT
  2
*ACTIVE
 70
     0
 10
0.0
 20
0.0
 11
1.0
 21
1.0
 12
1005.63879072205
 22
52.9241363432
 13
0.0
 23
0.0
 14
0.5
 24
0.5
 15
0.5
 25
0.5
 16
0.0
 26
0.0
 36
1.0
 17
0.0
 27
0.0
 37
0.0
 40
433.9094526864
 41
1.6
 42
50.0
 43
0.0
 44
0.0
 50
0.0
 51
0.0
 71
     0
 72
   100
 73
     1
 74
     3
 75
     0
 76
     0
 77
     0
 78
     0
  0
ENDTAB
  0
TABLE
  2
LTYPE
 70
     2
  0
LTYPE
  2
CONTINUOUS
 70
     0
  3
Solid line
 72
    65
 73
     0
 40
0.0
  0
LTYPE
  2
CENTER
 70
     0
  3

 72
    65
 73
     0
 40
0.0
  0
ENDTAB
  0
TABLE
  2
LAYER
 70
     2
  0
LAYER
  2
0
 70
     0
 62
     7
  6
CONTINUOUS
  0
LAYER
  2
1
 70
     0
 62
     7
  6
CONTINUOUS
  0
ENDTAB
  0
TABLE
  2
STYLE
 70
     2
  0
STYLE
  2
STANDARD
 70
     0
 40
0.0
 41
1.0
 50
0.0
 71
     0
 42
0.2
  3
txt
  4

  0
STYLE
  2
ＭＳ_ゴシック
 70
     0
 40
0.0
 41
1.0
 50
0.0
 71
     0
 42
0.2
  3
ＭＳ ゴシック.shx
  4

  0
ENDTAB
  0
TABLE
  2
VIEW
 70
     0
  0
ENDTAB
  0
TABLE
  2
UCS
 70
     0
  0
ENDTAB
  0
ENDSEC
  0
SECTION
  2
BLOCKS
  0
BLOCK
  8
0
  2
D_FRAME_DRAWING_21
 70
     0
 10
0.0
 20
0.0
 30
0.0
  0
LINE
  5
165
  8
0
  6
CONTINUOUS
 62
     7
 10
0.0
 20
0.0
 30
0.0
 11
420.0
 21
0.0
 31
0.0
  0
LINE
  5
166
  8
0
  6
CONTINUOUS
 62
     7
 10
420.0
 20
0.0
 30
0.0
 11
420.0
 21
297.0
 31
0.0
  0
LINE
  5
167
  8
0
  6
CONTINUOUS
 62
     7
 10
420.0
 20
297.0
 30
0.0
 11
0.0
 21
297.0
 31
0.0
  0
LINE
  5
168
  8
0
  6
CONTINUOUS
 62
     7
 10
0.0
 20
297.0
 30
0.0
 11
0.0
 21
0.0
 31
0.0
  0
LINE
  5
169
  8
0
  6
CONTINUOUS
 62
     7
 10
10.0
 20
10.0
 30
0.0
 11
409.9999999999999
 21
10.0
 31
0.0
  0
LINE
  5
16A
  8
0
  6
CONTINUOUS
 62
     7
 10
409.9999999999999
 20
10.0
 30
0.0
 11
409.9999999999999
 21
286.9999999999999
 31
0.0
  0
LINE
  5
16B
  8
0
  6
CONTINUOUS
 62
     7
 10
409.9999999999999
 20
286.9999999999999
 30
0.0
 11
10.00000000000006
 21
286.9999999999999
 31
0.0
  0
LINE
  5
16C
  8
0
  6
CONTINUOUS
 62
     7
 10
10.0
 20
286.9999999999999
 30
0.0
 11
10.0
 21
10.00000000000001
 31
0.0
  0
LINE
  5
16D
  8
0
  6
CONTINUOUS
 62
     7
 10
210.0
 20
0.0
 30
0.0
 11
210.0
 21
10.0
 31
0.0
  0
LINE
  5
16E
  8
0
  6
CONTINUOUS
 62
     7
 10
420.0
 20
148.5
 30
0.0
 11
409.9999999999999
 21
148.5
 31
0.0
  0
LINE
  5
16F
  8
0
  6
CONTINUOUS
 62
     7
 10
210.0
 20
297.0
 30
0.0
 11
210.0
 21
286.9999999999999
 31
0.0
  0
LINE
  5
170
  8
0
  6
CONTINUOUS
 62
     7
 10
0.0
 20
148.5
 30
0.0
 11
10.0
 21
148.5
 31
0.0
  0
POLYLINE
  5
171
  8
0
  6
CONTINUOUS
 62
     7
 66
     1
 10
0.0
 20
0.0
 30
0.0
 70
     1
  0
VERTEX
  5
1B7
  8
0
  6
CONTINUOUS
 62
     7
 10
11.0
 20
152.5
 30
0.0
  0
VERTEX
  5
1B8
  8
0
  6
CONTINUOUS
 62
     7
 10
0.0
 20
148.5
 30
0.0
  0
VERTEX
  5
1B9
  8
0
  6
CONTINUOUS
 62
     7
 10
11.0
 20
144.5
 30
0.0
  0
VERTEX
  5
1BA
  8
0
  6
CONTINUOUS
 62
     7
 10
11.0
 20
152.5
 30
0.0
  0
SEQEND
  5
1E4
  8
0
  6
CONTINUOUS
 62
     7
  0
INSERT
  5
172
  8
0
 62
     7
  2
*U2
 10
0.0
 20
0.0
 30
0.0
  0
POLYLINE
  5
173
  8
0
  6
CONTINUOUS
 62
     7
 66
     1
 10
0.0
 20
0.0
 30
0.0
 70
     1
  0
VERTEX
  5
1BD
  8
0
  6
CONTINUOUS
 62
     7
 10
206.0
 20
11.0
 30
0.0
  0
VERTEX
  5
1BE
  8
0
  6
CONTINUOUS
 62
     7
 10
210.0
 20
0.0
 30
0.0
  0
VERTEX
  5
1BF
  8
0
  6
CONTINUOUS
 62
     7
 10
214.0
 20
11.0
 30
0.0
  0
VERTEX
  5
1C0
  8
0
  6
CONTINUOUS
 62
     7
 10
206.0
 20
11.0
 30
0.0
  0
SEQEND
  5
1E5
  8
0
  6
CONTINUOUS
 62
     7
  0
INSERT
  5
174
  8
0
 62
     7
  2
*U3
 10
0.0
 20
0.0
 30
0.0
  0
LINE
  5
175
  8
0
  6
CONTINUOUS
 62
     7
 10
367.5
 20
286.9999999999999
 30
0.0
 11
367.5
 21
292.0
 31
0.0
  0
TEXT
  5
176
  8
0
  6
CONTINUOUS
 62
     7
 10
391.6340909090909
 20
291.8324293485057
 30
0.0
 40
3.5
  1
A
 50
270.0
  0
LINE
  5
177
  8
0
  6
CONTINUOUS
 62
     7
 10
367.5
 20
10.0
 30
0.0
 11
367.5
 21
5.0
 31
0.0
  0
TEXT
  5
178
  8
0
  6
CONTINUOUS
 62
     7
 10
392.9868888333125
 20
4.602272727272727
 30
0.0
 40
3.5
  1
A
  0
LINE
  5
179
  8
0
  6
CONTINUOUS
 62
     7
 10
315.0
 20
286.9999999999999
 30
0.0
 11
315.0
 21
292.0
 31
0.0
  0
TEXT
  5
17A
  8
0
  6
CONTINUOUS
 62
     7
 10
339.1340909090909
 20
291.9745607727899
 30
0.0
 40
3.5
  1
B
 50
270.0
  0
LINE
  5
17B
  8
0
  6
CONTINUOUS
 62
     7
 10
315.0
 20
10.0
 30
0.0
 11
315.0
 21
5.0
 31
0.0
  0
TEXT
  5
17C
  8
0
  6
CONTINUOUS
 62
     7
 10
340.3447574090284
 20
4.602272727272727
 30
0.0
 40
3.5
  1
B
  0
LINE
  5
17D
  8
0
  6
CONTINUOUS
 62
     7
 10
262.5
 20
286.9999999999999
 30
0.0
 11
262.5
 21
292.0
 31
0.0
  0
TEXT
  5
17E
  8
0
  6
CONTINUOUS
 62
     7
 10
286.6327779167187
 20
291.9399305989747
 30
0.0
 40
3.5
  1
C
 50
270.0
  0
LINE
  5
17F
  8
0
  6
CONTINUOUS
 62
     7
 10
262.5
 20
10.0
 30
0.0
 11
262.5
 21
5.0
 31
0.0
  0
TEXT
  5
180
  8
0
  6
CONTINUOUS
 62
     7
 10
287.8793875828435
 20
4.600959734900587
 30
0.0
 40
3.5
  1
C
  0
LINE
  5
181
  8
0
  6
CONTINUOUS
 62
     7
 10
210.0
 20
286.9999999999999
 30
0.0
 11
210.0
 21
292.0
 31
0.0
  0
TEXT
  5
182
  8
0
  6
CONTINUOUS
 62
     7
 10
234.1340909090909
 20
291.9745607727898
 30
0.0
 40
3.5
  1
D
 50
270.0
  0
LINE
  5
183
  8
0
  6
CONTINUOUS
 62
     7
 10
157.5
 20
286.9999999999999
 30
0.0
 11
157.5
 21
292.0
 31
0.0
  0
TEXT
  5
184
  8
0
  6
CONTINUOUS
 62
     7
 10
181.6327779167188
 20
292.027463423784
 30
0.0
 40
3.5
  1
E
 50
270.0
  0
LINE
  5
185
  8
0
  6
CONTINUOUS
 62
     7
 10
157.5
 20
10.0
 30
0.0
 11
157.5
 21
5.0
 31
0.0
  0
LINE
  5
186
  8
0
  6
CONTINUOUS
 62
     7
 10
105.0
 20
286.9999999999999
 30
0.0
 11
105.0
 21
292.0
 31
0.0
  0
TEXT
  5
187
  8
0
  6
CONTINUOUS
 62
     7
 10
129.1327779167188
 20
291.9924502938602
 30
0.0
 40
3.5
  1
F
 50
270.0
  0
LINE
  5
188
  8
0
  6
CONTINUOUS
 62
     7
 10
105.0
 20
10.0
 30
0.0
 11
105.0
 21
5.0
 31
0.0
  0
TEXT
  5
189
  8
0
  6
CONTINUOUS
 62
     7
 10
130.326867887958
 20
4.600959734900587
 30
0.0
 40
3.5
  1
F
  0
LINE
  5
18A
  8
0
  6
CONTINUOUS
 62
     7
 10
52.50000000000004
 20
286.9999999999999
 30
0.0
 11
52.50000000000004
 21
292.0
 31
0.0
  0
TEXT
  5
18B
  8
0
  6
CONTINUOUS
 62
     7
 10
76.6327779167188
 20
291.9399305989746
 30
0.0
 40
3.5
  1
G
 50
270.0
  0
LINE
  5
18C
  8
0
  6
CONTINUOUS
 62
     7
 10
52.50000000000004
 20
10.0
 30
0.0
 11
52.50000000000004
 21
5.0
 31
0.0
  0
TEXT
  5
18D
  8
0
  6
CONTINUOUS
 62
     7
 10
77.8793875828436
 20
4.600959734900587
 30
0.0
 40
3.5
  1
G
  0
TEXT
  5
18E
  8
0
  6
CONTINUOUS
 62
     7
 10
24.13277791671879
 20
291.9749437288983
 30
0.0
 40
3.5
  1
H
 50
270.0
  0
TEXT
  5
18F
  8
0
  6
CONTINUOUS
 62
     7
 10
25.34437445291988
 20
4.600959734900587
 30
0.0
 40
3.5
  1
H
  0
LINE
  5
190
  8
0
  6
CONTINUOUS
 62
     7
 10
409.9999999999999
 20
74.25
 30
0.0
 11
414.9999999999999
 21
74.25
 31
0.0
  0
TEXT
  5
191
  8
0
  6
CONTINUOUS
 62
     7
 10
412.9326059772414
 20
35.00777791671877
 30
0.0
 40
3.5
  1
1
  0
LINE
  5
192
  8
0
  6
CONTINUOUS
 62
     7
 10
10.0
 20
74.25
 30
0.0
 11
5.0
 21
74.25
 31
0.0
  0
TEXT
  5
193
  8
0
  6
CONTINUOUS
 62
     7
 10
4.600959734900584
 20
38.26171220457671
 30
0.0
 40
3.5
  1
1
 50
270.0
  0
LINE
  5
194
  8
0
  6
CONTINUOUS
 62
     7
 10
409.9999999999999
 20
148.5
 30
0.0
 11
414.9999999999999
 21
148.5
 31
0.0
  0
TEXT
  5
195
  8
0
  6
CONTINUOUS
 62
     7
 10
413.163692634738
 20
109.2577779167188
 30
0.0
 40
3.5
  1
2
  0
LINE
  5
196
  8
0
  6
CONTINUOUS
 62
     7
 10
10.0
 20
148.5
 30
0.0
 11
5.0
 21
148.5
 31
0.0
  0
TEXT
  5
197
  8
0
  6
CONTINUOUS
 62
     7
 10
4.600959734900599
 20
112.2806255470802
 30
0.0
 40
3.5
  1
2
 50
270.0
  0
LINE
  5
198
  8
0
  6
CONTINUOUS
 62
     7
 10
409.9999999999999
 20
222.75
 30
0.0
 11
414.9999999999999
 21
222.75
 31
0.0
  0
TEXT
  5
199
  8
0
  6
CONTINUOUS
 62
     7
 10
413.1811991996998
 20
183.5077779167188
 30
0.0
 40
3.5
  1
3
  0
LINE
  5
19A
  8
0
  6
CONTINUOUS
 62
     7
 10
10.0
 20
222.75
 30
0.0
 11
5.0
 21
222.75
 31
0.0
  0
TEXT
  5
19B
  8
0
  6
CONTINUOUS
 62
     7
 10
4.600959734900584
 20
186.5131189821183
 30
0.0
 40
3.5
  1
3
 50
270.0
  0
TEXT
  5
19C
  8
0
  6
CONTINUOUS
 62
     7
 10
413.2351413029886
 20
257.7590909090909
 30
0.0
 40
3.5
  1
4
  0
TEXT
  5
19D
  8
0
  6
CONTINUOUS
 62
     7
 10
4.60227272727272
 20
260.7091768788295
 30
0.0
 40
3.5
  1
4
 50
270.0
  0
LINE
  5
19E
  8
0
  6
CONTINUOUS
 62
     7
 10
220.0
 20
10.0
 30
0.0
 11
220.0
 21
7.0
 31
0.0
  0
LINE
  5
19F
  8
0
  6
CONTINUOUS
 62
     7
 10
200.0
 20
10.0
 30
0.0
 11
200.0
 21
7.0
 31
0.0
  0
LINE
  5
1A0
  8
0
  6
CONTINUOUS
 62
     7
 10
230.0
 20
10.0
 30
0.0
 11
230.0
 21
7.0
 31
0.0
  0
LINE
  5
1A1
  8
0
  6
CONTINUOUS
 62
     7
 10
190.0
 20
10.0
 30
0.0
 11
190.0
 21
7.0
 31
0.0
  0
LINE
  5
1A2
  8
0
  6
CONTINUOUS
 62
     7
 10
240.0
 20
10.0
 30
0.0
 11
240.0
 21
7.0
 31
0.0
  0
LINE
  5
1A3
  8
0
  6
CONTINUOUS
 62
     7
 10
180.0
 20
10.0
 30
0.0
 11
180.0
 21
7.0
 31
0.0
  0
LINE
  5
1A4
  8
0
  6
CONTINUOUS
 62
     7
 10
250.0
 20
10.0
 30
0.0
 11
250.0
 21
7.0
 31
0.0
  0
LINE
  5
1A5
  8
0
  6
CONTINUOUS
 62
     7
 10
170.0
 20
10.0
 30
0.0
 11
170.0
 21
7.0
 31
0.0
  0
LINE
  5
1A6
  8
0
  6
CONTINUOUS
 62
     7
 10
260.0
 20
10.0
 30
0.0
 11
260.0
 21
5.0
 31
0.0
  0
LINE
  5
1A7
  8
0
  6
CONTINUOUS
 62
     7
 10
160.0
 20
10.0
 30
0.0
 11
160.0
 21
5.0
 31
0.0
  0
LINE
  5
1A8
  8
0
  6
CONTINUOUS
 62
     7
 10
260.0
 20
10.0
 30
0.0
 11
160.0
 21
10.0
 31
0.0
  0
LINE
  5
1A9
  8
0
  6
CONTINUOUS
 62
     7
 10
260.0
 20
7.0
 30
0.0
 11
160.0
 21
7.0
 31
0.0
  0
INSERT
  5
1AA
  8
0
 62
     7
  2
*U4
 10
0.0
 20
0.0
 30
0.0
  0
INSERT
  5
1AB
  8
0
 62
     7
  2
*U5
 10
0.0
 20
0.0
 30
0.0
  0
INSERT
  5
1AC
  8
0
 62
     7
  2
*U6
 10
0.0
 20
0.0
 30
0.0
  0
INSERT
  5
1AD
  8
0
 62
     7
  2
*U7
 10
0.0
 20
0.0
 30
0.0
  0
ENDBLK
  8
0
  0
BLOCK
  8
0
  2
*U2
 70
     1
 10
0.0
 20
0.0
 30
0.0
  0
SOLID
  5
1BC
  8
0
  6
CONTINUOUS
 62
     7
 10
11.0
 20
144.5
 30
0.0
 11
6.999999999999999
 21
148.5
 31
0.0
 12
11.0
 22
152.5
 32
0.0
 13
11.0
 23
152.5
 33
0.0
  0
ENDBLK
  8
0
  0
BLOCK
  8
0
  2
*U3
 70
     1
 10
0.0
 20
0.0
 30
0.0
  0
SOLID
  5
1C2
  8
0
  6
CONTINUOUS
 62
     7
 10
210.0
 20
6.999999999999999
 30
0.0
 11
206.0
 21
11.0
 31
0.0
 12
210.0
 22
11.0
 32
0.0
 13
210.0
 23
11.0
 33
0.0
  0
SOLID
  5
1C3
  8
0
  6
CONTINUOUS
 62
     7
 10
210.0
 20
6.999999999999999
 30
0.0
 11
210.0
 21
11.0
 31
0.0
 12
214.0
 22
11.0
 32
0.0
 13
214.0
 23
11.0
 33
0.0
  0
ENDBLK
  8
0
  0
BLOCK
  8
0
  2
*U4
 70
     1
 10
0.0
 20
0.0
 30
0.0
  0
SOLID
  5
1C5
  8
0
  6
CONTINUOUS
 62
     7
 10
0.0
 20
0.0
 30
0.0
 11
0.0
 21
10.0
 31
0.0
 12
2.0
 22
0.0
 32
0.0
 13
2.0
 23
0.0
 33
0.0
  0
SOLID
  5
1C6
  8
0
  6
CONTINUOUS
 62
     7
 10
2.0
 20
0.0
 30
0.0
 11
0.0
 21
10.0
 31
0.0
 12
2.0
 22
10.0
 32
0.0
 13
2.0
 23
10.0
 33
0.0
  0
SOLID
  5
1C7
  8
0
  6
CONTINUOUS
 62
     7
 10
2.0
 20
0.0
 30
0.0
 11
2.0
 21
2.0
 31
0.0
 12
10.0
 22
0.0
 32
0.0
 13
10.0
 23
0.0
 33
0.0
  0
SOLID
  5
1C8
  8
0
  6
CONTINUOUS
 62
     7
 10
10.0
 20
0.0
 30
0.0
 11
2.0
 21
2.0
 31
0.0
 12
10.0
 22
2.0
 32
0.0
 13
10.0
 23
2.0
 33
0.0
  0
ENDBLK
  8
0
  0
BLOCK
  8
0
  2
*U5
 70
     1
 10
0.0
 20
0.0
 30
0.0
  0
SOLID
  5
1CA
  8
0
  6
CONTINUOUS
 62
     7
 10
409.9999999999999
 20
0.0
 30
0.0
 11
409.9999999999999
 21
2.0
 31
0.0
 12
418.0
 22
0.0
 32
0.0
 13
418.0
 23
0.0
 33
0.0
  0
SOLID
  5
1CB
  8
0
  6
CONTINUOUS
 62
     7
 10
418.0
 20
0.0
 30
0.0
 11
409.9999999999999
 21
2.0
 31
0.0
 12
418.0
 22
2.0
 32
0.0
 13
418.0
 23
2.0
 33
0.0
  0
SOLID
  5
1CC
  8
0
  6
CONTINUOUS
 62
     7
 10
418.0
 20
0.0
 30
0.0
 11
418.0
 21
10.0
 31
0.0
 12
420.0
 22
0.0
 32
0.0
 13
420.0
 23
0.0
 33
0.0
  0
SOLID
  5
1CD
  8
0
  6
CONTINUOUS
 62
     7
 10
420.0
 20
0.0
 30
0.0
 11
418.0
 21
10.0
 31
0.0
 12
420.0
 22
10.0
 32
0.0
 13
420.0
 23
10.0
 33
0.0
  0
ENDBLK
  8
0
  0
BLOCK
  8
0
  2
*U6
 70
     1
 10
0.0
 20
0.0
 30
0.0
  0
SOLID
  5
1CF
  8
0
  6
CONTINUOUS
 62
     7
 10
409.9999999999999
 20
295.0
 30
0.0
 11
409.9999999999999
 21
297.0
 31
0.0
 12
418.0
 22
295.0
 32
0.0
 13
418.0
 23
295.0
 33
0.0
  0
SOLID
  5
1D0
  8
0
  6
CONTINUOUS
 62
     7
 10
418.0
 20
295.0
 30
0.0
 11
409.9999999999999
 21
297.0
 31
0.0
 12
418.0
 22
297.0
 32
0.0
 13
418.0
 23
297.0
 33
0.0
  0
SOLID
  5
1D1
  8
0
  6
CONTINUOUS
 62
     7
 10
418.0
 20
286.9999999999999
 30
0.0
 11
418.0
 21
297.0
 31
0.0
 12
420.0
 22
286.9999999999999
 32
0.0
 13
420.0
 23
286.9999999999999
 33
0.0
  0
SOLID
  5
1D2
  8
0
  6
CONTINUOUS
 62
     7
 10
420.0
 20
286.9999999999999
 30
0.0
 11
418.0
 21
297.0
 31
0.0
 12
420.0
 22
297.0
 32
0.0
 13
420.0
 23
297.0
 33
0.0
  0
ENDBLK
  8
0
  0
BLOCK
  8
0
  2
*U7
 70
     1
 10
0.0
 20
0.0
 30
0.0
  0
SOLID
  5
1D4
  8
0
  6
CONTINUOUS
 62
     7
 10
0.0
 20
286.9999999999999
 30
0.0
 11
0.0
 21
297.0
 31
0.0
 12
2.0
 22
286.9999999999999
 32
0.0
 13
2.0
 23
286.9999999999999
 33
0.0
  0
SOLID
  5
1D5
  8
0
  6
CONTINUOUS
 62
     7
 10
2.0
 20
286.9999999999999
 30
0.0
 11
0.0
 21
297.0
 31
0.0
 12
2.0
 22
297.0
 32
0.0
 13
2.0
 23
297.0
 33
0.0
  0
SOLID
  5
1D6
  8
0
  6
CONTINUOUS
 62
     7
 10
2.0
 20
295.0
 30
0.0
 11
2.0
 21
297.0
 31
0.0
 12
10.0
 22
295.0
 32
0.0
 13
10.0
 23
295.0
 33
0.0
  0
SOLID
  5
1D7
  8
0
  6
CONTINUOUS
 62
     7
 10
10.0
 20
295.0
 30
0.0
 11
2.0
 21
297.0
 31
0.0
 12
10.0
 22
297.0
 32
0.0
 13
10.0
 23
297.0
 33
0.0
  0
ENDBLK
  8
0
  0
ENDSEC
  0
SECTION
  2
ENTITIES
  0
LINE
  5
70
  8
1
  6
CONTINUOUS
 62
     7
 10
1898.4775814441
 20
30.1260856864
 30
0.0
 11
1903.9775814441
 21
30.1260856864
 31
0.0
  0
LINE
  5
71
  8
1
  6
CONTINUOUS
 62
     7
 10
1931.3275814441
 20
27.3788626864
 30
0.0
 11
1938.1275814441
 21
27.3788626864
 31
0.0
  0
ARC
  5
72
  8
1
  6
CONTINUOUS
 62
     7
 10
1894.2775814441
 20
52.8788626864
 30
0.0
 40
0.5
 50
90.0
 51
168.463041
  0
CIRCLE
  5
73
  8
1
  6
CONTINUOUS
 62
     7
 10
1836.2775814441
 20
-81.2833166684
 30
0.0
 40
4.75
  0
LINE
  5
74
  8
1
  6
CONTINUOUS
 62
     7
 10
1876.1060084441
 20
18.8788626864
 30
0.0
 11
1876.4491544441
 21
18.8788626864
 31
0.0
  0
ARC
  5
75
  8
1
  6
CONTINUOUS
 62
     7
 10
1916.0275814441
 20
42.3706746864
 30
0.0
 40
7.4
 50
0.0
 51
0.8027229999999997
  0
LINE
  5
76
  8
1
  6
CONTINUOUS
 62
     7
 10
1916.0275814441
 20
25.4788626864
 30
0.0
 11
1906.5275814441
 21
25.4788626864
 31
0.0
  0
ARC
  5
77
  8
1
  6
CONTINUOUS
 62
     7
 10
1916.0275814441
 20
42.3706746864
 30
0.0
 40
10.0
 50
0.0
 51
8.232636999999999
  0
LINE
  5
78
  8
1
  6
CONTINUOUS
 62
     7
 10
1938.1275814441
 20
27.3788626864
 30
0.0
 11
1938.1275814441
 21
40.3788626864
 31
0.0
  0
LINE
  5
79
  8
1
  6
CONTINUOUS
 62
     7
 10
1928.5775814441
 20
27.1788626864
 30
0.0
 11
1931.3275814441
 21
27.1788626864
 31
0.0
  0
ARC
  5
7A
  8
1
  6
CONTINUOUS
 62
     7
 10
1916.5275814441
 20
42.3706746864
 30
0.0
 40
10.0
 50
171.767363
 51
180.0
  0
CIRCLE
  5
7B
  8
1
  6
CONTINUOUS
 62
     7
 10
1916.2775814441
 20
51.8788626864
 30
0.0
 40
7.50555325
  0
ARC
  5
7C
  8
1
  6
CONTINUOUS
 62
     7
 10
1956.1060084441
 20
15.8788626864
 30
0.0
 40
3.0
 50
90.0
 51
160.528779
  0
LINE
  5
7D
  8
1
  6
CONTINUOUS
 62
     7
 10
1821.2775814441
 20
-95.5333166684
 30
0.0
 11
1821.2775814441
 21
-67.0333166684
 31
0.0
  0
LINE
  5
7E
  8
1
  6
CONTINUOUS
 62
     7
 10
1899.6144094441
 20
53.3788626864
 30
0.0
 11
1894.2775814441
 21
53.3788626864
 31
0.0
  0
LINE
  5
7F
  8
1
  6
CONTINUOUS
 62
     7
 10
1898.4775814441
 20
26.3733096864
 30
0.0
 11
1903.9775814441
 21
26.3733096864
 31
0.0
  0
ARC
  5
80
  8
1
  6
CONTINUOUS
 62
     7
 10
1923.7275814441
 20
25.1788626864
 30
0.0
 40
2.3
 50
270.0
 51
0.0
  0
LINE
  5
81
  8
1
  6
CONTINUOUS
 62
     7
 10
1943.9775814441
 20
36.3788626864
 30
0.0
 11
1943.9775814441
 21
31.3788626864
 31
0.0
  0
LINE
  5
82
  8
1
  6
CONTINUOUS
 62
     7
 10
1942.4775814441
 20
29.8788626864
 30
0.0
 11
1938.1275814441
 21
29.8788626864
 31
0.0
  0
CIRCLE
  5
83
  8
1
  6
CONTINUOUS
 62
     7
 10
1996.2775814441
 20
-81.2833166684
 30
0.0
 40
4.75
  0
LINE
  5
84
  8
1
  6
CONTINUOUS
 62
     7
 10
1923.4275814441
 20
25.4788626864
 30
0.0
 11
1923.4275814441
 21
42.3706746864
 31
0.0
  0
ARC
  5
85
  8
1
  6
CONTINUOUS
 62
     7
 10
1916.1060084441
 20
15.8788626864
 30
0.0
 40
3.0
 50
90.0
 51
160.528779
  0
LINE
  5
86
  8
1
  6
CONTINUOUS
 62
     7
 10
1906.5275814441
 20
42.3706746864
 30
0.0
 11
1906.5275814441
 21
25.1788626864
 31
0.0
  0
LINE
  5
87
  8
1
  6
CONTINUOUS
 62
     7
 10
1909.1275814441
 20
25.4788626864
 30
0.0
 11
1909.1275814441
 21
42.3706746864
 31
0.0
  0
LINE
  5
88
  8
1
  6
CONTINUOUS
 62
     7
 10
2011.2775814441
 20
-95.5333166684
 30
0.0
 11
2011.2775814441
 21
-67.0333166684
 31
0.0
  0
LINE
  5
89
  8
1
  6
CONTINUOUS
 62
     7
 10
1866.2775814441
 20
14.5788626864
 30
0.0
 11
1966.2775814441
 21
14.5788626864
 31
0.0
  0
LINE
  5
8A
  8
1
  6
CONTINUOUS
 62
     7
 10
1956.1060084441
 20
18.8788626864
 30
0.0
 11
1956.4491544441
 21
18.8788626864
 31
0.0
  0
LINE
  5
8B
  8
1
  6
CONTINUOUS
 62
     7
 10
1923.4275814441
 20
37.8788626864
 30
0.0
 11
1909.1275814441
 21
37.8788626864
 31
0.0
  0
LINE
  5
8C
  8
1
  6
CONTINUOUS
 62
     7
 10
1866.2775814441
 20
16.8788626864
 30
0.0
 11
1866.2775814441
 21
14.5788626864
 31
0.0
  0
LINE
  5
8D
  8
1
  6
CONTINUOUS
 62
     7
 10
1909.1275814441
 20
29.8788626864
 30
0.0
 11
1923.4275814441
 21
29.8788626864
 31
0.0
  0
LINE
  5
8E
  8
1
  6
CONTINUOUS
 62
     7
 10
1966.2775814441
 20
14.5788626864
 30
0.0
 11
1966.2775814441
 21
16.8788626864
 31
0.0
  0
LINE
  5
8F
  8
1
  6
CONTINUOUS
 62
     7
 10
1976.2775814441
 20
-86.3833166684
 30
0.0
 11
1989.1110404441
 21
-86.3833166684
 31
0.0
  0
ARC
  5
90
  8
1
  6
CONTINUOUS
 62
     7
 10
1956.4491544441
 20
15.8788626864
 30
0.0
 40
3.0
 50
19.471221
 51
90.0
  0
LINE
  5
91
  8
1
  6
CONTINUOUS
 62
     7
 10
1916.5275814441
 20
22.8788626864
 30
0.0
 11
1916.5275814441
 21
25.4788626864
 31
0.0
  0
LINE
  5
92
  8
1
  6
CONTINUOUS
 62
     7
 10
1931.3275814441
 20
40.3788626864
 30
0.0
 11
1938.1275814441
 21
40.3788626864
 31
0.0
  0
LINE
  5
93
  8
1
  6
CONTINUOUS
 62
     7
 10
1938.1275814441
 20
37.8788626864
 30
0.0
 11
1942.4775814441
 21
37.8788626864
 31
0.0
  0
LINE
  5
94
  8
1
  6
CONTINUOUS
 62
     7
 10
1856.2775814441
 20
-86.3833166684
 30
0.0
 11
1843.4441224441
 21
-86.3833166684
 31
0.0
  0
ARC
  5
95
  8
1
  6
CONTINUOUS
 62
     7
 10
1876.1060084441
 20
15.8788626864
 30
0.0
 40
3.0
 50
90.0
 51
160.528779
  0
LINE
  5
96
  8
1
  6
CONTINUOUS
 62
     7
 10
1866.2775814441
 20
16.8788626864
 30
0.0
 11
1966.2775814441
 21
16.8788626864
 31
0.0
  0
ARC
  5
97
  8
1
  6
CONTINUOUS
 62
     7
 10
1899.6144094441
 20
50.3788626864
 30
0.0
 40
3.0
 50
6.625810000000001
 51
90.0
  0
ARC
  5
98
  8
1
  6
CONTINUOUS
 62
     7
 10
1876.4491544441
 20
15.8788626864
 30
0.0
 40
3.0
 50
19.471221
 51
90.0
  0
LINE
  5
99
  8
1
  6
CONTINUOUS
 62
     7
 10
1928.5775814441
 20
16.8788626864
 30
0.0
 11
1928.5775814441
 21
45.8788626864
 31
0.0
  0
LINE
  5
9A
  8
1
  6
CONTINUOUS
 62
     7
 10
1916.1060084441
 20
18.8788626864
 30
0.0
 11
1916.4491544441
 21
18.8788626864
 31
0.0
  0
LINE
  5
9B
  8
1
  6
CONTINUOUS
 62
     7
 10
1898.4775814441
 20
41.3844166864
 30
0.0
 11
1903.9775814441
 21
41.3844166864
 31
0.0
  0
LINE
  5
9C
  8
1
  6
CONTINUOUS
 62
     7
 10
1898.4775814441
 20
37.6316396864
 30
0.0
 11
1903.9775814441
 21
37.6316396864
 31
0.0
  0
LINE
  5
9D
  8
1
  6
CONTINUOUS
 62
     7
 10
1931.3275814441
 20
40.5788626864
 30
0.0
 11
1928.5775814441
 21
40.5788626864
 31
0.0
  0
LINE
  5
9E
  8
1
  6
CONTINUOUS
 62
     7
 10
1942.4775814441
 20
37.8788626864
 30
0.0
 11
1943.9775814441
 21
36.3788626864
 31
0.0
  0
LINE
  5
9F
  8
1
  6
CONTINUOUS
 62
     7
 10
1943.9775814441
 20
31.3788626864
 30
0.0
 11
1942.4775814441
 21
29.8788626864
 31
0.0
  0
LINE
  5
A0
  8
1
  6
CONTINUOUS
 62
     7
 10
1902.0008104441
 20
74.8788626864
 30
0.0
 11
1913.2775814441
 21
72.3788626864
 31
0.0
  0
LINE
  5
A1
  8
1
  6
CONTINUOUS
 62
     7
 10
1823.2775814441
 20
74.8788626864
 30
0.0
 11
1902.0008104441
 21
74.8788626864
 31
0.0
  0
LINE
  5
A2
  8
1
  6
CONTINUOUS
 62
     7
 10
1898.4775814441
 20
41.3844166864
 30
0.0
 11
1898.4775814441
 21
26.3733096864
 31
0.0
  0
LINE
  5
A3
  8
1
  6
CONTINUOUS
 62
     7
 10
1903.9775814441
 20
16.8788626864
 30
0.0
 11
1903.9775814441
 21
45.8788626864
 31
0.0
  0
LINE
  5
A4
  8
1
  6
CONTINUOUS
 62
     7
 10
1931.3275814441
 20
40.5788626864
 30
0.0
 11
1931.3275814441
 21
27.1788626864
 31
0.0
  0
ARC
  5
A5
  8
1
  6
CONTINUOUS
 62
     7
 10
1940.7775814441
 20
66.3788626864
 30
0.0
 40
3.0
 50
0.0
 51
90.0
  0
ARC
  5
A6
  8
1
  6
CONTINUOUS
 62
     7
 10
1916.2775814441
 20
51.8788626864
 30
0.0
 40
9.0
 50
45.32539000000001
 51
134.67461
  0
LINE
  5
A7
  8
1
  6
CONTINUOUS
 62
     7
 10
1891.7775814441
 20
69.3788626864
 30
0.0
 11
1940.7775814441
 21
69.3788626864
 31
0.0
  0
LINE
  5
A8
  8
1
  6
CONTINUOUS
 62
     7
 10
1909.9498644441
 20
58.2788626864
 30
0.0
 11
1891.7775814441
 21
58.2788626864
 31
0.0
  0
LINE
  5
A9
  8
1
  6
CONTINUOUS
 62
     7
 10
1928.0775814441
 20
-71.2833166684
 30
0.0
 11
1928.0775814441
 21
-91.2833166684
 31
0.0
  0
LINE
  5
AA
  8
1
  6
CONTINUOUS
 62
     7
 10
2011.2775814441
 20
49.8788626864
 30
0.0
 11
2011.2775814441
 21
72.8788626864
 31
0.0
  0
ARC
  5
AB
  8
1
  6
CONTINUOUS
 62
     7
 10
1916.5275814441
 20
42.3706746864
 30
0.0
 40
7.4
 50
179.197277
 51
180.0
  0
ARC
  5
AC
  8
1
  6
CONTINUOUS
 62
     7
 10
1946.2775814441
 20
-51.2833166684
 30
0.0
 40
2.75
 50
315.0
 51
135.0
  0
LINE
  5
AD
  8
1
  6
CONTINUOUS
 62
     7
 10
1904.4775814441
 20
-91.2833166684
 30
0.0
 11
1904.4775814441
 21
-71.2833166684
 31
0.0
  0
ARC
  5
AE
  8
1
  6
CONTINUOUS
 62
     7
 10
1891.7775814441
 20
61.2788626864
 30
0.0
 40
3.0
 50
180.0
 51
270.0
  0
LINE
  5
AF
  8
1
  6
CONTINUOUS
 62
     7
 10
1943.7775814441
 20
66.3788626864
 30
0.0
 11
1943.7775814441
 21
61.2788626864
 31
0.0
  0
LINE
  5
B0
  8
1
  6
CONTINUOUS
 62
     7
 10
1948.2221254441
 20
-53.2278606684
 30
0.0
 11
1940.8495424441
 21
-60.6004436684
 31
0.0
  0
ARC
  5
B1
  8
1
  6
CONTINUOUS
 62
     7
 10
1891.7775814441
 20
66.3788626864
 30
0.0
 40
3.0
 50
90.0
 51
180.0
  0
ARC
  5
B2
  8
1
  6
CONTINUOUS
 62
     7
 10
1941.2775814441
 20
-81.2833166684
 30
0.0
 40
10.0
 50
270.0
 51
90.0
  0
LINE
  5
B3
  8
1
  6
CONTINUOUS
 62
     7
 10
1944.3330374441
 20
-113.2278606684
 30
0.0
 11
1936.9604544441
 21
-105.8552776684
 31
0.0
  0
ARC
  5
B4
  8
1
  6
CONTINUOUS
 62
     7
 10
1946.2775814441
 20
-111.2833166684
 30
0.0
 40
2.75
 50
225.0
 51
45.0
  0
ARC
  5
B5
  8
1
  6
CONTINUOUS
 62
     7
 10
1938.9049984441
 20
-58.6558996684
 30
0.0
 40
2.75
 50
135.0
 51
315.0
  0
ARC
  5
B6
  8
1
  6
CONTINUOUS
 62
     7
 10
1916.2775814441
 20
-51.2833166684
 30
0.0
 40
4.2
 50
180.0
 51
0.0
  0
LINE
  5
B7
  8
1
  6
CONTINUOUS
 62
     7
 10
1920.4775814441
 20
-51.2833166684
 30
0.0
 11
1920.4775814441
 21
-40.2833166684
 31
0.0
  0
LINE
  5
B8
  8
1
  6
CONTINUOUS
 62
     7
 10
1940.8495424441
 20
-101.9661896684
 30
0.0
 11
1948.2221254441
 21
-109.3387726684
 31
0.0
  0
LINE
  5
B9
  8
1
  6
CONTINUOUS
 62
     7
 10
1940.7775814441
 20
58.2788626864
 30
0.0
 11
1922.6052984441
 21
58.2788626864
 31
0.0
  0
ARC
  5
BA
  8
1
  6
CONTINUOUS
 62
     7
 10
1940.7775814441
 20
61.2788626864
 30
0.0
 40
3.0
 50
270.0
 51
0.0
  0
LINE
  5
BB
  8
1
  6
CONTINUOUS
 62
     7
 10
1928.0275814441
 20
45.8788626864
 30
0.0
 11
1928.5775814441
 21
45.8788626864
 31
0.0
  0
LINE
  5
BC
  8
1
  6
CENTER
 62
     5
 10
1861.2775814441
 20
-81.2833166684
 30
0.0
 11
1971.2775814441
 21
-81.2833166684
 31
0.0
  0
LINE
  5
BE
  8
1
  6
CONTINUOUS
 62
     7
 10
1906.2775814441
 20
44.0726156864
 30
0.0
 11
1906.2775814441
 21
16.8788626864
 31
0.0
  0
ARC
  5
BF
  8
1
  6
CONTINUOUS
 62
     7
 10
1908.8275814441
 20
25.1788626864
 30
0.0
 40
2.3
 50
180.0
 51
270.0
  0
ARC
  5
C0
  8
1
  6
CONTINUOUS
 62
     7
 10
1856.2775814441
 20
-81.2833166684
 30
0.0
 40
5.1
 50
270.0
 51
90.0
  0
LINE
  5
C1
  8
1
  6
CONTINUOUS
 62
     7
 10
1931.3275814441
 20
33.8788626864
 30
0.0
 11
1938.1275814441
 21
33.8788626864
 31
0.0
  0
ARC
  5
C2
  8
1
  6
CONTINUOUS
 62
     7
 10
1916.4491544441
 20
15.8788626864
 30
0.0
 40
3.0
 50
19.471221
 51
90.0
  0
LINE
  5
C3
  8
1
  6
CONTINUOUS
 62
     7
 10
1923.7275814441
 20
22.8788626864
 30
0.0
 11
1916.5275814441
 21
22.8788626864
 31
0.0
  0
LINE
  5
C4
  8
1
  6
CONTINUOUS
 62
     7
 10
1843.4441224441
 20
-76.1833166684
 30
0.0
 11
1856.2775814441
 21
-76.1833166684
 31
0.0
  0
LINE
  5
C5
  8
1
  6
CONTINUOUS
 62
     7
 10
1989.1110404441
 20
-76.1833166684
 30
0.0
 11
1976.2775814441
 21
-76.1833166684
 31
0.0
  0
LINE
  5
C6
  8
1
  6
CONTINUOUS
 62
     7
 10
1916.0275814441
 20
22.8788626864
 30
0.0
 11
1916.0275814441
 21
25.4788626864
 31
0.0
  0
ARC
  5
C7
  8
1
  6
CONTINUOUS
 62
     7
 10
1976.2775814441
 20
-81.2833166684
 30
0.0
 40
5.1
 50
90.0
 51
270.0
  0
ARC
  5
C8
  8
1
  6
CONTINUOUS
 62
     7
 10
2009.2775814441
 20
72.8788626864
 30
0.0
 40
2.0
 50
0.0
 51
90.0
  0
CIRCLE
  5
C9
  8
1
  6
CONTINUOUS
 62
     7
 10
1916.2775814441
 20
51.8788626864
 30
0.0
 40
4.0
  0
LINE
  5
CA
  8
1
  6
CONTINUOUS
 62
     7
 10
1916.5275814441
 20
25.4788626864
 30
0.0
 11
1926.0275814441
 21
25.4788626864
 31
0.0
  0
LINE
  5
CB
  8
1
  6
CONTINUOUS
 62
     7
 10
1908.8275814441
 20
22.8788626864
 30
0.0
 11
1916.0275814441
 21
22.8788626864
 31
0.0
  0
LINE
  5
CC
  8
1
  6
CONTINUOUS
 62
     7
 10
1926.2775814441
 20
44.0726156864
 30
0.0
 11
1926.2775814441
 21
16.8788626864
 31
0.0
  0
LINE
  5
CD
  8
1
  6
CENTER
 62
     5
 10
1916.2775814441
 20
-136.2833166684
 30
0.0
 11
1916.2775814441
 21
-26.2833166684
 31
0.0
  0
LINE
  5
CE
  8
1
  6
CONTINUOUS
 62
     7
 10
1964.2039574441
 20
-67.0333166684
 30
0.0
 11
2011.2775814441
 21
-67.0333166684
 31
0.0
  0
LINE
  5
CF
  8
1
  6
CONTINUOUS
 62
     7
 10
1926.0275814441
 20
42.3706746864
 30
0.0
 11
1926.0275814441
 21
25.1788626864
 31
0.0
  0
LINE
  5
D0
  8
1
  6
CONTINUOUS
 62
     7
 10
1904.5275814441
 20
45.8788626864
 30
0.0
 11
1903.9775814441
 21
45.8788626864
 31
0.0
  0
TEXT
  5
D1
  8
1
  6
CONTINUOUS
 62
     7
 10
1898.566117757096
 20
-164.6578627272727
 30
0.0
 40
6.0
  1
ＳＧＰＦ－１５
 41
0.865177
  0
ARC
  5
D2
  8
1
  6
CONTINUOUS
 62
     7
 10
1893.6501644441
 20
-58.6558996684
 30
0.0
 40
2.75
 50
225.0
 51
45.0
  0
LINE
  5
D3
  8
1
  6
CONTINUOUS
 62
     7
 10
1922.7775814441
 20
55.6316396864
 30
0.0
 11
1916.2775810111
 21
59.3844159364
 31
0.0
  0
LINE
  5
D4
  8
1
  6
CONTINUOUS
 62
     7
 10
1893.7775814441
 20
52.8788626864
 30
0.0
 11
1893.7775814441
 21
49.8788626864
 31
0.0
  0
LINE
  5
D5
  8
1
  6
CONTINUOUS
 62
     7
 10
2004.5256174441
 20
-81.1033166684
 30
0.0
 11
2004.2775814441
 21
-81.1033166684
 31
0.0
  0
LINE
  5
D6
  8
1
  6
CONTINUOUS
 62
     7
 10
1888.2221254441
 20
-49.3387726684
 30
0.0
 11
1895.5947084441
 21
-56.7113556684
 31
0.0
  0
CIRCLE
  5
D7
  8
1
  6
CONTINUOUS
 62
     7
 10
1916.2775814441
 20
-81.2833166684
 30
0.0
 40
50.0
  0
LINE
  5
D8
  8
1
  6
CONTINUOUS
 62
     7
 10
1913.2775814441
 20
72.3788626864
 30
0.0
 11
1919.2775814441
 21
72.3788626864
 31
0.0
  0
LINE
  5
D9
  8
1
  6
CONTINUOUS
 62
     7
 10
1919.2775814441
 20
72.3788626864
 30
0.0
 11
1930.5543524441
 21
74.8788626864
 31
0.0
  0
LINE
  5
DA
  8
1
  6
CONTINUOUS
 62
     7
 10
1821.2775814441
 20
-95.5333166684
 30
0.0
 11
1868.3512054441
 21
-95.5333166684
 31
0.0
  0
LINE
  5
DB
  8
1
  6
CONTINUOUS
 62
     7
 10
1893.7775814441
 20
52.8788626864
 30
0.0
 11
1893.7876834441
 21
52.9788626864
 31
0.0
  0
ARC
  5
DC
  8
1
  6
CONTINUOUS
 62
     7
 10
1891.2775814441
 20
-81.2833166684
 30
0.0
 40
10.0
 50
90.0
 51
270.0
  0
LINE
  5
DD
  8
1
  6
CONTINUOUS
 62
     7
 10
1916.2775814441
 20
44.3733096864
 30
0.0
 11
1922.7775814441
 21
48.1260856864
 31
0.0
  0
LINE
  5
DE
  8
1
  6
CONTINUOUS
 62
     7
 10
1938.7674794441
 20
52.9788626864
 30
0.0
 11
1938.7775814441
 21
52.8788626864
 31
0.0
  0
LINE
  5
DF
  8
1
  6
CONTINUOUS
 62
     7
 10
1920.4775814441
 20
-111.2833166684
 30
0.0
 11
1920.4775814441
 21
-122.2833166684
 31
0.0
  0
LINE
  5
E0
  8
1
  6
CONTINUOUS
 62
     7
 10
1930.5543524441
 20
74.8788626864
 30
0.0
 11
2009.2775814441
 21
74.8788626864
 31
0.0
  0
ARC
  5
E1
  8
1
  6
CONTINUOUS
 62
     7
 10
1916.2775814441
 20
-111.2833166684
 30
0.0
 40
4.2
 50
0.0
 51
180.0
  0
ARC
  5
E2
  8
1
  6
CONTINUOUS
 62
     7
 10
1886.2775814441
 20
-51.2833166684
 30
0.0
 40
2.75
 50
45.0
 51
225.0
  0
LINE
  5
E3
  8
1
  6
CONTINUOUS
 62
     7
 10
1891.7056204441
 20
-60.6004436684
 30
0.0
 11
1884.3330374441
 21
-53.2278606684
 31
0.0
  0
LINE
  5
E4
  8
1
  6
CONTINUOUS
 62
     7
 10
1916.2775814441
 20
59.3844166864
 30
0.0
 11
1909.7775818771
 21
55.6316389364
 31
0.0
  0
LINE
  5
E5
  8
1
  6
CONTINUOUS
 62
     7
 10
1821.2775814441
 20
49.8788626864
 30
0.0
 11
1893.7775814441
 21
49.8788626864
 31
0.0
  0
ARC
  5
E6
  8
1
  6
CONTINUOUS
 62
     7
 10
1996.2775814441
 20
-81.2833166684
 30
0.0
 40
8.25
 50
1.458596
 51
14.14111
  0
LINE
  5
E7
  8
1
  6
CONTINUOUS
 62
     7
 10
2004.5249084441
 20
-81.0733166684
 30
0.0
 11
2004.2775814441
 21
-81.0733166684
 31
0.0
  0
LINE
  5
E8
  8
1
  6
CONTINUOUS
 62
     7
 10
1964.2039574441
 20
-95.5333166684
 30
0.0
 11
2011.2775814441
 21
-95.5333166684
 31
0.0
  0
LINE
  5
E9
  8
1
  6
CONTINUOUS
 62
     7
 10
1912.0775814441
 20
-122.2833166684
 30
0.0
 11
1912.0775814441
 21
-111.2833166684
 31
0.0
  0
ARC
  5
EA
  8
1
  6
CONTINUOUS
 62
     7
 10
1938.9049984441
 20
-103.9107336684
 30
0.0
 40
2.75
 50
45.0
 51
225.0
  0
LINE
  5
EB
  8
1
  6
CONTINUOUS
 62
     7
 10
1909.7775814441
 20
48.1260856864
 30
0.0
 11
1916.2775814441
 21
44.3733096864
 31
0.0
  0
ARC
  5
EC
  8
1
  6
CONTINUOUS
 62
     7
 10
1996.2775814441
 20
-81.2833166684
 30
0.0
 40
8.25
 50
345.8588899999999
 51
1.250188999999978
  0
LINE
  5
ED
  8
1
  6
CONTINUOUS
 62
     7
 10
1938.7775814441
 20
49.8788626864
 30
0.0
 11
1938.7775814441
 21
52.8788626864
 31
0.0
  0
LINE
  5
EE
  8
1
  6
CONTINUOUS
 62
     7
 10
1922.7775814441
 20
48.1260856864
 30
0.0
 11
1922.7775814441
 21
55.6316396864
 31
0.0
  0
LINE
  5
EF
  8
1
  6
CONTINUOUS
 62
     7
 10
1909.7775814441
 20
55.6316396864
 30
0.0
 11
1909.7775814441
 21
48.1260856864
 31
0.0
  0
LINE
  5
F0
  8
1
  6
CONTINUOUS
 62
     7
 10
1938.7775814441
 20
49.8788626864
 30
0.0
 11
2011.2775814441
 21
49.8788626864
 31
0.0
  0
LINE
  5
F1
  8
1
  6
CONTINUOUS
 62
     7
 10
2004.2775814441
 20
-81.4933166684
 30
0.0
 11
2004.5249084441
 21
-81.4933166684
 31
0.0
  0
LINE
  5
F2
  8
1
  6
CONTINUOUS
 62
     7
 10
1821.2775814441
 20
-67.0333166684
 30
0.0
 11
1868.3512054441
 21
-67.0333166684
 31
0.0
  0
ARC
  5
F3
  8
1
  6
CONTINUOUS
 62
     7
 10
1916.2775814441
 20
-122.2833166684
 30
0.0
 40
4.2
 50
180.0
 51
0.0
  0
LINE
  5
F4
  8
1
  6
CONTINUOUS
 62
     7
 10
1987.7775814441
 20
48.2788626864
 30
0.0
 11
1987.7775814441
 21
32.2788626864
 31
0.0
  0
LINE
  5
F5
  8
1
  6
CONTINUOUS
 62
     7
 10
1821.2775814441
 20
49.8788626864
 30
0.0
 11
1821.2775814441
 21
72.8788626864
 31
0.0
  0
LINE
  5
F6
  8
1
  6
CONTINUOUS
 62
     7
 10
1888.7775814441
 20
61.2788626864
 30
0.0
 11
1888.7775814441
 21
66.3788626864
 31
0.0
  0
ARC
  5
F7
  8
1
  6
CONTINUOUS
 62
     7
 10
1938.2775814441
 20
52.8788626864
 30
0.0
 40
0.5
 50
11.536959
 51
90.0
  0
ARC
  5
F8
  8
1
  6
CONTINUOUS
 62
     7
 10
1912.5275814441
 20
51.8788626864
 30
0.0
 40
10.0
 50
186.62581
 51
270.0
  0
LINE
  5
F9
  8
1
  6
CONTINUOUS
 62
     7
 10
2001.0275814441
 20
29.8788626864
 30
0.0
 11
2001.0275814441
 21
32.2788626864
 31
0.0
  0
LINE
  5
FA
  8
1
  6
CONTINUOUS
 62
     7
 10
2005.2775814441
 20
48.2788626864
 30
0.0
 11
2005.2775814441
 21
49.8788626864
 31
0.0
  0
ARC
  5
FB
  8
1
  6
CONTINUOUS
 62
     7
 10
1920.0275814441
 20
51.8788626864
 30
0.0
 40
10.0
 50
270.0
 51
353.3741900000001
  0
LINE
  5
FC
  8
1
  6
CONTINUOUS
 62
     7
 10
2005.2775814441
 20
48.2788626864
 30
0.0
 11
1987.2775814441
 21
48.2788626864
 31
0.0
  0
LINE
  5
FD
  8
1
  6
CONTINUOUS
 62
     7
 10
2004.7775814441
 20
40.2788626864
 30
0.0
 11
1987.7775814441
 21
40.2788626864
 31
0.0
  0
LINE
  5
FE
  8
1
  6
CONTINUOUS
 62
     7
 10
1987.7775814441
 20
32.2788626864
 30
0.0
 11
2004.7775814441
 21
32.2788626864
 31
0.0
  0
LINE
  5
FF
  8
1
  6
CONTINUOUS
 62
     7
 10
1991.5275814441
 20
32.2788626864
 30
0.0
 11
1991.5275814441
 21
29.8788626864
 31
0.0
  0
LINE
  5
100
  8
1
  6
CONTINUOUS
 62
     7
 10
1938.2775814441
 20
53.3788626864
 30
0.0
 11
1932.9407534441
 21
53.3788626864
 31
0.0
  0
LINE
  5
101
  8
1
  6
CONTINUOUS
 62
     7
 10
2004.7775814441
 20
32.2788626864
 30
0.0
 11
2004.7775814441
 21
48.2788626864
 31
0.0
  0
ARC
  5
102
  8
1
  6
CONTINUOUS
 62
     7
 10
1932.9407534441
 20
50.3788626864
 30
0.0
 40
3.0
 50
90.0
 51
173.37419
  0
LINE
  5
103
  8
1
  6
CONTINUOUS
 62
     7
 10
1912.5275814441
 20
41.8788626864
 30
0.0
 11
1920.0275814441
 21
41.8788626864
 31
0.0
  0
LINE
  5
104
  8
1
  6
CONTINUOUS
 62
     7
 10
2001.0275814441
 20
29.8788626864
 30
0.0
 11
1991.5275814441
 21
29.8788626864
 31
0.0
  0
LINE
  5
105
  8
1
  6
CONTINUOUS
 62
     7
 10
1996.2775814441
 20
32.2788626864
 30
0.0
 11
1996.2775814441
 21
48.2788626864
 31
0.0
  0
LINE
  5
106
  8
1
  6
CONTINUOUS
 62
     7
 10
1987.2775814441
 20
49.8788626864
 30
0.0
 11
1987.2775814441
 21
48.2788626864
 31
0.0
  0
LINE
  5
107
  8
1
  6
CONTINUOUS
 62
     7
 10
1831.5275814441
 20
32.2788626864
 30
0.0
 11
1831.5275814441
 21
29.8788626864
 31
0.0
  0
LINE
  5
108
  8
1
  6
CONTINUOUS
 62
     7
 10
1831.5275814441
 20
224.8788626864
 30
0.0
 11
1831.5275814441
 21
74.87886268639998
 31
0.0
  0
ARC
  5
109
  8
1
  6
CONTINUOUS
 62
     7
 10
1996.2775814441
 20
-81.2833166684
 30
0.0
 40
8.25
 50
105.85889
 51
134.14111
  0
LINE
  5
10A
  8
1
  6
CONTINUOUS
 62
     7
 10
2004.2775814441
 20
-85.9021186684
 30
0.0
 11
1996.2775814441
 21
-90.5209206684
 31
0.0
  0
LINE
  5
10B
  8
1
  6
CONTINUOUS
 62
     7
 10
1828.2775814441
 20
-85.9021186684
 30
0.0
 11
1828.2775814441
 21
-76.6645146684
 31
0.0
  0
LINE
  5
10C
  8
1
  6
CONTINUOUS
 62
     7
 10
1827.7775814441
 20
48.2788626864
 30
0.0
 11
1827.7775814441
 21
32.2788626864
 31
0.0
  0
LINE
  5
10D
  8
1
  6
CONTINUOUS
 62
     7
 10
1844.7775814441
 20
259.4788626864
 30
0.0
 11
1844.7775814441
 21
251.4788626864
 31
0.0
  0
LINE
  5
10E
  8
1
  6
CONTINUOUS
 62
     7
 10
1919.2775814441
 20
227.3788626864
 30
0.0
 11
1913.2775814441
 21
227.3788626864
 31
0.0
  0
ARC
  5
10F
  8
1
  6
CONTINUOUS
 62
     7
 10
1996.2775814441
 20
-81.2833166684
 30
0.0
 40
8.25
 50
285.85889
 51
314.14111
  0
ARC
  5
110
  8
1
  6
CONTINUOUS
 62
     7
 10
1836.2775814441
 20
-81.2833166684
 30
0.0
 40
8.25
 50
105.85889
 51
134.14111
  0
ARC
  5
111
  8
1
  6
CONTINUOUS
 62
     7
 10
1836.2775814441
 20
-81.2833166684
 30
0.0
 40
8.25
 50
165.85889
 51
181.250189
  0
ARC
  5
112
  8
1
  6
CONTINUOUS
 62
     7
 10
1996.2775814441
 20
-81.2833166684
 30
0.0
 40
8.25
 50
165.85889
 51
194.14111
  0
LINE
  5
113
  8
1
  6
CONTINUOUS
 62
     7
 10
1991.5275814441
 20
269.8788626864
 30
0.0
 11
2001.0275814441
 21
269.8788626864
 31
0.0
  0
LINE
  5
114
  8
1
  6
CONTINUOUS
 62
     7
 10
2011.2775814441
 20
226.8788626864
 30
0.0
 11
2011.2775814441
 21
249.8788626864
 31
0.0
  0
LINE
  5
115
  8
1
  6
CONTINUOUS
 62
     7
 10
1836.2775814441
 20
259.4788626864
 30
0.0
 11
1836.2775814441
 21
251.4788626864
 31
0.0
  0
ARC
  5
116
  8
1
  6
CONTINUOUS
 62
     7
 10
1996.2775814441
 20
-81.2833166684
 30
0.0
 40
8.25
 50
225.85889
 51
254.1411099999999
  0
LINE
  5
117
  8
1
  6
CONTINUOUS
 62
     7
 10
1841.0275814441
 20
74.8788626864
 30
0.0
 11
1841.0275814441
 21
224.8788626864
 31
0.0
  0
LINE
  5
118
  8
1
  6
CONTINUOUS
 62
     7
 10
1827.7775814441
 20
259.4788626864
 30
0.0
 11
1827.7775814441
 21
251.4788626864
 31
0.0
  0
LINE
  5
119
  8
1
  6
CONTINUOUS
 62
     7
 10
1987.7775814441
 20
251.4788626864
 30
0.0
 11
1987.7775814441
 21
259.4788626864
 31
0.0
  0
LINE
  5
11A
  8
1
  6
CONTINUOUS
 62
     7
 10
1821.2775814441
 20
226.8788626864
 30
0.0
 11
1821.2775814441
 21
249.8788626864
 31
0.0
  0
LINE
  5
11B
  8
1
  6
CONTINUOUS
 62
     7
 10
1821.2775814441
 20
249.8788626864
 30
0.0
 11
2011.2775814441
 21
249.8788626864
 31
0.0
  0
LINE
  5
11C
  8
1
  6
CONTINUOUS
 62
     7
 10
1930.5543524441
 20
224.8788626864
 30
0.0
 11
1919.2775814441
 21
227.3788626864
 31
0.0
  0
LINE
  5
11D
  8
1
  6
CONTINUOUS
 62
     7
 10
1987.7775814441
 20
259.4788626864
 30
0.0
 11
2004.7775814441
 21
259.4788626864
 31
0.0
  0
LINE
  5
11E
  8
1
  6
CONTINUOUS
 62
     7
 10
1987.2775814441
 20
251.4788626864
 30
0.0
 11
1987.2775814441
 21
249.8788626864
 31
0.0
  0
LINE
  5
11F
  8
1
  6
CONTINUOUS
 62
     7
 10
1827.7775814441
 20
259.4788626864
 30
0.0
 11
1844.7775814441
 21
259.4788626864
 31
0.0
  0
ARC
  5
120
  8
1
  6
CONTINUOUS
 62
     7
 10
2009.2775814441
 20
226.8788626864
 30
0.0
 40
2.0
 50
270.0
 51
0.0
  0
LINE
  5
121
  8
1
  6
CONTINUOUS
 62
     7
 10
1841.0275814441
 20
29.8788626864
 30
0.0
 11
1841.0275814441
 21
32.2788626864
 31
0.0
  0
LINE
  5
122
  8
1
  6
CONTINUOUS
 62
     7
 10
1828.0295454441
 20
-81.4633166684
 30
0.0
 11
1828.2775814441
 21
-81.4633166684
 31
0.0
  0
ARC
  5
123
  8
1
  6
CONTINUOUS
 62
     7
 10
1996.2775814441
 20
-81.2833166684
 30
0.0
 40
8.25
 50
45.85889
 51
74.14110999999998
  0
ARC
  5
124
  8
1
  6
CONTINUOUS
 62
     7
 10
1836.2775814441
 20
-81.2833166684
 30
0.0
 40
8.25
 50
345.8588899999999
 51
14.14111000000003
  0
LINE
  5
125
  8
1
  6
CONTINUOUS
 62
     7
 10
1845.2775814441
 20
251.4788626864
 30
0.0
 11
1827.2775814441
 21
251.4788626864
 31
0.0
  0
LINE
  5
126
  8
1
  6
CONTINUOUS
 62
     7
 10
1991.5275814441
 20
224.8788626864
 30
0.0
 11
1991.5275814441
 21
74.87886268639998
 31
0.0
  0
LINE
  5
127
  8
1
  6
CONTINUOUS
 62
     7
 10
2001.0275814441
 20
74.8788626864
 30
0.0
 11
2001.0275814441
 21
224.8788626864
 31
0.0
  0
LINE
  5
128
  8
1
  6
CONTINUOUS
 62
     7
 10
1845.2775814441
 20
48.2788626864
 30
0.0
 11
1845.2775814441
 21
49.8788626864
 31
0.0
  0
LINE
  5
129
  8
1
  6
CONTINUOUS
 62
     7
 10
1831.5275814441
 20
269.8788626864
 30
0.0
 11
1841.0275814441
 21
269.8788626864
 31
0.0
  0
LINE
  5
12A
  8
1
  6
CONTINUOUS
 62
     7
 10
1845.2775814441
 20
249.8788626864
 30
0.0
 11
1845.2775814441
 21
251.4788626864
 31
0.0
  0
LINE
  5
12B
  8
1
  6
CONTINUOUS
 62
     7
 10
1836.2775814441
 20
32.2788626864
 30
0.0
 11
1836.2775814441
 21
48.2788626864
 31
0.0
  0
LINE
  5
12C
  8
1
  6
CONTINUOUS
 62
     7
 10
1845.2775814441
 20
48.2788626864
 30
0.0
 11
1827.2775814441
 21
48.2788626864
 31
0.0
  0
LINE
  5
12D
  8
1
  6
CONTINUOUS
 62
     7
 10
1841.0275814441
 20
29.8788626864
 30
0.0
 11
1831.5275814441
 21
29.8788626864
 31
0.0
  0
LINE
  5
12E
  8
1
  6
CONTINUOUS
 62
     7
 10
2004.7775814441
 20
259.4788626864
 30
0.0
 11
2004.7775814441
 21
251.4788626864
 31
0.0
  0
LINE
  5
12F
  8
1
  6
CONTINUOUS
 62
     7
 10
2005.2775814441
 20
251.4788626864
 30
0.0
 11
1987.2775814441
 21
251.4788626864
 31
0.0
  0
LINE
  5
130
  8
1
  6
CONTINUOUS
 62
     7
 10
1844.7775814441
 20
40.2788626864
 30
0.0
 11
1827.7775814441
 21
40.2788626864
 31
0.0
  0
LINE
  5
131
  8
1
  6
CONTINUOUS
 62
     7
 10
1844.7775814441
 20
32.2788626864
 30
0.0
 11
1844.7775814441
 21
48.2788626864
 31
0.0
  0
LINE
  5
132
  8
1
  6
CONTINUOUS
 62
     7
 10
1823.2775814441
 20
224.8788626864
 30
0.0
 11
1902.0008104441
 21
224.8788626864
 31
0.0
  0
LINE
  5
133
  8
1
  6
CONTINUOUS
 62
     7
 10
1913.2775814441
 20
227.3788626864
 30
0.0
 11
1902.0008104441
 21
224.8788626864
 31
0.0
  0
LINE
  5
134
  8
1
  6
CONTINUOUS
 62
     7
 10
1827.2775814441
 20
251.4788626864
 30
0.0
 11
1827.2775814441
 21
249.8788626864
 31
0.0
  0
LINE
  5
135
  8
1
  6
CONTINUOUS
 62
     7
 10
1827.7775814441
 20
32.2788626864
 30
0.0
 11
1844.7775814441
 21
32.2788626864
 31
0.0
  0
LINE
  5
136
  8
1
  6
CONTINUOUS
 62
     7
 10
1930.5543524441
 20
224.8788626864
 30
0.0
 11
2009.2775814441
 21
224.8788626864
 31
0.0
  0
ARC
  5
137
  8
1
  6
CONTINUOUS
 62
     7
 10
1823.2775814441
 20
72.8788626864
 30
0.0
 40
2.0
 50
90.0
 51
180.0
  0
LINE
  5
138
  8
1
  6
CONTINUOUS
 62
     7
 10
2005.2775814441
 20
249.8788626864
 30
0.0
 11
2005.2775814441
 21
251.4788626864
 31
0.0
  0
ARC
  5
139
  8
1
  6
CONTINUOUS
 62
     7
 10
1823.2775814441
 20
226.8788626864
 30
0.0
 40
2.0
 50
180.0
 51
270.0
  0
LINE
  5
13A
  8
1
  6
CONTINUOUS
 62
     7
 10
1827.2775814441
 20
49.8788626864
 30
0.0
 11
1827.2775814441
 21
48.2788626864
 31
0.0
  0
LINE
  5
13B
  8
1
  6
CONTINUOUS
 62
     7
 10
1996.2775814441
 20
259.4788626864
 30
0.0
 11
1996.2775814441
 21
251.4788626864
 31
0.0
  0
LINE
  5
13C
  8
1
  6
CONTINUOUS
 62
     7
 10
1996.2775814441
 20
-90.5209206684
 30
0.0
 11
1988.2775814441
 21
-85.9021186684
 31
0.0
  0
LINE
  5
13D
  8
1
  6
CONTINUOUS
 62
     7
 10
1828.2775814441
 20
-76.6645146684
 30
0.0
 11
1836.2775814441
 21
-72.0457126684
 31
0.0
  0
LINE
  5
13E
  8
1
  6
CONTINUOUS
 62
     7
 10
1836.2775814441
 20
-72.0457126684
 30
0.0
 11
1844.2775814441
 21
-76.6645146684
 31
0.0
  0
LINE
  5
13F
  8
1
  6
CONTINUOUS
 62
     7
 10
2004.2775814441
 20
-76.6645146684
 30
0.0
 11
2004.2775814441
 21
-85.9021186684
 31
0.0
  0
LINE
  5
140
  8
1
  6
CONTINUOUS
 62
     7
 10
1988.2775814441
 20
-76.6645146684
 30
0.0
 11
1996.2775814441
 21
-72.0457126684
 31
0.0
  0
LINE
  5
141
  8
1
  6
CONTINUOUS
 62
     7
 10
1912.0775814441
 20
-40.2833166684
 30
0.0
 11
1912.0775814441
 21
-51.2833166684
 31
0.0
  0
ARC
  5
142
  8
1
  6
CONTINUOUS
 62
     7
 10
1836.2775814441
 20
-81.2833166684
 30
0.0
 40
8.25
 50
181.458596
 51
194.14111
  0
LINE
  5
143
  8
1
  6
CONTINUOUS
 62
     7
 10
1836.2775814441
 20
-90.5209206684
 30
0.0
 11
1828.2775814441
 21
-85.9021186684
 31
0.0
  0
ARC
  5
144
  8
1
  6
CONTINUOUS
 62
     7
 10
1836.2775814441
 20
-81.2833166684
 30
0.0
 40
8.25
 50
225.85889
 51
254.1411099999999
  0
LINE
  5
145
  8
1
  6
CONTINUOUS
 62
     7
 10
1988.2775814441
 20
-85.9021186684
 30
0.0
 11
1988.2775814441
 21
-76.6645146684
 31
0.0
  0
LINE
  5
146
  8
1
  6
CONTINUOUS
 62
     7
 10
1891.2775814441
 20
-71.2833166684
 30
0.0
 11
1906.7775814441
 21
-71.2833166684
 31
0.0
  0
LINE
  5
147
  8
1
  6
CONTINUOUS
 62
     7
 10
1828.2775814441
 20
-81.0733166684
 30
0.0
 11
1828.0302544441
 21
-81.0733166684
 31
0.0
  0
LINE
  5
148
  8
1
  6
CONTINUOUS
 62
     7
 10
1891.2775814441
 20
-91.2833166684
 30
0.0
 11
1906.7775814441
 21
-91.2833166684
 31
0.0
  0
LINE
  5
149
  8
1
  6
CONTINUOUS
 62
     7
 10
1941.2775814441
 20
-71.2833166684
 30
0.0
 11
1925.7775814441
 21
-71.2833166684
 31
0.0
  0
ARC
  5
14A
  8
1
  6
CONTINUOUS
 62
     7
 10
1916.2775814441
 20
-40.2833166684
 30
0.0
 40
4.2
 50
0.0
 51
180.0
  0
ARC
  5
14B
  8
1
  6
CONTINUOUS
 62
     7
 10
1836.2775814441
 20
-81.2833166684
 30
0.0
 40
8.25
 50
285.85889
 51
314.14111
  0
ARC
  5
14C
  8
1
  6
CONTINUOUS
 62
     7
 10
1893.6501644441
 20
-103.9107336684
 30
0.0
 40
2.75
 50
315.0
 51
135.0
  0
LINE
  5
14D
  8
1
  6
CONTINUOUS
 62
     7
 10
1884.3330374441
 20
-109.3387726684
 30
0.0
 11
1891.7056204441
 21
-101.9661896684
 31
0.0
  0
LINE
  5
14E
  8
1
  6
CONTINUOUS
 62
     7
 10
1895.5947084441
 20
-105.8552776684
 30
0.0
 11
1888.2221254441
 21
-113.2278606684
 31
0.0
  0
LINE
  5
14F
  8
1
  6
CONTINUOUS
 62
     7
 10
1936.9604544441
 20
-56.7113556684
 30
0.0
 11
1944.3330374441
 21
-49.3387726684
 31
0.0
  0
ARC
  5
150
  8
1
  6
CONTINUOUS
 62
     7
 10
1886.2775814441
 20
-111.2833166684
 30
0.0
 40
2.75
 50
135.0
 51
315.0
  0
ARC
  5
151
  8
1
  6
CONTINUOUS
 62
     7
 10
1836.2775814441
 20
-81.2833166684
 30
0.0
 40
8.25
 50
45.85889
 51
74.14110999999998
  0
LINE
  5
152
  8
1
  6
CONTINUOUS
 62
     7
 10
1844.2775814441
 20
-85.9021186684
 30
0.0
 11
1836.2775814441
 21
-90.5209206684
 31
0.0
  0
LINE
  5
153
  8
1
  6
CONTINUOUS
 62
     7
 10
1941.2775814441
 20
-91.2833166684
 30
0.0
 11
1925.7775814441
 21
-91.2833166684
 31
0.0
  0
LINE
  5
154
  8
1
  6
CONTINUOUS
 62
     7
 10
1996.2775814441
 20
-72.0457126684
 30
0.0
 11
2004.2775814441
 21
-76.6645146684
 31
0.0
  0
LINE
  5
155
  8
1
  6
CONTINUOUS
 62
     7
 10
1844.2775814441
 20
-76.6645146684
 30
0.0
 11
1844.2775814441
 21
-85.9021186684
 31
0.0
  0
LINE
  5
156
  8
1
  6
CONTINUOUS
 62
     7
 10
1828.0302544441
 20
-81.4933166684
 30
0.0
 11
1828.2775814441
 21
-81.4933166684
 31
0.0
  0
LINE
  5
157
  8
1
  6
CONTINUOUS
 62
     7
 10
1831.5275814441
 20
269.8788626864
 30
0.0
 11
1831.5275814441
 21
267.4788626864
 31
0.0
  0
LINE
  5
158
  8
1
  6
CONTINUOUS
 62
     7
 10
1991.5275814441
 20
269.8788626864
 30
0.0
 11
1991.5275814441
 21
267.4788626864
 31
0.0
  0
LINE
  5
159
  8
1
  6
CONTINUOUS
 62
     7
 10
1841.0275814441
 20
267.4788626864
 30
0.0
 11
1841.0275814441
 21
269.8788626864
 31
0.0
  0
LINE
  5
15A
  8
1
  6
CONTINUOUS
 62
     7
 10
2001.0275814441
 20
267.4788626864
 30
0.0
 11
2001.0275814441
 21
269.8788626864
 31
0.0
  0
LINE
  5
15B
  8
1
  6
CONTINUOUS
 62
     7
 10
2004.7775814441
 20
267.4788626864
 30
0.0
 11
2004.7775814441
 21
259.4788626864
 31
0.0
  0
LINE
  5
15C
  8
1
  6
CONTINUOUS
 62
     7
 10
1844.7775814441
 20
267.4788626864
 30
0.0
 11
1844.7775814441
 21
259.4788626864
 31
0.0
  0
LINE
  5
15D
  8
1
  6
CONTINUOUS
 62
     7
 10
1836.2775814441
 20
267.4788626864
 30
0.0
 11
1836.2775814441
 21
259.4788626864
 31
0.0
  0
LINE
  5
15E
  8
1
  6
CONTINUOUS
 62
     7
 10
1827.7775814441
 20
267.4788626864
 30
0.0
 11
1844.7775814441
 21
267.4788626864
 31
0.0
  0
LINE
  5
15F
  8
1
  6
CONTINUOUS
 62
     7
 10
1987.7775814441
 20
267.4788626864
 30
0.0
 11
2004.7775814441
 21
267.4788626864
 31
0.0
  0
LINE
  5
160
  8
1
  6
CONTINUOUS
 62
     7
 10
1996.2775814441
 20
267.4788626864
 30
0.0
 11
1996.2775814441
 21
259.4788626864
 31
0.0
  0
LINE
  5
161
  8
1
  6
CONTINUOUS
 62
     7
 10
1827.7775814441
 20
267.4788626864
 30
0.0
 11
1827.7775814441
 21
259.4788626864
 31
0.0
  0
LINE
  5
162
  8
1
  6
CONTINUOUS
 62
     7
 10
1987.7775814441
 20
259.4788626864
 30
0.0
 11
1987.7775814441
 21
267.4788626864
 31
0.0
  0
INSERT
  5
164
  8
0
 62
     7
  2
D_FRAME_DRAWING_21
 10
0.0
 20
0.0
 30
0.0
  0
ENDSEC
  0
EOF
