  0
SECTION
  2
HEADER
  9
$ACADVER
  1
AC1006
  9
$DWGCODEPAGE
  3
ansi_932
  9
$INSBASE
 10
0.0
 20
0.0
 30
0.0
  9
$EXTMIN
 10
0.0
 20
-885.292292
  9
$EXTMAX
 10
2127.3246987861
 20
5.686136363636363
  9
$LIMMIN
 10
0.0
 20
0.0
  9
$LIMMAX
 10
12.0
 20
9.0
  9
$ORTHOMODE
 70
     0
  9
$REGENMODE
 70
     1
  9
$FILLMODE
 70
     1
  9
$QTEXTMODE
 70
     0
  9
$MIRRTEXT
 70
     1
  9
$DRAGMODE
 70
     2
  9
$LTSCALE
 40
1.0
  9
$OSMODE
 70
    37
  9
$ATTMODE
 70
     1
  9
$TEXTSIZE
 40
0.2
  9
$TRACEWID
 40
0.05
  9
$TEXTSTYLE
  7
STANDARD
  9
$CLAYER
  8
0
  9
$CELTYPE
  6
BYLAYER
  9
$CECOLOR
 62
   256
  9
$DIMSCALE
 40
1.0
  9
$DIMASZ
 40
2.4
  9
$DIMEXO
 40
0.0625
  9
$DIMDLI
 40
0.38
  9
$DIMRND
 40
0.0
  9
$DIMDLE
 40
0.0
  9
$DIMEXE
 40
1.2
  9
$DIMTP
 40
0.0
  9
$DIMTM
 40
0.0
  9
$DIMTXT
 40
8.0
  9
$DIMCEN
 40
0.09
  9
$DIMTSZ
 40
0.0
  9
$DIMTOL
 70
     0
  9
$DIMLIM
 70
     0
  9
$DIMTIH
 70
     1
  9
$DIMTOH
 70
     1
  9
$DIMSE1
 70
     0
  9
$DIMSE2
 70
     0
  9
$DIMTAD
 70
     1
  9
$DIMZIN
 70
     0
  9
$DIMBLK
  1

  9
$DIMASO
 70
     1
  9
$DIMSHO
 70
     1
  9
$DIMPOST
  1

  9
$DIMAPOST
  1

  9
$DIMALT
 70
     0
  9
$DIMALTD
 70
     2
  9
$DIMALTF
 40
25.4
  9
$DIMLFAC
 40
1.0
  9
$DIMTOFL
 70
     0
  9
$DIMTVP
 40
0.0
  9
$DIMTIX
 70
     0
  9
$DIMSOXD
 70
     0
  9
$DIMSAH
 70
     0
  9
$DIMBLK1
  1

  9
$DIMBLK2
  1

  9
$LUNITS
 70
     2
  9
$LUPREC
 70
     4
  9
$SKETCHINC
 40
0.1
  9
$FILLETRAD
 40
0.5
  9
$AUNITS
 70
     0
  9
$AUPREC
 70
     0
  9
$MENU
  1
.
  9
$ELEVATION
 40
0.0
  9
$THICKNESS
 40
0.0
  9
$LIMCHECK
 70
     0
  9
$CHAMFERA
 40
0.0
  9
$CHAMFERB
 40
0.0
  9
$SKPOLY
 70
     0
  9
$TDCREATE
 40
2460587.381168472
  9
$TDUPDATE
 40
2460587.381168843
  9
$TDINDWG
 40
0.0000000116
  9
$TDUSRTIMER
 40
0.0000000116
  9
$USRTIMER
 70
     1
  9
$ANGBASE
 50
0.0
  9
$ANGDIR
 70
     0
  9
$PDMODE
 70
     0
  9
$PDSIZE
 40
0.0
  9
$PLINEWID
 40
0.0
  9
$COORDS
 70
     1
  9
$SPLFRAME
 70
     0
  9
$SPLINETYPE
 70
     6
  9
$SPLINESEGS
 70
     8
  9
$ATTDIA
 70
     0
  9
$ATTREQ
 70
     1
  9
$HANDLING
 70
     1
  9
$HANDSEED
  5
1EA
  9
$SURFTAB1
 70
     6
  9
$SURFTAB2
 70
     6
  9
$SURFTYPE
 70
     6
  9
$SURFU
 70
     6
  9
$SURFV
 70
     6
  9
$UCSNAME
  2

  9
$UCSORG
 10
0.0
 20
0.0
 30
0.0
  9
$UCSXDIR
 10
1.0
 20
0.0
 30
0.0
  9
$UCSYDIR
 10
0.0
 20
1.0
 30
0.0
  9
$USERI1
 70
     0
  9
$USERI2
 70
     0
  9
$USERI3
 70
     0
  9
$USERI4
 70
     0
  9
$USERI5
 70
     0
  9
$USERR1
 40
0.0
  9
$USERR2
 40
0.0
  9
$USERR3
 40
0.0
  9
$USERR4
 40
0.0
  9
$USERR5
 40
0.0
  9
$WORLDVIEW
 70
     1
  0
ENDSEC
  0
SECTION
  2
TABLES
  0
TABLE
  2
VPORT
 70
     1
  0
VPORT
  2
*ACTIVE
 70
     0
 10
0.0
 20
0.0
 11
1.0
 21
1.0
 12
1063.66234939305
 22
-439.8030778181818
 13
0.0
 23
0.0
 14
0.5
 24
0.5
 15
0.5
 25
0.5
 16
0.0
 26
0.0
 36
1.0
 17
0.0
 27
0.0
 37
0.0
 40
890.9784283636363
 41
1.6
 42
50.0
 43
0.0
 44
0.0
 50
0.0
 51
0.0
 71
     0
 72
   100
 73
     1
 74
     3
 75
     0
 76
     0
 77
     0
 78
     0
  0
ENDTAB
  0
TABLE
  2
LTYPE
 70
     2
  0
LTYPE
  2
CONTINUOUS
 70
     0
  3
Solid line
 72
    65
 73
     0
 40
0.0
  0
LTYPE
  2
CENTER
 70
     0
  3

 72
    65
 73
     0
 40
0.0
  0
ENDTAB
  0
TABLE
  2
LAYER
 70
     3
  0
LAYER
  2
0
 70
     0
 62
     7
  6
CONTINUOUS
  0
LAYER
  2
1
 70
     0
 62
     7
  6
CONTINUOUS
  0
LAYER
  2
2
 70
     0
 62
     7
  6
CONTINUOUS
  0
ENDTAB
  0
TABLE
  2
STYLE
 70
     2
  0
STYLE
  2
STANDARD
 70
     0
 40
0.0
 41
1.0
 50
0.0
 71
     0
 42
0.2
  3
txt
  4

  0
STYLE
  2
ＭＳ_ゴシック
 70
     0
 40
0.0
 41
1.0
 50
0.0
 71
     0
 42
0.2
  3
ＭＳ ゴシック.shx
  4

  0
ENDTAB
  0
TABLE
  2
VIEW
 70
     0
  0
ENDTAB
  0
TABLE
  2
UCS
 70
     0
  0
ENDTAB
  0
ENDSEC
  0
SECTION
  2
BLOCKS
  0
BLOCK
  8
0
  2
D_FRAME_DRAWING_21
 70
     0
 10
0.0
 20
0.0
 30
0.0
  0
LINE
  5
160
  8
0
  6
CONTINUOUS
 62
     7
 10
0.0
 20
0.0
 30
0.0
 11
420.0
 21
0.0
 31
0.0
  0
LINE
  5
161
  8
0
  6
CONTINUOUS
 62
     7
 10
420.0
 20
0.0
 30
0.0
 11
420.0
 21
297.0
 31
0.0
  0
LINE
  5
162
  8
0
  6
CONTINUOUS
 62
     7
 10
420.0
 20
297.0
 30
0.0
 11
0.0
 21
297.0
 31
0.0
  0
LINE
  5
163
  8
0
  6
CONTINUOUS
 62
     7
 10
0.0
 20
297.0
 30
0.0
 11
0.0
 21
0.0
 31
0.0
  0
LINE
  5
164
  8
0
  6
CONTINUOUS
 62
     7
 10
10.0
 20
10.0
 30
0.0
 11
409.9999999999999
 21
10.0
 31
0.0
  0
LINE
  5
165
  8
0
  6
CONTINUOUS
 62
     7
 10
409.9999999999999
 20
10.0
 30
0.0
 11
409.9999999999999
 21
286.9999999999999
 31
0.0
  0
LINE
  5
166
  8
0
  6
CONTINUOUS
 62
     7
 10
409.9999999999999
 20
286.9999999999999
 30
0.0
 11
10.00000000000006
 21
286.9999999999999
 31
0.0
  0
LINE
  5
167
  8
0
  6
CONTINUOUS
 62
     7
 10
10.0
 20
286.9999999999999
 30
0.0
 11
10.0
 21
10.00000000000001
 31
0.0
  0
LINE
  5
168
  8
0
  6
CONTINUOUS
 62
     7
 10
210.0
 20
0.0
 30
0.0
 11
210.0
 21
10.0
 31
0.0
  0
LINE
  5
169
  8
0
  6
CONTINUOUS
 62
     7
 10
420.0
 20
148.5
 30
0.0
 11
409.9999999999999
 21
148.5
 31
0.0
  0
LINE
  5
16A
  8
0
  6
CONTINUOUS
 62
     7
 10
210.0
 20
297.0
 30
0.0
 11
210.0
 21
286.9999999999999
 31
0.0
  0
LINE
  5
16B
  8
0
  6
CONTINUOUS
 62
     7
 10
0.0
 20
148.5
 30
0.0
 11
10.0
 21
148.5
 31
0.0
  0
POLYLINE
  5
16C
  8
0
  6
CONTINUOUS
 62
     7
 66
     1
 10
0.0
 20
0.0
 30
0.0
 70
     1
  0
VERTEX
  5
1BB
  8
0
  6
CONTINUOUS
 62
     7
 10
11.0
 20
152.5
 30
0.0
  0
VERTEX
  5
1BC
  8
0
  6
CONTINUOUS
 62
     7
 10
0.0
 20
148.5
 30
0.0
  0
VERTEX
  5
1BD
  8
0
  6
CONTINUOUS
 62
     7
 10
11.0
 20
144.5
 30
0.0
  0
VERTEX
  5
1BE
  8
0
  6
CONTINUOUS
 62
     7
 10
11.0
 20
152.5
 30
0.0
  0
SEQEND
  5
1E8
  8
0
  6
CONTINUOUS
 62
     7
  0
INSERT
  5
16D
  8
0
 62
     7
  2
*U2
 10
0.0
 20
0.0
 30
0.0
  0
POLYLINE
  5
16E
  8
0
  6
CONTINUOUS
 62
     7
 66
     1
 10
0.0
 20
0.0
 30
0.0
 70
     1
  0
VERTEX
  5
1C1
  8
0
  6
CONTINUOUS
 62
     7
 10
206.0
 20
11.0
 30
0.0
  0
VERTEX
  5
1C2
  8
0
  6
CONTINUOUS
 62
     7
 10
210.0
 20
0.0
 30
0.0
  0
VERTEX
  5
1C3
  8
0
  6
CONTINUOUS
 62
     7
 10
214.0
 20
11.0
 30
0.0
  0
VERTEX
  5
1C4
  8
0
  6
CONTINUOUS
 62
     7
 10
206.0
 20
11.0
 30
0.0
  0
SEQEND
  5
1E9
  8
0
  6
CONTINUOUS
 62
     7
  0
INSERT
  5
16F
  8
0
 62
     7
  2
*U3
 10
0.0
 20
0.0
 30
0.0
  0
LINE
  5
170
  8
0
  6
CONTINUOUS
 62
     7
 10
367.5
 20
286.9999999999999
 30
0.0
 11
367.5
 21
292.0
 31
0.0
  0
TEXT
  5
171
  8
0
  6
CONTINUOUS
 62
     7
 10
391.6340909090909
 20
291.8324293485057
 30
0.0
 40
3.5
  1
A
 50
270.0
  0
LINE
  5
172
  8
0
  6
CONTINUOUS
 62
     7
 10
367.5
 20
10.0
 30
0.0
 11
367.5
 21
5.0
 31
0.0
  0
TEXT
  5
173
  8
0
  6
CONTINUOUS
 62
     7
 10
392.9868888333125
 20
4.602272727272727
 30
0.0
 40
3.5
  1
A
  0
LINE
  5
174
  8
0
  6
CONTINUOUS
 62
     7
 10
315.0
 20
286.9999999999999
 30
0.0
 11
315.0
 21
292.0
 31
0.0
  0
TEXT
  5
175
  8
0
  6
CONTINUOUS
 62
     7
 10
339.1340909090909
 20
291.9745607727899
 30
0.0
 40
3.5
  1
B
 50
270.0
  0
LINE
  5
176
  8
0
  6
CONTINUOUS
 62
     7
 10
315.0
 20
10.0
 30
0.0
 11
315.0
 21
5.0
 31
0.0
  0
TEXT
  5
177
  8
0
  6
CONTINUOUS
 62
     7
 10
340.3447574090284
 20
4.602272727272727
 30
0.0
 40
3.5
  1
B
  0
LINE
  5
178
  8
0
  6
CONTINUOUS
 62
     7
 10
262.5
 20
286.9999999999999
 30
0.0
 11
262.5
 21
292.0
 31
0.0
  0
TEXT
  5
179
  8
0
  6
CONTINUOUS
 62
     7
 10
286.6327779167187
 20
291.9399305989747
 30
0.0
 40
3.5
  1
C
 50
270.0
  0
LINE
  5
17A
  8
0
  6
CONTINUOUS
 62
     7
 10
262.5
 20
10.0
 30
0.0
 11
262.5
 21
5.0
 31
0.0
  0
TEXT
  5
17B
  8
0
  6
CONTINUOUS
 62
     7
 10
287.8793875828435
 20
4.600959734900587
 30
0.0
 40
3.5
  1
C
  0
LINE
  5
17C
  8
0
  6
CONTINUOUS
 62
     7
 10
210.0
 20
286.9999999999999
 30
0.0
 11
210.0
 21
292.0
 31
0.0
  0
TEXT
  5
17D
  8
0
  6
CONTINUOUS
 62
     7
 10
234.1340909090909
 20
291.9745607727898
 30
0.0
 40
3.5
  1
D
 50
270.0
  0
LINE
  5
17E
  8
0
  6
CONTINUOUS
 62
     7
 10
157.5
 20
286.9999999999999
 30
0.0
 11
157.5
 21
292.0
 31
0.0
  0
TEXT
  5
17F
  8
0
  6
CONTINUOUS
 62
     7
 10
181.6327779167188
 20
292.027463423784
 30
0.0
 40
3.5
  1
E
 50
270.0
  0
LINE
  5
180
  8
0
  6
CONTINUOUS
 62
     7
 10
157.5
 20
10.0
 30
0.0
 11
157.5
 21
5.0
 31
0.0
  0
LINE
  5
181
  8
0
  6
CONTINUOUS
 62
     7
 10
105.0
 20
286.9999999999999
 30
0.0
 11
105.0
 21
292.0
 31
0.0
  0
TEXT
  5
182
  8
0
  6
CONTINUOUS
 62
     7
 10
129.1327779167188
 20
291.9924502938602
 30
0.0
 40
3.5
  1
F
 50
270.0
  0
LINE
  5
183
  8
0
  6
CONTINUOUS
 62
     7
 10
105.0
 20
10.0
 30
0.0
 11
105.0
 21
5.0
 31
0.0
  0
TEXT
  5
184
  8
0
  6
CONTINUOUS
 62
     7
 10
130.326867887958
 20
4.600959734900587
 30
0.0
 40
3.5
  1
F
  0
LINE
  5
185
  8
0
  6
CONTINUOUS
 62
     7
 10
52.50000000000004
 20
286.9999999999999
 30
0.0
 11
52.50000000000004
 21
292.0
 31
0.0
  0
TEXT
  5
186
  8
0
  6
CONTINUOUS
 62
     7
 10
76.6327779167188
 20
291.9399305989746
 30
0.0
 40
3.5
  1
G
 50
270.0
  0
LINE
  5
187
  8
0
  6
CONTINUOUS
 62
     7
 10
52.50000000000004
 20
10.0
 30
0.0
 11
52.50000000000004
 21
5.0
 31
0.0
  0
TEXT
  5
188
  8
0
  6
CONTINUOUS
 62
     7
 10
77.8793875828436
 20
4.600959734900587
 30
0.0
 40
3.5
  1
G
  0
TEXT
  5
189
  8
0
  6
CONTINUOUS
 62
     7
 10
24.13277791671879
 20
291.9749437288983
 30
0.0
 40
3.5
  1
H
 50
270.0
  0
TEXT
  5
18A
  8
0
  6
CONTINUOUS
 62
     7
 10
25.34437445291988
 20
4.600959734900587
 30
0.0
 40
3.5
  1
H
  0
LINE
  5
18B
  8
0
  6
CONTINUOUS
 62
     7
 10
409.9999999999999
 20
74.25
 30
0.0
 11
414.9999999999999
 21
74.25
 31
0.0
  0
TEXT
  5
18C
  8
0
  6
CONTINUOUS
 62
     7
 10
412.9326059772414
 20
35.00777791671877
 30
0.0
 40
3.5
  1
1
  0
LINE
  5
18D
  8
0
  6
CONTINUOUS
 62
     7
 10
10.0
 20
74.25
 30
0.0
 11
5.0
 21
74.25
 31
0.0
  0
TEXT
  5
18E
  8
0
  6
CONTINUOUS
 62
     7
 10
4.600959734900584
 20
38.26171220457671
 30
0.0
 40
3.5
  1
1
 50
270.0
  0
LINE
  5
18F
  8
0
  6
CONTINUOUS
 62
     7
 10
409.9999999999999
 20
148.5
 30
0.0
 11
414.9999999999999
 21
148.5
 31
0.0
  0
TEXT
  5
190
  8
0
  6
CONTINUOUS
 62
     7
 10
413.163692634738
 20
109.2577779167188
 30
0.0
 40
3.5
  1
2
  0
LINE
  5
191
  8
0
  6
CONTINUOUS
 62
     7
 10
10.0
 20
148.5
 30
0.0
 11
5.0
 21
148.5
 31
0.0
  0
TEXT
  5
192
  8
0
  6
CONTINUOUS
 62
     7
 10
4.600959734900599
 20
112.2806255470802
 30
0.0
 40
3.5
  1
2
 50
270.0
  0
LINE
  5
193
  8
0
  6
CONTINUOUS
 62
     7
 10
409.9999999999999
 20
222.75
 30
0.0
 11
414.9999999999999
 21
222.75
 31
0.0
  0
TEXT
  5
194
  8
0
  6
CONTINUOUS
 62
     7
 10
413.1811991996998
 20
183.5077779167188
 30
0.0
 40
3.5
  1
3
  0
LINE
  5
195
  8
0
  6
CONTINUOUS
 62
     7
 10
10.0
 20
222.75
 30
0.0
 11
5.0
 21
222.75
 31
0.0
  0
TEXT
  5
196
  8
0
  6
CONTINUOUS
 62
     7
 10
4.600959734900584
 20
186.5131189821183
 30
0.0
 40
3.5
  1
3
 50
270.0
  0
TEXT
  5
197
  8
0
  6
CONTINUOUS
 62
     7
 10
413.2351413029886
 20
257.7590909090909
 30
0.0
 40
3.5
  1
4
  0
TEXT
  5
198
  8
0
  6
CONTINUOUS
 62
     7
 10
4.60227272727272
 20
260.7091768788295
 30
0.0
 40
3.5
  1
4
 50
270.0
  0
LINE
  5
199
  8
0
  6
CONTINUOUS
 62
     7
 10
220.0
 20
10.0
 30
0.0
 11
220.0
 21
7.0
 31
0.0
  0
LINE
  5
19A
  8
0
  6
CONTINUOUS
 62
     7
 10
200.0
 20
10.0
 30
0.0
 11
200.0
 21
7.0
 31
0.0
  0
LINE
  5
19B
  8
0
  6
CONTINUOUS
 62
     7
 10
230.0
 20
10.0
 30
0.0
 11
230.0
 21
7.0
 31
0.0
  0
LINE
  5
19C
  8
0
  6
CONTINUOUS
 62
     7
 10
190.0
 20
10.0
 30
0.0
 11
190.0
 21
7.0
 31
0.0
  0
LINE
  5
19D
  8
0
  6
CONTINUOUS
 62
     7
 10
240.0
 20
10.0
 30
0.0
 11
240.0
 21
7.0
 31
0.0
  0
LINE
  5
19E
  8
0
  6
CONTINUOUS
 62
     7
 10
180.0
 20
10.0
 30
0.0
 11
180.0
 21
7.0
 31
0.0
  0
LINE
  5
19F
  8
0
  6
CONTINUOUS
 62
     7
 10
250.0
 20
10.0
 30
0.0
 11
250.0
 21
7.0
 31
0.0
  0
LINE
  5
1A0
  8
0
  6
CONTINUOUS
 62
     7
 10
170.0
 20
10.0
 30
0.0
 11
170.0
 21
7.0
 31
0.0
  0
LINE
  5
1A1
  8
0
  6
CONTINUOUS
 62
     7
 10
260.0
 20
10.0
 30
0.0
 11
260.0
 21
5.0
 31
0.0
  0
LINE
  5
1A2
  8
0
  6
CONTINUOUS
 62
     7
 10
160.0
 20
10.0
 30
0.0
 11
160.0
 21
5.0
 31
0.0
  0
LINE
  5
1A3
  8
0
  6
CONTINUOUS
 62
     7
 10
260.0
 20
10.0
 30
0.0
 11
160.0
 21
10.0
 31
0.0
  0
LINE
  5
1A4
  8
0
  6
CONTINUOUS
 62
     7
 10
260.0
 20
7.0
 30
0.0
 11
160.0
 21
7.0
 31
0.0
  0
INSERT
  5
1A5
  8
0
 62
     7
  2
*U4
 10
0.0
 20
0.0
 30
0.0
  0
INSERT
  5
1A6
  8
0
 62
     7
  2
*U5
 10
0.0
 20
0.0
 30
0.0
  0
INSERT
  5
1A7
  8
0
 62
     7
  2
*U6
 10
0.0
 20
0.0
 30
0.0
  0
INSERT
  5
1A8
  8
0
 62
     7
  2
*U7
 10
0.0
 20
0.0
 30
0.0
  0
ENDBLK
  8
0
  0
BLOCK
  8
0
  2
*U2
 70
     1
 10
0.0
 20
0.0
 30
0.0
  0
SOLID
  5
1C0
  8
0
  6
CONTINUOUS
 62
     7
 10
11.0
 20
144.5
 30
0.0
 11
6.999999999999999
 21
148.5
 31
0.0
 12
11.0
 22
152.5
 32
0.0
 13
11.0
 23
152.5
 33
0.0
  0
ENDBLK
  8
0
  0
BLOCK
  8
0
  2
*U3
 70
     1
 10
0.0
 20
0.0
 30
0.0
  0
SOLID
  5
1C6
  8
0
  6
CONTINUOUS
 62
     7
 10
210.0
 20
6.999999999999999
 30
0.0
 11
206.0
 21
11.0
 31
0.0
 12
210.0
 22
11.0
 32
0.0
 13
210.0
 23
11.0
 33
0.0
  0
SOLID
  5
1C7
  8
0
  6
CONTINUOUS
 62
     7
 10
210.0
 20
6.999999999999999
 30
0.0
 11
210.0
 21
11.0
 31
0.0
 12
214.0
 22
11.0
 32
0.0
 13
214.0
 23
11.0
 33
0.0
  0
ENDBLK
  8
0
  0
BLOCK
  8
0
  2
*U4
 70
     1
 10
0.0
 20
0.0
 30
0.0
  0
SOLID
  5
1C9
  8
0
  6
CONTINUOUS
 62
     7
 10
0.0
 20
0.0
 30
0.0
 11
0.0
 21
10.0
 31
0.0
 12
2.0
 22
0.0
 32
0.0
 13
2.0
 23
0.0
 33
0.0
  0
SOLID
  5
1CA
  8
0
  6
CONTINUOUS
 62
     7
 10
2.0
 20
0.0
 30
0.0
 11
0.0
 21
10.0
 31
0.0
 12
2.0
 22
10.0
 32
0.0
 13
2.0
 23
10.0
 33
0.0
  0
SOLID
  5
1CB
  8
0
  6
CONTINUOUS
 62
     7
 10
2.0
 20
0.0
 30
0.0
 11
2.0
 21
2.0
 31
0.0
 12
10.0
 22
0.0
 32
0.0
 13
10.0
 23
0.0
 33
0.0
  0
SOLID
  5
1CC
  8
0
  6
CONTINUOUS
 62
     7
 10
10.0
 20
0.0
 30
0.0
 11
2.0
 21
2.0
 31
0.0
 12
10.0
 22
2.0
 32
0.0
 13
10.0
 23
2.0
 33
0.0
  0
ENDBLK
  8
0
  0
BLOCK
  8
0
  2
*U5
 70
     1
 10
0.0
 20
0.0
 30
0.0
  0
SOLID
  5
1CE
  8
0
  6
CONTINUOUS
 62
     7
 10
409.9999999999999
 20
0.0
 30
0.0
 11
409.9999999999999
 21
2.0
 31
0.0
 12
418.0
 22
0.0
 32
0.0
 13
418.0
 23
0.0
 33
0.0
  0
SOLID
  5
1CF
  8
0
  6
CONTINUOUS
 62
     7
 10
418.0
 20
0.0
 30
0.0
 11
409.9999999999999
 21
2.0
 31
0.0
 12
418.0
 22
2.0
 32
0.0
 13
418.0
 23
2.0
 33
0.0
  0
SOLID
  5
1D0
  8
0
  6
CONTINUOUS
 62
     7
 10
418.0
 20
0.0
 30
0.0
 11
418.0
 21
10.0
 31
0.0
 12
420.0
 22
0.0
 32
0.0
 13
420.0
 23
0.0
 33
0.0
  0
SOLID
  5
1D1
  8
0
  6
CONTINUOUS
 62
     7
 10
420.0
 20
0.0
 30
0.0
 11
418.0
 21
10.0
 31
0.0
 12
420.0
 22
10.0
 32
0.0
 13
420.0
 23
10.0
 33
0.0
  0
ENDBLK
  8
0
  0
BLOCK
  8
0
  2
*U6
 70
     1
 10
0.0
 20
0.0
 30
0.0
  0
SOLID
  5
1D3
  8
0
  6
CONTINUOUS
 62
     7
 10
409.9999999999999
 20
295.0
 30
0.0
 11
409.9999999999999
 21
297.0
 31
0.0
 12
418.0
 22
295.0
 32
0.0
 13
418.0
 23
295.0
 33
0.0
  0
SOLID
  5
1D4
  8
0
  6
CONTINUOUS
 62
     7
 10
418.0
 20
295.0
 30
0.0
 11
409.9999999999999
 21
297.0
 31
0.0
 12
418.0
 22
297.0
 32
0.0
 13
418.0
 23
297.0
 33
0.0
  0
SOLID
  5
1D5
  8
0
  6
CONTINUOUS
 62
     7
 10
418.0
 20
286.9999999999999
 30
0.0
 11
418.0
 21
297.0
 31
0.0
 12
420.0
 22
286.9999999999999
 32
0.0
 13
420.0
 23
286.9999999999999
 33
0.0
  0
SOLID
  5
1D6
  8
0
  6
CONTINUOUS
 62
     7
 10
420.0
 20
286.9999999999999
 30
0.0
 11
418.0
 21
297.0
 31
0.0
 12
420.0
 22
297.0
 32
0.0
 13
420.0
 23
297.0
 33
0.0
  0
ENDBLK
  8
0
  0
BLOCK
  8
0
  2
*U7
 70
     1
 10
0.0
 20
0.0
 30
0.0
  0
SOLID
  5
1D8
  8
0
  6
CONTINUOUS
 62
     7
 10
0.0
 20
286.9999999999999
 30
0.0
 11
0.0
 21
297.0
 31
0.0
 12
2.0
 22
286.9999999999999
 32
0.0
 13
2.0
 23
286.9999999999999
 33
0.0
  0
SOLID
  5
1D9
  8
0
  6
CONTINUOUS
 62
     7
 10
2.0
 20
286.9999999999999
 30
0.0
 11
0.0
 21
297.0
 31
0.0
 12
2.0
 22
297.0
 32
0.0
 13
2.0
 23
297.0
 33
0.0
  0
SOLID
  5
1DA
  8
0
  6
CONTINUOUS
 62
     7
 10
2.0
 20
295.0
 30
0.0
 11
2.0
 21
297.0
 31
0.0
 12
10.0
 22
295.0
 32
0.0
 13
10.0
 23
295.0
 33
0.0
  0
SOLID
  5
1DB
  8
0
  6
CONTINUOUS
 62
     7
 10
10.0
 20
295.0
 30
0.0
 11
2.0
 21
297.0
 31
0.0
 12
10.0
 22
297.0
 32
0.0
 13
10.0
 23
297.0
 33
0.0
  0
ENDBLK
  8
0
  0
ENDSEC
  0
SECTION
  2
ENTITIES
  0
LINE
  5
71
  8
2
  6
CONTINUOUS
 62
     7
 10
1989.2246987861
 20
-688.1315751859
 30
0.0
 11
1995.0246987861
 21
-688.1315751859
 31
0.0
  0
ARC
  5
72
  8
2
  6
CONTINUOUS
 62
     7
 10
2037.3246987861
 20
-766.7937545407
 30
0.0
 40
2.75
 50
315.0
 51
135.0
  0
LINE
  5
73
  8
2
  6
CONTINUOUS
 62
     7
 10
1982.7527377861
 20
-776.1108815407
 30
0.0
 11
1975.3801547861
 21
-768.7382985407
 31
0.0
  0
LINE
  5
74
  8
2
  6
CONTINUOUS
 62
     7
 10
2031.8966597861
 20
-817.4766275407
 30
0.0
 11
2039.2692427861
 21
-824.8492105407
 31
0.0
  0
LINE
  5
75
  8
2
  6
CONTINUOUS
 62
     7
 10
2014.4746987861
 20
-677.6315751859
 30
0.0
 11
2000.1746987861
 21
-677.6315751859
 31
0.0
  0
LINE
  5
76
  8
2
  6
CONTINUOUS
 62
     7
 10
2022.3746987861
 20
-674.9315751859
 30
0.0
 11
2019.8746987861
 21
-674.9315751859
 31
0.0
  0
LINE
  5
77
  8
2
  6
CONTINUOUS
 62
     7
 10
2019.0746987861
 20
-669.6315751859
 30
0.0
 11
2019.6246987861
 21
-669.6315751859
 31
0.0
  0
LINE
  5
78
  8
2
  6
CONTINUOUS
 62
     7
 10
2019.6246987861
 20
-698.6315751859
 30
0.0
 11
2019.6246987861
 21
-669.6315751859
 31
0.0
  0
LINE
  5
79
  8
2
  6
CONTINUOUS
 62
     7
 10
2019.8746987861
 20
-688.3315751859
 30
0.0
 11
2022.3746987861
 21
-688.3315751859
 31
0.0
  0
LINE
  5
7A
  8
2
  6
CONTINUOUS
 62
     7
 10
2000.1746987861
 20
-685.6315751859
 30
0.0
 11
2014.4746987861
 21
-685.6315751859
 31
0.0
  0
LINE
  5
7B
  8
2
  6
CONTINUOUS
 62
     7
 10
1995.5746987861
 20
-669.6315751859
 30
0.0
 11
1995.0246987861
 21
-669.6315751859
 31
0.0
  0
LINE
  5
7C
  8
2
  6
CONTINUOUS
 62
     7
 10
2017.3246987861
 20
-671.4378221859
 30
0.0
 11
2017.3246987861
 21
-698.6315751859
 31
0.0
  0
ARC
  5
7D
  8
2
  6
CONTINUOUS
 62
     7
 10
1902.3246987861
 20
-796.7937545407
 30
0.0
 40
8.25
 50
105.85889
 51
134.14111
  0
LINE
  5
7E
  8
2
  6
CONTINUOUS
 62
     7
 10
2003.1246987861
 20
-755.7937545407
 30
0.0
 11
2003.1246987861
 21
-766.7937545407
 31
0.0
  0
ARC
  5
7F
  8
2
  6
CONTINUOUS
 62
     7
 10
1967.1531257861
 20
-699.6315751859
 30
0.0
 40
3.0
 50
90.0
 51
160.528779
  0
LINE
  5
80
  8
2
  6
CONTINUOUS
 62
     7
 10
2013.8246987861
 20
-667.3843521859
 30
0.0
 11
2013.8246987861
 21
-659.8787981859
 31
0.0
  0
LINE
  5
81
  8
2
  6
CONTINUOUS
 62
     7
 10
1957.3246987861
 20
-700.9315751859
 30
0.0
 11
2057.3246987861
 21
-700.9315751859
 31
0.0
  0
LINE
  5
82
  8
2
  6
CONTINUOUS
 62
     7
 10
2019.8746987861
 20
-674.9315751859
 30
0.0
 11
2019.8746987861
 21
-688.3315751859
 31
0.0
  0
LINE
  5
83
  8
2
  6
CONTINUOUS
 62
     7
 10
2011.5246987861
 20
-766.7937545407
 30
0.0
 11
2011.5246987861
 21
-755.7937545407
 31
0.0
  0
LINE
  5
84
  8
2
  6
CONTINUOUS
 62
     7
 10
1957.3246987861
 20
-698.6315751859
 30
0.0
 11
2057.3246987861
 21
-698.6315751859
 31
0.0
  0
LINE
  5
85
  8
2
  6
CONTINUOUS
 62
     7
 10
2022.3746987861
 20
-674.1260211859
 30
0.0
 11
2022.3746987861
 21
-689.1371281859
 31
0.0
  0
LINE
  5
86
  8
2
  6
CONTINUOUS
 62
     7
 10
2004.3246987861
 20
-643.1315751859
 30
0.0
 11
2010.3246987861
 21
-643.1315751859
 31
0.0
  0
LINE
  5
87
  8
2
  6
CONTINUOUS
 62
     7
 10
1910.3246987861
 20
-801.4125565407
 30
0.0
 11
1902.3246987861
 21
-806.0313585407
 31
0.0
  0
LINE
  5
88
  8
2
  6
CONTINUOUS
 62
     7
 10
2035.3801547861
 20
-828.7382985407
 30
0.0
 11
2028.0075717861
 21
-821.3657155407
 31
0.0
  0
LINE
  5
89
  8
2
  6
CONTINUOUS
 62
     7
 10
2028.0075717861
 20
-772.2217935407
 30
0.0
 11
2035.3801547861
 21
-764.8492105407
 31
0.0
  0
ARC
  5
8A
  8
2
  6
CONTINUOUS
 62
     7
 10
1982.3246987861
 20
-796.7937545407
 30
0.0
 40
10.0
 50
90.0
 51
270.0
  0
ARC
  5
8B
  8
2
  6
CONTINUOUS
 62
     7
 10
2007.3246987861
 20
-837.7937545407
 30
0.0
 40
4.2
 50
180.0
 51
0.0
  0
LINE
  5
8C
  8
2
  6
CONTINUOUS
 62
     7
 10
2011.5246987861
 20
-826.7937545407
 30
0.0
 11
2011.5246987861
 21
-837.7937545407
 31
0.0
  0
ARC
  5
8D
  8
2
  6
CONTINUOUS
 62
     7
 10
2007.3246987861
 20
-826.7937545407
 30
0.0
 40
4.2
 50
0.0
 51
180.0
  0
LINE
  5
8E
  8
2
  6
CONTINUOUS
 62
     7
 10
1894.0766627861
 20
-796.9737545407
 30
0.0
 11
1894.3246987861
 21
-796.9737545407
 31
0.0
  0
LINE
  5
8F
  8
2
  6
CONTINUOUS
 62
     7
 10
2003.1246987861
 20
-837.7937545407
 30
0.0
 11
2003.1246987861
 21
-826.7937545407
 31
0.0
  0
ARC
  5
90
  8
2
  6
CONTINUOUS
 62
     7
 10
2029.9521157861
 20
-819.4211715407
 30
0.0
 40
2.75
 50
45.0
 51
225.0
  0
LINE
  5
91
  8
2
  6
CONTINUOUS
 62
     7
 10
1894.0773717861
 20
-797.0037545407
 30
0.0
 11
1894.3246987861
 21
-797.0037545407
 31
0.0
  0
ARC
  5
92
  8
2
  6
CONTINUOUS
 62
     7
 10
1902.3246987861
 20
-796.7937545407
 30
0.0
 40
8.25
 50
45.85889
 51
74.14110999999998
  0
ARC
  5
93
  8
2
  6
CONTINUOUS
 62
     7
 10
1902.3246987861
 20
-796.7937545407
 30
0.0
 40
8.25
 50
345.8588899999999
 51
14.14111000000003
  0
ARC
  5
94
  8
2
  6
CONTINUOUS
 62
     7
 10
1902.3246987861
 20
-796.7937545407
 30
0.0
 40
8.25
 50
285.85889
 51
314.14111
  0
ARC
  5
95
  8
2
  6
CONTINUOUS
 62
     7
 10
2007.3246987861
 20
-755.7937545407
 30
0.0
 40
4.2
 50
0.0
 51
180.0
  0
CIRCLE
  5
96
  8
2
  6
CONTINUOUS
 62
     7
 10
2007.3246987861
 20
-796.7937545407
 30
0.0
 40
50.0
  0
LINE
  5
97
  8
2
  6
CONTINUOUS
 62
     7
 10
1997.3246987861
 20
-671.4378221859
 30
0.0
 11
1997.3246987861
 21
-698.6315751859
 31
0.0
  0
LINE
  5
98
  8
2
  6
CONTINUOUS
 62
     7
 10
1995.0246987861
 20
-698.6315751859
 30
0.0
 11
1995.0246987861
 21
-669.6315751859
 31
0.0
  0
LINE
  5
99
  8
2
  6
CONTINUOUS
 62
     7
 10
1986.6418257861
 20
-821.3657155407
 30
0.0
 11
1979.2692427861
 21
-828.7382985407
 31
0.0
  0
ARC
  5
9A
  8
2
  6
CONTINUOUS
 62
     7
 10
1984.6972817861
 20
-819.4211715407
 30
0.0
 40
2.75
 50
315.0
 51
135.0
  0
LINE
  5
9B
  8
2
  6
CONTINUOUS
 62
     7
 10
2017.0746987861
 20
-673.1397631859
 30
0.0
 11
2017.0746987861
 21
-690.3315751859
 31
0.0
  0
LINE
  5
9C
  8
2
  6
CONTINUOUS
 62
     7
 10
2007.5746987861
 20
-690.0315751859
 30
0.0
 11
2017.0746987861
 21
-690.0315751859
 31
0.0
  0
LINE
  5
9D
  8
2
  6
CONTINUOUS
 62
     7
 10
2022.3746987861
 20
-681.6315751859
 30
0.0
 11
2028.8746987861
 21
-681.6315751859
 31
0.0
  0
ARC
  5
9E
  8
2
  6
CONTINUOUS
 62
     7
 10
2007.0746987861
 20
-673.1397631859
 30
0.0
 40
10.0
 50
0.0
 51
8.232636999999999
  0
LINE
  5
9F
  8
2
  6
CONTINUOUS
 62
     7
 10
2014.4746987861
 20
-690.0315751859
 30
0.0
 11
2014.4746987861
 21
-673.1397631859
 31
0.0
  0
LINE
  5
A0
  8
2
  6
CONTINUOUS
 62
     7
 10
1989.2246987861
 20
-677.8787981859
 30
0.0
 11
1995.0246987861
 21
-677.8787981859
 31
0.0
  0
LINE
  5
A1
  8
2
  6
CONTINUOUS
 62
     7
 10
1989.2246987861
 20
-685.3843521859
 30
0.0
 11
1995.0246987861
 21
-685.3843521859
 31
0.0
  0
LINE
  5
A2
  8
2
  6
CONTINUOUS
 62
     7
 10
1902.3246987861
 20
-683.2315751859
 30
0.0
 11
1902.3246987861
 21
-667.2315751859
 31
0.0
  0
LINE
  5
A3
  8
2
  6
CONTINUOUS
 62
     7
 10
1893.8246987861
 20
-406.0315751859
 30
0.0
 11
1910.8246987861
 21
-406.0315751859
 31
0.0
  0
LINE
  5
A4
  8
2
  6
CONTINUOUS
 62
     7
 10
2031.8246987861
 20
-657.2315751859
 30
0.0
 11
2013.6524157861
 21
-657.2315751859
 31
0.0
  0
LINE
  5
A5
  8
2
  6
CONTINUOUS
 62
     7
 10
1889.3246987861
 20
-440.6315751859
 30
0.0
 11
1993.0479277861
 21
-440.6315751859
 31
0.0
  0
ARC
  5
A6
  8
2
  6
CONTINUOUS
 62
     7
 10
2007.3246987861
 20
-663.6315751859
 30
0.0
 40
9.0
 50
45.32539000000001
 51
134.67461
  0
LINE
  5
A7
  8
2
  6
CONTINUOUS
 62
     7
 10
2103.8246987861
 20
-683.2315751859
 30
0.0
 11
2120.8246987861
 21
-683.2315751859
 31
0.0
  0
LINE
  5
A8
  8
2
  6
CONTINUOUS
 62
     7
 10
1907.0746987861
 20
-685.6315751859
 30
0.0
 11
1897.5746987861
 21
-685.6315751859
 31
0.0
  0
ARC
  5
A9
  8
2
  6
CONTINUOUS
 62
     7
 10
2047.1531257861
 20
-699.6315751859
 30
0.0
 40
3.0
 50
90.0
 51
160.528779
  0
CIRCLE
  5
AA
  8
2
  6
CONTINUOUS
 62
     7
 10
1902.3246987861
 20
-796.7937545407
 30
0.0
 40
4.75
  0
ARC
  5
AB
  8
2
  6
CONTINUOUS
 62
     7
 10
2023.9878707861
 20
-665.1315751859
 30
0.0
 40
3.0
 50
90.0
 51
173.37419
  0
ARC
  5
AC
  8
2
  6
CONTINUOUS
 62
     7
 10
2011.0746987861
 20
-663.6315751859
 30
0.0
 40
10.0
 50
270.0
 51
353.3741900000001
  0
LINE
  5
AD
  8
2
  6
CONTINUOUS
 62
     7
 10
1887.3246987861
 20
-665.6315751859
 30
0.0
 11
1887.3246987861
 21
-642.6315751859
 31
0.0
  0
LINE
  5
AE
  8
2
  6
CONTINUOUS
 62
     7
 10
2117.0746987861
 20
-640.6315751859
 30
0.0
 11
2117.0746987861
 21
-440.6315751859
 31
0.0
  0
LINE
  5
AF
  8
2
  6
CONTINUOUS
 62
     7
 10
2029.3246987861
 20
-662.1315751859
 30
0.0
 11
2023.9878707861
 21
-662.1315751859
 31
0.0
  0
LINE
  5
B0
  8
2
  6
CONTINUOUS
 62
     7
 10
2029.8145967861
 20
-662.5315751859
 30
0.0
 11
2029.8246987861
 21
-662.6315751859
 31
0.0
  0
LINE
  5
B1
  8
2
  6
CONTINUOUS
 62
     7
 10
1897.5746987861
 20
-683.2315751859
 30
0.0
 11
1897.5746987861
 21
-685.6315751859
 31
0.0
  0
LINE
  5
B2
  8
2
  6
CONTINUOUS
 62
     7
 10
2112.3246987861
 20
-683.2315751859
 30
0.0
 11
2112.3246987861
 21
-667.2315751859
 31
0.0
  0
LINE
  5
B3
  8
2
  6
CONTINUOUS
 62
     7
 10
2107.5746987861
 20
-440.6315751859
 30
0.0
 11
2107.5746987861
 21
-640.6315751859
 31
0.0
  0
LINE
  5
B4
  8
2
  6
CONTINUOUS
 62
     7
 10
2120.8246987861
 20
-675.2315751859
 30
0.0
 11
2103.8246987861
 21
-675.2315751859
 31
0.0
  0
LINE
  5
B5
  8
2
  6
CONTINUOUS
 62
     7
 10
1893.8246987861
 20
-406.0315751859
 30
0.0
 11
1893.8246987861
 21
-414.0315751859
 31
0.0
  0
LINE
  5
B6
  8
2
  6
CONTINUOUS
 62
     7
 10
1897.5746987861
 20
-395.6315751859
 30
0.0
 11
1907.0746987861
 21
-395.6315751859
 31
0.0
  0
LINE
  5
B7
  8
2
  6
CONTINUOUS
 62
     7
 10
1902.3246987861
 20
-406.0315751859
 30
0.0
 11
1902.3246987861
 21
-414.0315751859
 31
0.0
  0
LINE
  5
B8
  8
2
  6
CONTINUOUS
 62
     7
 10
2103.3246987861
 20
-414.0315751859
 30
0.0
 11
2103.3246987861
 21
-415.6315751859
 31
0.0
  0
ARC
  5
B9
  8
2
  6
CONTINUOUS
 62
     7
 10
2031.8246987861
 20
-649.1315751859
 30
0.0
 40
3.0
 50
0.0
 51
90.0
  0
LINE
  5
BA
  8
2
  6
CONTINUOUS
 62
     7
 10
1893.3246987861
 20
-665.6315751859
 30
0.0
 11
1893.3246987861
 21
-667.2315751859
 31
0.0
  0
LINE
  5
BB
  8
2
  6
CONTINUOUS
 62
     7
 10
1893.3246987861
 20
-414.0315751859
 30
0.0
 11
1893.3246987861
 21
-415.6315751859
 31
0.0
  0
LINE
  5
BC
  8
2
  6
CONTINUOUS
 62
     7
 10
1907.0746987861
 20
-640.6315751859
 30
0.0
 11
1907.0746987861
 21
-440.6315751859
 31
0.0
  0
LINE
  5
BD
  8
2
  6
CONTINUOUS
 62
     7
 10
1911.3246987861
 20
-415.6315751859
 30
0.0
 11
1911.3246987861
 21
-414.0315751859
 31
0.0
  0
LINE
  5
BE
  8
2
  6
CONTINUOUS
 62
     7
 10
1911.3246987861
 20
-414.0315751859
 30
0.0
 11
1893.3246987861
 21
-414.0315751859
 31
0.0
  0
LINE
  5
BF
  8
2
  6
CONTINUOUS
 62
     7
 10
1907.0746987861
 20
-685.6315751859
 30
0.0
 11
1907.0746987861
 21
-683.2315751859
 31
0.0
  0
CIRCLE
  5
C0
  8
2
  6
CONTINUOUS
 62
     7
 10
2112.3246987861
 20
-796.7937545407
 30
0.0
 40
4.75
  0
LINE
  5
C1
  8
2
  6
CONTINUOUS
 62
     7
 10
1887.3246987861
 20
-415.6315751859
 30
0.0
 11
2127.3246987861
 21
-415.6315751859
 31
0.0
  0
LINE
  5
C2
  8
2
  6
CONTINUOUS
 62
     7
 10
1911.3246987861
 20
-667.2315751859
 30
0.0
 11
1893.3246987861
 21
-667.2315751859
 31
0.0
  0
LINE
  5
C3
  8
2
  6
CONTINUOUS
 62
     7
 10
2127.3246987861
 20
-665.6315751859
 30
0.0
 11
2127.3246987861
 21
-642.6315751859
 31
0.0
  0
LINE
  5
C4
  8
2
  6
CONTINUOUS
 62
     7
 10
1887.3246987861
 20
-438.6315751859
 30
0.0
 11
1887.3246987861
 21
-415.6315751859
 31
0.0
  0
LINE
  5
C5
  8
2
  6
CONTINUOUS
 62
     7
 10
2004.3246987861
 20
-438.1315751859
 30
0.0
 11
1993.0479277861
 21
-440.6315751859
 31
0.0
  0
LINE
  5
C6
  8
2
  6
CONTINUOUS
 62
     7
 10
1897.5746987861
 20
-440.6315751859
 30
0.0
 11
1897.5746987861
 21
-640.6315751859
 31
0.0
  0
LINE
  5
C7
  8
2
  6
CONTINUOUS
 62
     7
 10
2010.3246987861
 20
-438.1315751859
 30
0.0
 11
2004.3246987861
 21
-438.1315751859
 31
0.0
  0
LINE
  5
C8
  8
2
  6
CONTINUOUS
 62
     7
 10
1911.3246987861
 20
-667.2315751859
 30
0.0
 11
1911.3246987861
 21
-665.6315751859
 31
0.0
  0
ARC
  5
C9
  8
2
  6
CONTINUOUS
 62
     7
 10
1889.3246987861
 20
-438.6315751859
 30
0.0
 40
2.0
 50
180.0
 51
270.0
  0
ARC
  5
CA
  8
2
  6
CONTINUOUS
 62
     7
 10
2031.8246987861
 20
-654.2315751859
 30
0.0
 40
3.0
 50
270.0
 51
0.0
  0
LINE
  5
CB
  8
2
  6
CONTINUOUS
 62
     7
 10
1979.8246987861
 20
-654.2315751859
 30
0.0
 11
1979.8246987861
 21
-649.1315751859
 31
0.0
  0
POINT
  5
CC
  8
1
 62
     7
 10
2028.8746987861
 20
-677.6315751859
 30
0.0
  0
POINT
  5
CD
  8
1
 62
     7
 10
1989.2246987861
 20
-681.6315751859
 30
0.0
  0
ARC
  5
CE
  8
2
  6
CONTINUOUS
 62
     7
 10
2029.3246987861
 20
-662.6315751859
 30
0.0
 40
0.5
 50
11.536959
 51
90.0
  0
LINE
  5
CF
  8
1
  6
CONTINUOUS
 62
     7
 10
2028.8746987861
 20
-677.6315751859
 30
0.0
 11
2033.8246987861
 21
-677.6315751859
 31
0.0
  0
LINE
  5
D0
  8
1
  6
CONTINUOUS
 62
     7
 10
2035.0246987861
 20
-684.4315751859
 30
0.0
 11
2033.8246987861
 21
-685.6315751859
 31
0.0
  0
CIRCLE
  5
D1
  8
1
  6
CONTINUOUS
 62
     7
 10
2007.3246987861
 20
-663.6315751859
 30
0.0
 40
7.50555325
  0
LINE
  5
D2
  8
1
  6
CONTINUOUS
 62
     7
 10
2035.0246987861
 20
-678.8315751859
 30
0.0
 11
2035.0246987861
 21
-684.4315751859
 31
0.0
  0
CIRCLE
  5
D3
  8
1
  6
CONTINUOUS
 62
     7
 10
2007.3246987861
 20
-663.6315751859
 30
0.0
 40
4.0
  0
LINE
  5
D4
  8
2
  6
CONTINUOUS
 62
     7
 10
2032.3246987861
 20
-786.7937545407
 30
0.0
 11
2016.8246987861
 21
-786.7937545407
 31
0.0
  0
LINE
  5
D5
  8
2
  6
CONTINUOUS
 62
     7
 10
1975.3801547861
 20
-824.8492105407
 30
0.0
 11
1982.7527377861
 21
-817.4766275407
 31
0.0
  0
LINE
  5
D6
  8
2
  6
CONTINUOUS
 62
     7
 10
2112.3246987861
 20
-806.0313585407
 30
0.0
 11
2104.3246987861
 21
-801.4125565407
 31
0.0
  0
LINE
  5
D7
  8
2
  6
CONTINUOUS
 62
     7
 10
1894.3246987861
 20
-792.1749525407
 30
0.0
 11
1902.3246987861
 21
-787.5561505407
 31
0.0
  0
ARC
  5
D8
  8
2
  6
CONTINUOUS
 62
     7
 10
2007.1531257861
 20
-699.6315751859
 30
0.0
 40
3.0
 50
90.0
 51
160.528779
  0
LINE
  5
D9
  8
2
  6
CONTINUOUS
 62
     7
 10
2022.3746987861
 20
-689.1371281859
 30
0.0
 11
2028.8746987861
 21
-689.1371281859
 31
0.0
  0
ARC
  5
DA
  8
2
  6
CONTINUOUS
 62
     7
 10
2112.3246987861
 20
-796.7937545407
 30
0.0
 40
8.25
 50
285.85889
 51
314.14111
  0
ARC
  5
DB
  8
2
  6
CONTINUOUS
 62
     7
 10
2112.3246987861
 20
-796.7937545407
 30
0.0
 40
8.25
 50
225.85889
 51
254.1411099999999
  0
ARC
  5
DC
  8
2
  6
CONTINUOUS
 62
     7
 10
2112.3246987861
 20
-796.7937545407
 30
0.0
 40
8.25
 50
165.85889
 51
194.14111
  0
LINE
  5
DD
  8
1
  6
CONTINUOUS
 62
     7
 10
1989.2246987861
 20
-688.1315751859
 30
0.0
 11
1989.2246987861
 21
-674.1260211859
 31
0.0
  0
ARC
  5
DE
  8
2
  6
CONTINUOUS
 62
     7
 10
2112.3246987861
 20
-796.7937545407
 30
0.0
 40
8.25
 50
105.85889
 51
134.14111
  0
ARC
  5
DF
  8
2
  6
CONTINUOUS
 62
     7
 10
2112.3246987861
 20
-796.7937545407
 30
0.0
 40
8.25
 50
45.85889
 51
74.14110999999998
  0
LINE
  5
E0
  8
2
  6
CONTINUOUS
 62
     7
 10
2120.3246987861
 20
-797.0037545407
 30
0.0
 11
2120.5720257861
 21
-797.0037545407
 31
0.0
  0
LINE
  5
E1
  8
2
  6
CONTINUOUS
 62
     7
 10
2103.8246987861
 20
-667.2315751859
 30
0.0
 11
2103.8246987861
 21
-683.2315751859
 31
0.0
  0
LINE
  5
E2
  8
1
  6
CONTINUOUS
 62
     7
 10
2033.8246987861
 20
-685.6315751859
 30
0.0
 11
2028.8746987861
 21
-685.6315751859
 31
0.0
  0
LINE
  5
E3
  8
2
  6
CONTINUOUS
 62
     7
 10
1894.3246987861
 20
-801.4125565407
 30
0.0
 11
1894.3246987861
 21
-792.1749525407
 31
0.0
  0
ARC
  5
E4
  8
2
  6
CONTINUOUS
 62
     7
 10
2112.3246987861
 20
-796.7937545407
 30
0.0
 40
8.25
 50
1.458596
 51
14.14111
  0
LINE
  5
E5
  8
2
  6
CONTINUOUS
 62
     7
 10
2120.5720257861
 20
-796.5837545407
 30
0.0
 11
2120.3246987861
 21
-796.5837545407
 31
0.0
  0
LINE
  5
E6
  8
2
  6
CONTINUOUS
 62
     7
 10
1989.2246987861
 20
-674.1260211859
 30
0.0
 11
1995.0246987861
 21
-674.1260211859
 31
0.0
  0
LINE
  5
E7
  8
2
  6
CONTINUOUS
 62
     7
 10
2007.1531257861
 20
-696.6315751859
 30
0.0
 11
2007.4962717861
 21
-696.6315751859
 31
0.0
  0
ARC
  5
E8
  8
2
  6
CONTINUOUS
 62
     7
 10
2112.3246987861
 20
-796.7937545407
 30
0.0
 40
8.25
 50
345.8588899999999
 51
1.250188999999978
  0
LINE
  5
E9
  8
2
  6
CONTINUOUS
 62
     7
 10
2120.5727347861
 20
-796.6137545407
 30
0.0
 11
2120.3246987861
 21
-796.6137545407
 31
0.0
  0
LINE
  5
EA
  8
2
  6
CONTINUOUS
 62
     7
 10
2104.3246987861
 20
-792.1749525407
 30
0.0
 11
2112.3246987861
 21
-787.5561505407
 31
0.0
  0
LINE
  5
EB
  8
2
  6
CONTINUOUS
 62
     7
 10
2120.3246987861
 20
-792.1749525407
 30
0.0
 11
2120.3246987861
 21
-801.4125565407
 31
0.0
  0
LINE
  5
EC
  8
2
  6
CONTINUOUS
 62
     7
 10
2120.3246987861
 20
-801.4125565407
 30
0.0
 11
2112.3246987861
 21
-806.0313585407
 31
0.0
  0
LINE
  5
ED
  8
1
  6
CONTINUOUS
 62
     7
 10
2033.8246987861
 20
-677.6315751859
 30
0.0
 11
2035.0246987861
 21
-678.8315751859
 31
0.0
  0
ARC
  5
EE
  8
2
  6
CONTINUOUS
 62
     7
 10
2007.4962717861
 20
-699.6315751859
 30
0.0
 40
3.0
 50
19.471221
 51
90.0
  0
LINE
  5
EF
  8
2
  6
CONTINUOUS
 62
     7
 10
2032.3246987861
 20
-806.7937545407
 30
0.0
 11
2016.8246987861
 21
-806.7937545407
 31
0.0
  0
LINE
  5
F0
  8
2
  6
CONTINUOUS
 62
     7
 10
1982.3246987861
 20
-806.7937545407
 30
0.0
 11
1997.8246987861
 21
-806.7937545407
 31
0.0
  0
LINE
  5
F1
  8
2
  6
CONTINUOUS
 62
     7
 10
2112.3246987861
 20
-787.5561505407
 30
0.0
 11
2120.3246987861
 21
-792.1749525407
 31
0.0
  0
LINE
  5
F2
  8
1
  6
CONTINUOUS
 62
     7
 10
2028.8746987861
 20
-689.1371281859
 30
0.0
 11
2028.8746987861
 21
-674.1260211859
 31
0.0
  0
ARC
  5
F3
  8
2
  6
CONTINUOUS
 62
     7
 10
2007.3246987861
 20
-766.7937545407
 30
0.0
 40
4.2
 50
180.0
 51
0.0
  0
ARC
  5
F4
  8
2
  6
CONTINUOUS
 62
     7
 10
1977.3246987861
 20
-766.7937545407
 30
0.0
 40
2.75
 50
45.0
 51
225.0
  0
ARC
  5
F5
  8
2
  6
CONTINUOUS
 62
     7
 10
1984.6972817861
 20
-774.1663375407
 30
0.0
 40
2.75
 50
225.0
 51
45.0
  0
LINE
  5
F6
  8
2
  6
CONTINUOUS
 62
     7
 10
1902.3246987861
 20
-787.5561505407
 30
0.0
 11
1910.3246987861
 21
-792.1749525407
 31
0.0
  0
LINE
  5
F7
  8
2
  6
CONTINUOUS
 62
     7
 10
2127.3246987861
 20
-811.0437545407
 30
0.0
 11
2127.3246987861
 21
-782.5437545407
 31
0.0
  0
ARC
  5
F8
  8
2
  6
CONTINUOUS
 62
     7
 10
1902.3246987861
 20
-796.7937545407
 30
0.0
 40
8.25
 50
165.85889
 51
181.250189
  0
LINE
  5
F9
  8
2
  6
CONTINUOUS
 62
     7
 10
1982.3246987861
 20
-786.7937545407
 30
0.0
 11
1997.8246987861
 21
-786.7937545407
 31
0.0
  0
LINE
  5
FA
  8
2
  6
CONTINUOUS
 62
     7
 10
1922.3246987861
 20
-801.8937545407
 30
0.0
 11
1909.4912397861
 21
-801.8937545407
 31
0.0
  0
LINE
  5
FB
  8
2
  6
CONTINUOUS
 62
     7
 10
1909.4912397861
 20
-791.6937545407
 30
0.0
 11
1922.3246987861
 21
-791.6937545407
 31
0.0
  0
ARC
  5
FC
  8
2
  6
CONTINUOUS
 62
     7
 10
1902.3246987861
 20
-796.7937545407
 30
0.0
 40
8.25
 50
225.85889
 51
254.1411099999999
  0
LINE
  5
FD
  8
2
  6
CONTINUOUS
 62
     7
 10
2092.3246987861
 20
-801.8937545407
 30
0.0
 11
2105.1581577861
 21
-801.8937545407
 31
0.0
  0
LINE
  5
FE
  8
2
  6
CONTINUOUS
 62
     7
 10
2105.1581577861
 20
-791.6937545407
 30
0.0
 11
2092.3246987861
 21
-791.6937545407
 31
0.0
  0
LINE
  5
FF
  8
2
  6
CONTINUOUS
 62
     7
 10
1910.3246987861
 20
-792.1749525407
 30
0.0
 11
1910.3246987861
 21
-801.4125565407
 31
0.0
  0
LINE
  5
100
  8
2
  6
CONTINUOUS
 62
     7
 10
2055.2510747861
 20
-782.5437545407
 30
0.0
 11
2127.3246987861
 21
-782.5437545407
 31
0.0
  0
LINE
  5
101
  8
2
  6
CONTINUOUS
 62
     7
 10
1887.3246987861
 20
-811.0437545407
 30
0.0
 11
1959.3983227861
 21
-811.0437545407
 31
0.0
  0
LINE
  5
102
  8
2
  6
CONTINUOUS
 62
     7
 10
2055.2510747861
 20
-811.0437545407
 30
0.0
 11
2127.3246987861
 21
-811.0437545407
 31
0.0
  0
ARC
  5
103
  8
2
  6
CONTINUOUS
 62
     7
 10
2092.3246987861
 20
-796.7937545407
 30
0.0
 40
5.1
 50
90.0
 51
270.0
  0
LINE
  5
104
  8
2
  6
CONTINUOUS
 62
     7
 10
1887.3246987861
 20
-782.5437545407
 30
0.0
 11
1959.3983227861
 21
-782.5437545407
 31
0.0
  0
LINE
  5
105
  8
2
  6
CONTINUOUS
 62
     7
 10
1887.3246987861
 20
-811.0437545407
 30
0.0
 11
1887.3246987861
 21
-782.5437545407
 31
0.0
  0
ARC
  5
106
  8
2
  6
CONTINUOUS
 62
     7
 10
1922.3246987861
 20
-796.7937545407
 30
0.0
 40
5.1
 50
270.0
 51
90.0
  0
ARC
  5
107
  8
2
  6
CONTINUOUS
 62
     7
 10
1977.3246987861
 20
-826.7937545407
 30
0.0
 40
2.75
 50
135.0
 51
315.0
  0
LINE
  5
108
  8
2
  6
CONTINUOUS
 62
     7
 10
1894.3246987861
 20
-796.5837545407
 30
0.0
 11
1894.0773717861
 21
-796.5837545407
 31
0.0
  0
LINE
  5
109
  8
2
  6
CONTINUOUS
 62
     7
 10
1889.3246987861
 20
-640.6315751859
 30
0.0
 11
1993.0479277861
 21
-640.6315751859
 31
0.0
  0
ARC
  5
10A
  8
2
  6
CONTINUOUS
 62
     7
 10
1985.3246987861
 20
-662.6315751859
 30
0.0
 40
0.5
 50
90.0
 51
168.463041
  0
ARC
  5
10B
  8
2
  6
CONTINUOUS
 62
     7
 10
2125.3246987861
 20
-642.6315751859
 30
0.0
 40
2.0
 50
0.0
 51
90.0
  0
LINE
  5
10C
  8
2
  6
CONTINUOUS
 62
     7
 10
2003.5746987861
 20
-673.6315751859
 30
0.0
 11
2011.0746987861
 21
-673.6315751859
 31
0.0
  0
ARC
  5
10D
  8
2
  6
CONTINUOUS
 62
     7
 10
2003.5746987861
 20
-663.6315751859
 30
0.0
 40
10.0
 50
186.62581
 51
270.0
  0
ARC
  5
10E
  8
2
  6
CONTINUOUS
 62
     7
 10
1982.8246987861
 20
-649.1315751859
 30
0.0
 40
3.0
 50
90.0
 51
180.0
  0
LINE
  5
10F
  8
2
  6
CONTINUOUS
 62
     7
 10
1893.8246987861
 20
-683.2315751859
 30
0.0
 11
1910.8246987861
 21
-683.2315751859
 31
0.0
  0
LINE
  5
110
  8
2
  6
CONTINUOUS
 62
     7
 10
2120.8246987861
 20
-406.0315751859
 30
0.0
 11
2120.8246987861
 21
-414.0315751859
 31
0.0
  0
LINE
  5
111
  8
2
  6
CONTINUOUS
 62
     7
 10
2021.6014697861
 20
-440.6315751859
 30
0.0
 11
2125.3246987861
 21
-440.6315751859
 31
0.0
  0
LINE
  5
112
  8
2
  6
CONTINUOUS
 62
     7
 10
2021.6014697861
 20
-440.6315751859
 30
0.0
 11
2010.3246987861
 21
-438.1315751859
 31
0.0
  0
LINE
  5
113
  8
2
  6
CONTINUOUS
 62
     7
 10
2127.3246987861
 20
-438.6315751859
 30
0.0
 11
2127.3246987861
 21
-415.6315751859
 31
0.0
  0
ARC
  5
114
  8
2
  6
CONTINUOUS
 62
     7
 10
2125.3246987861
 20
-438.6315751859
 30
0.0
 40
2.0
 50
270.0
 51
0.0
  0
LINE
  5
115
  8
2
  6
CONTINUOUS
 62
     7
 10
2021.6014697861
 20
-640.6315751859
 30
0.0
 11
2125.3246987861
 21
-640.6315751859
 31
0.0
  0
LINE
  5
116
  8
2
  6
CONTINUOUS
 62
     7
 10
2029.8246987861
 20
-665.6315751859
 30
0.0
 11
2127.3246987861
 21
-665.6315751859
 31
0.0
  0
ARC
  5
117
  8
2
  6
CONTINUOUS
 62
     7
 10
1902.3246987861
 20
-796.7937545407
 30
0.0
 40
8.25
 50
181.458596
 51
194.14111
  0
LINE
  5
118
  8
2
  6
CONTINUOUS
 62
     7
 10
2107.5746987861
 20
-683.2315751859
 30
0.0
 11
2107.5746987861
 21
-685.6315751859
 31
0.0
  0
LINE
  5
119
  8
2
  6
CONTINUOUS
 62
     7
 10
2000.9969817861
 20
-657.2315751859
 30
0.0
 11
1982.8246987861
 21
-657.2315751859
 31
0.0
  0
LINE
  5
11A
  8
2
  6
CONTINUOUS
 62
     7
 10
2112.3246987861
 20
-406.0315751859
 30
0.0
 11
2112.3246987861
 21
-414.0315751859
 31
0.0
  0
LINE
  5
11B
  8
2
  6
CONTINUOUS
 62
     7
 10
1993.0479277861
 20
-640.6315751859
 30
0.0
 11
2004.3246987861
 21
-643.1315751859
 31
0.0
  0
ARC
  5
11C
  8
2
  6
CONTINUOUS
 62
     7
 10
2047.4962717861
 20
-699.6315751859
 30
0.0
 40
3.0
 50
19.471221
 51
90.0
  0
LINE
  5
11D
  8
2
  6
CONTINUOUS
 62
     7
 10
2121.3246987861
 20
-415.6315751859
 30
0.0
 11
2121.3246987861
 21
-414.0315751859
 31
0.0
  0
LINE
  5
11E
  8
2
  6
CONTINUOUS
 62
     7
 10
2121.3246987861
 20
-667.2315751859
 30
0.0
 11
2103.3246987861
 21
-667.2315751859
 31
0.0
  0
LINE
  5
11F
  8
2
  6
CONTINUOUS
 62
     7
 10
1982.8246987861
 20
-646.1315751859
 30
0.0
 11
2031.8246987861
 21
-646.1315751859
 31
0.0
  0
LINE
  5
120
  8
2
  6
CONTINUOUS
 62
     7
 10
2057.3246987861
 20
-700.9315751859
 30
0.0
 11
2057.3246987861
 21
-698.6315751859
 31
0.0
  0
ARC
  5
121
  8
2
  6
CONTINUOUS
 62
     7
 10
1889.3246987861
 20
-642.6315751859
 30
0.0
 40
2.0
 50
90.0
 51
180.0
  0
LINE
  5
122
  8
2
  6
CONTINUOUS
 62
     7
 10
2000.8246987861
 20
-659.8787981859
 30
0.0
 11
2000.8246987861
 21
-667.3843521859
 31
0.0
  0
LINE
  5
123
  8
2
  6
CONTINUOUS
 62
     7
 10
1990.6615267861
 20
-662.1315751859
 30
0.0
 11
1985.3246987861
 21
-662.1315751859
 31
0.0
  0
LINE
  5
124
  8
2
  6
CONTINUOUS
 62
     7
 10
2117.0746987861
 20
-685.6315751859
 30
0.0
 11
2107.5746987861
 21
-685.6315751859
 31
0.0
  0
LINE
  5
125
  8
2
  6
CONTINUOUS
 62
     7
 10
2104.3246987861
 20
-801.4125565407
 30
0.0
 11
2104.3246987861
 21
-792.1749525407
 31
0.0
  0
LINE
  5
126
  8
2
  6
CONTINUOUS
 62
     7
 10
1984.8246987861
 20
-662.6315751859
 30
0.0
 11
1984.8246987861
 21
-665.6315751859
 31
0.0
  0
LINE
  5
127
  8
2
  6
CONTINUOUS
 62
     7
 10
1984.8246987861
 20
-662.6315751859
 30
0.0
 11
1984.8348007861
 21
-662.5315751859
 31
0.0
  0
LINE
  5
128
  8
2
  6
CONTINUOUS
 62
     7
 10
2121.3246987861
 20
-667.2315751859
 30
0.0
 11
2121.3246987861
 21
-665.6315751859
 31
0.0
  0
LINE
  5
129
  8
2
  6
CONTINUOUS
 62
     7
 10
2117.0746987861
 20
-685.6315751859
 30
0.0
 11
2117.0746987861
 21
-683.2315751859
 31
0.0
  0
LINE
  5
12A
  8
2
  6
CONTINUOUS
 62
     7
 10
2034.8246987861
 20
-649.1315751859
 30
0.0
 11
2034.8246987861
 21
-654.2315751859
 31
0.0
  0
ARC
  5
12B
  8
2
  6
CONTINUOUS
 62
     7
 10
1982.8246987861
 20
-654.2315751859
 30
0.0
 40
3.0
 50
180.0
 51
270.0
  0
LINE
  5
12C
  8
2
  6
CONTINUOUS
 62
     7
 10
2103.3246987861
 20
-665.6315751859
 30
0.0
 11
2103.3246987861
 21
-667.2315751859
 31
0.0
  0
LINE
  5
12D
  8
2
  6
CONTINUOUS
 62
     7
 10
1910.8246987861
 20
-675.2315751859
 30
0.0
 11
1893.8246987861
 21
-675.2315751859
 31
0.0
  0
LINE
  5
12E
  8
2
  6
CONTINUOUS
 62
     7
 10
2010.3246987861
 20
-643.1315751859
 30
0.0
 11
2021.6014697861
 21
-640.6315751859
 31
0.0
  0
LINE
  5
12F
  8
2
  6
CONTINUOUS
 62
     7
 10
1957.3246987861
 20
-698.6315751859
 30
0.0
 11
1957.3246987861
 21
-700.9315751859
 31
0.0
  0
LINE
  5
130
  8
2
  6
CONTINUOUS
 62
     7
 10
2103.8246987861
 20
-406.0315751859
 30
0.0
 11
2120.8246987861
 21
-406.0315751859
 31
0.0
  0
ARC
  5
131
  8
2
  6
CONTINUOUS
 62
     7
 10
1990.6615267861
 20
-665.1315751859
 30
0.0
 40
3.0
 50
6.625810000000001
 51
90.0
  0
ARC
  5
132
  8
2
  6
CONTINUOUS
 62
     7
 10
1967.4962717861
 20
-699.6315751859
 30
0.0
 40
3.0
 50
19.471221
 51
90.0
  0
LINE
  5
133
  8
2
  6
CONTINUOUS
 62
     7
 10
2103.8246987861
 20
-414.0315751859
 30
0.0
 11
2103.8246987861
 21
-406.0315751859
 31
0.0
  0
LINE
  5
134
  8
2
  6
CONTINUOUS
 62
     7
 10
2107.5746987861
 20
-395.6315751859
 30
0.0
 11
2117.0746987861
 21
-395.6315751859
 31
0.0
  0
LINE
  5
135
  8
2
  6
CONTINUOUS
 62
     7
 10
2029.8246987861
 20
-665.6315751859
 30
0.0
 11
2029.8246987861
 21
-662.6315751859
 31
0.0
  0
LINE
  5
136
  8
2
  6
CENTER
 62
     5
 10
2007.3246987861
 20
-851.7937545407
 30
0.0
 11
2007.3246987861
 21
-741.7937545407
 31
0.0
  0
LINE
  5
138
  8
2
  6
CONTINUOUS
 62
     7
 10
1893.8246987861
 20
-667.2315751859
 30
0.0
 11
1893.8246987861
 21
-683.2315751859
 31
0.0
  0
LINE
  5
139
  8
2
  6
CONTINUOUS
 62
     7
 10
2121.3246987861
 20
-414.0315751859
 30
0.0
 11
2103.3246987861
 21
-414.0315751859
 31
0.0
  0
LINE
  5
13A
  8
2
  6
CENTER
 62
     5
 10
1927.3246987861
 20
-796.7937545407
 30
0.0
 11
2087.3246987861
 21
-796.7937545407
 31
0.0
  0
LINE
  5
13B
  8
2
  6
CONTINUOUS
 62
     7
 10
2120.8246987861
 20
-683.2315751859
 30
0.0
 11
2120.8246987861
 21
-667.2315751859
 31
0.0
  0
LINE
  5
13C
  8
2
  6
CONTINUOUS
 62
     7
 10
2047.1531257861
 20
-696.6315751859
 30
0.0
 11
2047.4962717861
 21
-696.6315751859
 31
0.0
  0
LINE
  5
13D
  8
2
  6
CONTINUOUS
 62
     7
 10
1967.1531257861
 20
-696.6315751859
 30
0.0
 11
1967.4962717861
 21
-696.6315751859
 31
0.0
  0
LINE
  5
13E
  8
2
  6
CONTINUOUS
 62
     7
 10
1910.8246987861
 20
-683.2315751859
 30
0.0
 11
1910.8246987861
 21
-667.2315751859
 31
0.0
  0
LINE
  5
13F
  8
2
  6
CONTINUOUS
 62
     7
 10
1910.8246987861
 20
-406.0315751859
 30
0.0
 11
1910.8246987861
 21
-414.0315751859
 31
0.0
  0
LINE
  5
140
  8
2
  6
CONTINUOUS
 62
     7
 10
2013.8246987861
 20
-659.8787981859
 30
0.0
 11
2007.3246983531
 21
-656.1260219359
 31
0.0
  0
LINE
  5
141
  8
2
  6
CONTINUOUS
 62
     7
 10
1979.2692427861
 20
-764.8492105407
 30
0.0
 11
1986.6418257861
 21
-772.2217935407
 31
0.0
  0
ARC
  5
142
  8
2
  6
CONTINUOUS
 62
     7
 10
2037.3246987861
 20
-826.7937545407
 30
0.0
 40
2.75
 50
225.0
 51
45.0
  0
LINE
  5
143
  8
2
  6
CONTINUOUS
 62
     7
 10
1999.8746987861
 20
-692.6315751859
 30
0.0
 11
2007.0746987861
 21
-692.6315751859
 31
0.0
  0
ARC
  5
144
  8
2
  6
CONTINUOUS
 62
     7
 10
2032.3246987861
 20
-796.7937545407
 30
0.0
 40
10.0
 50
270.0
 51
90.0
  0
LINE
  5
145
  8
2
  6
CONTINUOUS
 62
     7
 10
2007.3246987861
 20
-671.1371281859
 30
0.0
 11
2013.8246987861
 21
-667.3843521859
 31
0.0
  0
LINE
  5
146
  8
2
  6
CONTINUOUS
 62
     7
 10
2000.1746987861
 20
-690.0315751859
 30
0.0
 11
2000.1746987861
 21
-673.1397631859
 31
0.0
  0
ARC
  5
147
  8
2
  6
CONTINUOUS
 62
     7
 10
2029.9521157861
 20
-774.1663375407
 30
0.0
 40
2.75
 50
135.0
 51
315.0
  0
ARC
  5
148
  8
2
  6
CONTINUOUS
 62
     7
 10
2014.7746987861
 20
-690.3315751859
 30
0.0
 40
2.3
 50
270.0
 51
0.0
  0
ARC
  5
149
  8
2
  6
CONTINUOUS
 62
     7
 10
2007.0746987861
 20
-673.1397631859
 30
0.0
 40
7.4
 50
0.0
 51
0.8027229999999997
  0
LINE
  5
14A
  8
2
  6
CONTINUOUS
 62
     7
 10
1995.5246987861
 20
-806.7937545407
 30
0.0
 11
1995.5246987861
 21
-786.7937545407
 31
0.0
  0
LINE
  5
14B
  8
2
  6
CONTINUOUS
 62
     7
 10
2014.7746987861
 20
-692.6315751859
 30
0.0
 11
2007.5746987861
 21
-692.6315751859
 31
0.0
  0
LINE
  5
14C
  8
2
  6
CONTINUOUS
 62
     7
 10
2007.0746987861
 20
-690.0315751859
 30
0.0
 11
1997.5746987861
 21
-690.0315751859
 31
0.0
  0
LINE
  5
14D
  8
2
  6
CONTINUOUS
 62
     7
 10
1887.3246987861
 20
-665.6315751859
 30
0.0
 11
1984.8246987861
 21
-665.6315751859
 31
0.0
  0
ARC
  5
14E
  8
2
  6
CONTINUOUS
 62
     7
 10
2007.5746987861
 20
-673.1397631859
 30
0.0
 40
10.0
 50
171.767363
 51
180.0
  0
LINE
  5
14F
  8
2
  6
CONTINUOUS
 62
     7
 10
2039.2692427861
 20
-768.7382985407
 30
0.0
 11
2031.8966597861
 21
-776.1108815407
 31
0.0
  0
LINE
  5
150
  8
2
  6
CONTINUOUS
 62
     7
 10
2007.3246987861
 20
-656.1260211859
 30
0.0
 11
2000.8246992191
 21
-659.8787989359
 31
0.0
  0
ARC
  5
151
  8
2
  6
CONTINUOUS
 62
     7
 10
1999.8746987861
 20
-690.3315751859
 30
0.0
 40
2.3
 50
180.0
 51
270.0
  0
LINE
  5
152
  8
2
  6
CONTINUOUS
 62
     7
 10
2019.1246987861
 20
-786.7937545407
 30
0.0
 11
2019.1246987861
 21
-806.7937545407
 31
0.0
  0
LINE
  5
153
  8
2
  6
CONTINUOUS
 62
     7
 10
1902.3246987861
 20
-806.0313585407
 30
0.0
 11
1894.3246987861
 21
-801.4125565407
 31
0.0
  0
LINE
  5
154
  8
2
  6
CONTINUOUS
 62
     7
 10
2007.5746987861
 20
-692.6315751859
 30
0.0
 11
2007.5746987861
 21
-690.0315751859
 31
0.0
  0
LINE
  5
155
  8
2
  6
CONTINUOUS
 62
     7
 10
2007.0746987861
 20
-692.6315751859
 30
0.0
 11
2007.0746987861
 21
-690.0315751859
 31
0.0
  0
LINE
  5
156
  8
2
  6
CONTINUOUS
 62
     7
 10
1997.5746987861
 20
-673.1397631859
 30
0.0
 11
1997.5746987861
 21
-690.3315751859
 31
0.0
  0
ARC
  5
157
  8
2
  6
CONTINUOUS
 62
     7
 10
2007.5746987861
 20
-673.1397631859
 30
0.0
 40
7.4
 50
179.197277
 51
180.0
  0
LINE
  5
158
  8
1
  6
CONTINUOUS
 62
     7
 10
2028.8746987861
 20
-674.1315751859
 30
0.0
 11
2022.3746987861
 21
-674.1315751859
 31
0.0
  0
LINE
  5
159
  8
2
  6
CONTINUOUS
 62
     7
 10
2000.8246987861
 20
-667.3843521859
 30
0.0
 11
2007.3246987861
 21
-671.1371281859
 31
0.0
  0
LINE
  5
15A
  8
2
  6
CONTINUOUS
 62
     7
 10
1897.5746987861
 20
-395.6315751859
 30
0.0
 11
1897.5746987861
 21
-398.0315751859
 31
0.0
  0
LINE
  5
15B
  8
2
  6
CONTINUOUS
 62
     7
 10
2117.0746987861
 20
-398.0315751859
 30
0.0
 11
2117.0746987861
 21
-395.6315751859
 31
0.0
  0
LINE
  5
15C
  8
2
  6
CONTINUOUS
 62
     7
 10
1907.0746987861
 20
-398.0315751859
 30
0.0
 11
1907.0746987861
 21
-395.6315751859
 31
0.0
  0
LINE
  5
15D
  8
2
  6
CONTINUOUS
 62
     7
 10
2107.5746987861
 20
-395.6315751859
 30
0.0
 11
2107.5746987861
 21
-398.0315751859
 31
0.0
  0
INSERT
  5
15F
  8
0
 62
     7
  2
D_FRAME_DRAWING_21
 10
0.0
 20
0.0
 30
0.0
  0
LINE
  5
1A9
  8
2
  6
CONTINUOUS
 62
     7
 10
1893.8246987861
 20
-398.0315751859
 30
0.0
 11
1910.8246987861
 21
-398.0315751859
 31
0.0
  0
LINE
  5
1AA
  8
2
  6
CONTINUOUS
 62
     7
 10
1893.8246987861
 20
-398.0315751859
 30
0.0
 11
1893.8246987861
 21
-406.0315751859
 31
0.0
  0
LINE
  5
1AB
  8
2
  6
CONTINUOUS
 62
     7
 10
1902.3246987861
 20
-398.0315751859
 30
0.0
 11
1902.3246987861
 21
-406.0315751859
 31
0.0
  0
LINE
  5
1AC
  8
2
  6
CONTINUOUS
 62
     7
 10
1910.8246987861
 20
-398.0315751859
 30
0.0
 11
1910.8246987861
 21
-406.0315751859
 31
0.0
  0
LINE
  5
1AD
  8
2
  6
CONTINUOUS
 62
     7
 10
2103.8246987861
 20
-398.0315751859
 30
0.0
 11
2120.8246987861
 21
-398.0315751859
 31
0.0
  0
LINE
  5
1AE
  8
2
  6
CONTINUOUS
 62
     7
 10
2120.8246987861
 20
-398.0315751859
 30
0.0
 11
2120.8246987861
 21
-406.0315751859
 31
0.0
  0
LINE
  5
1AF
  8
2
  6
CONTINUOUS
 62
     7
 10
2112.3246987861
 20
-398.0315751859
 30
0.0
 11
2112.3246987861
 21
-406.0315751859
 31
0.0
  0
LINE
  5
1B0
  8
2
  6
CONTINUOUS
 62
     7
 10
2103.8246987861
 20
-406.0315751859
 30
0.0
 11
2103.8246987861
 21
-398.0315751859
 31
0.0
  0
TEXT
  5
1B1
  8
2
  6
CONTINUOUS
 62
     7
 10
1987.618290757096
 20
-885.9195647272727
 30
0.0
 40
6.0
  1
ＳＧＰＦ－２０
 41
0.865177
  0
ENDSEC
  0
EOF
