  0
SECTION
  2
HEADER
  9
$ACADVER
  1
AC1006
  9
$DWGCODEPAGE
  3
ansi_932
  9
$INSBASE
 10
0.0
 20
0.0
 30
0.0
  9
$EXTMIN
 10
0.0
 20
0.0
  9
$EXTMAX
 10
2259.5847384763
 20
860.5071931392
  9
$LIMMIN
 10
0.0
 20
0.0
  9
$LIMMAX
 10
12.0
 20
9.0
  9
$ORTHOMODE
 70
     0
  9
$REGENMODE
 70
     1
  9
$FILLMODE
 70
     1
  9
$QTEXTMODE
 70
     0
  9
$MIRRTEXT
 70
     1
  9
$DRAGMODE
 70
     2
  9
$LTSCALE
 40
1.0
  9
$OSMODE
 70
    37
  9
$ATTMODE
 70
     1
  9
$TEXTSIZE
 40
0.2
  9
$TRACEWID
 40
0.05
  9
$TEXTSTYLE
  7
STANDARD
  9
$CLAYER
  8
0
  9
$CELTYPE
  6
BYLAYER
  9
$CECOLOR
 62
   256
  9
$DIMSCALE
 40
1.0
  9
$DIMASZ
 40
2.4
  9
$DIMEXO
 40
0.0625
  9
$DIMDLI
 40
0.38
  9
$DIMRND
 40
0.0
  9
$DIMDLE
 40
0.0
  9
$DIMEXE
 40
1.2
  9
$DIMTP
 40
0.0
  9
$DIMTM
 40
0.0
  9
$DIMTXT
 40
8.0
  9
$DIMCEN
 40
0.09
  9
$DIMTSZ
 40
0.0
  9
$DIMTOL
 70
     0
  9
$DIMLIM
 70
     0
  9
$DIMTIH
 70
     1
  9
$DIMTOH
 70
     1
  9
$DIMSE1
 70
     0
  9
$DIMSE2
 70
     0
  9
$DIMTAD
 70
     1
  9
$DIMZIN
 70
     0
  9
$DIMBLK
  1

  9
$DIMASO
 70
     1
  9
$DIMSHO
 70
     1
  9
$DIMPOST
  1

  9
$DIMAPOST
  1

  9
$DIMALT
 70
     0
  9
$DIMALTD
 70
     2
  9
$DIMALTF
 40
25.4
  9
$DIMLFAC
 40
1.0
  9
$DIMTOFL
 70
     0
  9
$DIMTVP
 40
0.0
  9
$DIMTIX
 70
     0
  9
$DIMSOXD
 70
     0
  9
$DIMSAH
 70
     0
  9
$DIMBLK1
  1

  9
$DIMBLK2
  1

  9
$LUNITS
 70
     2
  9
$LUPREC
 70
     4
  9
$SKETCHINC
 40
0.1
  9
$FILLETRAD
 40
0.5
  9
$AUNITS
 70
     0
  9
$AUPREC
 70
     0
  9
$MENU
  1
.
  9
$ELEVATION
 40
0.0
  9
$THICKNESS
 40
0.0
  9
$LIMCHECK
 70
     0
  9
$CHAMFERA
 40
0.0
  9
$CHAMFERB
 40
0.0
  9
$SKPOLY
 70
     0
  9
$TDCREATE
 40
2460587.381839549
  9
$TDUPDATE
 40
2460587.381839907
  9
$TDINDWG
 40
0.0000000116
  9
$TDUSRTIMER
 40
0.0000000116
  9
$USRTIMER
 70
     1
  9
$ANGBASE
 50
0.0
  9
$ANGDIR
 70
     0
  9
$PDMODE
 70
     0
  9
$PDSIZE
 40
0.0
  9
$PLINEWID
 40
0.0
  9
$COORDS
 70
     1
  9
$SPLFRAME
 70
     0
  9
$SPLINETYPE
 70
     6
  9
$SPLINESEGS
 70
     8
  9
$ATTDIA
 70
     0
  9
$ATTREQ
 70
     1
  9
$HANDLING
 70
     1
  9
$HANDSEED
  5
1ED
  9
$SURFTAB1
 70
     6
  9
$SURFTAB2
 70
     6
  9
$SURFTYPE
 70
     6
  9
$SURFU
 70
     6
  9
$SURFV
 70
     6
  9
$UCSNAME
  2

  9
$UCSORG
 10
0.0
 20
0.0
 30
0.0
  9
$UCSXDIR
 10
1.0
 20
0.0
 30
0.0
  9
$UCSYDIR
 10
0.0
 20
1.0
 30
0.0
  9
$USERI1
 70
     0
  9
$USERI2
 70
     0
  9
$USERI3
 70
     0
  9
$USERI4
 70
     0
  9
$USERI5
 70
     0
  9
$USERR1
 40
0.0
  9
$USERR2
 40
0.0
  9
$USERR3
 40
0.0
  9
$USERR4
 40
0.0
  9
$USERR5
 40
0.0
  9
$WORLDVIEW
 70
     1
  0
ENDSEC
  0
SECTION
  2
TABLES
  0
TABLE
  2
VPORT
 70
     1
  0
VPORT
  2
*ACTIVE
 70
     0
 10
0.0
 20
0.0
 11
1.0
 21
1.0
 12
1129.79236923815
 22
430.2535965696
 13
0.0
 23
0.0
 14
0.5
 24
0.5
 15
0.5
 25
0.5
 16
0.0
 26
0.0
 36
1.0
 17
0.0
 27
0.0
 37
0.0
 40
860.5071931392
 41
1.6
 42
50.0
 43
0.0
 44
0.0
 50
0.0
 51
0.0
 71
     0
 72
   100
 73
     1
 74
     3
 75
     0
 76
     0
 77
     0
 78
     0
  0
ENDTAB
  0
TABLE
  2
LTYPE
 70
     2
  0
LTYPE
  2
CONTINUOUS
 70
     0
  3
Solid line
 72
    65
 73
     0
 40
0.0
  0
LTYPE
  2
CENTER
 70
     0
  3

 72
    65
 73
     0
 40
0.0
  0
ENDTAB
  0
TABLE
  2
LAYER
 70
     2
  0
LAYER
  2
0
 70
     0
 62
     7
  6
CONTINUOUS
  0
LAYER
  2
1
 70
     0
 62
     7
  6
CONTINUOUS
  0
ENDTAB
  0
TABLE
  2
STYLE
 70
     2
  0
STYLE
  2
STANDARD
 70
     0
 40
0.0
 41
1.0
 50
0.0
 71
     0
 42
0.2
  3
txt
  4

  0
STYLE
  2
ＭＳ_ゴシック
 70
     0
 40
0.0
 41
1.0
 50
0.0
 71
     0
 42
0.2
  3
ＭＳ ゴシック.shx
  4

  0
ENDTAB
  0
TABLE
  2
VIEW
 70
     0
  0
ENDTAB
  0
TABLE
  2
UCS
 70
     0
  0
ENDTAB
  0
ENDSEC
  0
SECTION
  2
BLOCKS
  0
BLOCK
  8
0
  2
D_FRAME_DRAWING_21
 70
     0
 10
0.0
 20
0.0
 30
0.0
  0
LINE
  5
16C
  8
0
  6
CONTINUOUS
 62
     7
 10
0.0
 20
0.0
 30
0.0
 11
420.0
 21
0.0
 31
0.0
  0
LINE
  5
16D
  8
0
  6
CONTINUOUS
 62
     7
 10
420.0
 20
0.0
 30
0.0
 11
420.0
 21
297.0
 31
0.0
  0
LINE
  5
16E
  8
0
  6
CONTINUOUS
 62
     7
 10
420.0
 20
297.0
 30
0.0
 11
0.0
 21
297.0
 31
0.0
  0
LINE
  5
16F
  8
0
  6
CONTINUOUS
 62
     7
 10
0.0
 20
297.0
 30
0.0
 11
0.0
 21
0.0
 31
0.0
  0
LINE
  5
170
  8
0
  6
CONTINUOUS
 62
     7
 10
10.0
 20
10.0
 30
0.0
 11
409.9999999999999
 21
10.0
 31
0.0
  0
LINE
  5
171
  8
0
  6
CONTINUOUS
 62
     7
 10
409.9999999999999
 20
10.0
 30
0.0
 11
409.9999999999999
 21
286.9999999999999
 31
0.0
  0
LINE
  5
172
  8
0
  6
CONTINUOUS
 62
     7
 10
409.9999999999999
 20
286.9999999999999
 30
0.0
 11
10.00000000000006
 21
286.9999999999999
 31
0.0
  0
LINE
  5
173
  8
0
  6
CONTINUOUS
 62
     7
 10
10.0
 20
286.9999999999999
 30
0.0
 11
10.0
 21
10.00000000000001
 31
0.0
  0
LINE
  5
174
  8
0
  6
CONTINUOUS
 62
     7
 10
210.0
 20
0.0
 30
0.0
 11
210.0
 21
10.0
 31
0.0
  0
LINE
  5
175
  8
0
  6
CONTINUOUS
 62
     7
 10
420.0
 20
148.5
 30
0.0
 11
409.9999999999999
 21
148.5
 31
0.0
  0
LINE
  5
176
  8
0
  6
CONTINUOUS
 62
     7
 10
210.0
 20
297.0
 30
0.0
 11
210.0
 21
286.9999999999999
 31
0.0
  0
LINE
  5
177
  8
0
  6
CONTINUOUS
 62
     7
 10
0.0
 20
148.5
 30
0.0
 11
10.0
 21
148.5
 31
0.0
  0
POLYLINE
  5
178
  8
0
  6
CONTINUOUS
 62
     7
 66
     1
 10
0.0
 20
0.0
 30
0.0
 70
     1
  0
VERTEX
  5
1BE
  8
0
  6
CONTINUOUS
 62
     7
 10
11.0
 20
152.5
 30
0.0
  0
VERTEX
  5
1BF
  8
0
  6
CONTINUOUS
 62
     7
 10
0.0
 20
148.5
 30
0.0
  0
VERTEX
  5
1C0
  8
0
  6
CONTINUOUS
 62
     7
 10
11.0
 20
144.5
 30
0.0
  0
VERTEX
  5
1C1
  8
0
  6
CONTINUOUS
 62
     7
 10
11.0
 20
152.5
 30
0.0
  0
SEQEND
  5
1EB
  8
0
  6
CONTINUOUS
 62
     7
  0
INSERT
  5
179
  8
0
 62
     7
  2
*U2
 10
0.0
 20
0.0
 30
0.0
  0
POLYLINE
  5
17A
  8
0
  6
CONTINUOUS
 62
     7
 66
     1
 10
0.0
 20
0.0
 30
0.0
 70
     1
  0
VERTEX
  5
1C4
  8
0
  6
CONTINUOUS
 62
     7
 10
206.0
 20
11.0
 30
0.0
  0
VERTEX
  5
1C5
  8
0
  6
CONTINUOUS
 62
     7
 10
210.0
 20
0.0
 30
0.0
  0
VERTEX
  5
1C6
  8
0
  6
CONTINUOUS
 62
     7
 10
214.0
 20
11.0
 30
0.0
  0
VERTEX
  5
1C7
  8
0
  6
CONTINUOUS
 62
     7
 10
206.0
 20
11.0
 30
0.0
  0
SEQEND
  5
1EC
  8
0
  6
CONTINUOUS
 62
     7
  0
INSERT
  5
17B
  8
0
 62
     7
  2
*U3
 10
0.0
 20
0.0
 30
0.0
  0
LINE
  5
17C
  8
0
  6
CONTINUOUS
 62
     7
 10
367.5
 20
286.9999999999999
 30
0.0
 11
367.5
 21
292.0
 31
0.0
  0
TEXT
  5
17D
  8
0
  6
CONTINUOUS
 62
     7
 10
391.6340909090909
 20
291.8324293485057
 30
0.0
 40
3.5
  1
A
 50
270.0
  0
LINE
  5
17E
  8
0
  6
CONTINUOUS
 62
     7
 10
367.5
 20
10.0
 30
0.0
 11
367.5
 21
5.0
 31
0.0
  0
TEXT
  5
17F
  8
0
  6
CONTINUOUS
 62
     7
 10
392.9868888333125
 20
4.602272727272727
 30
0.0
 40
3.5
  1
A
  0
LINE
  5
180
  8
0
  6
CONTINUOUS
 62
     7
 10
315.0
 20
286.9999999999999
 30
0.0
 11
315.0
 21
292.0
 31
0.0
  0
TEXT
  5
181
  8
0
  6
CONTINUOUS
 62
     7
 10
339.1340909090909
 20
291.9745607727899
 30
0.0
 40
3.5
  1
B
 50
270.0
  0
LINE
  5
182
  8
0
  6
CONTINUOUS
 62
     7
 10
315.0
 20
10.0
 30
0.0
 11
315.0
 21
5.0
 31
0.0
  0
TEXT
  5
183
  8
0
  6
CONTINUOUS
 62
     7
 10
340.3447574090284
 20
4.602272727272727
 30
0.0
 40
3.5
  1
B
  0
LINE
  5
184
  8
0
  6
CONTINUOUS
 62
     7
 10
262.5
 20
286.9999999999999
 30
0.0
 11
262.5
 21
292.0
 31
0.0
  0
TEXT
  5
185
  8
0
  6
CONTINUOUS
 62
     7
 10
286.6327779167187
 20
291.9399305989747
 30
0.0
 40
3.5
  1
C
 50
270.0
  0
LINE
  5
186
  8
0
  6
CONTINUOUS
 62
     7
 10
262.5
 20
10.0
 30
0.0
 11
262.5
 21
5.0
 31
0.0
  0
TEXT
  5
187
  8
0
  6
CONTINUOUS
 62
     7
 10
287.8793875828435
 20
4.600959734900587
 30
0.0
 40
3.5
  1
C
  0
LINE
  5
188
  8
0
  6
CONTINUOUS
 62
     7
 10
210.0
 20
286.9999999999999
 30
0.0
 11
210.0
 21
292.0
 31
0.0
  0
TEXT
  5
189
  8
0
  6
CONTINUOUS
 62
     7
 10
234.1340909090909
 20
291.9745607727898
 30
0.0
 40
3.5
  1
D
 50
270.0
  0
LINE
  5
18A
  8
0
  6
CONTINUOUS
 62
     7
 10
157.5
 20
286.9999999999999
 30
0.0
 11
157.5
 21
292.0
 31
0.0
  0
TEXT
  5
18B
  8
0
  6
CONTINUOUS
 62
     7
 10
181.6327779167188
 20
292.027463423784
 30
0.0
 40
3.5
  1
E
 50
270.0
  0
LINE
  5
18C
  8
0
  6
CONTINUOUS
 62
     7
 10
157.5
 20
10.0
 30
0.0
 11
157.5
 21
5.0
 31
0.0
  0
LINE
  5
18D
  8
0
  6
CONTINUOUS
 62
     7
 10
105.0
 20
286.9999999999999
 30
0.0
 11
105.0
 21
292.0
 31
0.0
  0
TEXT
  5
18E
  8
0
  6
CONTINUOUS
 62
     7
 10
129.1327779167188
 20
291.9924502938602
 30
0.0
 40
3.5
  1
F
 50
270.0
  0
LINE
  5
18F
  8
0
  6
CONTINUOUS
 62
     7
 10
105.0
 20
10.0
 30
0.0
 11
105.0
 21
5.0
 31
0.0
  0
TEXT
  5
190
  8
0
  6
CONTINUOUS
 62
     7
 10
130.326867887958
 20
4.600959734900587
 30
0.0
 40
3.5
  1
F
  0
LINE
  5
191
  8
0
  6
CONTINUOUS
 62
     7
 10
52.50000000000004
 20
286.9999999999999
 30
0.0
 11
52.50000000000004
 21
292.0
 31
0.0
  0
TEXT
  5
192
  8
0
  6
CONTINUOUS
 62
     7
 10
76.6327779167188
 20
291.9399305989746
 30
0.0
 40
3.5
  1
G
 50
270.0
  0
LINE
  5
193
  8
0
  6
CONTINUOUS
 62
     7
 10
52.50000000000004
 20
10.0
 30
0.0
 11
52.50000000000004
 21
5.0
 31
0.0
  0
TEXT
  5
194
  8
0
  6
CONTINUOUS
 62
     7
 10
77.8793875828436
 20
4.600959734900587
 30
0.0
 40
3.5
  1
G
  0
TEXT
  5
195
  8
0
  6
CONTINUOUS
 62
     7
 10
24.13277791671879
 20
291.9749437288983
 30
0.0
 40
3.5
  1
H
 50
270.0
  0
TEXT
  5
196
  8
0
  6
CONTINUOUS
 62
     7
 10
25.34437445291988
 20
4.600959734900587
 30
0.0
 40
3.5
  1
H
  0
LINE
  5
197
  8
0
  6
CONTINUOUS
 62
     7
 10
409.9999999999999
 20
74.25
 30
0.0
 11
414.9999999999999
 21
74.25
 31
0.0
  0
TEXT
  5
198
  8
0
  6
CONTINUOUS
 62
     7
 10
412.9326059772414
 20
35.00777791671877
 30
0.0
 40
3.5
  1
1
  0
LINE
  5
199
  8
0
  6
CONTINUOUS
 62
     7
 10
10.0
 20
74.25
 30
0.0
 11
5.0
 21
74.25
 31
0.0
  0
TEXT
  5
19A
  8
0
  6
CONTINUOUS
 62
     7
 10
4.600959734900584
 20
38.26171220457671
 30
0.0
 40
3.5
  1
1
 50
270.0
  0
LINE
  5
19B
  8
0
  6
CONTINUOUS
 62
     7
 10
409.9999999999999
 20
148.5
 30
0.0
 11
414.9999999999999
 21
148.5
 31
0.0
  0
TEXT
  5
19C
  8
0
  6
CONTINUOUS
 62
     7
 10
413.163692634738
 20
109.2577779167188
 30
0.0
 40
3.5
  1
2
  0
LINE
  5
19D
  8
0
  6
CONTINUOUS
 62
     7
 10
10.0
 20
148.5
 30
0.0
 11
5.0
 21
148.5
 31
0.0
  0
TEXT
  5
19E
  8
0
  6
CONTINUOUS
 62
     7
 10
4.600959734900599
 20
112.2806255470802
 30
0.0
 40
3.5
  1
2
 50
270.0
  0
LINE
  5
19F
  8
0
  6
CONTINUOUS
 62
     7
 10
409.9999999999999
 20
222.75
 30
0.0
 11
414.9999999999999
 21
222.75
 31
0.0
  0
TEXT
  5
1A0
  8
0
  6
CONTINUOUS
 62
     7
 10
413.1811991996998
 20
183.5077779167188
 30
0.0
 40
3.5
  1
3
  0
LINE
  5
1A1
  8
0
  6
CONTINUOUS
 62
     7
 10
10.0
 20
222.75
 30
0.0
 11
5.0
 21
222.75
 31
0.0
  0
TEXT
  5
1A2
  8
0
  6
CONTINUOUS
 62
     7
 10
4.600959734900584
 20
186.5131189821183
 30
0.0
 40
3.5
  1
3
 50
270.0
  0
TEXT
  5
1A3
  8
0
  6
CONTINUOUS
 62
     7
 10
413.2351413029886
 20
257.7590909090909
 30
0.0
 40
3.5
  1
4
  0
TEXT
  5
1A4
  8
0
  6
CONTINUOUS
 62
     7
 10
4.60227272727272
 20
260.7091768788295
 30
0.0
 40
3.5
  1
4
 50
270.0
  0
LINE
  5
1A5
  8
0
  6
CONTINUOUS
 62
     7
 10
220.0
 20
10.0
 30
0.0
 11
220.0
 21
7.0
 31
0.0
  0
LINE
  5
1A6
  8
0
  6
CONTINUOUS
 62
     7
 10
200.0
 20
10.0
 30
0.0
 11
200.0
 21
7.0
 31
0.0
  0
LINE
  5
1A7
  8
0
  6
CONTINUOUS
 62
     7
 10
230.0
 20
10.0
 30
0.0
 11
230.0
 21
7.0
 31
0.0
  0
LINE
  5
1A8
  8
0
  6
CONTINUOUS
 62
     7
 10
190.0
 20
10.0
 30
0.0
 11
190.0
 21
7.0
 31
0.0
  0
LINE
  5
1A9
  8
0
  6
CONTINUOUS
 62
     7
 10
240.0
 20
10.0
 30
0.0
 11
240.0
 21
7.0
 31
0.0
  0
LINE
  5
1AA
  8
0
  6
CONTINUOUS
 62
     7
 10
180.0
 20
10.0
 30
0.0
 11
180.0
 21
7.0
 31
0.0
  0
LINE
  5
1AB
  8
0
  6
CONTINUOUS
 62
     7
 10
250.0
 20
10.0
 30
0.0
 11
250.0
 21
7.0
 31
0.0
  0
LINE
  5
1AC
  8
0
  6
CONTINUOUS
 62
     7
 10
170.0
 20
10.0
 30
0.0
 11
170.0
 21
7.0
 31
0.0
  0
LINE
  5
1AD
  8
0
  6
CONTINUOUS
 62
     7
 10
260.0
 20
10.0
 30
0.0
 11
260.0
 21
5.0
 31
0.0
  0
LINE
  5
1AE
  8
0
  6
CONTINUOUS
 62
     7
 10
160.0
 20
10.0
 30
0.0
 11
160.0
 21
5.0
 31
0.0
  0
LINE
  5
1AF
  8
0
  6
CONTINUOUS
 62
     7
 10
260.0
 20
10.0
 30
0.0
 11
160.0
 21
10.0
 31
0.0
  0
LINE
  5
1B0
  8
0
  6
CONTINUOUS
 62
     7
 10
260.0
 20
7.0
 30
0.0
 11
160.0
 21
7.0
 31
0.0
  0
INSERT
  5
1B1
  8
0
 62
     7
  2
*U4
 10
0.0
 20
0.0
 30
0.0
  0
INSERT
  5
1B2
  8
0
 62
     7
  2
*U5
 10
0.0
 20
0.0
 30
0.0
  0
INSERT
  5
1B3
  8
0
 62
     7
  2
*U6
 10
0.0
 20
0.0
 30
0.0
  0
INSERT
  5
1B4
  8
0
 62
     7
  2
*U7
 10
0.0
 20
0.0
 30
0.0
  0
ENDBLK
  8
0
  0
BLOCK
  8
0
  2
*U2
 70
     1
 10
0.0
 20
0.0
 30
0.0
  0
SOLID
  5
1C3
  8
0
  6
CONTINUOUS
 62
     7
 10
11.0
 20
144.5
 30
0.0
 11
6.999999999999999
 21
148.5
 31
0.0
 12
11.0
 22
152.5
 32
0.0
 13
11.0
 23
152.5
 33
0.0
  0
ENDBLK
  8
0
  0
BLOCK
  8
0
  2
*U3
 70
     1
 10
0.0
 20
0.0
 30
0.0
  0
SOLID
  5
1C9
  8
0
  6
CONTINUOUS
 62
     7
 10
210.0
 20
6.999999999999999
 30
0.0
 11
206.0
 21
11.0
 31
0.0
 12
210.0
 22
11.0
 32
0.0
 13
210.0
 23
11.0
 33
0.0
  0
SOLID
  5
1CA
  8
0
  6
CONTINUOUS
 62
     7
 10
210.0
 20
6.999999999999999
 30
0.0
 11
210.0
 21
11.0
 31
0.0
 12
214.0
 22
11.0
 32
0.0
 13
214.0
 23
11.0
 33
0.0
  0
ENDBLK
  8
0
  0
BLOCK
  8
0
  2
*U4
 70
     1
 10
0.0
 20
0.0
 30
0.0
  0
SOLID
  5
1CC
  8
0
  6
CONTINUOUS
 62
     7
 10
0.0
 20
0.0
 30
0.0
 11
0.0
 21
10.0
 31
0.0
 12
2.0
 22
0.0
 32
0.0
 13
2.0
 23
0.0
 33
0.0
  0
SOLID
  5
1CD
  8
0
  6
CONTINUOUS
 62
     7
 10
2.0
 20
0.0
 30
0.0
 11
0.0
 21
10.0
 31
0.0
 12
2.0
 22
10.0
 32
0.0
 13
2.0
 23
10.0
 33
0.0
  0
SOLID
  5
1CE
  8
0
  6
CONTINUOUS
 62
     7
 10
2.0
 20
0.0
 30
0.0
 11
2.0
 21
2.0
 31
0.0
 12
10.0
 22
0.0
 32
0.0
 13
10.0
 23
0.0
 33
0.0
  0
SOLID
  5
1CF
  8
0
  6
CONTINUOUS
 62
     7
 10
10.0
 20
0.0
 30
0.0
 11
2.0
 21
2.0
 31
0.0
 12
10.0
 22
2.0
 32
0.0
 13
10.0
 23
2.0
 33
0.0
  0
ENDBLK
  8
0
  0
BLOCK
  8
0
  2
*U5
 70
     1
 10
0.0
 20
0.0
 30
0.0
  0
SOLID
  5
1D1
  8
0
  6
CONTINUOUS
 62
     7
 10
409.9999999999999
 20
0.0
 30
0.0
 11
409.9999999999999
 21
2.0
 31
0.0
 12
418.0
 22
0.0
 32
0.0
 13
418.0
 23
0.0
 33
0.0
  0
SOLID
  5
1D2
  8
0
  6
CONTINUOUS
 62
     7
 10
418.0
 20
0.0
 30
0.0
 11
409.9999999999999
 21
2.0
 31
0.0
 12
418.0
 22
2.0
 32
0.0
 13
418.0
 23
2.0
 33
0.0
  0
SOLID
  5
1D3
  8
0
  6
CONTINUOUS
 62
     7
 10
418.0
 20
0.0
 30
0.0
 11
418.0
 21
10.0
 31
0.0
 12
420.0
 22
0.0
 32
0.0
 13
420.0
 23
0.0
 33
0.0
  0
SOLID
  5
1D4
  8
0
  6
CONTINUOUS
 62
     7
 10
420.0
 20
0.0
 30
0.0
 11
418.0
 21
10.0
 31
0.0
 12
420.0
 22
10.0
 32
0.0
 13
420.0
 23
10.0
 33
0.0
  0
ENDBLK
  8
0
  0
BLOCK
  8
0
  2
*U6
 70
     1
 10
0.0
 20
0.0
 30
0.0
  0
SOLID
  5
1D6
  8
0
  6
CONTINUOUS
 62
     7
 10
409.9999999999999
 20
295.0
 30
0.0
 11
409.9999999999999
 21
297.0
 31
0.0
 12
418.0
 22
295.0
 32
0.0
 13
418.0
 23
295.0
 33
0.0
  0
SOLID
  5
1D7
  8
0
  6
CONTINUOUS
 62
     7
 10
418.0
 20
295.0
 30
0.0
 11
409.9999999999999
 21
297.0
 31
0.0
 12
418.0
 22
297.0
 32
0.0
 13
418.0
 23
297.0
 33
0.0
  0
SOLID
  5
1D8
  8
0
  6
CONTINUOUS
 62
     7
 10
418.0
 20
286.9999999999999
 30
0.0
 11
418.0
 21
297.0
 31
0.0
 12
420.0
 22
286.9999999999999
 32
0.0
 13
420.0
 23
286.9999999999999
 33
0.0
  0
SOLID
  5
1D9
  8
0
  6
CONTINUOUS
 62
     7
 10
420.0
 20
286.9999999999999
 30
0.0
 11
418.0
 21
297.0
 31
0.0
 12
420.0
 22
297.0
 32
0.0
 13
420.0
 23
297.0
 33
0.0
  0
ENDBLK
  8
0
  0
BLOCK
  8
0
  2
*U7
 70
     1
 10
0.0
 20
0.0
 30
0.0
  0
SOLID
  5
1DB
  8
0
  6
CONTINUOUS
 62
     7
 10
0.0
 20
286.9999999999999
 30
0.0
 11
0.0
 21
297.0
 31
0.0
 12
2.0
 22
286.9999999999999
 32
0.0
 13
2.0
 23
286.9999999999999
 33
0.0
  0
SOLID
  5
1DC
  8
0
  6
CONTINUOUS
 62
     7
 10
2.0
 20
286.9999999999999
 30
0.0
 11
0.0
 21
297.0
 31
0.0
 12
2.0
 22
297.0
 32
0.0
 13
2.0
 23
297.0
 33
0.0
  0
SOLID
  5
1DD
  8
0
  6
CONTINUOUS
 62
     7
 10
2.0
 20
295.0
 30
0.0
 11
2.0
 21
297.0
 31
0.0
 12
10.0
 22
295.0
 32
0.0
 13
10.0
 23
295.0
 33
0.0
  0
SOLID
  5
1DE
  8
0
  6
CONTINUOUS
 62
     7
 10
10.0
 20
295.0
 30
0.0
 11
2.0
 21
297.0
 31
0.0
 12
10.0
 22
297.0
 32
0.0
 13
10.0
 23
297.0
 33
0.0
  0
ENDBLK
  8
0
  0
ENDSEC
  0
SECTION
  2
ENTITIES
  0
LINE
  5
70
  8
1
  6
CONTINUOUS
 62
     7
 10
2143.5847384763
 20
840.5071931392
 30
0.0
 11
2143.5847384763
 21
842.1071931392
 31
0.0
  0
LINE
  5
71
  8
1
  6
CONTINUOUS
 62
     7
 10
2249.3347384763
 20
715.5071931392
 30
0.0
 11
2249.3347384763
 21
815.5071931392
 31
0.0
  0
LINE
  5
72
  8
1
  6
CONTINUOUS
 62
     7
 10
2143.5847384763
 20
688.9071931392
 30
0.0
 11
2143.5847384763
 21
690.5071931392
 31
0.0
  0
LINE
  5
73
  8
1
  6
CONTINUOUS
 62
     7
 10
2253.5847384763
 20
840.5071931392
 30
0.0
 11
2253.5847384763
 21
842.1071931392
 31
0.0
  0
LINE
  5
74
  8
1
  6
CONTINUOUS
 62
     7
 10
2235.5847384763
 20
842.1071931392
 30
0.0
 11
2235.5847384763
 21
840.5071931392
 31
0.0
  0
LINE
  5
75
  8
1
  6
CONTINUOUS
 62
     7
 10
2139.3347384763
 20
670.5071931392
 30
0.0
 11
2129.8347384763
 21
670.5071931392
 31
0.0
  0
LINE
  5
76
  8
1
  6
CONTINUOUS
 62
     7
 10
2129.8347384763
 20
860.5071931392
 30
0.0
 11
2139.3347384763
 21
860.5071931392
 31
0.0
  0
ARC
  5
77
  8
1
  6
CONTINUOUS
 62
     7
 10
2165.0847384763
 20
701.9071931392
 30
0.0
 40
3.0
 50
180.0
 51
270.0
  0
LINE
  5
78
  8
1
  6
CONTINUOUS
 62
     7
 10
2143.5847384763
 20
688.9071931392
 30
0.0
 11
2125.5847384763
 21
688.9071931392
 31
0.0
  0
ARC
  5
79
  8
1
  6
CONTINUOUS
 62
     7
 10
2193.3347384763
 20
692.5071931392
 30
0.0
 40
10.0
 50
270.0
 51
353.3741900000001
  0
LINE
  5
7A
  8
1
  6
CONTINUOUS
 62
     7
 10
2125.5847384763
 20
690.5071931392
 30
0.0
 11
2125.5847384763
 21
688.9071931392
 31
0.0
  0
LINE
  5
7B
  8
1
  6
CONTINUOUS
 62
     7
 10
2125.5847384763
 20
842.1071931392
 30
0.0
 11
2125.5847384763
 21
840.5071931392
 31
0.0
  0
ARC
  5
7C
  8
1
  6
CONTINUOUS
 62
     7
 10
2189.3347384763
 20
682.9990051392
 30
0.0
 40
10.0
 50
0.0
 51
8.232636999999999
  0
LINE
  5
7D
  8
1
  6
CONTINUOUS
 62
     7
 10
2231.7414404763
 20
541.7450137844
 30
0.0
 11
2259.5847384763
 21
541.7450137844
 31
0.0
  0
ARC
  5
7E
  8
1
  6
CONTINUOUS
 62
     7
 10
2189.8347384763
 20
682.9990051392
 30
0.0
 40
10.0
 50
171.767363
 51
180.0
  0
LINE
  5
7F
  8
1
  6
CONTINUOUS
 62
     7
 10
2212.0847384763
 20
690.5071931392
 30
0.0
 11
2212.0847384763
 21
693.5071931392
 31
0.0
  0
LINE
  5
80
  8
1
  6
CONTINUOUS
 62
     7
 10
2185.8347384763
 20
682.5071931392
 30
0.0
 11
2193.3347384763
 21
682.5071931392
 31
0.0
  0
LINE
  5
81
  8
1
  6
CONTINUOUS
 62
     7
 10
2139.3347384763
 20
715.5071931392
 30
0.0
 11
2139.3347384763
 21
815.5071931392
 31
0.0
  0
LINE
  5
82
  8
1
  6
CONTINUOUS
 62
     7
 10
2259.5847384763
 20
513.2450137844
 30
0.0
 11
2259.5847384763
 21
541.7450137844
 31
0.0
  0
LINE
  5
83
  8
1
  6
CONTINUOUS
 62
     7
 10
2179.8347384763
 20
682.9990051392
 30
0.0
 11
2179.8347384763
 21
665.8071931392
 31
0.0
  0
LINE
  5
84
  8
1
  6
CONTINUOUS
 62
     7
 10
2182.4347384763
 20
666.1071931392
 30
0.0
 11
2182.4347384763
 21
682.9990051392
 31
0.0
  0
LINE
  5
85
  8
1
  6
CONTINUOUS
 62
     7
 10
2129.8347384763
 20
815.5071931392
 30
0.0
 11
2129.8347384763
 21
715.5071931392
 31
0.0
  0
LINE
  5
86
  8
1
  6
CONTINUOUS
 62
     7
 10
2119.5847384763
 20
513.2450137844
 30
0.0
 11
2119.5847384763
 21
541.7450137844
 31
0.0
  0
LINE
  5
87
  8
1
  6
CONTINUOUS
 62
     7
 10
2175.3079674763
 20
715.5071931392
 30
0.0
 11
2186.5847384763
 21
713.0071931392
 31
0.0
  0
CIRCLE
  5
88
  8
1
  6
CONTINUOUS
 62
     7
 10
2163.7753404763
 20
553.3044117844
 30
0.0
 40
2.0
  0
ARC
  5
89
  8
1
  6
CONTINUOUS
 62
     7
 10
2167.5847384763
 20
693.5071931392
 30
0.0
 40
0.5
 50
90.0
 51
168.463041
  0
LINE
  5
8A
  8
1
  6
CONTINUOUS
 62
     7
 10
2218.0013704763
 20
506.3030237844001
 30
0.0
 11
2216.2623764763
 21
506.6096547844
 31
0.0
  0
ARC
  5
8B
  8
1
  6
CONTINUOUS
 62
     7
 10
2189.8347384763
 20
682.9990051392
 30
0.0
 40
7.4
 50
179.197277
 51
180.0
  0
LINE
  5
8C
  8
1
  6
CONTINUOUS
 62
     7
 10
2212.0847384763
 20
690.5071931392
 30
0.0
 11
2259.5847384763
 21
690.5071931392
 31
0.0
  0
ARC
  5
8D
  8
1
  6
CONTINUOUS
 62
     7
 10
2172.9215664763
 20
691.0071931392
 30
0.0
 40
3.0
 50
6.625810000000001
 51
90.0
  0
LINE
  5
8E
  8
1
  6
CONTINUOUS
 62
     7
 10
2210.7767284763
 20
555.9116457844
 30
0.0
 11
2210.4700974763
 21
554.1726517844
 31
0.0
  0
LINE
  5
8F
  8
1
  6
CONTINUOUS
 62
     7
 10
2239.8347384763
 20
815.5071931392
 30
0.0
 11
2239.8347384763
 21
715.5071931392
 31
0.0
  0
LINE
  5
90
  8
1
  6
CONTINUOUS
 62
     7
 10
2168.3927484763
 20
499.0783817844
 30
0.0
 11
2168.6993794763
 21
500.8173757844
 31
0.0
  0
LINE
  5
91
  8
1
  6
CONTINUOUS
 62
     7
 10
2139.3347384763
 20
670.5071931392
 30
0.0
 11
2139.3347384763
 21
672.9071931392
 31
0.0
  0
LINE
  5
92
  8
1
  6
CONTINUOUS
 62
     7
 10
2134.5847384763
 20
672.9071931392
 30
0.0
 11
2134.5847384763
 21
688.9071931392
 31
0.0
  0
LINE
  5
93
  8
1
  6
CONTINUOUS
 62
     7
 10
2126.0847384763
 20
850.1071931392
 30
0.0
 11
2126.0847384763
 21
842.1071931392
 31
0.0
  0
CIRCLE
  5
94
  8
1
  6
CONTINUOUS
 62
     7
 10
2189.5847384763
 20
527.4950137844
 30
0.0
 40
44.5
  0
CIRCLE
  5
95
  8
1
  6
CONTINUOUS
 62
     7
 10
2215.3941364763
 20
553.3044117844
 30
0.0
 40
2.0
  0
ARC
  5
96
  8
1
  6
CONTINUOUS
 62
     7
 10
2218.8696104763
 20
543.7629647844
 30
0.0
 40
5.0
 50
29.052478
 51
100.0
  0
ARC
  5
97
  8
1
  6
CONTINUOUS
 62
     7
 10
2205.8526894763
 20
556.7798857844
 30
0.0
 40
5.0
 50
349.9999999999999
 51
60.94752199999998
  0
LINE
  5
98
  8
1
  6
CONTINUOUS
 62
     7
 10
2143.0847384763
 20
850.1071931392
 30
0.0
 11
2143.0847384763
 21
842.1071931392
 31
0.0
  0
LINE
  5
99
  8
1
  6
CONTINUOUS
 62
     7
 10
2236.0847384763
 20
842.1071931392
 30
0.0
 11
2236.0847384763
 21
850.1071931392
 31
0.0
  0
LINE
  5
9A
  8
1
  6
CONTINUOUS
 62
     7
 10
2126.0847384763
 20
672.9071931392
 30
0.0
 11
2143.0847384763
 21
672.9071931392
 31
0.0
  0
ARC
  5
9B
  8
1
  6
CONTINUOUS
 62
     7
 10
2189.5847384763
 20
553.4950137844
 30
0.0
 40
10.0
 50
88.567456
 51
91.432544
  0
ARC
  5
9C
  8
1
  6
CONTINUOUS
 62
     7
 10
2148.0847384763
 20
609.5071931392
 30
0.0
 40
3.0
 50
180.0
 51
270.0
  0
LINE
  5
9D
  8
1
  6
CONTINUOUS
 62
     7
 10
2134.5847384763
 20
850.1071931392
 30
0.0
 11
2134.5847384763
 21
842.1071931392
 31
0.0
  0
ARC
  5
9E
  8
1
  6
CONTINUOUS
 62
     7
 10
2121.5847384763
 20
713.5071931392
 30
0.0
 40
2.0
 50
90.0
 51
180.0
  0
LINE
  5
9F
  8
1
  6
CONTINUOUS
 62
     7
 10
2126.0847384763
 20
850.1071931392
 30
0.0
 11
2143.0847384763
 21
850.1071931392
 31
0.0
  0
LINE
  5
A0
  8
1
  6
CONTINUOUS
 62
     7
 10
2143.5847384763
 20
842.1071931392
 30
0.0
 11
2125.5847384763
 21
842.1071931392
 31
0.0
  0
LINE
  5
A1
  8
1
  6
CONTINUOUS
 62
     7
 10
2143.0847384763
 20
680.9071931392
 30
0.0
 11
2126.0847384763
 21
680.9071931392
 31
0.0
  0
LINE
  5
A2
  8
1
  6
CONTINUOUS
 62
     7
 10
2239.8347384763
 20
860.5071931392
 30
0.0
 11
2249.3347384763
 21
860.5071931392
 31
0.0
  0
LINE
  5
A3
  8
1
  6
CONTINUOUS
 62
     7
 10
2253.0847384763
 20
850.1071931392
 30
0.0
 11
2253.0847384763
 21
842.1071931392
 31
0.0
  0
LINE
  5
A4
  8
1
  6
CONTINUOUS
 62
     7
 10
2253.5847384763
 20
842.1071931392
 30
0.0
 11
2235.5847384763
 21
842.1071931392
 31
0.0
  0
LINE
  5
A5
  8
1
  6
CONTINUOUS
 62
     7
 10
2244.5847384763
 20
850.1071931392
 30
0.0
 11
2244.5847384763
 21
842.1071931392
 31
0.0
  0
LINE
  5
A6
  8
1
  6
CONTINUOUS
 62
     7
 10
2143.0847384763
 20
672.9071931392
 30
0.0
 11
2143.0847384763
 21
688.9071931392
 31
0.0
  0
LINE
  5
A7
  8
1
  6
CONTINUOUS
 62
     7
 10
2236.0847384763
 20
850.1071931392
 30
0.0
 11
2253.0847384763
 21
850.1071931392
 31
0.0
  0
LINE
  5
A8
  8
1
  6
CONTINUOUS
 62
     7
 10
2126.0847384763
 20
688.9071931392
 30
0.0
 11
2126.0847384763
 21
672.9071931392
 31
0.0
  0
CIRCLE
  5
A9
  8
1
  6
CONTINUOUS
 62
     7
 10
2134.5847384763
 20
527.4950137844
 30
0.0
 40
4.75
  0
LINE
  5
AA
  8
1
  6
CONTINUOUS
 62
     7
 10
2239.8347384763
 20
672.9071931392
 30
0.0
 11
2239.8347384763
 21
670.5071931392
 31
0.0
  0
LINE
  5
AB
  8
1
  6
CONTINUOUS
 62
     7
 10
2249.3347384763
 20
670.5071931392
 30
0.0
 11
2249.3347384763
 21
672.9071931392
 31
0.0
  0
LINE
  5
AC
  8
1
  6
CONTINUOUS
 62
     7
 10
2249.3347384763
 20
670.5071931392
 30
0.0
 11
2239.8347384763
 21
670.5071931392
 31
0.0
  0
ARC
  5
AD
  8
1
  6
CONTINUOUS
 62
     7
 10
2189.5847384763
 20
527.4950137844
 30
0.0
 40
38.5
 50
60.947522
 51
119.052478
  0
LINE
  5
AE
  8
1
  6
CONTINUOUS
 62
     7
 10
2253.5847384763
 20
688.9071931392
 30
0.0
 11
2235.5847384763
 21
688.9071931392
 31
0.0
  0
LINE
  5
AF
  8
1
  6
CONTINUOUS
 62
     7
 10
2235.5847384763
 20
690.5071931392
 30
0.0
 11
2235.5847384763
 21
688.9071931392
 31
0.0
  0
LINE
  5
B0
  8
1
  6
CONTINUOUS
 62
     7
 10
2244.5847384763
 20
672.9071931392
 30
0.0
 11
2244.5847384763
 21
688.9071931392
 31
0.0
  0
LINE
  5
B1
  8
1
  6
CONTINUOUS
 62
     7
 10
2236.0847384763
 20
672.9071931392
 30
0.0
 11
2253.0847384763
 21
672.9071931392
 31
0.0
  0
LINE
  5
B2
  8
1
  6
CONTINUOUS
 62
     7
 10
2236.0847384763
 20
688.9071931392
 30
0.0
 11
2236.0847384763
 21
672.9071931392
 31
0.0
  0
LINE
  5
B3
  8
1
  6
CONTINUOUS
 62
     7
 10
2253.0847384763
 20
672.9071931392
 30
0.0
 11
2253.0847384763
 21
688.9071931392
 31
0.0
  0
CIRCLE
  5
B4
  8
1
  6
CONTINUOUS
 62
     7
 10
2244.5847384763
 20
527.4950137844
 30
0.0
 40
4.75
  0
LINE
  5
B5
  8
1
  6
CONTINUOUS
 62
     7
 10
2253.0847384763
 20
680.9071931392
 30
0.0
 11
2236.0847384763
 21
680.9071931392
 31
0.0
  0
LINE
  5
B6
  8
1
  6
CONTINUOUS
 62
     7
 10
2253.5847384763
 20
688.9071931392
 30
0.0
 11
2253.5847384763
 21
690.5071931392
 31
0.0
  0
ARC
  5
B7
  8
1
  6
CONTINUOUS
 62
     7
 10
2189.5847384763
 20
553.4950137844
 30
0.0
 40
10.0
 50
28.567456
 51
31.432544
  0
LINE
  5
B8
  8
1
  6
CONTINUOUS
 62
     7
 10
2189.8347384763
 20
553.0620007844
 30
0.0
 11
2198.1172854763
 21
548.2800697844
 31
0.0
  0
LINE
  5
B9
  8
1
  6
CONTINUOUS
 62
     7
 10
2198.1172854763
 20
558.7099577844
 30
0.0
 11
2189.8347384763
 21
553.9280267844
 31
0.0
  0
ARC
  5
BA
  8
1
  6
CONTINUOUS
 62
     7
 10
2189.5847384763
 20
553.4950137844
 30
0.0
 40
10.0
 50
328.567456
 51
331.432544
  0
ARC
  5
BB
  8
1
  6
CONTINUOUS
 62
     7
 10
2189.5847384763
 20
553.4950137844
 30
0.0
 40
10.0
 50
148.567456
 51
151.432544
  0
LINE
  5
BC
  8
1
  6
CONTINUOUS
 62
     7
 10
2189.3347384763
 20
553.9280267844
 30
0.0
 11
2181.0521914763
 21
558.7099577844
 31
0.0
  0
LINE
  5
BD
  8
1
  6
CONTINUOUS
 62
     7
 10
2129.8347384763
 20
672.9071931392
 30
0.0
 11
2129.8347384763
 21
670.5071931392
 31
0.0
  0
LINE
  5
BE
  8
1
  6
CONTINUOUS
 62
     7
 10
2121.5847384763
 20
715.5071931392
 30
0.0
 11
2175.3079674763
 21
715.5071931392
 31
0.0
  0
LINE
  5
BF
  8
1
  6
CONTINUOUS
 62
     7
 10
2189.8347384763
 20
553.9280267844
 30
0.0
 11
2189.8347384763
 21
563.4918887844
 31
0.0
  0
POINT
  5
C0
  8
1
 62
     7
 10
2196.0847384763
 20
688.7544161392
 30
0.0
  0
LINE
  5
C1
  8
1
  6
CONTINUOUS
 62
     7
 10
2210.1347384763
 20
678.5071931392
 30
0.0
 11
2210.7847384763
 21
678.5071931392
 31
0.0
  0
CIRCLE
  5
C2
  8
1
  6
CONTINUOUS
 62
     7
 10
2163.7753404763
 20
501.6856157843999
 30
0.0
 40
2.0
  0
LINE
  5
C3
  8
1
  6
CONTINUOUS
 62
     7
 10
2189.0847384763
 20
553.4950137844
 30
0.0
 11
2180.8021914763
 21
548.7130827844
 31
0.0
  0
ARC
  5
C4
  8
1
  6
CONTINUOUS
 62
     7
 10
2189.5847384763
 20
527.4950137844
 30
0.0
 40
38.5
 50
150.947522
 51
209.052478
  0
LINE
  5
C5
  8
1
  6
CONTINUOUS
 62
     7
 10
2212.2847384763
 20
677.0071931392
 30
0.0
 11
2212.2847384763
 21
672.0071931392
 31
0.0
  0
ARC
  5
C6
  8
1
  6
CONTINUOUS
 62
     7
 10
2189.5847384763
 20
692.5071931392
 30
0.0
 40
9.0
 50
45.32539000000001
 51
134.67461
  0
LINE
  5
C7
  8
1
  6
CONTINUOUS
 62
     7
 10
2210.7847384763
 20
670.5071931392
 30
0.0
 11
2210.1347384763
 21
670.5071931392
 31
0.0
  0
LINE
  5
C8
  8
1
  6
CONTINUOUS
 62
     7
 10
2210.1347384763
 20
667.0016401392
 30
0.0
 11
2210.1347384763
 21
682.0127471392
 31
0.0
  0
LINE
  5
C9
  8
1
  6
CONTINUOUS
 62
     7
 10
2204.6347384763
 20
678.2599701392
 30
0.0
 11
2210.1347384763
 21
678.2599701392
 31
0.0
  0
CIRCLE
  5
CA
  8
1
  6
CONTINUOUS
 62
     7
 10
2189.5847384763
 20
692.5071931392
 30
0.0
 40
4.0
  0
LINE
  5
CB
  8
1
  6
CONTINUOUS
 62
     7
 10
2210.7847384763
 20
678.5071931392
 30
0.0
 11
2212.2847384763
 21
677.0071931392
 31
0.0
  0
LINE
  5
CC
  8
1
  6
CONTINUOUS
 62
     7
 10
2212.2847384763
 20
672.0071931392
 30
0.0
 11
2210.7847384763
 21
670.5071931392
 31
0.0
  0
LINE
  5
CD
  8
1
  6
CONTINUOUS
 62
     7
 10
2204.6347384763
 20
670.7544161392
 30
0.0
 11
2210.1347384763
 21
670.7544161392
 31
0.0
  0
LINE
  5
CE
  8
1
  6
CONTINUOUS
 62
     7
 10
2171.7847384763
 20
674.5071931392
 30
0.0
 11
2177.2847384763
 21
674.5071931392
 31
0.0
  0
ARC
  5
CF
  8
1
  6
CONTINUOUS
 62
     7
 10
2215.3941364763
 20
553.3044117844
 30
0.0
 40
5.0
 50
170.0
 51
280.0
  0
ARC
  5
D0
  8
1
  6
CONTINUOUS
 62
     7
 10
2214.0847384763
 20
701.9071931392
 30
0.0
 40
3.0
 50
270.0
 51
0.0
  0
LINE
  5
D1
  8
1
  6
CONTINUOUS
 62
     7
 10
2177.8347384763
 20
686.5071931392
 30
0.0
 11
2177.2847384763
 21
686.5071931392
 31
0.0
  0
LINE
  5
D2
  8
1
  6
CONTINUOUS
 62
     7
 10
2231.0847384763
 20
606.5071931392
 30
0.0
 11
2148.0847384763
 21
606.5071931392
 31
0.0
  0
LINE
  5
D3
  8
1
  6
CONTINUOUS
 62
     7
 10
2145.0847384763
 20
646.5071931392
 30
0.0
 11
2234.0847384763
 21
646.5071931392
 31
0.0
  0
LINE
  5
D4
  8
1
  6
CONTINUOUS
 62
     7
 10
2183.5380454763
 20
648.5071931392
 30
0.0
 11
2183.5380454763
 21
648.8071931392
 31
0.0
  0
LINE
  5
D5
  8
1
  6
CONTINUOUS
 62
     7
 10
2178.9021554763
 20
648.5071931392
 30
0.0
 11
2177.2847384763
 21
657.6800198029
 31
0.0
  0
LINE
  5
D6
  8
1
  6
CONTINUOUS
 62
     7
 10
2181.5847384763
 20
655.2071931392
 30
0.0
 11
2181.5847384763
 21
648.8071931392
 31
0.0
  0
LINE
  5
D7
  8
1
  6
CONTINUOUS
 62
     7
 10
2119.5847384763
 20
840.5071931392
 30
0.0
 11
2259.5847384763
 21
840.5071931392
 31
0.0
  0
LINE
  5
D8
  8
1
  6
CONTINUOUS
 62
     7
 10
2165.0847384763
 20
710.0071931392
 30
0.0
 11
2214.0847384763
 21
710.0071931392
 31
0.0
  0
LINE
  5
D9
  8
1
  6
CONTINUOUS
 62
     7
 10
2200.2673214763
 20
648.5071931392
 30
0.0
 11
2201.8847384763
 21
657.6800198029
 31
0.0
  0
LINE
  5
DA
  8
1
  6
CONTINUOUS
 62
     7
 10
2197.5847384763
 20
655.2071931392
 30
0.0
 11
2197.5847384763
 21
648.8071931392
 31
0.0
  0
LINE
  5
DB
  8
1
  6
CONTINUOUS
 62
     7
 10
2204.6347384763
 20
681.2071931392
 30
0.0
 11
2202.1347384763
 21
681.2071931392
 31
0.0
  0
LINE
  5
DC
  8
1
  6
CONTINUOUS
 62
     7
 10
2201.3347384763
 20
686.5071931392
 30
0.0
 11
2201.8847384763
 21
686.5071931392
 31
0.0
  0
LINE
  5
DD
  8
1
  6
CONTINUOUS
 62
     7
 10
2217.0847384763
 20
707.0071931392
 30
0.0
 11
2217.0847384763
 21
701.9071931392
 31
0.0
  0
LINE
  5
DE
  8
1
  6
CONTINUOUS
 62
     7
 10
2196.7347384763
 20
666.1071931392
 30
0.0
 11
2196.7347384763
 21
682.9990051392
 31
0.0
  0
LINE
  5
DF
  8
1
  6
CONTINUOUS
 62
     7
 10
2203.8615094763
 20
815.5071931392
 30
0.0
 11
2257.5847384763
 21
815.5071931392
 31
0.0
  0
ARC
  5
E0
  8
1
  6
CONTINUOUS
 62
     7
 10
2176.8347384763
 20
647.5071931392
 30
0.0
 40
1.0
 50
90.0
 51
180.0
  0
LINE
  5
E1
  8
1
  6
CONTINUOUS
 62
     7
 10
2119.5847384763
 20
690.5071931392
 30
0.0
 11
2167.0847384763
 21
690.5071931392
 31
0.0
  0
LINE
  5
E2
  8
1
  6
CONTINUOUS
 62
     7
 10
2189.5847384763
 20
655.2071931392
 30
0.0
 11
2189.5847384763
 21
648.8071931392
 31
0.0
  0
LINE
  5
E3
  8
1
  6
CONTINUOUS
 62
     7
 10
2201.8847384763
 20
657.6800196381
 30
0.0
 11
2201.8847384763
 21
686.5071931392
 31
0.0
  0
LINE
  5
E4
  8
1
  6
CONTINUOUS
 62
     7
 10
2195.6314314763
 20
648.8071931392
 30
0.0
 11
2195.6314314763
 21
648.5071931392
 31
0.0
  0
LINE
  5
E5
  8
1
  6
CONTINUOUS
 62
     7
 10
2199.5847384763
 20
684.7009461392
 30
0.0
 11
2199.5847384763
 21
657.8812438058
 31
0.0
  0
ARC
  5
E6
  8
1
  6
CONTINUOUS
 62
     7
 10
2214.0847384763
 20
707.0071931392
 30
0.0
 40
3.0
 50
0.0
 51
90.0
  0
LINE
  5
E7
  8
1
  6
CONTINUOUS
 62
     7
 10
2179.5847384763
 20
684.7009461392
 30
0.0
 11
2179.5847384763
 21
657.8812438058
 31
0.0
  0
LINE
  5
E8
  8
1
  6
CONTINUOUS
 62
     7
 10
2177.2847384763
 20
657.6800196381
 30
0.0
 11
2177.2847384763
 21
686.5071931392
 31
0.0
  0
LINE
  5
E9
  8
1
  6
CONTINUOUS
 62
     7
 10
2176.8347384763
 20
648.5071931392
 30
0.0
 11
2202.3347384763
 21
648.5071931392
 31
0.0
  0
ARC
  5
EA
  8
1
  6
CONTINUOUS
 62
     7
 10
2202.3347384763
 20
647.5071931392
 30
0.0
 40
1.0
 50
0.0
 51
90.0
  0
LINE
  5
EB
  8
1
  6
CONTINUOUS
 62
     7
 10
2196.7347384763
 20
678.5071931392
 30
0.0
 11
2182.4347384763
 21
678.5071931392
 31
0.0
  0
LINE
  5
EC
  8
1
  6
CONTINUOUS
 62
     7
 10
2182.4347384763
 20
670.5071931392
 30
0.0
 11
2196.7347384763
 21
670.5071931392
 31
0.0
  0
LINE
  5
ED
  8
1
  6
CONTINUOUS
 62
     7
 10
2179.5847384763
 20
657.8812438058
 30
0.0
 11
2181.1847384763
 21
648.8071931392
 31
0.0
  0
LINE
  5
EE
  8
1
  6
CONTINUOUS
 62
     7
 10
2199.3347384763
 20
682.9990051392
 30
0.0
 11
2199.3347384763
 21
665.8071931392
 31
0.0
  0
LINE
  5
EF
  8
1
  6
CONTINUOUS
 62
     7
 10
2181.5847384763
 20
522.8762117844
 30
0.0
 11
2189.5847384763
 21
518.2574097844
 31
0.0
  0
LINE
  5
F0
  8
1
  6
CONTINUOUS
 62
     7
 10
2199.5847384763
 20
657.8812438058
 30
0.0
 11
2197.9847384763
 21
648.8071931392
 31
0.0
  0
LINE
  5
F1
  8
1
  6
CONTINUOUS
 62
     7
 10
2197.9847384763
 20
648.8071931392
 30
0.0
 11
2181.1847384763
 21
648.8071931392
 31
0.0
  0
LINE
  5
F2
  8
1
  6
CONTINUOUS
 62
     7
 10
2121.5847384763
 20
815.5071931392
 30
0.0
 11
2175.3079674763
 21
815.5071931392
 31
0.0
  0
LINE
  5
F3
  8
1
  6
CONTINUOUS
 62
     7
 10
2202.1347384763
 20
667.8071931392
 30
0.0
 11
2204.6347384763
 21
667.8071931392
 31
0.0
  0
CIRCLE
  5
F4
  8
1
  6
CONTINUOUS
 62
     7
 10
2189.5847384763
 20
527.4950137844
 30
0.0
 40
5.0
  0
LINE
  5
F5
  8
1
  6
CONTINUOUS
 62
     7
 10
2189.8347384763
 20
663.5071931392
 30
0.0
 11
2189.8347384763
 21
666.1071931392
 31
0.0
  0
LINE
  5
F6
  8
1
  6
CONTINUOUS
 62
     7
 10
2236.5847384763
 20
522.8762117844
 30
0.0
 11
2236.5847384763
 21
532.1138157844
 31
0.0
  0
LINE
  5
F7
  8
1
  6
CONTINUOUS
 62
     7
 10
2234.0847384763
 20
609.5071931392
 30
0.0
 11
2234.0847384763
 21
646.5071931392
 31
0.0
  0
LINE
  5
F8
  8
1
  6
CONTINUOUS
 62
     7
 10
2142.5847384763
 20
522.8762117844
 30
0.0
 11
2134.5847384763
 21
518.2574097844
 31
0.0
  0
ARC
  5
F9
  8
1
  6
CONTINUOUS
 62
     7
 10
2182.1347384763
 20
665.8071931392
 30
0.0
 40
2.3
 50
180.0
 51
270.0
  0
ARC
  5
FA
  8
1
  6
CONTINUOUS
 62
     7
 10
2257.5847384763
 20
817.5071931392
 30
0.0
 40
2.0
 50
270.0
 51
0.0
  0
LINE
  5
FB
  8
1
  6
CONTINUOUS
 62
     7
 10
2259.5847384763
 20
817.5071931392
 30
0.0
 11
2259.5847384763
 21
840.5071931392
 31
0.0
  0
LINE
  5
FC
  8
1
  6
CONTINUOUS
 62
     7
 10
2126.5847384763
 20
522.8762117844
 30
0.0
 11
2126.5847384763
 21
532.1138157844
 31
0.0
  0
LINE
  5
FD
  8
1
  6
CONTINUOUS
 62
     7
 10
2134.5847384763
 20
518.2574097844
 30
0.0
 11
2126.5847384763
 21
522.8762117844
 31
0.0
  0
LINE
  5
FE
  8
1
  6
CONTINUOUS
 62
     7
 10
2142.5847384763
 20
532.1138157844
 30
0.0
 11
2142.5847384763
 21
522.8762117844
 31
0.0
  0
LINE
  5
FF
  8
1
  6
CONTINUOUS
 62
     7
 10
2211.5847384763
 20
694.0071931392
 30
0.0
 11
2206.2479104763
 21
694.0071931392
 31
0.0
  0
LINE
  5
100
  8
1
  6
CONTINUOUS
 62
     7
 10
2189.8347384763
 20
543.4981387844
 30
0.0
 11
2189.8347384763
 21
553.0620007844
 31
0.0
  0
LINE
  5
101
  8
1
  6
CONTINUOUS
 62
     7
 10
2145.0847384763
 20
646.5071931392
 30
0.0
 11
2145.0847384763
 21
609.5071931392
 31
0.0
  0
LINE
  5
102
  8
1
  6
CENTER
 62
     5
 10
2142.5847384763
 20
527.4950137844
 30
0.0
 11
2236.5847384763
 21
527.4950137844
 31
0.0
  0
LINE
  5
104
  8
1
  6
CONTINUOUS
 62
     7
 10
2182.1347384763
 20
663.5071931392
 30
0.0
 11
2189.3347384763
 21
663.5071931392
 31
0.0
  0
LINE
  5
105
  8
1
  6
CONTINUOUS
 62
     7
 10
2189.3347384763
 20
663.5071931392
 30
0.0
 11
2189.3347384763
 21
666.1071931392
 31
0.0
  0
LINE
  5
106
  8
1
  6
CONTINUOUS
 62
     7
 10
2171.7847384763
 20
668.0071931392
 30
0.0
 11
2177.2847384763
 21
668.0071931392
 31
0.0
  0
LINE
  5
107
  8
1
  6
CONTINUOUS
 62
     7
 10
2192.5847384763
 20
818.0071931392
 30
0.0
 11
2186.5847384763
 21
818.0071931392
 31
0.0
  0
LINE
  5
108
  8
1
  6
CONTINUOUS
 62
     7
 10
2203.3347384763
 20
646.5071931392
 30
0.0
 11
2203.3347384763
 21
647.5071931392
 31
0.0
  0
ARC
  5
109
  8
1
  6
CONTINUOUS
 62
     7
 10
2189.5847384763
 20
553.4950137844
 30
0.0
 40
10.0
 50
208.567456
 51
211.432544
  0
LINE
  5
10A
  8
1
  6
CONTINUOUS
 62
     7
 10
2119.5847384763
 20
817.5071931392
 30
0.0
 11
2119.5847384763
 21
840.5071931392
 31
0.0
  0
ARC
  5
10B
  8
1
  6
CONTINUOUS
 62
     7
 10
2160.2998664763
 20
543.7629647844
 30
0.0
 40
5.0
 50
80.0
 51
150.947522
  0
LINE
  5
10C
  8
1
  6
CONTINUOUS
 62
     7
 10
2204.6347384763
 20
682.0127471392
 30
0.0
 11
2210.1347384763
 21
682.0127471392
 31
0.0
  0
CIRCLE
  5
10D
  8
1
  6
CONTINUOUS
 62
     7
 10
2215.3941364763
 20
501.6856157843999
 30
0.0
 40
2.0
  0
LINE
  5
10E
  8
1
  6
CONTINUOUS
 62
     7
 10
2197.0347384763
 20
663.5071931392
 30
0.0
 11
2189.8347384763
 21
663.5071931392
 31
0.0
  0
ARC
  5
10F
  8
1
  6
CONTINUOUS
 62
     7
 10
2197.0347384763
 20
665.8071931392
 30
0.0
 40
2.3
 50
270.0
 51
0.0
  0
LINE
  5
110
  8
1
  6
CONTINUOUS
 62
     7
 10
2126.5847384763
 20
532.1138157844
 30
0.0
 11
2134.5847384763
 21
536.7326177844
 31
0.0
  0
ARC
  5
111
  8
1
  6
CONTINUOUS
 62
     7
 10
2218.8696104763
 20
511.2270627844
 30
0.0
 40
5.0
 50
260.0
 51
330.947522
  0
LINE
  5
112
  8
1
  6
CONTINUOUS
 62
     7
 10
2198.3672854763
 20
548.7130827844
 30
0.0
 11
2190.0847384763
 21
553.4950137844
 31
0.0
  0
LINE
  5
113
  8
1
  6
CONTINUOUS
 62
     7
 10
2197.5847384763
 20
532.1138157844
 30
0.0
 11
2189.5847384763
 21
536.7326177844
 31
0.0
  0
LINE
  5
114
  8
1
  6
CONTINUOUS
 62
     7
 10
2189.5847384763
 20
685.0016401392
 30
0.0
 11
2196.0847384763
 21
688.7544161392
 31
0.0
  0
LINE
  5
115
  8
1
  6
CONTINUOUS
 62
     7
 10
2183.2570214763
 20
698.9071931392
 30
0.0
 11
2165.0847384763
 21
698.9071931392
 31
0.0
  0
LINE
  5
116
  8
1
  6
CONTINUOUS
 62
     7
 10
2161.1681064763
 20
548.6870037844
 30
0.0
 11
2162.9071004763
 21
548.3803727844
 31
0.0
  0
LINE
  5
117
  8
1
  6
CONTINUOUS
 62
     7
 10
2181.0521914763
 20
548.2800697844
 30
0.0
 11
2189.3347384763
 21
553.0620007844
 31
0.0
  0
LINE
  5
118
  8
1
  6
CONTINUOUS
 62
     7
 10
2167.0847384763
 20
693.5071931392
 30
0.0
 11
2167.0847384763
 21
690.5071931392
 31
0.0
  0
LINE
  5
119
  8
1
  6
CONTINUOUS
 62
     7
 10
2259.5847384763
 20
690.5071931392
 30
0.0
 11
2259.5847384763
 21
713.5071931392
 31
0.0
  0
LINE
  5
11A
  8
1
  6
CENTER
 62
     5
 10
2189.5847384763
 20
472.4950137844
 30
0.0
 11
2189.5847384763
 21
582.4950137844
 31
0.0
  0
LINE
  5
11B
  8
1
  6
CONTINUOUS
 62
     7
 10
2162.0847384763
 20
701.9071931392
 30
0.0
 11
2162.0847384763
 21
707.0071931392
 31
0.0
  0
LINE
  5
11C
  8
1
  6
CONTINUOUS
 62
     7
 10
2196.0847384763
 20
688.7544161392
 30
0.0
 11
2196.0847384763
 21
696.2599701392
 31
0.0
  0
ARC
  5
11D
  8
1
  6
CONTINUOUS
 62
     7
 10
2173.3167874763
 20
498.2101417844
 30
0.0
 40
5.0
 50
170.0
 51
240.947522
  0
CIRCLE
  5
11E
  8
1
  6
CONTINUOUS
 62
     7
 10
2189.5847384763
 20
553.4950137844
 30
0.0
 40
10.75
  0
ARC
  5
11F
  8
1
  6
CONTINUOUS
 62
     7
 10
2163.7753404763
 20
501.6856157843999
 30
0.0
 40
5.0
 50
349.9999999999999
 51
100.0
  0
LINE
  5
120
  8
1
  6
CONTINUOUS
 62
     7
 10
2214.0847384763
 20
698.9071931392
 30
0.0
 11
2195.9124554763
 21
698.9071931392
 31
0.0
  0
LINE
  5
121
  8
1
  6
CONTINUOUS
 62
     7
 10
2189.3347384763
 20
563.4918887844
 30
0.0
 11
2189.3347384763
 21
553.9280267844
 31
0.0
  0
LINE
  5
122
  8
1
  6
CONTINUOUS
 62
     7
 10
2203.8615094763
 20
715.5071931392
 30
0.0
 11
2257.5847384763
 21
715.5071931392
 31
0.0
  0
ARC
  5
123
  8
1
  6
CONTINUOUS
 62
     7
 10
2163.7753404763
 20
553.3044117844
 30
0.0
 40
5.0
 50
260.0
 51
10.0
  0
ARC
  5
124
  8
1
  6
CONTINUOUS
 62
     7
 10
2211.5847384763
 20
693.5071931392
 30
0.0
 40
0.5
 50
11.536959
 51
90.0
  0
LINE
  5
125
  8
1
  6
CONTINUOUS
 62
     7
 10
2192.5847384763
 20
713.0071931392
 30
0.0
 11
2203.8615094763
 21
715.5071931392
 31
0.0
  0
LINE
  5
126
  8
1
  6
CONTINUOUS
 62
     7
 10
2183.0847384763
 20
696.2599701392
 30
0.0
 11
2183.0847384763
 21
688.7544161392
 31
0.0
  0
LINE
  5
127
  8
1
  6
CONTINUOUS
 62
     7
 10
2181.5847384763
 20
655.2071931392
 30
0.0
 11
2197.5847384763
 21
655.2071931392
 31
0.0
  0
LINE
  5
128
  8
1
  6
CONTINUOUS
 62
     7
 10
2203.8615094763
 20
815.5071931392
 30
0.0
 11
2192.5847384763
 21
818.0071931392
 31
0.0
  0
LINE
  5
129
  8
1
  6
CONTINUOUS
 62
     7
 10
2180.8021914763
 20
558.2769447844
 30
0.0
 11
2189.0847384763
 21
553.4950137844
 31
0.0
  0
LINE
  5
12A
  8
1
  6
CONTINUOUS
 62
     7
 10
2186.5847384763
 20
713.0071931392
 30
0.0
 11
2192.5847384763
 21
713.0071931392
 31
0.0
  0
LINE
  5
12B
  8
1
  6
CONTINUOUS
 62
     7
 10
2172.9215664763
 20
694.0071931392
 30
0.0
 11
2167.5847384763
 21
694.0071931392
 31
0.0
  0
LINE
  5
12C
  8
1
  6
CONTINUOUS
 62
     7
 10
2190.0847384763
 20
553.4950137844
 30
0.0
 11
2198.3672854763
 21
558.2769447844
 31
0.0
  0
LINE
  5
12D
  8
1
  6
CONTINUOUS
 62
     7
 10
2202.1347384763
 20
681.2071931392
 30
0.0
 11
2202.1347384763
 21
667.8071931392
 31
0.0
  0
ARC
  5
12E
  8
1
  6
CONTINUOUS
 62
     7
 10
2173.3167874763
 20
556.7798857844
 30
0.0
 40
5.0
 50
119.052478
 51
190.0
  0
LINE
  5
12F
  8
1
  6
CONTINUOUS
 62
     7
 10
2167.0847384763
 20
693.5071931392
 30
0.0
 11
2167.0948404763
 21
693.6071931392
 31
0.0
  0
ARC
  5
130
  8
1
  6
CONTINUOUS
 62
     7
 10
2160.2998664763
 20
511.2270627844
 30
0.0
 40
5.0
 50
209.052478
 51
280.0
  0
LINE
  5
131
  8
1
  6
CONTINUOUS
 62
     7
 10
2196.0847384763
 20
696.2599701392
 30
0.0
 11
2189.5847380433
 21
700.0127463892
 31
0.0
  0
LINE
  5
132
  8
1
  6
CONTINUOUS
 62
     7
 10
2189.5847384763
 20
700.0127471392
 30
0.0
 11
2183.0847389093
 21
696.2599693892
 31
0.0
  0
LINE
  5
133
  8
1
  6
CONTINUOUS
 62
     7
 10
2119.5847384763
 20
690.5071931392
 30
0.0
 11
2119.5847384763
 21
713.5071931392
 31
0.0
  0
LINE
  5
134
  8
1
  6
CONTINUOUS
 62
     7
 10
2171.7847384763
 20
681.0071931392
 30
0.0
 11
2177.2847384763
 21
681.0071931392
 31
0.0
  0
ARC
  5
135
  8
1
  6
CONTINUOUS
 62
     7
 10
2231.0847384763
 20
609.5071931392
 30
0.0
 40
3.0
 50
270.0
 51
0.0
  0
ARC
  5
136
  8
1
  6
CONTINUOUS
 62
     7
 10
2189.5847384763
 20
553.4950137844
 30
0.0
 40
10.0
 50
268.567456
 51
271.432544
  0
ARC
  5
137
  8
1
  6
CONTINUOUS
 62
     7
 10
2189.5847384763
 20
527.4950137844
 30
0.0
 40
38.5
 50
330.947522
 51
29.05247800000001
  0
ARC
  5
138
  8
1
  6
CONTINUOUS
 62
     7
 10
2165.0847384763
 20
707.0071931392
 30
0.0
 40
3.0
 50
90.0
 51
180.0
  0
CIRCLE
  5
139
  8
1
  6
CONTINUOUS
 62
     7
 10
2189.5847384763
 20
692.5071931392
 30
0.0
 40
7.5055536246
  0
LINE
  5
13A
  8
1
  6
CONTINUOUS
 62
     7
 10
2134.5847384763
 20
536.7326177844
 30
0.0
 11
2142.5847384763
 21
532.1138157844
 31
0.0
  0
ARC
  5
13B
  8
1
  6
CONTINUOUS
 62
     7
 10
2215.3941364763
 20
501.6856157843999
 30
0.0
 40
5.0
 50
80.0
 51
190.0
  0
LINE
  5
13C
  8
1
  6
CONTINUOUS
 62
     7
 10
2183.0847384763
 20
688.7544161392
 30
0.0
 11
2189.5847384763
 21
685.0016401392
 31
0.0
  0
LINE
  5
13D
  8
1
  6
CONTINUOUS
 62
     7
 10
2212.0746364763
 20
693.6071931392
 30
0.0
 11
2212.0847384763
 21
693.5071931392
 31
0.0
  0
LINE
  5
13E
  8
1
  6
CONTINUOUS
 62
     7
 10
2204.6347384763
 20
667.0016401392
 30
0.0
 11
2210.1347384763
 21
667.0016401392
 31
0.0
  0
LINE
  5
13F
  8
1
  6
CONTINUOUS
 62
     7
 10
2210.4700974763
 20
500.8173757844
 30
0.0
 11
2210.7767284763
 21
499.0783817844
 31
0.0
  0
LINE
  5
140
  8
1
  6
CONTINUOUS
 62
     7
 10
2204.6347384763
 20
682.0127471392
 30
0.0
 11
2204.6347384763
 21
667.0016401392
 31
0.0
  0
ARC
  5
141
  8
1
  6
CONTINUOUS
 62
     7
 10
2189.5847384763
 20
527.4950137844
 30
0.0
 40
38.5
 50
240.947522
 51
299.052478
  0
LINE
  5
142
  8
1
  6
CONTINUOUS
 62
     7
 10
2168.6993794763
 20
554.1726517844
 30
0.0
 11
2168.3927484763
 21
555.9116457844
 31
0.0
  0
LINE
  5
143
  8
1
  6
CONTINUOUS
 62
     7
 10
2171.7847384763
 20
681.0071931392
 30
0.0
 11
2171.7847384763
 21
668.0071931392
 31
0.0
  0
LINE
  5
144
  8
1
  6
CONTINUOUS
 62
     7
 10
2162.9071004763
 20
506.6096547844
 30
0.0
 11
2161.1681064763
 21
506.3030237844001
 31
0.0
  0
ARC
  5
145
  8
1
  6
CONTINUOUS
 62
     7
 10
2185.8347384763
 20
692.5071931392
 30
0.0
 40
10.0
 50
186.62581
 51
270.0
  0
ARC
  5
146
  8
1
  6
CONTINUOUS
 62
     7
 10
2121.5847384763
 20
817.5071931392
 30
0.0
 40
2.0
 50
180.0
 51
270.0
  0
LINE
  5
147
  8
1
  6
CONTINUOUS
 62
     7
 10
2189.5847384763
 20
536.7326177844
 30
0.0
 11
2181.5847384763
 21
532.1138157844
 31
0.0
  0
LINE
  5
148
  8
1
  6
CONTINUOUS
 62
     7
 10
2175.8347384763
 20
647.5071931392
 30
0.0
 11
2175.8347384763
 21
646.5071931392
 31
0.0
  0
LINE
  5
149
  8
1
  6
CONTINUOUS
 62
     7
 10
2252.5847384763
 20
522.8762117844
 30
0.0
 11
2244.5847384763
 21
518.2574097844
 31
0.0
  0
LINE
  5
14A
  8
1
  6
CONTINUOUS
 62
     7
 10
2119.5847384763
 20
541.7450137844
 30
0.0
 11
2147.4280364763
 21
541.7450137844
 31
0.0
  0
LINE
  5
14B
  8
1
  6
CONTINUOUS
 62
     7
 10
2231.7414404763
 20
513.2450137844
 30
0.0
 11
2259.5847384763
 21
513.2450137844
 31
0.0
  0
LINE
  5
14C
  8
1
  6
CONTINUOUS
 62
     7
 10
2252.5847384763
 20
532.1138157844
 30
0.0
 11
2252.5847384763
 21
522.8762117844
 31
0.0
  0
LINE
  5
14D
  8
1
  6
CONTINUOUS
 62
     7
 10
2189.3347384763
 20
666.1071931392
 30
0.0
 11
2179.8347384763
 21
666.1071931392
 31
0.0
  0
LINE
  5
14E
  8
1
  6
CONTINUOUS
 62
     7
 10
2236.5847384763
 20
532.1138157844
 30
0.0
 11
2244.5847384763
 21
536.7326177844
 31
0.0
  0
ARC
  5
14F
  8
1
  6
CONTINUOUS
 62
     7
 10
2205.8526894763
 20
498.2101417844
 30
0.0
 40
5.0
 50
299.052478
 51
10.0
  0
LINE
  5
150
  8
1
  6
CONTINUOUS
 62
     7
 10
2244.5847384763
 20
536.7326177844
 30
0.0
 11
2252.5847384763
 21
532.1138157844
 31
0.0
  0
LINE
  5
151
  8
1
  6
CONTINUOUS
 62
     7
 10
2189.3347384763
 20
553.0620007844
 30
0.0
 11
2189.3347384763
 21
543.4981387844
 31
0.0
  0
ARC
  5
152
  8
1
  6
CONTINUOUS
 62
     7
 10
2189.3347384763
 20
682.9990051392
 30
0.0
 40
7.4
 50
0.0
 51
0.8027229999999997
  0
LINE
  5
153
  8
1
  6
CONTINUOUS
 62
     7
 10
2189.8347384763
 20
666.1071931392
 30
0.0
 11
2199.3347384763
 21
666.1071931392
 31
0.0
  0
LINE
  5
154
  8
1
  6
CONTINUOUS
 62
     7
 10
2197.5847384763
 20
522.8762117844
 30
0.0
 11
2197.5847384763
 21
532.1138157844
 31
0.0
  0
LINE
  5
155
  8
1
  6
CONTINUOUS
 62
     7
 10
2189.5847384763
 20
518.2574097844
 30
0.0
 11
2197.5847384763
 21
522.8762117844
 31
0.0
  0
LINE
  5
156
  8
1
  6
CONTINUOUS
 62
     7
 10
2186.5847384763
 20
818.0071931392
 30
0.0
 11
2175.3079674763
 21
815.5071931392
 31
0.0
  0
ARC
  5
157
  8
1
  6
CONTINUOUS
 62
     7
 10
2206.2479104763
 20
691.0071931392
 30
0.0
 40
3.0
 50
90.0
 51
173.37419
  0
LINE
  5
158
  8
1
  6
CONTINUOUS
 62
     7
 10
2244.5847384763
 20
518.2574097844
 30
0.0
 11
2236.5847384763
 21
522.8762117844
 31
0.0
  0
LINE
  5
159
  8
1
  6
CONTINUOUS
 62
     7
 10
2181.5847384763
 20
532.1138157844
 30
0.0
 11
2181.5847384763
 21
522.8762117844
 31
0.0
  0
ARC
  5
15A
  8
1
  6
CONTINUOUS
 62
     7
 10
2257.5847384763
 20
713.5071931392
 30
0.0
 40
2.0
 50
0.0
 51
90.0
  0
LINE
  5
15B
  8
1
  6
CONTINUOUS
 62
     7
 10
2119.5847384763
 20
513.2450137844
 30
0.0
 11
2147.4280364763
 21
513.2450137844
 31
0.0
  0
LINE
  5
15C
  8
1
  6
CONTINUOUS
 62
     7
 10
2216.2623764763
 20
548.3803727844
 30
0.0
 11
2218.0013704763
 21
548.6870037844
 31
0.0
  0
LINE
  5
15D
  8
1
  6
CONTINUOUS
 62
     7
 10
2239.8347384763
 20
860.5071931392
 30
0.0
 11
2239.8347384763
 21
858.1071931392
 31
0.0
  0
LINE
  5
15E
  8
1
  6
CONTINUOUS
 62
     7
 10
2249.3347384763
 20
858.1071931392
 30
0.0
 11
2249.3347384763
 21
860.5071931392
 31
0.0
  0
LINE
  5
15F
  8
1
  6
CONTINUOUS
 62
     7
 10
2129.8347384763
 20
860.5071931392
 30
0.0
 11
2129.8347384763
 21
858.1071931392
 31
0.0
  0
LINE
  5
160
  8
1
  6
CONTINUOUS
 62
     7
 10
2139.3347384763
 20
858.1071931392
 30
0.0
 11
2139.3347384763
 21
860.5071931392
 31
0.0
  0
LINE
  5
161
  8
1
  6
CONTINUOUS
 62
     7
 10
2134.5847384763
 20
858.1071931392
 30
0.0
 11
2134.5847384763
 21
850.1071931392
 31
0.0
  0
LINE
  5
162
  8
1
  6
CONTINUOUS
 62
     7
 10
2236.0847384763
 20
850.1071931392
 30
0.0
 11
2236.0847384763
 21
858.1071931392
 31
0.0
  0
LINE
  5
163
  8
1
  6
CONTINUOUS
 62
     7
 10
2143.0847384763
 20
858.1071931392
 30
0.0
 11
2143.0847384763
 21
850.1071931392
 31
0.0
  0
LINE
  5
164
  8
1
  6
CONTINUOUS
 62
     7
 10
2253.0847384763
 20
858.1071931392
 30
0.0
 11
2253.0847384763
 21
850.1071931392
 31
0.0
  0
LINE
  5
165
  8
1
  6
CONTINUOUS
 62
     7
 10
2126.0847384763
 20
858.1071931392
 30
0.0
 11
2126.0847384763
 21
850.1071931392
 31
0.0
  0
LINE
  5
166
  8
1
  6
CONTINUOUS
 62
     7
 10
2126.0847384763
 20
858.1071931392
 30
0.0
 11
2143.0847384763
 21
858.1071931392
 31
0.0
  0
LINE
  5
167
  8
1
  6
CONTINUOUS
 62
     7
 10
2244.5847384763
 20
858.1071931392
 30
0.0
 11
2244.5847384763
 21
850.1071931392
 31
0.0
  0
LINE
  5
168
  8
1
  6
CONTINUOUS
 62
     7
 10
2236.0847384763
 20
858.1071931392
 30
0.0
 11
2253.0847384763
 21
858.1071931392
 31
0.0
  0
TEXT
  5
169
  8
1
  6
CONTINUOUS
 62
     7
 10
2171.930655802863
 20
442.9204672727272
 30
0.0
 40
6.0
  1
ＳＧＰＪ－１０
 41
0.810811
  0
INSERT
  5
16B
  8
0
 62
     7
  2
D_FRAME_DRAWING_21
 10
0.0
 20
0.0
 30
0.0
  0
ENDSEC
  0
EOF
