  0
SECTION
  2
HEADER
  9
$ACADVER
  1
AC1006
  9
$DWGCODEPAGE
  3
ansi_932
  9
$INSBASE
 10
0.0
 20
0.0
 30
0.0
  9
$EXTMIN
 10
0.0
 20
-180.2578627272728
  9
$EXTMAX
 10
2346.2775814441
 20
286.7288626864
  9
$LIMMIN
 10
0.0
 20
0.0
  9
$LIMMAX
 10
12.0
 20
9.0
  9
$ORTHOMODE
 70
     0
  9
$REGENMODE
 70
     1
  9
$FILLMODE
 70
     1
  9
$QTEXTMODE
 70
     0
  9
$MIRRTEXT
 70
     1
  9
$DRAGMODE
 70
     2
  9
$LTSCALE
 40
1.0
  9
$OSMODE
 70
    37
  9
$ATTMODE
 70
     1
  9
$TEXTSIZE
 40
0.2
  9
$TRACEWID
 40
0.05
  9
$TEXTSTYLE
  7
STANDARD
  9
$CLAYER
  8
0
  9
$CELTYPE
  6
BYLAYER
  9
$CECOLOR
 62
   256
  9
$DIMSCALE
 40
1.0
  9
$DIMASZ
 40
2.4
  9
$DIMEXO
 40
0.0625
  9
$DIMDLI
 40
0.38
  9
$DIMRND
 40
0.0
  9
$DIMDLE
 40
0.0
  9
$DIMEXE
 40
1.2
  9
$DIMTP
 40
0.0
  9
$DIMTM
 40
0.0
  9
$DIMTXT
 40
8.0
  9
$DIMCEN
 40
0.09
  9
$DIMTSZ
 40
0.0
  9
$DIMTOL
 70
     0
  9
$DIMLIM
 70
     0
  9
$DIMTIH
 70
     1
  9
$DIMTOH
 70
     1
  9
$DIMSE1
 70
     0
  9
$DIMSE2
 70
     0
  9
$DIMTAD
 70
     1
  9
$DIMZIN
 70
     0
  9
$DIMBLK
  1

  9
$DIMASO
 70
     1
  9
$DIMSHO
 70
     1
  9
$DIMPOST
  1

  9
$DIMAPOST
  1

  9
$DIMALT
 70
     0
  9
$DIMALTD
 70
     2
  9
$DIMALTF
 40
25.4
  9
$DIMLFAC
 40
1.0
  9
$DIMTOFL
 70
     0
  9
$DIMTVP
 40
0.0
  9
$DIMTIX
 70
     0
  9
$DIMSOXD
 70
     0
  9
$DIMSAH
 70
     0
  9
$DIMBLK1
  1

  9
$DIMBLK2
  1

  9
$LUNITS
 70
     2
  9
$LUPREC
 70
     4
  9
$SKETCHINC
 40
0.1
  9
$FILLETRAD
 40
0.5
  9
$AUNITS
 70
     0
  9
$AUPREC
 70
     0
  9
$MENU
  1
.
  9
$ELEVATION
 40
0.0
  9
$THICKNESS
 40
0.0
  9
$LIMCHECK
 70
     0
  9
$CHAMFERA
 40
0.0
  9
$CHAMFERB
 40
0.0
  9
$SKPOLY
 70
     0
  9
$TDCREATE
 40
2460587.382470405
  9
$TDUPDATE
 40
2460587.382470764
  9
$TDINDWG
 40
0.0000000116
  9
$TDUSRTIMER
 40
0.0000000116
  9
$USRTIMER
 70
     1
  9
$ANGBASE
 50
0.0
  9
$ANGDIR
 70
     0
  9
$PDMODE
 70
     0
  9
$PDSIZE
 40
0.0
  9
$PLINEWID
 40
0.0
  9
$COORDS
 70
     1
  9
$SPLFRAME
 70
     0
  9
$SPLINETYPE
 70
     6
  9
$SPLINESEGS
 70
     8
  9
$ATTDIA
 70
     0
  9
$ATTREQ
 70
     1
  9
$HANDLING
 70
     1
  9
$HANDSEED
  5
1F4
  9
$SURFTAB1
 70
     6
  9
$SURFTAB2
 70
     6
  9
$SURFTYPE
 70
     6
  9
$SURFU
 70
     6
  9
$SURFV
 70
     6
  9
$UCSNAME
  2

  9
$UCSORG
 10
0.0
 20
0.0
 30
0.0
  9
$UCSXDIR
 10
1.0
 20
0.0
 30
0.0
  9
$UCSYDIR
 10
0.0
 20
1.0
 30
0.0
  9
$USERI1
 70
     0
  9
$USERI2
 70
     0
  9
$USERI3
 70
     0
  9
$USERI4
 70
     0
  9
$USERI5
 70
     0
  9
$USERR1
 40
0.0
  9
$USERR2
 40
0.0
  9
$USERR3
 40
0.0
  9
$USERR4
 40
0.0
  9
$USERR5
 40
0.0
  9
$WORLDVIEW
 70
     1
  0
ENDSEC
  0
SECTION
  2
TABLES
  0
TABLE
  2
VPORT
 70
     1
  0
VPORT
  2
*ACTIVE
 70
     0
 10
0.0
 20
0.0
 11
1.0
 21
1.0
 12
1173.13879072205
 22
53.23549997956363
 13
0.0
 23
0.0
 14
0.5
 24
0.5
 15
0.5
 25
0.5
 16
0.0
 26
0.0
 36
1.0
 17
0.0
 27
0.0
 37
0.0
 40
466.9867254136728
 41
1.6
 42
50.0
 43
0.0
 44
0.0
 50
0.0
 51
0.0
 71
     0
 72
   100
 73
     1
 74
     3
 75
     0
 76
     0
 77
     0
 78
     0
  0
ENDTAB
  0
TABLE
  2
LTYPE
 70
     2
  0
LTYPE
  2
CONTINUOUS
 70
     0
  3
Solid line
 72
    65
 73
     0
 40
0.0
  0
LTYPE
  2
CENTER
 70
     0
  3

 72
    65
 73
     0
 40
0.0
  0
ENDTAB
  0
TABLE
  2
LAYER
 70
     2
  0
LAYER
  2
0
 70
     0
 62
     7
  6
CONTINUOUS
  0
LAYER
  2
1
 70
     0
 62
     7
  6
CONTINUOUS
  0
ENDTAB
  0
TABLE
  2
STYLE
 70
     2
  0
STYLE
  2
STANDARD
 70
     0
 40
0.0
 41
1.0
 50
0.0
 71
     0
 42
0.2
  3
txt
  4

  0
STYLE
  2
ＭＳ_ゴシック
 70
     0
 40
0.0
 41
1.0
 50
0.0
 71
     0
 42
0.2
  3
ＭＳ ゴシック.shx
  4

  0
ENDTAB
  0
TABLE
  2
VIEW
 70
     0
  0
ENDTAB
  0
TABLE
  2
UCS
 70
     0
  0
ENDTAB
  0
ENDSEC
  0
SECTION
  2
BLOCKS
  0
BLOCK
  8
0
  2
D_FRAME_DRAWING_21
 70
     0
 10
0.0
 20
0.0
 30
0.0
  0
LINE
  5
173
  8
0
  6
CONTINUOUS
 62
     7
 10
0.0
 20
0.0
 30
0.0
 11
420.0
 21
0.0
 31
0.0
  0
LINE
  5
174
  8
0
  6
CONTINUOUS
 62
     7
 10
420.0
 20
0.0
 30
0.0
 11
420.0
 21
297.0
 31
0.0
  0
LINE
  5
175
  8
0
  6
CONTINUOUS
 62
     7
 10
420.0
 20
297.0
 30
0.0
 11
0.0
 21
297.0
 31
0.0
  0
LINE
  5
176
  8
0
  6
CONTINUOUS
 62
     7
 10
0.0
 20
297.0
 30
0.0
 11
0.0
 21
0.0
 31
0.0
  0
LINE
  5
177
  8
0
  6
CONTINUOUS
 62
     7
 10
10.0
 20
10.0
 30
0.0
 11
409.9999999999999
 21
10.0
 31
0.0
  0
LINE
  5
178
  8
0
  6
CONTINUOUS
 62
     7
 10
409.9999999999999
 20
10.0
 30
0.0
 11
409.9999999999999
 21
286.9999999999999
 31
0.0
  0
LINE
  5
179
  8
0
  6
CONTINUOUS
 62
     7
 10
409.9999999999999
 20
286.9999999999999
 30
0.0
 11
10.00000000000006
 21
286.9999999999999
 31
0.0
  0
LINE
  5
17A
  8
0
  6
CONTINUOUS
 62
     7
 10
10.0
 20
286.9999999999999
 30
0.0
 11
10.0
 21
10.00000000000001
 31
0.0
  0
LINE
  5
17B
  8
0
  6
CONTINUOUS
 62
     7
 10
210.0
 20
0.0
 30
0.0
 11
210.0
 21
10.0
 31
0.0
  0
LINE
  5
17C
  8
0
  6
CONTINUOUS
 62
     7
 10
420.0
 20
148.5
 30
0.0
 11
409.9999999999999
 21
148.5
 31
0.0
  0
LINE
  5
17D
  8
0
  6
CONTINUOUS
 62
     7
 10
210.0
 20
297.0
 30
0.0
 11
210.0
 21
286.9999999999999
 31
0.0
  0
LINE
  5
17E
  8
0
  6
CONTINUOUS
 62
     7
 10
0.0
 20
148.5
 30
0.0
 11
10.0
 21
148.5
 31
0.0
  0
POLYLINE
  5
17F
  8
0
  6
CONTINUOUS
 62
     7
 66
     1
 10
0.0
 20
0.0
 30
0.0
 70
     1
  0
VERTEX
  5
1C5
  8
0
  6
CONTINUOUS
 62
     7
 10
11.0
 20
152.5
 30
0.0
  0
VERTEX
  5
1C6
  8
0
  6
CONTINUOUS
 62
     7
 10
0.0
 20
148.5
 30
0.0
  0
VERTEX
  5
1C7
  8
0
  6
CONTINUOUS
 62
     7
 10
11.0
 20
144.5
 30
0.0
  0
VERTEX
  5
1C8
  8
0
  6
CONTINUOUS
 62
     7
 10
11.0
 20
152.5
 30
0.0
  0
SEQEND
  5
1F2
  8
0
  6
CONTINUOUS
 62
     7
  0
INSERT
  5
180
  8
0
 62
     7
  2
*U2
 10
0.0
 20
0.0
 30
0.0
  0
POLYLINE
  5
181
  8
0
  6
CONTINUOUS
 62
     7
 66
     1
 10
0.0
 20
0.0
 30
0.0
 70
     1
  0
VERTEX
  5
1CB
  8
0
  6
CONTINUOUS
 62
     7
 10
206.0
 20
11.0
 30
0.0
  0
VERTEX
  5
1CC
  8
0
  6
CONTINUOUS
 62
     7
 10
210.0
 20
0.0
 30
0.0
  0
VERTEX
  5
1CD
  8
0
  6
CONTINUOUS
 62
     7
 10
214.0
 20
11.0
 30
0.0
  0
VERTEX
  5
1CE
  8
0
  6
CONTINUOUS
 62
     7
 10
206.0
 20
11.0
 30
0.0
  0
SEQEND
  5
1F3
  8
0
  6
CONTINUOUS
 62
     7
  0
INSERT
  5
182
  8
0
 62
     7
  2
*U3
 10
0.0
 20
0.0
 30
0.0
  0
LINE
  5
183
  8
0
  6
CONTINUOUS
 62
     7
 10
367.5
 20
286.9999999999999
 30
0.0
 11
367.5
 21
292.0
 31
0.0
  0
TEXT
  5
184
  8
0
  6
CONTINUOUS
 62
     7
 10
391.6340909090909
 20
291.8324293485057
 30
0.0
 40
3.5
  1
A
 50
270.0
  0
LINE
  5
185
  8
0
  6
CONTINUOUS
 62
     7
 10
367.5
 20
10.0
 30
0.0
 11
367.5
 21
5.0
 31
0.0
  0
TEXT
  5
186
  8
0
  6
CONTINUOUS
 62
     7
 10
392.9868888333125
 20
4.602272727272727
 30
0.0
 40
3.5
  1
A
  0
LINE
  5
187
  8
0
  6
CONTINUOUS
 62
     7
 10
315.0
 20
286.9999999999999
 30
0.0
 11
315.0
 21
292.0
 31
0.0
  0
TEXT
  5
188
  8
0
  6
CONTINUOUS
 62
     7
 10
339.1340909090909
 20
291.9745607727899
 30
0.0
 40
3.5
  1
B
 50
270.0
  0
LINE
  5
189
  8
0
  6
CONTINUOUS
 62
     7
 10
315.0
 20
10.0
 30
0.0
 11
315.0
 21
5.0
 31
0.0
  0
TEXT
  5
18A
  8
0
  6
CONTINUOUS
 62
     7
 10
340.3447574090284
 20
4.602272727272727
 30
0.0
 40
3.5
  1
B
  0
LINE
  5
18B
  8
0
  6
CONTINUOUS
 62
     7
 10
262.5
 20
286.9999999999999
 30
0.0
 11
262.5
 21
292.0
 31
0.0
  0
TEXT
  5
18C
  8
0
  6
CONTINUOUS
 62
     7
 10
286.6327779167187
 20
291.9399305989747
 30
0.0
 40
3.5
  1
C
 50
270.0
  0
LINE
  5
18D
  8
0
  6
CONTINUOUS
 62
     7
 10
262.5
 20
10.0
 30
0.0
 11
262.5
 21
5.0
 31
0.0
  0
TEXT
  5
18E
  8
0
  6
CONTINUOUS
 62
     7
 10
287.8793875828435
 20
4.600959734900587
 30
0.0
 40
3.5
  1
C
  0
LINE
  5
18F
  8
0
  6
CONTINUOUS
 62
     7
 10
210.0
 20
286.9999999999999
 30
0.0
 11
210.0
 21
292.0
 31
0.0
  0
TEXT
  5
190
  8
0
  6
CONTINUOUS
 62
     7
 10
234.1340909090909
 20
291.9745607727898
 30
0.0
 40
3.5
  1
D
 50
270.0
  0
LINE
  5
191
  8
0
  6
CONTINUOUS
 62
     7
 10
157.5
 20
286.9999999999999
 30
0.0
 11
157.5
 21
292.0
 31
0.0
  0
TEXT
  5
192
  8
0
  6
CONTINUOUS
 62
     7
 10
181.6327779167188
 20
292.027463423784
 30
0.0
 40
3.5
  1
E
 50
270.0
  0
LINE
  5
193
  8
0
  6
CONTINUOUS
 62
     7
 10
157.5
 20
10.0
 30
0.0
 11
157.5
 21
5.0
 31
0.0
  0
LINE
  5
194
  8
0
  6
CONTINUOUS
 62
     7
 10
105.0
 20
286.9999999999999
 30
0.0
 11
105.0
 21
292.0
 31
0.0
  0
TEXT
  5
195
  8
0
  6
CONTINUOUS
 62
     7
 10
129.1327779167188
 20
291.9924502938602
 30
0.0
 40
3.5
  1
F
 50
270.0
  0
LINE
  5
196
  8
0
  6
CONTINUOUS
 62
     7
 10
105.0
 20
10.0
 30
0.0
 11
105.0
 21
5.0
 31
0.0
  0
TEXT
  5
197
  8
0
  6
CONTINUOUS
 62
     7
 10
130.326867887958
 20
4.600959734900587
 30
0.0
 40
3.5
  1
F
  0
LINE
  5
198
  8
0
  6
CONTINUOUS
 62
     7
 10
52.50000000000004
 20
286.9999999999999
 30
0.0
 11
52.50000000000004
 21
292.0
 31
0.0
  0
TEXT
  5
199
  8
0
  6
CONTINUOUS
 62
     7
 10
76.6327779167188
 20
291.9399305989746
 30
0.0
 40
3.5
  1
G
 50
270.0
  0
LINE
  5
19A
  8
0
  6
CONTINUOUS
 62
     7
 10
52.50000000000004
 20
10.0
 30
0.0
 11
52.50000000000004
 21
5.0
 31
0.0
  0
TEXT
  5
19B
  8
0
  6
CONTINUOUS
 62
     7
 10
77.8793875828436
 20
4.600959734900587
 30
0.0
 40
3.5
  1
G
  0
TEXT
  5
19C
  8
0
  6
CONTINUOUS
 62
     7
 10
24.13277791671879
 20
291.9749437288983
 30
0.0
 40
3.5
  1
H
 50
270.0
  0
TEXT
  5
19D
  8
0
  6
CONTINUOUS
 62
     7
 10
25.34437445291988
 20
4.600959734900587
 30
0.0
 40
3.5
  1
H
  0
LINE
  5
19E
  8
0
  6
CONTINUOUS
 62
     7
 10
409.9999999999999
 20
74.25
 30
0.0
 11
414.9999999999999
 21
74.25
 31
0.0
  0
TEXT
  5
19F
  8
0
  6
CONTINUOUS
 62
     7
 10
412.9326059772414
 20
35.00777791671877
 30
0.0
 40
3.5
  1
1
  0
LINE
  5
1A0
  8
0
  6
CONTINUOUS
 62
     7
 10
10.0
 20
74.25
 30
0.0
 11
5.0
 21
74.25
 31
0.0
  0
TEXT
  5
1A1
  8
0
  6
CONTINUOUS
 62
     7
 10
4.600959734900584
 20
38.26171220457671
 30
0.0
 40
3.5
  1
1
 50
270.0
  0
LINE
  5
1A2
  8
0
  6
CONTINUOUS
 62
     7
 10
409.9999999999999
 20
148.5
 30
0.0
 11
414.9999999999999
 21
148.5
 31
0.0
  0
TEXT
  5
1A3
  8
0
  6
CONTINUOUS
 62
     7
 10
413.163692634738
 20
109.2577779167188
 30
0.0
 40
3.5
  1
2
  0
LINE
  5
1A4
  8
0
  6
CONTINUOUS
 62
     7
 10
10.0
 20
148.5
 30
0.0
 11
5.0
 21
148.5
 31
0.0
  0
TEXT
  5
1A5
  8
0
  6
CONTINUOUS
 62
     7
 10
4.600959734900599
 20
112.2806255470802
 30
0.0
 40
3.5
  1
2
 50
270.0
  0
LINE
  5
1A6
  8
0
  6
CONTINUOUS
 62
     7
 10
409.9999999999999
 20
222.75
 30
0.0
 11
414.9999999999999
 21
222.75
 31
0.0
  0
TEXT
  5
1A7
  8
0
  6
CONTINUOUS
 62
     7
 10
413.1811991996998
 20
183.5077779167188
 30
0.0
 40
3.5
  1
3
  0
LINE
  5
1A8
  8
0
  6
CONTINUOUS
 62
     7
 10
10.0
 20
222.75
 30
0.0
 11
5.0
 21
222.75
 31
0.0
  0
TEXT
  5
1A9
  8
0
  6
CONTINUOUS
 62
     7
 10
4.600959734900584
 20
186.5131189821183
 30
0.0
 40
3.5
  1
3
 50
270.0
  0
TEXT
  5
1AA
  8
0
  6
CONTINUOUS
 62
     7
 10
413.2351413029886
 20
257.7590909090909
 30
0.0
 40
3.5
  1
4
  0
TEXT
  5
1AB
  8
0
  6
CONTINUOUS
 62
     7
 10
4.60227272727272
 20
260.7091768788295
 30
0.0
 40
3.5
  1
4
 50
270.0
  0
LINE
  5
1AC
  8
0
  6
CONTINUOUS
 62
     7
 10
220.0
 20
10.0
 30
0.0
 11
220.0
 21
7.0
 31
0.0
  0
LINE
  5
1AD
  8
0
  6
CONTINUOUS
 62
     7
 10
200.0
 20
10.0
 30
0.0
 11
200.0
 21
7.0
 31
0.0
  0
LINE
  5
1AE
  8
0
  6
CONTINUOUS
 62
     7
 10
230.0
 20
10.0
 30
0.0
 11
230.0
 21
7.0
 31
0.0
  0
LINE
  5
1AF
  8
0
  6
CONTINUOUS
 62
     7
 10
190.0
 20
10.0
 30
0.0
 11
190.0
 21
7.0
 31
0.0
  0
LINE
  5
1B0
  8
0
  6
CONTINUOUS
 62
     7
 10
240.0
 20
10.0
 30
0.0
 11
240.0
 21
7.0
 31
0.0
  0
LINE
  5
1B1
  8
0
  6
CONTINUOUS
 62
     7
 10
180.0
 20
10.0
 30
0.0
 11
180.0
 21
7.0
 31
0.0
  0
LINE
  5
1B2
  8
0
  6
CONTINUOUS
 62
     7
 10
250.0
 20
10.0
 30
0.0
 11
250.0
 21
7.0
 31
0.0
  0
LINE
  5
1B3
  8
0
  6
CONTINUOUS
 62
     7
 10
170.0
 20
10.0
 30
0.0
 11
170.0
 21
7.0
 31
0.0
  0
LINE
  5
1B4
  8
0
  6
CONTINUOUS
 62
     7
 10
260.0
 20
10.0
 30
0.0
 11
260.0
 21
5.0
 31
0.0
  0
LINE
  5
1B5
  8
0
  6
CONTINUOUS
 62
     7
 10
160.0
 20
10.0
 30
0.0
 11
160.0
 21
5.0
 31
0.0
  0
LINE
  5
1B6
  8
0
  6
CONTINUOUS
 62
     7
 10
260.0
 20
10.0
 30
0.0
 11
160.0
 21
10.0
 31
0.0
  0
LINE
  5
1B7
  8
0
  6
CONTINUOUS
 62
     7
 10
260.0
 20
7.0
 30
0.0
 11
160.0
 21
7.0
 31
0.0
  0
INSERT
  5
1B8
  8
0
 62
     7
  2
*U4
 10
0.0
 20
0.0
 30
0.0
  0
INSERT
  5
1B9
  8
0
 62
     7
  2
*U5
 10
0.0
 20
0.0
 30
0.0
  0
INSERT
  5
1BA
  8
0
 62
     7
  2
*U6
 10
0.0
 20
0.0
 30
0.0
  0
INSERT
  5
1BB
  8
0
 62
     7
  2
*U7
 10
0.0
 20
0.0
 30
0.0
  0
ENDBLK
  8
0
  0
BLOCK
  8
0
  2
*U2
 70
     1
 10
0.0
 20
0.0
 30
0.0
  0
SOLID
  5
1CA
  8
0
  6
CONTINUOUS
 62
     7
 10
11.0
 20
144.5
 30
0.0
 11
6.999999999999999
 21
148.5
 31
0.0
 12
11.0
 22
152.5
 32
0.0
 13
11.0
 23
152.5
 33
0.0
  0
ENDBLK
  8
0
  0
BLOCK
  8
0
  2
*U3
 70
     1
 10
0.0
 20
0.0
 30
0.0
  0
SOLID
  5
1D0
  8
0
  6
CONTINUOUS
 62
     7
 10
210.0
 20
6.999999999999999
 30
0.0
 11
206.0
 21
11.0
 31
0.0
 12
210.0
 22
11.0
 32
0.0
 13
210.0
 23
11.0
 33
0.0
  0
SOLID
  5
1D1
  8
0
  6
CONTINUOUS
 62
     7
 10
210.0
 20
6.999999999999999
 30
0.0
 11
210.0
 21
11.0
 31
0.0
 12
214.0
 22
11.0
 32
0.0
 13
214.0
 23
11.0
 33
0.0
  0
ENDBLK
  8
0
  0
BLOCK
  8
0
  2
*U4
 70
     1
 10
0.0
 20
0.0
 30
0.0
  0
SOLID
  5
1D3
  8
0
  6
CONTINUOUS
 62
     7
 10
0.0
 20
0.0
 30
0.0
 11
0.0
 21
10.0
 31
0.0
 12
2.0
 22
0.0
 32
0.0
 13
2.0
 23
0.0
 33
0.0
  0
SOLID
  5
1D4
  8
0
  6
CONTINUOUS
 62
     7
 10
2.0
 20
0.0
 30
0.0
 11
0.0
 21
10.0
 31
0.0
 12
2.0
 22
10.0
 32
0.0
 13
2.0
 23
10.0
 33
0.0
  0
SOLID
  5
1D5
  8
0
  6
CONTINUOUS
 62
     7
 10
2.0
 20
0.0
 30
0.0
 11
2.0
 21
2.0
 31
0.0
 12
10.0
 22
0.0
 32
0.0
 13
10.0
 23
0.0
 33
0.0
  0
SOLID
  5
1D6
  8
0
  6
CONTINUOUS
 62
     7
 10
10.0
 20
0.0
 30
0.0
 11
2.0
 21
2.0
 31
0.0
 12
10.0
 22
2.0
 32
0.0
 13
10.0
 23
2.0
 33
0.0
  0
ENDBLK
  8
0
  0
BLOCK
  8
0
  2
*U5
 70
     1
 10
0.0
 20
0.0
 30
0.0
  0
SOLID
  5
1D8
  8
0
  6
CONTINUOUS
 62
     7
 10
409.9999999999999
 20
0.0
 30
0.0
 11
409.9999999999999
 21
2.0
 31
0.0
 12
418.0
 22
0.0
 32
0.0
 13
418.0
 23
0.0
 33
0.0
  0
SOLID
  5
1D9
  8
0
  6
CONTINUOUS
 62
     7
 10
418.0
 20
0.0
 30
0.0
 11
409.9999999999999
 21
2.0
 31
0.0
 12
418.0
 22
2.0
 32
0.0
 13
418.0
 23
2.0
 33
0.0
  0
SOLID
  5
1DA
  8
0
  6
CONTINUOUS
 62
     7
 10
418.0
 20
0.0
 30
0.0
 11
418.0
 21
10.0
 31
0.0
 12
420.0
 22
0.0
 32
0.0
 13
420.0
 23
0.0
 33
0.0
  0
SOLID
  5
1DB
  8
0
  6
CONTINUOUS
 62
     7
 10
420.0
 20
0.0
 30
0.0
 11
418.0
 21
10.0
 31
0.0
 12
420.0
 22
10.0
 32
0.0
 13
420.0
 23
10.0
 33
0.0
  0
ENDBLK
  8
0
  0
BLOCK
  8
0
  2
*U6
 70
     1
 10
0.0
 20
0.0
 30
0.0
  0
SOLID
  5
1DD
  8
0
  6
CONTINUOUS
 62
     7
 10
409.9999999999999
 20
295.0
 30
0.0
 11
409.9999999999999
 21
297.0
 31
0.0
 12
418.0
 22
295.0
 32
0.0
 13
418.0
 23
295.0
 33
0.0
  0
SOLID
  5
1DE
  8
0
  6
CONTINUOUS
 62
     7
 10
418.0
 20
295.0
 30
0.0
 11
409.9999999999999
 21
297.0
 31
0.0
 12
418.0
 22
297.0
 32
0.0
 13
418.0
 23
297.0
 33
0.0
  0
SOLID
  5
1DF
  8
0
  6
CONTINUOUS
 62
     7
 10
418.0
 20
286.9999999999999
 30
0.0
 11
418.0
 21
297.0
 31
0.0
 12
420.0
 22
286.9999999999999
 32
0.0
 13
420.0
 23
286.9999999999999
 33
0.0
  0
SOLID
  5
1E0
  8
0
  6
CONTINUOUS
 62
     7
 10
420.0
 20
286.9999999999999
 30
0.0
 11
418.0
 21
297.0
 31
0.0
 12
420.0
 22
297.0
 32
0.0
 13
420.0
 23
297.0
 33
0.0
  0
ENDBLK
  8
0
  0
BLOCK
  8
0
  2
*U7
 70
     1
 10
0.0
 20
0.0
 30
0.0
  0
SOLID
  5
1E2
  8
0
  6
CONTINUOUS
 62
     7
 10
0.0
 20
286.9999999999999
 30
0.0
 11
0.0
 21
297.0
 31
0.0
 12
2.0
 22
286.9999999999999
 32
0.0
 13
2.0
 23
286.9999999999999
 33
0.0
  0
SOLID
  5
1E3
  8
0
  6
CONTINUOUS
 62
     7
 10
2.0
 20
286.9999999999999
 30
0.0
 11
0.0
 21
297.0
 31
0.0
 12
2.0
 22
297.0
 32
0.0
 13
2.0
 23
297.0
 33
0.0
  0
SOLID
  5
1E4
  8
0
  6
CONTINUOUS
 62
     7
 10
2.0
 20
295.0
 30
0.0
 11
2.0
 21
297.0
 31
0.0
 12
10.0
 22
295.0
 32
0.0
 13
10.0
 23
295.0
 33
0.0
  0
SOLID
  5
1E5
  8
0
  6
CONTINUOUS
 62
     7
 10
10.0
 20
295.0
 30
0.0
 11
2.0
 21
297.0
 31
0.0
 12
10.0
 22
297.0
 32
0.0
 13
10.0
 23
297.0
 33
0.0
  0
ENDBLK
  8
0
  0
ENDSEC
  0
SECTION
  2
ENTITIES
  0
LINE
  5
70
  8
1
  6
CONTINUOUS
 62
     7
 10
2162.7775814441
 20
49.1288626864
 30
0.0
 11
2179.7775814441
 21
49.1288626864
 31
0.0
  0
LINE
  5
71
  8
1
  6
CONTINUOUS
 62
     7
 10
2171.2775814441
 20
49.1288626864
 30
0.0
 11
2171.2775814441
 21
65.1288626864
 31
0.0
  0
LINE
  5
72
  8
1
  6
CONTINUOUS
 62
     7
 10
2179.7775814441
 20
57.1288626864
 30
0.0
 11
2162.7775814441
 21
57.1288626864
 31
0.0
  0
LINE
  5
73
  8
1
  6
CONTINUOUS
 62
     7
 10
2339.7775814441
 20
276.3288626864
 30
0.0
 11
2339.7775814441
 21
268.3288626864
 31
0.0
  0
LINE
  5
74
  8
1
  6
CONTINUOUS
 62
     7
 10
2162.7775814441
 20
276.3288626864
 30
0.0
 11
2179.7775814441
 21
276.3288626864
 31
0.0
  0
LINE
  5
75
  8
1
  6
CONTINUOUS
 62
     7
 10
2340.2775814441
 20
268.3288626864
 30
0.0
 11
2322.2775814441
 21
268.3288626864
 31
0.0
  0
LINE
  5
76
  8
1
  6
CONTINUOUS
 62
     7
 10
2346.2775814441
 20
243.7288626864
 30
0.0
 11
2346.2775814441
 21
266.7288626864
 31
0.0
  0
LINE
  5
77
  8
1
  6
CONTINUOUS
 62
     7
 10
2265.0275814441
 20
22.7288626864
 30
0.0
 11
2265.0275814441
 21
23.7288626864
 31
0.0
  0
LINE
  5
78
  8
1
  6
CONTINUOUS
 62
     7
 10
2166.5275814441
 20
241.7288626864
 30
0.0
 11
2166.5275814441
 21
91.7288626864
 31
0.0
  0
ARC
  5
79
  8
1
  6
CONTINUOUS
 62
     7
 10
2209.7775814441
 20
-14.2711373136
 30
0.0
 40
3.0
 50
180.0
 51
270.0
  0
LINE
  5
7A
  8
1
  6
CONTINUOUS
 62
     7
 10
2295.7775814441
 20
-14.2711373136
 30
0.0
 11
2295.7775814441
 21
22.7288626864
 31
0.0
  0
LINE
  5
7B
  8
1
  6
CONTINUOUS
 62
     7
 10
2206.7775814441
 20
22.7288626864
 30
0.0
 11
2206.7775814441
 21
-14.2711373136
 31
0.0
  0
LINE
  5
7C
  8
1
  6
CONTINUOUS
 62
     7
 10
2158.2775814441
 20
241.7288626864
 30
0.0
 11
2237.0008104441
 21
241.7288626864
 31
0.0
  0
LINE
  5
7D
  8
1
  6
CONTINUOUS
 62
     7
 10
2180.2775814441
 20
65.1288626864
 30
0.0
 11
2180.2775814441
 21
66.7288626864
 31
0.0
  0
LINE
  5
7E
  8
1
  6
CONTINUOUS
 62
     7
 10
2322.7775814441
 20
65.1288626864
 30
0.0
 11
2322.7775814441
 21
49.1288626864
 31
0.0
  0
LINE
  5
7F
  8
1
  6
CONTINUOUS
 62
     7
 10
2326.5275814441
 20
241.7288626864
 30
0.0
 11
2326.5275814441
 21
91.7288626864
 31
0.0
  0
ARC
  5
80
  8
1
  6
CONTINUOUS
 62
     7
 10
2292.7775814441
 20
-14.2711373136
 30
0.0
 40
3.0
 50
270.0
 51
0.0
  0
LINE
  5
81
  8
1
  6
CONTINUOUS
 62
     7
 10
2162.2775814441
 20
66.7288626864
 30
0.0
 11
2162.2775814441
 21
65.1288626864
 31
0.0
  0
LINE
  5
82
  8
1
  6
CONTINUOUS
 62
     7
 10
2326.5275814441
 20
286.7288626864
 30
0.0
 11
2336.0275814441
 21
286.7288626864
 31
0.0
  0
LINE
  5
83
  8
1
  6
CONTINUOUS
 62
     7
 10
2322.7775814441
 20
49.1288626864
 30
0.0
 11
2339.7775814441
 21
49.1288626864
 31
0.0
  0
LINE
  5
84
  8
1
  6
CONTINUOUS
 62
     7
 10
2179.7775814441
 20
276.3288626864
 30
0.0
 11
2179.7775814441
 21
268.3288626864
 31
0.0
  0
LINE
  5
85
  8
1
  6
CONTINUOUS
 62
     7
 10
2180.2775814441
 20
266.7288626864
 30
0.0
 11
2180.2775814441
 21
268.3288626864
 31
0.0
  0
LINE
  5
86
  8
1
  6
CONTINUOUS
 62
     7
 10
2176.0275814441
 20
46.7288626864
 30
0.0
 11
2176.0275814441
 21
49.1288626864
 31
0.0
  0
LINE
  5
87
  8
1
  6
CONTINUOUS
 62
     7
 10
2162.2775814441
 20
268.3288626864
 30
0.0
 11
2162.2775814441
 21
266.7288626864
 31
0.0
  0
LINE
  5
88
  8
1
  6
CONTINUOUS
 62
     7
 10
2237.5275814441
 20
23.7288626864
 30
0.0
 11
2237.5275814441
 21
22.7288626864
 31
0.0
  0
LINE
  5
89
  8
1
  6
CONTINUOUS
 62
     7
 10
2331.2775814441
 20
276.3288626864
 30
0.0
 11
2331.2775814441
 21
268.3288626864
 31
0.0
  0
LINE
  5
8A
  8
1
  6
CONTINUOUS
 62
     7
 10
2322.7775814441
 20
276.3288626864
 30
0.0
 11
2339.7775814441
 21
276.3288626864
 31
0.0
  0
LINE
  5
8B
  8
1
  6
CONTINUOUS
 62
     7
 10
2340.2775814441
 20
65.1288626864
 30
0.0
 11
2322.2775814441
 21
65.1288626864
 31
0.0
  0
LINE
  5
8C
  8
1
  6
CONTINUOUS
 62
     7
 10
2336.0275814441
 20
46.7288626864
 30
0.0
 11
2326.5275814441
 21
46.7288626864
 31
0.0
  0
LINE
  5
8D
  8
1
  6
CONTINUOUS
 62
     7
 10
2156.2775814441
 20
266.7288626864
 30
0.0
 11
2346.2775814441
 21
266.7288626864
 31
0.0
  0
LINE
  5
8E
  8
1
  6
CONTINUOUS
 62
     7
 10
2331.2775814441
 20
49.1288626864
 30
0.0
 11
2331.2775814441
 21
65.1288626864
 31
0.0
  0
LINE
  5
8F
  8
1
  6
CONTINUOUS
 62
     7
 10
2339.7775814441
 20
57.1288626864
 30
0.0
 11
2322.7775814441
 21
57.1288626864
 31
0.0
  0
LINE
  5
90
  8
1
  6
CONTINUOUS
 62
     7
 10
2179.7775814441
 20
49.1288626864
 30
0.0
 11
2179.7775814441
 21
65.1288626864
 31
0.0
  0
LINE
  5
91
  8
1
  6
CONTINUOUS
 62
     7
 10
2156.2775814441
 20
243.7288626864
 30
0.0
 11
2156.2775814441
 21
266.7288626864
 31
0.0
  0
LINE
  5
92
  8
1
  6
CONTINUOUS
 62
     7
 10
2176.0275814441
 20
91.7288626864
 30
0.0
 11
2176.0275814441
 21
241.7288626864
 31
0.0
  0
LINE
  5
93
  8
1
  6
CONTINUOUS
 62
     7
 10
2162.7775814441
 20
65.1288626864
 30
0.0
 11
2162.7775814441
 21
49.1288626864
 31
0.0
  0
ARC
  5
94
  8
1
  6
CONTINUOUS
 62
     7
 10
2344.2775814441
 20
89.7288626864
 30
0.0
 40
2.0
 50
0.0
 51
90.0
  0
LINE
  5
95
  8
1
  6
CONTINUOUS
 62
     7
 10
2346.2775814441
 20
66.7288626864
 30
0.0
 11
2346.2775814441
 21
89.7288626864
 31
0.0
  0
ARC
  5
96
  8
1
  6
CONTINUOUS
 62
     7
 10
2344.2775814441
 20
243.7288626864
 30
0.0
 40
2.0
 50
270.0
 51
0.0
  0
LINE
  5
97
  8
1
  6
CONTINUOUS
 62
     7
 10
2180.2775814441
 20
268.3288626864
 30
0.0
 11
2162.2775814441
 21
268.3288626864
 31
0.0
  0
LINE
  5
98
  8
1
  6
CONTINUOUS
 62
     7
 10
2162.7775814441
 20
276.3288626864
 30
0.0
 11
2162.7775814441
 21
268.3288626864
 31
0.0
  0
LINE
  5
99
  8
1
  6
CONTINUOUS
 62
     7
 10
2322.2775814441
 20
268.3288626864
 30
0.0
 11
2322.2775814441
 21
266.7288626864
 31
0.0
  0
LINE
  5
9A
  8
1
  6
CONTINUOUS
 62
     7
 10
2171.2775814441
 20
276.3288626864
 30
0.0
 11
2171.2775814441
 21
268.3288626864
 31
0.0
  0
LINE
  5
9B
  8
1
  6
CONTINUOUS
 62
     7
 10
2326.5275814441
 20
49.1288626864
 30
0.0
 11
2326.5275814441
 21
46.7288626864
 31
0.0
  0
ARC
  5
9C
  8
1
  6
CONTINUOUS
 62
     7
 10
2158.2775814441
 20
89.7288626864
 30
0.0
 40
2.0
 50
90.0
 51
180.0
  0
LINE
  5
9D
  8
1
  6
CONTINUOUS
 62
     7
 10
2248.2775814441
 20
244.2288626864
 30
0.0
 11
2237.0008104441
 21
241.7288626864
 31
0.0
  0
LINE
  5
9E
  8
1
  6
CONTINUOUS
 62
     7
 10
2254.2775814441
 20
244.2288626864
 30
0.0
 11
2248.2775814441
 21
244.2288626864
 31
0.0
  0
LINE
  5
9F
  8
1
  6
CONTINUOUS
 62
     7
 10
2233.4775814441
 20
57.2288626864
 30
0.0
 11
2233.4775814441
 21
44.2288626864
 31
0.0
  0
LINE
  5
A0
  8
1
  6
CONTINUOUS
 62
     7
 10
2340.2775814441
 20
266.7288626864
 30
0.0
 11
2340.2775814441
 21
268.3288626864
 31
0.0
  0
LINE
  5
A1
  8
1
  6
CONTINUOUS
 62
     7
 10
2156.2775814441
 20
66.7288626864
 30
0.0
 11
2156.2775814441
 21
89.7288626864
 31
0.0
  0
LINE
  5
A2
  8
1
  6
CONTINUOUS
 62
     7
 10
2265.5543524441
 20
241.7288626864
 30
0.0
 11
2344.2775814441
 21
241.7288626864
 31
0.0
  0
LINE
  5
A3
  8
1
  6
CONTINUOUS
 62
     7
 10
2322.7775814441
 20
268.3288626864
 30
0.0
 11
2322.7775814441
 21
276.3288626864
 31
0.0
  0
LINE
  5
A4
  8
1
  6
CONTINUOUS
 62
     7
 10
2176.0275814441
 20
46.7288626864
 30
0.0
 11
2166.5275814441
 21
46.7288626864
 31
0.0
  0
LINE
  5
A5
  8
1
  6
CONTINUOUS
 62
     7
 10
2180.2775814441
 20
65.1288626864
 30
0.0
 11
2162.2775814441
 21
65.1288626864
 31
0.0
  0
LINE
  5
A6
  8
1
  6
CENTER
 62
     5
 10
2196.2775814441
 20
-96.2833166684
 30
0.0
 11
2306.2775814441
 21
-96.2833166684
 31
0.0
  0
LINE
  5
A8
  8
1
  6
CONTINUOUS
 62
     7
 10
2265.5543524441
 20
241.7288626864
 30
0.0
 11
2254.2775814441
 21
244.2288626864
 31
0.0
  0
LINE
  5
A9
  8
1
  6
CONTINUOUS
 62
     7
 10
2336.0275814441
 20
91.7288626864
 30
0.0
 11
2336.0275814441
 21
241.7288626864
 31
0.0
  0
LINE
  5
AA
  8
1
  6
CENTER
 62
     5
 10
2251.2775814441
 20
-151.2833166684
 30
0.0
 11
2251.2775814441
 21
-41.28331666839999
 31
0.0
  0
LINE
  5
AB
  8
1
  6
CONTINUOUS
 62
     7
 10
2166.5275814441
 20
286.7288626864
 30
0.0
 11
2176.0275814441
 21
286.7288626864
 31
0.0
  0
ARC
  5
AC
  8
1
  6
CONTINUOUS
 62
     7
 10
2158.2775814441
 20
243.7288626864
 30
0.0
 40
2.0
 50
180.0
 51
270.0
  0
LINE
  5
AD
  8
1
  6
CONTINUOUS
 62
     7
 10
2336.0275814441
 20
46.7288626864
 30
0.0
 11
2336.0275814441
 21
49.1288626864
 31
0.0
  0
LINE
  5
AE
  8
1
  6
CONTINUOUS
 62
     7
 10
2340.2775814441
 20
65.1288626864
 30
0.0
 11
2340.2775814441
 21
66.7288626864
 31
0.0
  0
LINE
  5
AF
  8
1
  6
CONTINUOUS
 62
     7
 10
2166.5275814441
 20
49.1288626864
 30
0.0
 11
2166.5275814441
 21
46.7288626864
 31
0.0
  0
LINE
  5
B0
  8
1
  6
CONTINUOUS
 62
     7
 10
2322.2775814441
 20
66.7288626864
 30
0.0
 11
2322.2775814441
 21
65.1288626864
 31
0.0
  0
CIRCLE
  5
B1
  8
1
  6
CONTINUOUS
 62
     7
 10
2171.2775814441
 20
-96.2833166684
 30
0.0
 40
4.75
  0
CIRCLE
  5
B2
  8
1
  6
CONTINUOUS
 62
     7
 10
2331.2775814441
 20
-96.2833166684
 30
0.0
 40
4.75
  0
LINE
  5
B3
  8
1
  6
CONTINUOUS
 62
     7
 10
2339.7775814441
 20
49.1288626864
 30
0.0
 11
2339.7775814441
 21
65.1288626864
 31
0.0
  0
LINE
  5
B4
  8
1
  6
CONTINUOUS
 62
     7
 10
2206.7775814441
 20
22.7288626864
 30
0.0
 11
2295.7775814441
 21
22.7288626864
 31
0.0
  0
LINE
  5
B5
  8
1
  6
CONTINUOUS
 62
     7
 10
2156.2775814441
 20
-82.0333166684
 30
0.0
 11
2209.1208794441
 21
-82.0333166684
 31
0.0
  0
ARC
  5
B6
  8
1
  6
CONTINUOUS
 62
     7
 10
2251.2775814441
 20
-70.2833166684
 30
0.0
 40
10.0
 50
208.567456
 51
211.432544
  0
LINE
  5
B7
  8
1
  6
CONTINUOUS
 62
     7
 10
2178.4441224441
 20
-91.1833166684
 30
0.0
 11
2191.2775814441
 21
-91.1833166684
 31
0.0
  0
LINE
  5
B8
  8
1
  6
CONTINUOUS
 62
     7
 10
2257.3242744441
 20
25.0288626864
 30
0.0
 11
2257.3242744441
 21
24.7288626864
 31
0.0
  0
LINE
  5
B9
  8
1
  6
CONTINUOUS
 62
     7
 10
2324.1110404441
 20
-91.1833166684
 30
0.0
 11
2311.2775814441
 21
-91.1833166684
 31
0.0
  0
ARC
  5
BA
  8
1
  6
CONTINUOUS
 62
     7
 10
2234.6144094441
 20
67.2288626864
 30
0.0
 40
3.0
 50
6.625810000000001
 51
90.0
  0
LINE
  5
BB
  8
1
  6
CONTINUOUS
 62
     7
 10
2273.7775814441
 20
66.7288626864
 30
0.0
 11
2273.7775814441
 21
69.7288626864
 31
0.0
  0
ARC
  5
BC
  8
1
  6
CONTINUOUS
 62
     7
 10
2267.5455324441
 20
-66.9984446684
 30
0.0
 40
5.0
 50
349.9999999999999
 51
60.94752199999998
  0
LINE
  5
BD
  8
1
  6
CONTINUOUS
 62
     7
 10
2323.2775814441
 20
-100.9021186684
 30
0.0
 11
2323.2775814441
 21
-91.6645146684
 31
0.0
  0
LINE
  5
BE
  8
1
  6
CONTINUOUS
 62
     7
 10
2292.7775814441
 20
-17.2711373136
 30
0.0
 11
2209.7775814441
 21
-17.2711373136
 31
0.0
  0
LINE
  5
BF
  8
1
  6
CONTINUOUS
 62
     7
 10
2243.2775814441
 20
31.4288626864
 30
0.0
 11
2243.2775814441
 21
25.0288626864
 31
0.0
  0
CIRCLE
  5
C0
  8
1
  6
CONTINUOUS
 62
     7
 10
2251.2775814441
 20
-96.2833166684
 30
0.0
 40
44.5
  0
LINE
  5
C1
  8
1
  6
CONTINUOUS
 62
     7
 10
2346.2775814441
 20
-110.5333166684
 30
0.0
 11
2346.2775814441
 21
-82.0333166684
 31
0.0
  0
LINE
  5
C2
  8
1
  6
CONTINUOUS
 62
     7
 10
2163.2775814441
 20
-100.9021186684
 30
0.0
 11
2163.2775814441
 21
-91.6645146684
 31
0.0
  0
LINE
  5
C3
  8
1
  6
CONTINUOUS
 62
     7
 10
2259.2775814441
 20
31.4288626864
 30
0.0
 11
2259.2775814441
 21
25.0288626864
 31
0.0
  0
CIRCLE
  5
C4
  8
1
  6
CONTINUOUS
 62
     7
 10
2251.2775814441
 20
68.7288626864
 30
0.0
 40
7.5055536246
  0
LINE
  5
C5
  8
1
  6
CONTINUOUS
 62
     7
 10
2266.3275814441
 20
43.2233096864
 30
0.0
 11
2271.8275814441
 21
43.2233096864
 31
0.0
  0
ARC
  5
C6
  8
1
  6
CONTINUOUS
 62
     7
 10
2275.7775814441
 20
78.1288626864
 30
0.0
 40
3.0
 50
270.0
 51
0.0
  0
CIRCLE
  5
C7
  8
1
  6
CONTINUOUS
 62
     7
 10
2251.2775814441
 20
-96.2833166684
 30
0.0
 40
5.0
  0
LINE
  5
C8
  8
1
  6
CONTINUOUS
 62
     7
 10
2266.3275814441
 20
54.4816396864
 30
0.0
 11
2271.8275814441
 21
54.4816396864
 31
0.0
  0
LINE
  5
C9
  8
1
  6
CONTINUOUS
 62
     7
 10
2271.8275814441
 20
54.7288626864
 30
0.0
 11
2277.4775814441
 21
54.7288626864
 31
0.0
  0
LINE
  5
CA
  8
1
  6
CONTINUOUS
 62
     7
 10
2277.4775814441
 20
54.7288626864
 30
0.0
 11
2278.9775814441
 21
53.2288626864
 31
0.0
  0
LINE
  5
CB
  8
1
  6
CONTINUOUS
 62
     7
 10
2278.9775814441
 20
53.2288626864
 30
0.0
 11
2278.9775814441
 21
48.2288626864
 31
0.0
  0
LINE
  5
CC
  8
1
  6
CONTINUOUS
 62
     7
 10
2278.9775814441
 20
48.2288626864
 30
0.0
 11
2277.4775814441
 21
46.7288626864
 31
0.0
  0
LINE
  5
CD
  8
1
  6
CONTINUOUS
 62
     7
 10
2277.4775814441
 20
46.7288626864
 30
0.0
 11
2271.8275814441
 21
46.7288626864
 31
0.0
  0
LINE
  5
CE
  8
1
  6
CONTINUOUS
 62
     7
 10
2271.8275814441
 20
43.2233096864
 30
0.0
 11
2271.8275814441
 21
58.2344166864
 31
0.0
  0
LINE
  5
CF
  8
1
  6
CONTINUOUS
 62
     7
 10
2266.3275814441
 20
46.9760856864
 30
0.0
 11
2271.8275814441
 21
46.9760856864
 31
0.0
  0
CIRCLE
  5
D0
  8
1
  6
CONTINUOUS
 62
     7
 10
2277.0869794441
 20
-70.4739186684
 30
0.0
 40
2.0
  0
ARC
  5
D1
  8
1
  6
CONTINUOUS
 62
     7
 10
2251.0275814441
 20
59.2206746864
 30
0.0
 40
7.4
 50
0.0
 51
0.8027229999999997
  0
LINE
  5
D2
  8
1
  6
CONTINUOUS
 62
     7
 10
2233.4775814441
 20
50.7288626864
 30
0.0
 11
2238.9775814441
 21
50.7288626864
 31
0.0
  0
LINE
  5
D3
  8
1
  6
CONTINUOUS
 62
     7
 10
2272.4695714441
 20
-67.8666846684
 30
0.0
 11
2272.1629404441
 21
-69.6056786684
 31
0.0
  0
LINE
  5
D4
  8
1
  6
CONTINUOUS
 62
     7
 10
2331.2775814441
 20
-87.0457126684
 30
0.0
 11
2339.2775814441
 21
-91.6645146684
 31
0.0
  0
LINE
  5
D5
  8
1
  6
CONTINUOUS
 62
     7
 10
2323.2775814441
 20
-91.6645146684
 30
0.0
 11
2331.2775814441
 21
-87.0457126684
 31
0.0
  0
POINT
  5
D6
  8
1
 62
     7
 10
2271.8275814441
 20
54.7288626864
 30
0.0
  0
POINT
  5
D7
  8
1
 62
     7
 10
2257.7775814441
 20
64.9760856864
 30
0.0
  0
LINE
  5
D8
  8
1
  6
CONTINUOUS
 62
     7
 10
2245.2308884441
 20
24.7288626864
 30
0.0
 11
2245.2308884441
 21
25.0288626864
 31
0.0
  0
LINE
  5
D9
  8
1
  6
CONTINUOUS
 62
     7
 10
2251.0275814441
 20
42.3288626864
 30
0.0
 11
2241.5275814441
 21
42.3288626864
 31
0.0
  0
ARC
  5
DA
  8
1
  6
CONTINUOUS
 62
     7
 10
2235.0096304441
 20
-66.9984446684
 30
0.0
 40
5.0
 50
119.052478
 51
190.0
  0
LINE
  5
DB
  8
1
  6
CONTINUOUS
 62
     7
 10
2238.9775814441
 20
33.9016891854
 30
0.0
 11
2238.9775814441
 21
62.7288626864
 31
0.0
  0
LINE
  5
DC
  8
1
  6
CONTINUOUS
 62
     7
 10
2244.9498644441
 20
75.1288626864
 30
0.0
 11
2226.7775814441
 21
75.1288626864
 31
0.0
  0
LINE
  5
DD
  8
1
  6
CONTINUOUS
 62
     7
 10
2244.7775814441
 20
72.4816396864
 30
0.0
 11
2244.7775814441
 21
64.9760856864
 31
0.0
  0
CIRCLE
  5
DE
  8
1
  6
CONTINUOUS
 62
     7
 10
2251.2775814441
 20
68.7288626864
 30
0.0
 40
4.0
  0
LINE
  5
DF
  8
1
  6
CONTINUOUS
 62
     7
 10
2233.4775814441
 20
57.2288626864
 30
0.0
 11
2238.9775814441
 21
57.2288626864
 31
0.0
  0
ARC
  5
E0
  8
1
  6
CONTINUOUS
 62
     7
 10
2251.2775814441
 20
-70.2833166684
 30
0.0
 40
10.0
 50
268.567456
 51
271.432544
  0
LINE
  5
E1
  8
1
  6
CONTINUOUS
 62
     7
 10
2241.5275814441
 20
59.2206746864
 30
0.0
 11
2241.5275814441
 21
42.0288626864
 31
0.0
  0
LINE
  5
E2
  8
1
  6
CONTINUOUS
 62
     7
 10
2251.5275814441
 20
-69.8503036684
 30
0.0
 11
2251.5275814441
 21
-60.2864416684
 31
0.0
  0
LINE
  5
E3
  8
1
  6
CONTINUOUS
 62
     7
 10
2234.6144094441
 20
70.2288626864
 30
0.0
 11
2229.2775814441
 21
70.2288626864
 31
0.0
  0
LINE
  5
E4
  8
1
  6
CONTINUOUS
 62
     7
 10
2242.4950344441
 20
-65.5013856684
 30
0.0
 11
2250.7775814441
 21
-70.2833166684
 31
0.0
  0
LINE
  5
E5
  8
1
  6
CONTINUOUS
 62
     7
 10
2244.7775814441
 20
64.9760856864
 30
0.0
 11
2251.2775814441
 21
61.2233096864
 31
0.0
  0
LINE
  5
E6
  8
1
  6
CONTINUOUS
 62
     7
 10
2266.3275814441
 20
58.2344166864
 30
0.0
 11
2271.8275814441
 21
58.2344166864
 31
0.0
  0
LINE
  5
E7
  8
1
  6
CONTINUOUS
 62
     7
 10
2251.2775814441
 20
61.2233096864
 30
0.0
 11
2257.7775814441
 21
64.9760856864
 31
0.0
  0
LINE
  5
E8
  8
1
  6
CONTINUOUS
 62
     7
 10
2179.2775814441
 20
-91.6645146684
 30
0.0
 11
2179.2775814441
 21
-100.9021186684
 31
0.0
  0
LINE
  5
E9
  8
1
  6
CONTINUOUS
 62
     7
 10
2243.8275814441
 20
39.7288626864
 30
0.0
 11
2251.0275814441
 21
39.7288626864
 31
0.0
  0
ARC
  5
EA
  8
1
  6
CONTINUOUS
 62
     7
 10
2238.5275814441
 20
23.7288626864
 30
0.0
 40
1.0
 50
90.0
 51
180.0
  0
ARC
  5
EB
  8
1
  6
CONTINUOUS
 62
     7
 10
2251.2775814441
 20
-70.2833166684
 30
0.0
 40
10.0
 50
148.567456
 51
151.432544
  0
ARC
  5
EC
  8
1
  6
CONTINUOUS
 62
     7
 10
2251.0275814441
 20
59.2206746864
 30
0.0
 40
10.0
 50
0.0
 51
8.232636999999999
  0
ARC
  5
ED
  8
1
  6
CONTINUOUS
 62
     7
 10
2247.5275814441
 20
68.7288626864
 30
0.0
 40
10.0
 50
186.62581
 51
270.0
  0
LINE
  5
EE
  8
1
  6
CONTINUOUS
 62
     7
 10
2171.2775814441
 20
-87.0457126684
 30
0.0
 11
2179.2775814441
 21
-91.6645146684
 31
0.0
  0
ARC
  5
EF
  8
1
  6
CONTINUOUS
 62
     7
 10
2251.2775814441
 20
-96.2833166684
 30
0.0
 40
38.5
 50
60.947522
 51
119.052478
  0
LINE
  5
F0
  8
1
  6
CONTINUOUS
 62
     7
 10
2258.7275814441
 20
39.7288626864
 30
0.0
 11
2251.5275814441
 21
39.7288626864
 31
0.0
  0
LINE
  5
F1
  8
1
  6
CONTINUOUS
 62
     7
 10
2257.7775814441
 20
64.9760856864
 30
0.0
 11
2257.7775814441
 21
72.4816396864
 31
0.0
  0
LINE
  5
F2
  8
1
  6
CONTINUOUS
 62
     7
 10
2257.7775814441
 20
72.4816396864
 30
0.0
 11
2251.2775810111
 21
76.2344159364
 31
0.0
  0
LINE
  5
F3
  8
1
  6
CONTINUOUS
 62
     7
 10
2266.3275814441
 20
58.2344166864
 30
0.0
 11
2266.3275814441
 21
43.2233096864
 31
0.0
  0
LINE
  5
F4
  8
1
  6
CONTINUOUS
 62
     7
 10
2251.5275814441
 20
39.7288626864
 30
0.0
 11
2251.5275814441
 21
42.3288626864
 31
0.0
  0
ARC
  5
F5
  8
1
  6
CONTINUOUS
 62
     7
 10
2251.5275814441
 20
59.2206746864
 30
0.0
 40
10.0
 50
171.767363
 51
180.0
  0
ARC
  5
F6
  8
1
  6
CONTINUOUS
 62
     7
 10
2243.8275814441
 20
42.0288626864
 30
0.0
 40
2.3
 50
180.0
 51
270.0
  0
LINE
  5
F7
  8
1
  6
CONTINUOUS
 62
     7
 10
2251.2775814441
 20
76.2344166864
 30
0.0
 11
2244.7775818771
 21
72.4816389364
 31
0.0
  0
LINE
  5
F8
  8
1
  6
CONTINUOUS
 62
     7
 10
2263.8275814441
 20
57.4288626864
 30
0.0
 11
2263.8275814441
 21
44.0288626864
 31
0.0
  0
ARC
  5
F9
  8
1
  6
CONTINUOUS
 62
     7
 10
2251.5275814441
 20
59.2206746864
 30
0.0
 40
7.4
 50
179.197277
 51
180.0
  0
LINE
  5
FA
  8
1
  6
CONTINUOUS
 62
     7
 10
2251.0275814441
 20
39.7288626864
 30
0.0
 11
2251.0275814441
 21
42.3288626864
 31
0.0
  0
ARC
  5
FB
  8
1
  6
CONTINUOUS
 62
     7
 10
2280.5624534441
 20
-80.0153656684
 30
0.0
 40
5.0
 50
29.052478
 51
100.0
  0
LINE
  5
FC
  8
1
  6
CONTINUOUS
 62
     7
 10
2244.1275814441
 20
42.3288626864
 30
0.0
 11
2244.1275814441
 21
59.2206746864
 31
0.0
  0
LINE
  5
FD
  8
1
  6
CONTINUOUS
 62
     7
 10
2156.2775814441
 20
-110.5333166684
 30
0.0
 11
2156.2775814441
 21
-82.0333166684
 31
0.0
  0
ARC
  5
FE
  8
1
  6
CONTINUOUS
 62
     7
 10
2258.7275814441
 20
42.0288626864
 30
0.0
 40
2.3
 50
270.0
 51
0.0
  0
LINE
  5
FF
  8
1
  6
CONTINUOUS
 62
     7
 10
2339.2775814441
 20
-100.9021186684
 30
0.0
 11
2331.2775814441
 21
-105.5209206684
 31
0.0
  0
LINE
  5
100
  8
1
  6
CONTINUOUS
 62
     7
 10
2331.2775814441
 20
-105.5209206684
 30
0.0
 11
2323.2775814441
 21
-100.9021186684
 31
0.0
  0
LINE
  5
101
  8
1
  6
CONTINUOUS
 62
     7
 10
2226.7775814441
 20
86.2288626864
 30
0.0
 11
2275.7775814441
 21
86.2288626864
 31
0.0
  0
LINE
  5
102
  8
1
  6
CONTINUOUS
 62
     7
 10
2261.2775814441
 20
34.1029133531
 30
0.0
 11
2259.6775814441
 21
25.0288626864
 31
0.0
  0
LINE
  5
103
  8
1
  6
CONTINUOUS
 62
     7
 10
2258.4275814441
 20
54.7288626864
 30
0.0
 11
2244.1275814441
 21
54.7288626864
 31
0.0
  0
LINE
  5
104
  8
1
  6
CONTINUOUS
 62
     7
 10
2263.0275814441
 20
62.7288626864
 30
0.0
 11
2263.5775814441
 21
62.7288626864
 31
0.0
  0
ARC
  5
105
  8
1
  6
CONTINUOUS
 62
     7
 10
2191.2775814441
 20
-96.2833166684
 30
0.0
 40
5.1
 50
270.0
 51
90.0
  0
LINE
  5
106
  8
1
  6
CONTINUOUS
 62
     7
 10
2293.4342834441
 20
-110.5333166684
 30
0.0
 11
2346.2775814441
 21
-110.5333166684
 31
0.0
  0
LINE
  5
107
  8
1
  6
CONTINUOUS
 62
     7
 10
2156.2775814441
 20
-110.5333166684
 30
0.0
 11
2209.1208794441
 21
-110.5333166684
 31
0.0
  0
LINE
  5
108
  8
1
  6
CONTINUOUS
 62
     7
 10
2259.6775814441
 20
25.0288626864
 30
0.0
 11
2242.8775814441
 21
25.0288626864
 31
0.0
  0
LINE
  5
109
  8
1
  6
CONTINUOUS
 62
     7
 10
2278.7775814441
 20
83.2288626864
 30
0.0
 11
2278.7775814441
 21
78.1288626864
 31
0.0
  0
LINE
  5
10A
  8
1
  6
CONTINUOUS
 62
     7
 10
2240.5949984441
 20
24.7288626864
 30
0.0
 11
2238.9775814441
 21
33.9016893501
 31
0.0
  0
LINE
  5
10B
  8
1
  6
CONTINUOUS
 62
     7
 10
2259.8101284441
 20
-65.0683726684
 30
0.0
 11
2251.5275814441
 21
-69.8503036684
 31
0.0
  0
LINE
  5
10C
  8
1
  6
CONTINUOUS
 62
     7
 10
2243.2775814441
 20
31.4288626864
 30
0.0
 11
2259.2775814441
 21
31.4288626864
 31
0.0
  0
LINE
  5
10D
  8
1
  6
CONTINUOUS
 62
     7
 10
2243.2775814441
 20
-100.9021186684
 30
0.0
 11
2251.2775814441
 21
-105.5209206684
 31
0.0
  0
ARC
  5
10E
  8
1
  6
CONTINUOUS
 62
     7
 10
2251.2775814441
 20
-70.2833166684
 30
0.0
 40
10.0
 50
28.567456
 51
31.432544
  0
LINE
  5
10F
  8
1
  6
CONTINUOUS
 62
     7
 10
2251.0275814441
 20
-69.8503036684
 30
0.0
 11
2242.7450344441
 21
-65.0683726684
 31
0.0
  0
LINE
  5
110
  8
1
  6
CONTINUOUS
 62
     7
 10
2242.7450344441
 20
-75.4982606684
 30
0.0
 11
2251.0275814441
 21
-70.7163296684
 31
0.0
  0
LINE
  5
111
  8
1
  6
CONTINUOUS
 62
     7
 10
2238.5275814441
 20
24.7288626864
 30
0.0
 11
2264.0275814441
 21
24.7288626864
 31
0.0
  0
ARC
  5
112
  8
1
  6
CONTINUOUS
 62
     7
 10
2277.0869794441
 20
-122.0927146684
 30
0.0
 40
5.0
 50
80.0
 51
190.0
  0
LINE
  5
113
  8
1
  6
CONTINUOUS
 62
     7
 10
2250.7775814441
 20
-70.2833166684
 30
0.0
 11
2242.4950344441
 21
-75.0652476684
 31
0.0
  0
LINE
  5
114
  8
1
  6
CONTINUOUS
 62
     7
 10
2230.3922224441
 20
-69.6056786684
 30
0.0
 11
2230.0855914441
 21
-67.8666846684
 31
0.0
  0
LINE
  5
115
  8
1
  6
CONTINUOUS
 62
     7
 10
2251.5275814441
 20
-80.2801916684
 30
0.0
 11
2251.5275814441
 21
-70.7163296684
 31
0.0
  0
LINE
  5
116
  8
1
  6
CONTINUOUS
 62
     7
 10
2230.0855914441
 20
-124.6999486684
 30
0.0
 11
2230.3922224441
 21
-122.9609546684
 31
0.0
  0
LINE
  5
117
  8
1
  6
CONTINUOUS
 62
     7
 10
2261.2775814441
 20
60.9226156864
 30
0.0
 11
2261.2775814441
 21
34.1029133531
 31
0.0
  0
ARC
  5
118
  8
1
  6
CONTINUOUS
 62
     7
 10
2221.9927094441
 20
-80.0153656684
 30
0.0
 40
5.0
 50
80.0
 51
150.947522
  0
LINE
  5
119
  8
1
  6
CONTINUOUS
 62
     7
 10
2272.1629404441
 20
-122.9609546684
 30
0.0
 11
2272.4695714441
 21
-124.6999486684
 31
0.0
  0
CIRCLE
  5
11A
  8
1
  6
CONTINUOUS
 62
     7
 10
2251.2775814441
 20
-70.2833166684
 30
0.0
 40
10.75
  0
ARC
  5
11B
  8
1
  6
CONTINUOUS
 62
     7
 10
2267.5455324441
 20
-125.5681886684
 30
0.0
 40
5.0
 50
299.052478
 51
10.0
  0
LINE
  5
11C
  8
1
  6
CONTINUOUS
 62
     7
 10
2244.1275814441
 20
46.7288626864
 30
0.0
 11
2258.4275814441
 21
46.7288626864
 31
0.0
  0
LINE
  5
11D
  8
1
  6
CONTINUOUS
 62
     7
 10
2251.7775814441
 20
-70.2833166684
 30
0.0
 11
2260.0601284441
 21
-65.5013856684
 31
0.0
  0
LINE
  5
11E
  8
1
  6
CONTINUOUS
 62
     7
 10
2273.7775814441
 20
66.7288626864
 30
0.0
 11
2346.2775814441
 21
66.7288626864
 31
0.0
  0
LINE
  5
11F
  8
1
  6
CONTINUOUS
 62
     7
 10
2258.4275814441
 20
42.3288626864
 30
0.0
 11
2258.4275814441
 21
59.2206746864
 31
0.0
  0
LINE
  5
120
  8
1
  6
CONTINUOUS
 62
     7
 10
2248.2775814441
 20
89.2288626864
 30
0.0
 11
2254.2775814441
 21
89.2288626864
 31
0.0
  0
LINE
  5
121
  8
1
  6
CONTINUOUS
 62
     7
 10
2158.2775814441
 20
91.7288626864
 30
0.0
 11
2237.0008104441
 21
91.7288626864
 31
0.0
  0
ARC
  5
122
  8
1
  6
CONTINUOUS
 62
     7
 10
2235.0096304441
 20
-125.5681886684
 30
0.0
 40
5.0
 50
170.0
 51
240.947522
  0
ARC
  5
123
  8
1
  6
CONTINUOUS
 62
     7
 10
2255.0275814441
 20
68.7288626864
 30
0.0
 40
10.0
 50
270.0
 51
353.3741900000001
  0
LINE
  5
124
  8
1
  6
CONTINUOUS
 62
     7
 10
2279.6942134441
 20
-117.4753066684
 30
0.0
 11
2277.9552194441
 21
-117.1686756684
 31
0.0
  0
LINE
  5
125
  8
1
  6
CONTINUOUS
 62
     7
 10
2251.5275814441
 20
42.3288626864
 30
0.0
 11
2261.0275814441
 21
42.3288626864
 31
0.0
  0
ARC
  5
126
  8
1
  6
CONTINUOUS
 62
     7
 10
2251.2775814441
 20
-96.2833166684
 30
0.0
 40
38.5
 50
150.947522
 51
209.052478
  0
LINE
  5
127
  8
1
  6
CONTINUOUS
 62
     7
 10
2261.9601644441
 20
24.7288626864
 30
0.0
 11
2263.5775814441
 21
33.9016893501
 31
0.0
  0
ARC
  5
128
  8
1
  6
CONTINUOUS
 62
     7
 10
2229.2775814441
 20
69.7288626864
 30
0.0
 40
0.5
 50
90.0
 51
168.463041
  0
LINE
  5
129
  8
1
  6
CONTINUOUS
 62
     7
 10
2251.2775814441
 20
31.4288626864
 30
0.0
 11
2251.2775814441
 21
25.0288626864
 31
0.0
  0
CIRCLE
  5
12A
  8
1
  6
CONTINUOUS
 62
     7
 10
2225.4681834441
 20
-70.4739186684
 30
0.0
 40
2.0
  0
LINE
  5
12B
  8
1
  6
CONTINUOUS
 62
     7
 10
2260.0601284441
 20
-75.0652476684
 30
0.0
 11
2251.7775814441
 21
-70.2833166684
 31
0.0
  0
LINE
  5
12C
  8
1
  6
CONTINUOUS
 62
     7
 10
2171.2775814441
 20
-105.5209206684
 30
0.0
 11
2163.2775814441
 21
-100.9021186684
 31
0.0
  0
ARC
  5
12D
  8
1
  6
CONTINUOUS
 62
     7
 10
2251.2775814441
 20
-96.2833166684
 30
0.0
 40
38.5
 50
330.947522
 51
29.05247800000001
  0
LINE
  5
12E
  8
1
  6
CONTINUOUS
 62
     7
 10
2293.4342834441
 20
-82.0333166684
 30
0.0
 11
2346.2775814441
 21
-82.0333166684
 31
0.0
  0
LINE
  5
12F
  8
1
  6
CONTINUOUS
 62
     7
 10
2265.5543524441
 20
91.7288626864
 30
0.0
 11
2344.2775814441
 21
91.7288626864
 31
0.0
  0
LINE
  5
130
  8
1
  6
CONTINUOUS
 62
     7
 10
2251.0275814441
 20
-70.7163296684
 30
0.0
 11
2251.0275814441
 21
-80.2801916684
 31
0.0
  0
LINE
  5
131
  8
1
  6
CONTINUOUS
 62
     7
 10
2251.2775814441
 20
-87.0457126684
 30
0.0
 11
2243.2775814441
 21
-91.6645146684
 31
0.0
  0
ARC
  5
132
  8
1
  6
CONTINUOUS
 62
     7
 10
2251.2775814441
 20
-70.2833166684
 30
0.0
 40
10.0
 50
328.567456
 51
331.432544
  0
LINE
  5
133
  8
1
  6
CONTINUOUS
 62
     7
 10
2251.5275814441
 20
-70.7163296684
 30
0.0
 11
2259.8101284441
 21
-75.4982606684
 31
0.0
  0
ARC
  5
134
  8
1
  6
CONTINUOUS
 62
     7
 10
2251.2775814441
 20
-96.2833166684
 30
0.0
 40
38.5
 50
240.947522
 51
299.052478
  0
LINE
  5
135
  8
1
  6
CONTINUOUS
 62
     7
 10
2179.2775814441
 20
-100.9021186684
 30
0.0
 11
2171.2775814441
 21
-105.5209206684
 31
0.0
  0
LINE
  5
136
  8
1
  6
CONTINUOUS
 62
     7
 10
2263.8275814441
 20
44.0288626864
 30
0.0
 11
2266.3275814441
 21
44.0288626864
 31
0.0
  0
ARC
  5
137
  8
1
  6
CONTINUOUS
 62
     7
 10
2277.0869794441
 20
-70.4739186684
 30
0.0
 40
5.0
 50
170.0
 51
280.0
  0
ARC
  5
138
  8
1
  6
CONTINUOUS
 62
     7
 10
2280.5624534441
 20
-112.5512676684
 30
0.0
 40
5.0
 50
260.0
 51
330.947522
  0
CIRCLE
  5
139
  8
1
  6
CONTINUOUS
 62
     7
 10
2277.0869794441
 20
-122.0927146684
 30
0.0
 40
2.0
  0
ARC
  5
13A
  8
1
  6
CONTINUOUS
 62
     7
 10
2264.0275814441
 20
23.7288626864
 30
0.0
 40
1.0
 50
0.0
 51
90.0
  0
LINE
  5
13B
  8
1
  6
CONTINUOUS
 62
     7
 10
2261.0275814441
 20
59.2206746864
 30
0.0
 11
2261.0275814441
 21
42.0288626864
 31
0.0
  0
LINE
  5
13C
  8
1
  6
CONTINUOUS
 62
     7
 10
2266.3275814441
 20
57.4288626864
 30
0.0
 11
2263.8275814441
 21
57.4288626864
 31
0.0
  0
LINE
  5
13D
  8
1
  6
CONTINUOUS
 62
     7
 10
2239.5275814441
 20
62.7288626864
 30
0.0
 11
2238.9775814441
 21
62.7288626864
 31
0.0
  0
LINE
  5
13E
  8
1
  6
CONTINUOUS
 62
     7
 10
2243.2775814441
 20
-91.6645146684
 30
0.0
 11
2243.2775814441
 21
-100.9021186684
 31
0.0
  0
LINE
  5
13F
  8
1
  6
CONTINUOUS
 62
     7
 10
2247.5275814441
 20
58.7288626864
 30
0.0
 11
2255.0275814441
 21
58.7288626864
 31
0.0
  0
LINE
  5
140
  8
1
  6
CONTINUOUS
 62
     7
 10
2277.9552194441
 20
-75.3979576684
 30
0.0
 11
2279.6942134441
 21
-75.0913266684
 31
0.0
  0
LINE
  5
141
  8
1
  6
CONTINUOUS
 62
     7
 10
2224.5999434441
 20
-117.1686756684
 30
0.0
 11
2222.8609494441
 21
-117.4753066684
 31
0.0
  0
LINE
  5
142
  8
1
  6
CONTINUOUS
 62
     7
 10
2222.8609494441
 20
-75.0913266684
 30
0.0
 11
2224.5999434441
 21
-75.3979576684
 31
0.0
  0
LINE
  5
143
  8
1
  6
CONTINUOUS
 62
     7
 10
2241.2775814441
 20
60.9226156864
 30
0.0
 11
2241.2775814441
 21
34.1029133531
 31
0.0
  0
LINE
  5
144
  8
1
  6
CONTINUOUS
 62
     7
 10
2259.2775814441
 20
-91.6645146684
 30
0.0
 11
2251.2775814441
 21
-87.0457126684
 31
0.0
  0
ARC
  5
145
  8
1
  6
CONTINUOUS
 62
     7
 10
2225.4681834441
 20
-122.0927146684
 30
0.0
 40
5.0
 50
349.9999999999999
 51
100.0
  0
LINE
  5
146
  8
1
  6
CONTINUOUS
 62
     7
 10
2254.2775814441
 20
89.2288626864
 30
0.0
 11
2265.5543524441
 21
91.7288626864
 31
0.0
  0
ARC
  5
147
  8
1
  6
CONTINUOUS
 62
     7
 10
2225.4681834441
 20
-70.4739186684
 30
0.0
 40
5.0
 50
260.0
 51
10.0
  0
CIRCLE
  5
148
  8
1
  6
CONTINUOUS
 62
     7
 10
2225.4681834441
 20
-122.0927146684
 30
0.0
 40
2.0
  0
ARC
  5
149
  8
1
  6
CONTINUOUS
 62
     7
 10
2221.9927094441
 20
-112.5512676684
 30
0.0
 40
5.0
 50
209.052478
 51
280.0
  0
LINE
  5
14A
  8
1
  6
CONTINUOUS
 62
     7
 10
2251.2775814441
 20
-105.5209206684
 30
0.0
 11
2259.2775814441
 21
-100.9021186684
 31
0.0
  0
LINE
  5
14B
  8
1
  6
CONTINUOUS
 62
     7
 10
2275.7775814441
 20
75.1288626864
 30
0.0
 11
2257.6052984441
 21
75.1288626864
 31
0.0
  0
LINE
  5
14C
  8
1
  6
CONTINUOUS
 62
     7
 10
2273.7674794441
 20
69.8288626864
 30
0.0
 11
2273.7775814441
 21
69.7288626864
 31
0.0
  0
LINE
  5
14D
  8
1
  6
CONTINUOUS
 62
     7
 10
2228.7775814441
 20
69.7288626864
 30
0.0
 11
2228.7775814441
 21
66.7288626864
 31
0.0
  0
LINE
  5
14E
  8
1
  6
CONTINUOUS
 62
     7
 10
2223.7775814441
 20
78.1288626864
 30
0.0
 11
2223.7775814441
 21
83.2288626864
 31
0.0
  0
LINE
  5
14F
  8
1
  6
CONTINUOUS
 62
     7
 10
2156.2775814441
 20
66.7288626864
 30
0.0
 11
2228.7775814441
 21
66.7288626864
 31
0.0
  0
ARC
  5
150
  8
1
  6
CONTINUOUS
 62
     7
 10
2226.7775814441
 20
78.1288626864
 30
0.0
 40
3.0
 50
180.0
 51
270.0
  0
LINE
  5
151
  8
1
  6
CONTINUOUS
 62
     7
 10
2259.2775814441
 20
-100.9021186684
 30
0.0
 11
2259.2775814441
 21
-91.6645146684
 31
0.0
  0
LINE
  5
152
  8
1
  6
CONTINUOUS
 62
     7
 10
2251.0275814441
 20
-60.2864416684
 30
0.0
 11
2251.0275814441
 21
-69.8503036684
 31
0.0
  0
ARC
  5
153
  8
1
  6
CONTINUOUS
 62
     7
 10
2275.7775814441
 20
83.2288626864
 30
0.0
 40
3.0
 50
0.0
 51
90.0
  0
LINE
  5
154
  8
1
  6
CONTINUOUS
 62
     7
 10
2191.2775814441
 20
-101.3833166684
 30
0.0
 11
2178.4441224441
 21
-101.3833166684
 31
0.0
  0
LINE
  5
155
  8
1
  6
CONTINUOUS
 62
     7
 10
2311.2775814441
 20
-101.3833166684
 30
0.0
 11
2324.1110404441
 21
-101.3833166684
 31
0.0
  0
LINE
  5
156
  8
1
  6
CONTINUOUS
 62
     7
 10
2163.2775814441
 20
-91.6645146684
 30
0.0
 11
2171.2775814441
 21
-87.0457126684
 31
0.0
  0
ARC
  5
157
  8
1
  6
CONTINUOUS
 62
     7
 10
2251.2775814441
 20
68.7288626864
 30
0.0
 40
9.0
 50
45.32539000000001
 51
134.67461
  0
LINE
  5
158
  8
1
  6
CONTINUOUS
 62
     7
 10
2241.2775814441
 20
34.1029133531
 30
0.0
 11
2242.8775814441
 21
25.0288626864
 31
0.0
  0
LINE
  5
159
  8
1
  6
CONTINUOUS
 62
     7
 10
2237.0008104441
 20
91.7288626864
 30
0.0
 11
2248.2775814441
 21
89.2288626864
 31
0.0
  0
LINE
  5
15A
  8
1
  6
CONTINUOUS
 62
     7
 10
2263.5775814441
 20
33.9016891854
 30
0.0
 11
2263.5775814441
 21
62.7288626864
 31
0.0
  0
ARC
  5
15B
  8
1
  6
CONTINUOUS
 62
     7
 10
2267.9407534441
 20
67.2288626864
 30
0.0
 40
3.0
 50
90.0
 51
173.37419
  0
LINE
  5
15C
  8
1
  6
CONTINUOUS
 62
     7
 10
2228.7775814441
 20
69.7288626864
 30
0.0
 11
2228.7876834441
 21
69.8288626864
 31
0.0
  0
LINE
  5
15D
  8
1
  6
CONTINUOUS
 62
     7
 10
2233.4775814441
 20
44.2288626864
 30
0.0
 11
2238.9775814441
 21
44.2288626864
 31
0.0
  0
ARC
  5
15E
  8
1
  6
CONTINUOUS
 62
     7
 10
2273.2775814441
 20
69.7288626864
 30
0.0
 40
0.5
 50
11.536959
 51
90.0
  0
ARC
  5
15F
  8
1
  6
CONTINUOUS
 62
     7
 10
2226.7775814441
 20
83.2288626864
 30
0.0
 40
3.0
 50
90.0
 51
180.0
  0
ARC
  5
160
  8
1
  6
CONTINUOUS
 62
     7
 10
2251.2775814441
 20
-70.2833166684
 30
0.0
 40
10.0
 50
88.567456
 51
91.432544
  0
ARC
  5
161
  8
1
  6
CONTINUOUS
 62
     7
 10
2311.2775814441
 20
-96.2833166684
 30
0.0
 40
5.1
 50
90.0
 51
270.0
  0
LINE
  5
162
  8
1
  6
CONTINUOUS
 62
     7
 10
2339.2775814441
 20
-91.6645146684
 30
0.0
 11
2339.2775814441
 21
-100.9021186684
 31
0.0
  0
LINE
  5
163
  8
1
  6
CONTINUOUS
 62
     7
 10
2273.2775814441
 20
70.2288626864
 30
0.0
 11
2267.9407534441
 21
70.2288626864
 31
0.0
  0
LINE
  5
164
  8
1
  6
CONTINUOUS
 62
     7
 10
2166.5275814441
 20
286.7288626864
 30
0.0
 11
2166.5275814441
 21
284.3288626864
 31
0.0
  0
LINE
  5
165
  8
1
  6
CONTINUOUS
 62
     7
 10
2176.0275814441
 20
284.3288626864
 30
0.0
 11
2176.0275814441
 21
286.7288626864
 31
0.0
  0
LINE
  5
166
  8
1
  6
CONTINUOUS
 62
     7
 10
2326.5275814441
 20
286.7288626864
 30
0.0
 11
2326.5275814441
 21
284.3288626864
 31
0.0
  0
LINE
  5
167
  8
1
  6
CONTINUOUS
 62
     7
 10
2336.0275814441
 20
284.3288626864
 30
0.0
 11
2336.0275814441
 21
286.7288626864
 31
0.0
  0
TEXT
  5
168
  8
1
  6
CONTINUOUS
 62
     7
 10
2233.623498802864
 20
-180.8578627272727
 30
0.0
 40
6.0
  1
ＳＧＰＪ－１５
 41
0.810811
  0
LINE
  5
169
  8
1
  6
CONTINUOUS
 62
     7
 10
2162.7775814441
 20
284.3288626864
 30
0.0
 11
2162.7775814441
 21
276.3288626864
 31
0.0
  0
LINE
  5
16A
  8
1
  6
CONTINUOUS
 62
     7
 10
2171.2775814441
 20
284.3288626864
 30
0.0
 11
2171.2775814441
 21
276.3288626864
 31
0.0
  0
LINE
  5
16B
  8
1
  6
CONTINUOUS
 62
     7
 10
2179.7775814441
 20
284.3288626864
 30
0.0
 11
2179.7775814441
 21
276.3288626864
 31
0.0
  0
LINE
  5
16C
  8
1
  6
CONTINUOUS
 62
     7
 10
2322.7775814441
 20
276.3288626864
 30
0.0
 11
2322.7775814441
 21
284.3288626864
 31
0.0
  0
LINE
  5
16D
  8
1
  6
CONTINUOUS
 62
     7
 10
2339.7775814441
 20
284.3288626864
 30
0.0
 11
2339.7775814441
 21
276.3288626864
 31
0.0
  0
LINE
  5
16E
  8
1
  6
CONTINUOUS
 62
     7
 10
2162.7775814441
 20
284.3288626864
 30
0.0
 11
2179.7775814441
 21
284.3288626864
 31
0.0
  0
LINE
  5
16F
  8
1
  6
CONTINUOUS
 62
     7
 10
2322.7775814441
 20
284.3288626864
 30
0.0
 11
2339.7775814441
 21
284.3288626864
 31
0.0
  0
LINE
  5
170
  8
1
  6
CONTINUOUS
 62
     7
 10
2331.2775814441
 20
284.3288626864
 30
0.0
 11
2331.2775814441
 21
276.3288626864
 31
0.0
  0
INSERT
  5
172
  8
0
 62
     7
  2
D_FRAME_DRAWING_21
 10
0.0
 20
0.0
 30
0.0
  0
ENDSEC
  0
EOF
